0
SECTION
2
HEADER
9
$INSUNITS
70
4
9
$ACADVER
1
AC1014
9
$HANDSEED
5
FFFF
0
ENDSEC
0
SECTION
2
TABLES
0
TABLE
2
VPORT
5
8
100
AcDbSymbolTable
0
ENDTAB
0
TABLE
2
LTYPE
5
5
100
AcDbSymbolTable
0
LTYPE
5
14
100
AcDbSymbolTableRecord
100
AcDbLinetypeTableRecord
2
BYBLOCK
70
0
0
LTYPE
5
15
100
AcDbSymbolTableRecord
100
AcDbLinetypeTableRecord
2
BYLAYER
70
0
0
ENDTAB
0
TABLE
2
LAYER
5
2
100
AcDbSymbolTable
70
2
0
LAYER
5
50
100
AcDbSymbolTableRecord
100
AcDbLayerTableRecord
2
0
70
0
6
CONTINUOUS
0
ENDTAB
0
TABLE
2
STYLE
5
3
100
AcDbSymbolTable
70
1
0
STYLE
5
11
100
AcDbSymbolTableRecord
100
AcDbTextStyleTableRecord
2
STANDARD
70
0
0
ENDTAB
0
TABLE
2
VIEW
5
6
100
AcDbSymbolTable
70
0
0
ENDTAB
0
TABLE
2
UCS
5
7
100
AcDbSymbolTable
70
0
0
ENDTAB
0
TABLE
2
APPID
5
9
100
AcDbSymbolTable
70
2
0
APPID
5
12
100
AcDbSymbolTableRecord
100
AcDbRegAppTableRecord
2
ACAD
70
0
0
ENDTAB
0
TABLE
2
DIMSTYLE
5
A
100
AcDbSymbolTable
70
1
0
ENDTAB
0
TABLE
2
BLOCK_RECORD
5
1
100
AcDbSymbolTable
70
1
0
BLOCK_RECORD
5
1F
100
AcDbSymbolTableRecord
100
AcDbBlockTableRecord
2
*MODEL_SPACE
0
BLOCK_RECORD
5
1B
100
AcDbSymbolTableRecord
100
AcDbBlockTableRecord
2
*PAPER_SPACE
0
ENDTAB
0
ENDSEC
0
SECTION
2
BLOCKS
0
BLOCK
5
20
100
AcDbEntity
100
AcDbBlockBegin
2
*MODEL_SPACE
0
ENDBLK
5
21
100
AcDbEntity
100
AcDbBlockEnd
0
BLOCK
5
1C
100
AcDbEntity
100
AcDbBlockBegin
2
*PAPER_SPACE
0
ENDBLK
5
1D
100
AcDbEntity
100
AcDbBlockEnd
0
ENDSEC
0
SECTION
2
ENTITIES
0
LWPOLYLINE
5
100
100
AcDbEntity
8
0
100
AcDbPolyline
90
14
70
1
43
0.0
10
0.76460417327591124
20
96.981409630765128
42
-0.34552533750342196
10
124.23399192837799
20
97.036494312443082
42
-0.2304220006409399
10
125
20
95.462561683421754
10
125
20
91.141098093474085
42
-0.21821789023599286
10
125
20
33.858901906525929
10
125
20
1.9999999999999998
42
-0.41421356237309681
10
123
20
-2.7755575615628914e-16
10
91.141098093474042
20
-8.8817841970012523e-15
42
-0.21821789023599261
10
33.858901906525965
20
0
10
1.9999999999999998
20
0
42
-0.41421356237309537
10
-5.5511151231257827e-16
20
2.0000000000000018
10
-4.4408920985006262e-15
20
33.858901906525958
42
-0.21821789023599261
10
-1.1102230246251565e-15
20
91.141098093474042
10
-1.6653345369377348e-15
20
95.408578695377344
42
-0.23018709877243415
0
LINE
5
101
100
AcDbEntity
8
0
100
AcDbLine
10
106.057225
20
67.979092000000009
30
0
11
106.057225
21
57.169249000000008
31
0
0
SPLINE
5
102
100
AcDbEntity
8
0
100
AcDbSpline
70
1064
71
3
72
8
73
4
74
0
42
0.000000001
43
0.0000000001
44
0.0000000001
40
0
40
0
40
0
40
0
40
0.57005536114483901
40
0.57005536114483901
40
0.57005536114483901
40
0.57005536114483901
10
118.70343610433144
20
62.375991537008872
30
0
10
118.54730093372777
20
62.243872114436691
30
0
10
118.36913492322908
20
62.177812403150597
30
0
10
118.16893807283542
20
62.177812403150597
30
0
0
LINE
5
103
100
AcDbEntity
8
0
100
AcDbLine
10
111.08242199999999
20
63.631159000000004
30
0
11
116.94383999999999
21
63.631159000000004
31
0
0
SPLINE
5
104
100
AcDbEntity
8
0
100
AcDbSpline
70
1064
71
3
72
8
73
4
74
0
42
0.000000001
43
0.0000000001
44
0.0000000001
40
0
40
0
40
0
40
0
40
0.99056374334040698
40
0.99056374334040698
40
0.99056374334040698
40
0.99056374334040698
10
125.43271760039445
20
66.129387206300208
30
0
10
125.22051287598501
20
65.945200854594162
30
0
10
124.99830158989576
20
65.70097513280939
30
0
10
124.76608374212672
20
65.396710040945877
30
0
0
SPLINE
5
105
100
AcDbEntity
8
0
100
AcDbSpline
70
1064
71
3
72
8
73
4
74
0
42
0.000000001
43
0.0000000001
44
0.0000000001
40
0
40
0
40
0
40
0
40
0.16911958675666039
40
0.16911958675666039
40
0.16911958675666039
40
0.16911958675666039
10
123.99738295472514
20
57.169249411024616
30
0
10
123.99738295472514
20
57.105207416273956
30
0
10
123.98137245603749
20
57.05115557900362
30
0
10
123.94935145866215
20
57.007093899213586
30
0
0
SPLINE
5
106
100
AcDbEntity
8
0
100
AcDbSpline
70
1064
71
3
72
8
73
4
74
0
42
0.000000001
43
0.0000000001
44
0.0000000001
40
0
40
0
40
0
40
0
40
0.2854715262243489
40
0.2854715262243489
40
0.2854715262243489
40
0.2854715262243489
10
122.19575893897712
20
68.261375395276588
30
0
10
122.26783899147054
20
68.297399017323826
30
0
10
122.35991576312408
20
68.321414765355314
30
0
10
122.47198925393775
20
68.333422639371079
30
0
0
SPLINE
5
107
100
AcDbEntity
8
0
100
AcDbSpline
70
1064
71
3
72
8
73
4
74
0
42
0.000000001
43
0.0000000001
44
0.0000000001
40
0
40
0
40
0
40
0
40
0.4447546373995141
40
0.4447546373995141
40
0.4447546373995141
40
0.4447546373995141
10
122.47198925393775
20
68.333422639371079
30
0
10
122.58406274475138
20
68.345430513386816
30
0
10
122.73219266601124
20
68.351434450394692
30
0
10
122.91637901771728
20
68.351434450394692
30
0
0
SPLINE
5
108
100
AcDbEntity
8
0
100
AcDbSpline
70
1064
71
3
72
8
73
4
74
0
42
0.000000001
43
0.0000000001
44
0.0000000001
40
0
40
0
40
0
40
0
40
0.19701278980520129
40
0.19701278980520129
40
0.19701278980520129
40
0.19701278980520129
10
105.85304240354404
20
68.255371458268698
30
0
10
105.9251224560375
20
68.223350460893386
30
0
10
105.97717298097187
20
68.183307809974735
30
0
10
106.00919397834718
20
68.13524350551279
30
0
0
LINE
5
109
100
AcDbEntity
8
0
100
AcDbLine
10
118.168938
20
62.177812000000003
30
0
11
111.08242199999999
21
62.177812000000003
31
0
0
SPLINE
5
110
100
AcDbEntity
8
0
100
AcDbSpline
70
1064
71
3
72
8
73
4
74
0
42
0.000000001
43
0.0000000001
44
0.0000000001
40
0
40
0
40
0
40
0
40
1.2874619397132707
40
1.2874619397132707
40
1.2874619397132707
40
1.2874619397132707
10
111.31062114370152
20
64.898235631497045
30
0
10
111.17449909645744
20
64.493872114436684
30
0
10
111.09843282349155
20
64.071513190552167
30
0
10
111.08242232480387
20
63.631158859843502
30
0
0
SPLINE
5
111
100
AcDbEntity
8
0
100
AcDbSpline
70
1064
71
3
72
8
73
4
74
0
42
0.000000001
43
0.0000000001
44
0.0000000001
40
0
40
0
40
0
40
0
40
0.48096413075703592
40
0.48096413075703592
40
0.48096413075703592
40
0.48096413075703592
10
123.0004341358275
20
56.796906891339567
30
0
10
122.8083081515755
20
56.796906891339567
30
0
10
122.64818676049941
20
56.804912140683399
30
0
10
122.52006996259917
20
56.820922639371069
30
0
0
SPLINE
5
112
100
AcDbEntity
8
0
100
AcDbSpline
70
1064
71
3
72
8
73
4
74
0
42
0.000000001
43
0.0000000001
44
0.0000000001
40
0
40
0
40
0
40
0
40
0.19341045805219509
40
0.19341045805219509
40
0.19341045805219509
40
0.19341045805219509
10
123.94935145866215
20
57.007093899213586
30
0
10
123.91733046128681
20
56.963032219423567
30
0
10
123.86527993635244
20
56.924990880840895
30
0
10
123.79319988385902
20
56.892969883465554
30
0
0
LINE
5
113
100
AcDbEntity
8
0
100
AcDbLine
10
122.015592
20
57.169249000000008
30
0
11
122.015592
21
67.979092000000009
31
0
0
SPLINE
5
114
100
AcDbEntity
8
0
100
AcDbSpline
70
1064
71
3
72
8
73
4
74
0
42
0.000000001
43
0.0000000001
44
0.0000000001
40
0
40
0
40
0
40
0
40
0.31465856578205709
40
0.31465856578205709
40
0.31465856578205709
40
0.31465856578205709
10
122.52006996259917
20
56.820922639371069
30
0
10
122.39195316469888
20
56.83693313805874
30
0
10
122.28985342716609
20
56.860948886090227
30
0
10
122.21377075000072
20
56.892969883465554
30
0
0
SPLINE
5
115
100
AcDbEntity
8
0
100
AcDbSpline
70
1064
71
3
72
8
73
4
74
0
42
0.000000001
43
0.0000000001
44
0.0000000001
40
0
40
0
40
0
40
0
40
0.96597310826729355
40
0.96597310826729355
40
0.96597310826729355
40
0.96597310826729355
10
104.09344594685112
20
70.67554862362303
30
0
10
103.92126746916084
20
70.839721851969486
30
0
10
103.83517823031569
20
71.149990880840875
30
0
10
103.83517823031569
20
71.60635571023721
30
0
0
SPLINE
5
116
100
AcDbEntity
8
0
100
AcDbSpline
70
1064
71
3
72
8
73
4
74
0
42
0.000000001
43
0.0000000001
44
0.0000000001
40
0
40
0
40
0
40
0
40
0.70653097647292817
40
0.70653097647292817
40
0.70653097647292817
40
0.70653097647292817
10
118.93763886023694
20
63.042576182678154
30
0
10
118.93763886023694
20
62.730305841470802
30
0
10
118.85957127493513
20
62.508110959581046
30
0
10
118.70343610433144
20
62.375991537008872
30
0
0
SPLINE
5
117
100
AcDbEntity
8
0
100
AcDbSpline
70
1064
71
3
72
8
73
4
74
0
42
0.000000001
43
0.0000000001
44
0.0000000001
40
0
40
0
40
0
40
0
40
0.15962118247694621
40
0.15962118247694621
40
0.15962118247694621
40
0.15962118247694621
10
128.18320972637866
20
66.387654922835637
30
0
10
128.14718610433144
20
66.351631300788384
30
0
10
128.09712048753354
20
66.333619489764772
30
0
10
128.03301287598498
20
66.333619489764772
30
0
0
LINE
5
118
100
AcDbEntity
8
0
100
AcDbLine
10
123.99738300000003
20
64.279682000000008
30
0
11
123.99738300000003
21
57.169249000000008
31
0
0
SPLINE
5
119
100
AcDbEntity
8
0
100
AcDbSpline
70
1064
71
3
72
8
73
4
74
0
42
0.000000001
43
0.0000000001
44
0.0000000001
40
0
40
0
40
0
40
0
40
0.72456680004571339
40
0.72456680004571339
40
0.72456680004571339
40
0.72456680004571339
10
126.03926287598499
20
66.52574547401673
30
0
10
125.84710408333409
20
66.445692980578428
30
0
10
125.64492232480389
20
66.31357355800624
30
0
10
125.43271760039445
20
66.129387206300208
30
0
0
SPLINE
5
120
100
AcDbEntity
8
0
100
AcDbSpline
70
1064
71
3
72
8
73
4
74
0
42
0.000000001
43
0.0000000001
44
0.0000000001
40
0
40
0
40
0
40
0
40
0.30881719175528222
40
0.30881719175528222
40
0.30881719175528222
40
0.30881719175528222
10
123.79319988385902
20
56.892969883465554
30
0
10
123.72111983136557
20
56.860948886090227
30
0
10
123.62102140616872
20
56.83693313805874
30
0
10
123.49290460826843
20
56.820922639371069
30
0
0
SPLINE
5
121
100
AcDbEntity
8
0
100
AcDbSpline
70
1064
71
3
72
8
73
4
74
0
42
0.000000001
43
0.0000000001
44
0.0000000001
40
0
40
0
40
0
40
0
40
0.47086170805131311
40
0.47086170805131311
40
0.47086170805131311
40
0.47086170805131311
10
127.09620185236295
20
66.597792718111236
30
0
10
126.95204174737606
20
66.629813715486563
30
0
10
126.79590657677238
20
66.645824214174226
30
0
10
126.62779634055192
20
66.645824214174226
30
0
0
SPLINE
5
122
100
AcDbEntity
8
0
100
AcDbSpline
70
1064
71
3
72
8
73
4
74
0
42
0.000000001
43
0.0000000001
44
0.0000000001
40
0
40
0
40
0
40
0
40
0.98498233359273657
40
0.98498233359273657
40
0.98498233359273657
40
0.98498233359273657
10
103.83517823031569
20
71.60635571023721
30
0
10
103.83517823031569
20
72.070791405775267
30
0
10
103.9232687814968
20
72.387080775854017
30
0
10
104.09944988385902
20
72.555223820473444
30
0
0
SPLINE
5
123
100
AcDbEntity
8
0
100
AcDbSpline
70
1064
71
3
72
8
73
4
74
0
42
0.000000001
43
0.0000000001
44
0.0000000001
40
0
40
0
40
0
40
0
40
0.2403554844410539
40
0.2403554844410539
40
0.2403554844410539
40
0.2403554844410539
10
128.03301287598498
20
66.333619489764772
30
0
10
127.96897088123433
20
66.333619489764772
30
0
10
127.8909032959325
20
66.351631300788384
30
0
10
127.79881012007948
20
66.387654922835637
30
0
0
SPLINE
5
124
100
AcDbEntity
8
0
100
AcDbSpline
70
1064
71
3
72
8
73
4
74
0
42
0.000000001
43
0.0000000001
44
0.0000000001
40
0
40
0
40
0
40
0
40
0.49305569906423097
40
0.49305569906423097
40
0.49305569906423097
40
0.49305569906423097
10
123.49290460826843
20
56.820922639371069
30
0
10
123.3647878103682
20
56.804912140683399
30
0
10
123.20063098622121
20
56.796906891339567
30
0
10
123.0004341358275
20
56.796906891339567
30
0
0
SPLINE
5
125
100
AcDbEntity
8
0
100
AcDbSpline
70
1064
71
3
72
8
73
4
74
0
42
0.000000001
43
0.0000000001
44
0.0000000001
40
0
40
0
40
0
40
0
40
0.16337178130739641
40
0.16337178130739641
40
0.16337178130739641
40
0.16337178130739641
10
106.00919397834718
20
68.13524350551279
30
0
10
106.04121497572253
20
68.087179201050844
30
0
10
106.05722547441016
20
68.035128676116472
30
0
10
106.05722547441016
20
67.979091930709657
30
0
0
SPLINE
5
126
100
AcDbEntity
8
0
100
AcDbSpline
70
1064
71
3
72
8
73
4
74
0
42
0.000000001
43
0.0000000001
44
0.0000000001
40
0
40
0
40
0
40
0
40
0.44460116144951811
40
0.44460116144951811
40
0.44460116144951811
40
0.44460116144951811
10
128.33330815157549
20
67.270430513386827
30
0
10
128.33330815157549
20
67.094249411024606
30
0
10
128.3293055269036
20
66.946103085565284
30
0
10
128.32130027755974
20
66.825991537008875
30
0
0
SPLINE
5
127
100
AcDbEntity
8
0
100
AcDbSpline
70
1064
71
3
72
8
73
4
74
0
42
0.000000001
43
0.0000000001
44
0.0000000001
40
0
40
0
40
0
40
0
40
1.2092700345518002
40
1.2092700345518002
40
1.2092700345518002
40
1.2092700345518002
10
111.88714673425274
20
65.961227757481296
30
0
10
111.638918387796
20
65.656929857218842
30
0
10
111.4467431909456
20
65.30259914855742
30
0
10
111.31062114370152
20
64.898235631497045
30
0
0
SPLINE
5
128
100
AcDbEntity
8
0
100
AcDbSpline
70
1064
71
3
72
8
73
4
74
0
42
0.000000001
43
0.0000000001
44
0.0000000001
40
0
40
0
40
0
40
0
40
0.28629215427299293
40
0.28629215427299293
40
0.28629215427299293
40
0.28629215427299293
10
128.32130027755974
20
66.825991537008875
30
0
10
128.31329502821598
20
66.705879988452438
30
0
10
128.29728452952827
20
66.611801904462936
30
0
10
128.27326878149677
20
66.543757285040371
30
0
0
SPLINE
5
129
100
AcDbEntity
8
0
100
AcDbSpline
70
1064
71
3
72
8
73
4
74
0
42
0.000000001
43
0.0000000001
44
0.0000000001
40
0
40
0
40
0
40
0
40
0.98493492545503136
40
0.98493492545503136
40
0.98493492545503136
40
0.98493492545503136
10
106.28547350590624
20
71.630371458268712
30
0
10
106.28547350590624
20
71.166001379528552
30
0
10
106.19738295472514
20
70.849728413649288
30
0
10
106.02120185236295
20
70.681552560630919
30
0
0
SPLINE
5
130
100
AcDbEntity
8
0
100
AcDbSpline
70
1064
71
3
72
8
73
4
74
0
42
0.000000001
43
0.0000000001
44
0.0000000001
40
0
40
0
40
0
40
0
40
0.98606823070141159
40
0.98606823070141159
40
0.98606823070141159
40
0.98606823070141159
10
105.04826878149679
20
70.429288781103338
30
0
10
104.58389870275664
20
70.429288781103338
30
0
10
104.26562442454141
20
70.511375395276573
30
0
10
104.09344594685112
20
70.67554862362303
30
0
0
SPLINE
5
131
100
AcDbEntity
8
0
100
AcDbSpline
70
1064
71
3
72
8
73
4
74
0
42
0.000000001
43
0.0000000001
44
0.0000000001
40
0
40
0
40
0
40
0
40
1.0049972316308879
40
1.0049972316308879
40
1.0049972316308879
40
1.0049972316308879
10
104.09944988385902
20
72.555223820473444
30
0
10
104.27563098622122
20
72.723366865092856
30
0
10
104.59990920144428
20
72.80743838740257
30
0
10
105.07228452952829
20
72.80743838740257
30
0
0
SPLINE
5
132
100
AcDbEntity
8
0
100
AcDbSpline
70
1064
71
3
72
8
73
4
74
0
42
0.000000001
43
0.0000000001
44
0.0000000001
40
0
40
0
40
0
40
0
40
0.98615124944677079
40
0.98615124944677079
40
0.98615124944677079
40
0.98615124944677079
10
105.07228452952829
20
72.80743838740257
30
0
10
105.53672022506638
20
72.80743838740257
30
0
10
105.8550273116805
20
72.725368177428805
30
0
10
106.02720578937081
20
72.561227757481305
30
0
0
SPLINE
5
133
100
AcDbEntity
8
0
100
AcDbSpline
70
1064
71
3
72
8
73
4
74
0
42
0.000000001
43
0.0000000001
44
0.0000000001
40
0
40
0
40
0
40
0
40
0.19341045805220661
40
0.19341045805220661
40
0.19341045805220661
40
0.19341045805220661
10
122.21377075000072
20
56.892969883465554
30
0
10
122.13768807283536
20
56.924990880840895
30
0
10
122.085637547901
20
56.963032219423567
30
0
10
122.05761917519757
20
57.007093899213586
30
0
0
SPLINE
5
134
100
AcDbEntity
8
0
100
AcDbSpline
70
1064
71
3
72
8
73
4
74
0
42
0.000000001
43
0.0000000001
44
0.0000000001
40
0
40
0
40
0
40
0
40
0.60065842435859673
40
0.60065842435859673
40
0.60065842435859673
40
0.60065842435859673
10
126.62779634055192
20
66.645824214174226
30
0
10
126.4275994901582
20
66.645824214174226
30
0
10
126.2314216686359
20
66.605797967455061
30
0
10
126.03926287598499
20
66.52574547401673
30
0
0
SPLINE
5
135
100
AcDbEntity
8
0
100
AcDbSpline
70
1064
71
3
72
8
73
4
74
0
42
0.000000001
43
0.0000000001
44
0.0000000001
40
0
40
0
40
0
40
0
40
0.16751335985773111
40
0.16751335985773111
40
0.16751335985773111
40
0.16751335985773111
10
122.05761917519757
20
57.007093899213586
30
0
10
122.02960080249417
20
57.05115557900362
30
0
10
122.01559161614244
20
57.105207416273956
30
0
10
122.01559161614244
20
57.169249411024616
30
0
0
SPLINE
5
136
100
AcDbEntity
8
0
100
AcDbSpline
70
1064
71
3
72
8
73
4
74
0
42
0.000000001
43
0.0000000001
44
0.0000000001
40
0
40
0
40
0
40
0
40
0.40347758491126218
40
0.40347758491126218
40
0.40347758491126218
40
0.40347758491126218
10
127.48655618307161
20
66.495725788977353
30
0
10
127.37048006758606
20
66.53174941102462
30
0
10
127.24036195734982
20
66.56577172073591
30
0
10
127.09620185236295
20
66.597792718111236
30
0
0
SPLINE
5
137
100
AcDbEntity
8
0
100
AcDbSpline
70
1064
71
3
72
8
73
4
74
0
42
0.000000001
43
0.0000000001
44
0.0000000001
40
0
40
0
40
0
40
0
40
0.187638299688555
40
0.187638299688555
40
0.187638299688555
40
0.187638299688555
10
122.05161523818973
20
68.14124744252068
30
0
10
122.0756309862212
20
68.185309122310699
30
0
10
122.1236788864837
20
68.225351773229335
30
0
10
122.19575893897712
20
68.261375395276588
30
0
0
SPLINE
5
138
100
AcDbEntity
8
0
100
AcDbSpline
70
1064
71
3
72
8
73
4
74
0
42
0.000000001
43
0.0000000001
44
0.0000000001
40
0
40
0
40
0
40
0
40
0.30881719175528383
40
0.30881719175528383
40
0.30881719175528383
40
0.30881719175528383
10
105.55274712795351
20
68.327418702363204
30
0
10
105.68086392585373
20
68.311408203675526
30
0
10
105.78096235105059
20
68.287392455644039
30
0
10
105.85304240354404
20
68.255371458268698
30
0
0
SPLINE
5
139
100
AcDbEntity
8
0
100
AcDbSpline
70
1064
71
3
72
8
73
4
74
0
42
0.000000001
43
0.0000000001
44
0.0000000001
40
0
40
0
40
0
40
0
40
0.18021814807245071
40
0.18021814807245071
40
0.18021814807245071
40
0.18021814807245071
10
128.27326878149677
20
66.543757285040371
30
0
10
128.24925303346529
20
66.475712665617792
30
0
10
128.21923334842592
20
66.423678544882875
30
0
10
128.18320972637866
20
66.387654922835637
30
0
0
SPLINE
5
140
100
AcDbEntity
8
0
100
AcDbSpline
70
1064
71
3
72
8
73
4
74
0
42
0.000000001
43
0.0000000001
44
0.0000000001
40
0
40
0
40
0
40
0
40
1.0051048576375332
40
1.0051048576375332
40
1.0051048576375332
40
1.0051048576375332
10
106.02120185236295
20
70.681552560630919
30
0
10
105.84502075000074
20
70.513376707612537
30
0
10
105.5207097263787
20
70.429288781103338
30
0
10
105.04826878149679
20
70.429288781103338
30
0
0
SPLINE
5
141
100
AcDbEntity
8
0
100
AcDbSpline
70
1064
71
3
72
8
73
4
74
0
42
0.000000001
43
0.0000000001
44
0.0000000001
40
0
40
0
40
0
40
0
40
0.96602052938237082
40
0.96602052938237082
40
0.96602052938237082
40
0.96602052938237082
10
106.02720578937081
20
72.561227757481305
30
0
10
106.19938426706108
20
72.397087337533804
30
0
10
106.28547350590624
20
72.086801904462931
30
0
10
106.28547350590624
20
71.630371458268712
30
0
0
SPLINE
5
142
100
AcDbEntity
8
0
100
AcDbSpline
70
1064
71
3
72
8
73
4
74
0
42
0.000000001
43
0.0000000001
44
0.0000000001
40
0
40
0
40
0
40
0
40
1.3559688301138886
40
1.3559688301138886
40
1.3559688301138886
40
1.3559688301138886
10
124.76608374212672
20
65.396710040945877
30
0
10
124.53386589435767
20
65.092444949082363
30
0
10
124.27763229855715
20
64.720102429397315
30
0
10
123.99738295472514
20
64.27968248189076
30
0
0
SPLINE
5
143
100
AcDbEntity
8
0
100
AcDbSpline
70
1064
71
3
72
8
73
4
74
0
42
0.000000001
43
0.0000000001
44
0.0000000001
40
0
40
0
40
0
40
0
40
0.16610873353348379
40
0.16610873353348379
40
0.16610873353348379
40
0.16610873353348379
10
122.01559161614244
20
67.979091930709657
30
0
10
122.01559161614244
20
68.04313392546031
30
0
10
122.02759949015821
20
68.097185762730646
30
0
10
122.05161523818973
20
68.14124744252068
30
0
0
SPLINE
5
144
100
AcDbEntity
8
0
100
AcDbSpline
70
1064
71
3
72
8
73
4
74
0
42
0.000000001
43
0.0000000001
44
0.0000000001
40
0
40
0
40
0
40
0
40
0.33042674420442542
40
0.33042674420442542
40
0.33042674420442542
40
0.33042674420442542
10
127.79881012007948
20
66.387654922835637
30
0
10
127.70671694422646
20
66.423678544882875
30
0
10
127.60263229855717
20
66.459702166930128
30
0
10
127.48655618307161
20
66.495725788977353
30
0
0
SPLINE
5
145
100
AcDbEntity
8
0
100
AcDbSpline
70
1064
71
3
72
8
73
4
74
0
42
0.000000001
43
0.0000000001
44
0.0000000001
40
0
40
0
40
0
40
0
40
1.4518349287225081
40
1.4518349287225081
40
1.4518349287225081
40
1.4518349287225081
10
115.84482389960705
20
56.754830119686027
30
0
10
115.39239607808472
20
56.678747442520674
30
0
10
114.90994857152307
20
56.640706103937994
30
0
10
114.39748137992203
20
56.640706103937994
30
0
0
SPLINE
5
146
100
AcDbEntity
8
0
100
AcDbSpline
70
1064
71
3
72
8
73
4
74
0
42
0.000000001
43
0.0000000001
44
0.0000000001
40
0
40
0
40
0
40
0
40
2.5300237916699007
40
2.5300237916699007
40
2.5300237916699007
40
2.5300237916699007
10
108.99256012007947
20
62.526139174804136
30
0
10
108.99256012007947
20
63.454944949082346
30
0
10
109.11267166863594
20
64.289689043570533
30
0
10
109.35289476574879
20
65.030371458268689
30
0
0
SPLINE
5
147
100
AcDbEntity
8
0
100
AcDbSpline
70
1064
71
3
72
8
73
4
74
0
42
0.000000001
43
0.0000000001
44
0.0000000001
40
0
40
0
40
0
40
0
40
2.1895184288796901
40
2.1895184288796901
40
2.1895184288796901
40
2.1895184288796901
10
112.03129043504013
20
68.105174607875014
30
0
10
112.67187442454141
20
68.381421327035113
30
0
10
113.38852468700858
20
68.519544686615163
30
0
10
114.18124122244171
20
68.519544686615163
30
0
0
SPLINE
5
148
100
AcDbEntity
8
0
100
AcDbSpline
70
1064
71
3
72
8
73
4
74
0
42
0.000000001
43
0.0000000001
44
0.0000000001
40
0
40
0
40
0
40
0
40
0.44469020786106939
40
0.44469020786106939
40
0.44469020786106939
40
0.44469020786106939
10
117.7305030334653
20
58.940853741733278
30
0
10
117.91865920144431
20
59.024941668242462
30
0
10
118.06080158989576
20
59.066985631497062
30
0
10
118.15693019881964
20
59.066985631497062
30
0
0
SPLINE
5
149
100
AcDbEntity
8
0
100
AcDbSpline
70
1064
71
3
72
8
73
4
74
0
42
0.000000001
43
0.0000000001
44
0.0000000001
40
0
40
0
40
0
40
0
40
0.2404145038161051
40
0.2404145038161051
40
0.2404145038161051
40
0.2404145038161051
10
118.40914476574878
20
58.898826182678157
30
0
10
118.43319332217922
20
58.84275662887238
30
0
10
118.45122153740232
20
58.764672639371071
30
0
10
118.46322941141807
20
58.664574214174216
30
0
0
SPLINE
5
150
100
AcDbEntity
8
0
100
AcDbSpline
70
1064
71
3
72
8
73
4
74
0
42
0.000000001
43
0.0000000001
44
0.0000000001
40
0
40
0
40
0
40
0
40
2.3656088374000857
40
2.3656088374000857
40
2.3656088374000857
40
2.3656088374000857
10
114.39748137992203
20
56.640706103937994
30
0
10
113.50870185236292
20
56.640706103937994
30
0
10
112.72999450328157
20
56.764820277166343
30
0
10
112.0613593326779
20
57.013048623623035
30
0
0
SPLINE
5
151
100
AcDbEntity
8
0
100
AcDbSpline
70
1064
71
3
72
8
73
4
74
0
42
0.000000001
43
0.0000000001
44
0.0000000001
40
0
40
0
40
0
40
0
40
0.4462230699458879
40
0.4462230699458879
40
0.4462230699458879
40
0.4462230699458879
10
118.27100500196926
20
57.523580119686031
30
0
10
118.22697613057815
20
57.479551248294953
30
0
10
118.09685802034194
20
57.407487600000991
30
0
10
117.88065067126058
20
57.307389174804143
30
0
0
SPLINE
5
152
100
AcDbEntity
8
0
100
AcDbSpline
70
1064
71
3
72
8
73
4
74
0
42
0.000000001
43
0.0000000001
44
0.0000000001
40
0
40
0
40
0
40
0
40
0.31465856578205709
40
0.31465856578205709
40
0.31465856578205709
40
0.31465856578205709
10
98.879420356299931
20
56.892969883465554
30
0
10
98.803337679134572
20
56.860948886090227
30
0
10
98.701237941601789
20
56.83693313805874
30
0
10
98.57312114370157
20
56.820922639371069
30
0
0
SPLINE
5
153
100
AcDbEntity
8
0
100
AcDbSpline
70
1064
71
3
72
8
73
4
74
0
42
0.000000001
43
0.0000000001
44
0.0000000001
40
0
40
0
40
0
40
0
40
0.31465856578207108
40
0.31465856578207108
40
0.31465856578207108
40
0.31465856578207108
10
97.612294372047984
20
56.820922639371069
30
0
10
97.484177574147722
20
56.83693313805874
30
0
10
97.382077836614926
20
56.860948886090227
30
0
10
97.305995159449566
20
56.892969883465554
30
0
0
SPLINE
5
154
100
AcDbEntity
8
0
100
AcDbSpline
70
1064
71
3
72
8
73
4
74
0
42
0.000000001
43
0.0000000001
44
0.0000000001
40
0
40
0
40
0
40
0
40
0.77033879998712362
40
0.77033879998712362
40
0.77033879998712362
40
0.77033879998712362
10
100.71116248228421
20
72.038737600000999
30
0
10
100.41483702296665
20
72.038737600000999
30
0
10
100.16258964763857
20
71.990706103937995
30
0
10
99.954420356299934
20
71.894643111812002
30
0
0
LINE
5
155
100
AcDbEntity
8
0
100
AcDbLine
10
97.095807999999991
20
66.645824000000005
30
0
11
95.570414000000014
21
66.645824000000005
31
0
0
SPLINE
5
156
100
AcDbEntity
8
0
100
AcDbSpline
70
1064
71
3
72
8
73
4
74
0
42
0.000000001
43
0.0000000001
44
0.0000000001
40
0
40
0
40
0
40
0
40
0.19828943739178789
40
0.19828943739178789
40
0.19828943739178789
40
0.19828943739178789
10
97.305995159449566
20
56.892969883465554
30
0
10
97.22991248228422
20
56.924990880840895
30
0
10
97.175860645013842
20
56.963032219423567
30
0
10
97.143839647638544
20
57.007093899213586
30
0
0
SPLINE
5
157
100
AcDbEntity
8
0
100
AcDbSpline
70
1064
71
3
72
8
73
4
74
0
42
0.000000001
43
0.0000000001
44
0.0000000001
40
0
40
0
40
0
40
0
40
1.3502126960542684
40
1.3502126960542684
40
1.3502126960542684
40
1.3502126960542684
10
111.86313098622121
20
59.319200198426188
30
0
10
112.14338033005322
20
58.974876051444561
30
0
10
112.50771760039444
20
58.710637206300198
30
0
10
112.95614279724482
20
58.526483662993122
30
0
0
SPLINE
5
158
100
AcDbEntity
8
0
100
AcDbSpline
70
1064
71
3
72
8
73
4
74
0
42
0.000000001
43
0.0000000001
44
0.0000000001
40
0
40
0
40
0
40
0
40
1.2226673335706764
40
1.2226673335706764
40
1.2226673335706764
40
1.2226673335706764
10
117.03990263976452
20
57.013097836221462
30
0
10
116.69561130118186
20
56.917002035696527
30
0
10
116.29725172112934
20
56.830912796851379
30
0
10
115.84482389960705
20
56.754830119686027
30
0
0
LINE
5
159
100
AcDbEntity
8
0
100
AcDbLine
10
99.089607000000015
20
68.291394999999994
30
0
11
101.503879
21
68.291394999999994
31
0
0
SPLINE
5
160
100
AcDbEntity
8
0
100
AcDbSpline
70
1064
71
3
72
8
73
4
74
0
42
0.000000001
43
0.0000000001
44
0.0000000001
40
0
40
0
40
0
40
0
40
0.63394357782270916
40
0.63394357782270916
40
0.63394357782270916
40
0.63394357782270916
10
101.9002372854338
20
67.46265492283564
30
0
10
101.9002372854338
20
67.174334712861878
30
0
10
101.86419725918708
20
66.966116208924888
30
0
10
101.79211720669365
20
66.837999411024626
30
0
0
SPLINE
5
161
100
AcDbEntity
8
0
100
AcDbSpline
70
1064
71
3
72
8
73
4
74
0
42
0.000000001
43
0.0000000001
44
0.0000000001
40
0
40
0
40
0
40
0
40
1.186056580757133
40
1.186056580757133
40
1.186056580757133
40
1.186056580757133
10
99.173711694882627
20
70.651532875591542
30
0
10
99.117642141076857
20
70.327254660368439
30
0
10
99.089607364173958
20
69.932897704987866
30
0
10
99.089607364173958
20
69.468462009449809
30
0
0
SPLINE
5
162
100
AcDbEntity
8
0
100
AcDbSpline
70
1064
71
3
72
8
73
4
74
0
42
0.000000001
43
0.0000000001
44
0.0000000001
40
0
40
0
40
0
40
0
40
0.57302585797219385
40
0.57302585797219385
40
0.57302585797219385
40
0.57302585797219385
10
101.28163492322909
20
71.984702166930134
30
0
10
101.11746169488264
20
72.020725788977387
30
0
10
100.9273042145677
20
72.038737600000999
30
0
10
100.71116248228421
20
72.038737600000999
30
0
0
LINE
5
163
100
AcDbEntity
8
0
100
AcDbLine
10
101.503879
20
66.645824000000005
30
0
11
99.089607000000015
21
66.645824000000005
31
0
0
SPLINE
5
164
100
AcDbEntity
8
0
100
AcDbSpline
70
1064
71
3
72
8
73
4
74
0
42
0.000000001
43
0.0000000001
44
0.0000000001
40
0
40
0
40
0
40
0
40
0.19828943739178789
40
0.19828943739178789
40
0.19828943739178789
40
0.19828943739178789
10
99.041575868110982
20
57.007093899213586
30
0
10
99.009554870735656
20
56.963032219423567
30
0
10
98.955503033465305
20
56.924990880840895
30
0
10
98.879420356299931
20
56.892969883465554
30
0
0
SPLINE
5
165
100
AcDbEntity
8
0
100
AcDbSpline
70
1064
71
3
72
8
73
4
74
0
42
0.000000001
43
0.0000000001
44
0.0000000001
40
0
40
0
40
0
40
0
40
0.4810624332028009
40
0.4810624332028009
40
0.4810624332028009
40
0.4810624332028009
10
98.092756970473175
20
56.796906891339567
30
0
10
97.900565369423305
20
56.796906891339567
30
0
10
97.740411169948231
20
56.804912140683399
30
0
10
97.612294372047984
20
56.820922639371069
30
0
0
SPLINE
5
166
100
AcDbEntity
8
0
100
AcDbSpline
70
1064
71
3
72
8
73
4
74
0
42
0.000000001
43
0.0000000001
44
0.0000000001
40
0
40
0
40
0
40
0
40
1.6685942174170807
40
1.6685942174170807
40
1.6685942174170807
40
1.6685942174170807
10
112.95614279724482
20
58.526483662993122
30
0
10
113.40456799409523
20
58.342330119686032
30
0
10
113.95309161614244
20
58.250253348032494
30
0
10
114.60171366338656
20
58.250253348032494
30
0
0
SPLINE
5
167
100
AcDbEntity
8
0
100
AcDbSpline
70
1064
71
3
72
8
73
4
74
0
42
0.000000001
43
0.0000000001
44
0.0000000001
40
0
40
0
40
0
40
0
40
0.67624199573375543
40
0.67624199573375543
40
0.67624199573375543
40
0.67624199573375543
10
99.954420356299934
20
71.894643111812002
30
0
10
99.746251064961356
20
71.798580119686036
30
0
10
99.578108020341944
20
71.648448886090236
30
0
10
99.449991222441696
20
71.4442494110246
30
0
0
LINE
5
168
100
AcDbEntity
8
0
100
AcDbLine
10
99.089607000000015
20
69.468462000000002
30
0
11
99.089607000000015
21
68.291394999999994
31
0
0
SPLINE
5
169
100
AcDbEntity
8
0
100
AcDbSpline
70
1064
71
3
72
8
73
4
74
0
42
0.000000001
43
0.0000000001
44
0.0000000001
40
0
40
0
40
0
40
0
40
0.77393620683579301
40
0.77393620683579301
40
0.77393620683579301
40
0.77393620683579301
10
117.00988295472513
20
58.658570277166348
30
0
10
117.3021401725729
20
58.762671327035108
30
0
10
117.54234686548628
20
58.856765815224094
30
0
10
117.7305030334653
20
58.940853741733278
30
0
0
SPLINE
5
170
100
AcDbEntity
8
0
100
AcDbSpline
70
1064
71
3
72
8
73
4
74
0
42
0.000000001
43
0.0000000001
44
0.0000000001
40
0
40
0
40
0
40
0
40
0.27054220352131181
40
0.27054220352131181
40
0.27054220352131181
40
0.27054220352131181
10
118.48124122244171
20
58.298284844095477
30
0
10
118.48124122244171
20
58.194150985827761
30
0
10
118.47723859776977
20
58.104059122310701
30
0
10
118.46923334842593
20
58.028009253544298
30
0
0
SPLINE
5
171
100
AcDbEntity
8
0
100
AcDbSpline
70
1064
71
3
72
8
73
4
74
0
42
0.000000001
43
0.0000000001
44
0.0000000001
40
0
40
0
40
0
40
0
40
0.34642828964862671
40
0.34642828964862671
40
0.34642828964862671
40
0.34642828964862671
10
101.79211720669365
20
66.837999411024626
30
0
10
101.72003715420021
20
66.70988261312435
30
0
10
101.62395775787479
20
66.645824214174226
30
0
10
101.5038790177173
20
66.645824214174226
30
0
0
LINE
5
172
100
AcDbEntity
8
0
100
AcDbLine
10
97.095807999999991
20
57.169249000000008
30
0
11
97.095807999999991
21
66.645824000000005
31
0
0
SPLINE
5
173
100
AcDbEntity
8
0
100
AcDbSpline
70
1064
71
3
72
8
73
4
74
0
42
0.000000001
43
0.0000000001
44
0.0000000001
40
0
40
0
40
0
40
0
40
0.3667319565691412
40
0.3667319565691412
40
0.3667319565691412
40
0.3667319565691412
10
118.46322941141807
20
58.664574214174216
30
0
10
118.47523728543379
20
58.564475788977362
30
0
10
118.48124122244171
20
58.442379332284453
30
0
10
118.48124122244171
20
58.298284844095477
30
0
0
SPLINE
5
174
100
AcDbEntity
8
0
100
AcDbSpline
70
1064
71
3
72
8
73
4
74
0
42
0.000000001
43
0.0000000001
44
0.0000000001
40
0
40
0
40
0
40
0
40
0.48096413075703592
40
0.48096413075703592
40
0.48096413075703592
40
0.48096413075703592
10
98.57312114370157
20
56.820922639371069
30
0
10
98.445004345801266
20
56.804912140683399
30
0
10
98.284882954725163
20
56.796906891339567
30
0
10
98.092756970473175
20
56.796906891339567
30
0
0
SPLINE
5
175
100
AcDbEntity
8
0
100
AcDbSpline
70
1064
71
3
72
8
73
4
74
0
42
0.000000001
43
0.0000000001
44
0.0000000001
40
0
40
0
40
0
40
0
40
1.0765806183911124
40
1.0765806183911124
40
1.0765806183911124
40
1.0765806183911124
10
115.97095578937081
20
58.376336025197837
30
0
10
116.37131668175928
20
58.460391143308073
30
0
10
116.71762573687738
20
58.554469227297581
30
0
10
117.00988295472513
20
58.658570277166348
30
0
0
SPLINE
5
176
100
AcDbEntity
8
0
100
AcDbSpline
70
1064
71
3
72
8
73
4
74
0
42
0.000000001
43
0.0000000001
44
0.0000000001
40
0
40
0
40
0
40
0
40
2.5938685627231064
40
2.5938685627231064
40
2.5938685627231064
40
2.5938685627231064
10
109.34088689173302
20
59.955765159056106
30
0
10
109.108669043964
20
60.692444949082358
30
0
10
108.99256012007947
20
61.549236287665032
30
0
10
108.99256012007947
20
62.526139174804136
30
0
0
SPLINE
5
177
100
AcDbEntity
8
0
100
AcDbSpline
70
1064
71
3
72
8
73
4
74
0
42
0.000000001
43
0.0000000001
44
0.0000000001
40
0
40
0
40
0
40
0
40
0.34642828964862671
40
0.34642828964862671
40
0.34642828964862671
40
0.34642828964862671
10
95.570414450788121
20
66.645824214174226
30
0
10
95.442330461286844
20
66.645824214174226
30
0
10
95.346251064961351
20
66.70988261312435
30
0
10
95.28217626181177
20
66.837999411024626
30
0
0
SPLINE
5
178
100
AcDbEntity
8
0
100
AcDbSpline
70
1064
71
3
72
8
73
4
74
0
42
0.000000001
43
0.0000000001
44
0.0000000001
40
0
40
0
40
0
40
0
40
0.38505084592840522
40
0.38505084592840522
40
0.38505084592840522
40
0.38505084592840522
10
95.186064057087364
20
67.46265492283564
30
0
10
95.186064057087364
20
67.614754660368433
30
0
10
95.194069306431203
20
67.742855054069224
30
0
10
95.210079805118852
20
67.846956103937998
30
0
0
SPLINE
5
179
100
AcDbEntity
8
0
100
AcDbSpline
70
1064
71
3
72
8
73
4
74
0
42
0.000000001
43
0.0000000001
44
0.0000000001
40
0
40
0
40
0
40
0
40
2.1529842199936104
40
2.1529842199936104
40
2.1529842199936104
40
2.1529842199936104
10
109.35289476574879
20
65.030371458268689
30
0
10
109.59311786286165
20
65.77105387296686
30
0
10
109.93942691797972
20
66.399629988452432
30
0
10
110.3918219311031
20
66.916099804725405
30
0
0
SPLINE
5
180
100
AcDbEntity
8
0
100
AcDbSpline
70
1064
71
3
72
8
73
4
74
0
42
0.000000001
43
0.0000000001
44
0.0000000001
40
0
40
0
40
0
40
0
40
0.83948191338305089
40
0.83948191338305089
40
0.83948191338305089
40
0.83948191338305089
10
99.449991222441696
20
71.4442494110246
30
0
10
99.321874424541434
20
71.240049935959007
30
0
10
99.229781248688411
20
70.975811090814631
30
0
10
99.173711694882627
20
70.651532875591542
30
0
0
SPLINE
5
181
100
AcDbEntity
8
0
100
AcDbSpline
70
1064
71
3
72
8
73
4
74
0
42
0.000000001
43
0.0000000001
44
0.0000000001
40
0
40
0
40
0
40
0
40
1.3750348508496326
40
1.3750348508496326
40
1.3750348508496326
40
1.3750348508496326
10
114.60171366338656
20
58.250253348032494
30
0
10
115.11418085498761
20
58.250253348032494
30
0
10
115.57059489698239
20
58.292280907087601
30
0
10
115.97095578937081
20
58.376336025197837
30
0
0
SPLINE
5
182
100
AcDbEntity
8
0
100
AcDbSpline
70
1064
71
3
72
8
73
4
74
0
42
0.000000001
43
0.0000000001
44
0.0000000001
40
0
40
0
40
0
40
0
40
0.20638523453357921
40
0.20638523453357921
40
0.20638523453357921
40
0.20638523453357921
10
118.46923334842593
20
58.028009253544298
30
0
10
118.46122809908208
20
57.951959384777894
30
0
10
118.45120513320283
20
57.883898361155843
30
0
10
118.43916445078816
20
57.823826182678161
30
0
0
SPLINE
5
183
100
AcDbEntity
8
0
100
AcDbSpline
70
1064
71
3
72
8
73
4
74
0
42
0.000000001
43
0.0000000001
44
0.0000000001
40
0
40
0
40
0
40
0
40
0.89076632425641566
40
0.89076632425641566
40
0.89076632425641566
40
0.89076632425641566
10
117.88065067126058
20
57.307389174804143
30
0
10
117.66444332217922
20
57.207290749607289
30
0
10
117.38419397834718
20
57.109193636746404
30
0
10
117.03990263976452
20
57.013097836221462
30
0
0
SPLINE
5
184
100
AcDbEntity
8
0
100
AcDbSpline
70
1064
71
3
72
8
73
4
74
0
42
0.000000001
43
0.0000000001
44
0.0000000001
40
0
40
0
40
0
40
0
40
0.1674657217598256
40
0.1674657217598256
40
0.1674657217598256
40
0.1674657217598256
10
101.5038790177173
20
68.291395080315951
30
0
10
101.56792101246793
20
68.291395080315951
30
0
10
101.62195644553879
20
68.277385893964237
30
0
10
101.66598531692989
20
68.249367521260837
30
0
0
SPLINE
5
185
100
AcDbEntity
8
0
100
AcDbSpline
70
1064
71
3
72
8
73
4
74
0
42
0.000000001
43
0.0000000001
44
0.0000000001
40
0
40
0
40
0
40
0
40
0.63200637997797593
40
0.63200637997797593
40
0.63200637997797593
40
0.63200637997797593
10
95.28217626181177
20
66.837999411024626
30
0
10
95.218101458662147
20
66.966116208924888
30
0
10
95.186064057087364
20
67.174334712861878
30
0
10
95.186064057087364
20
67.46265492283564
30
0
0
SPLINE
5
186
100
AcDbEntity
8
0
100
AcDbSpline
70
1064
71
3
72
8
73
4
74
0
42
0.000000001
43
0.0000000001
44
0.0000000001
40
0
40
0
40
0
40
0
40
1.375166133562836
40
1.375166133562836
40
1.375166133562836
40
1.375166133562836
10
111.26258964763851
20
60.556306497638786
30
0
10
111.38270119619497
20
60.075893111812007
30
0
10
111.58288164238918
20
59.663524345407815
30
0
10
111.86313098622121
20
59.319200198426188
30
0
0
SPLINE
5
187
100
AcDbEntity
8
0
100
AcDbSpline
70
1064
71
3
72
8
73
4
74
0
42
0.000000001
43
0.0000000001
44
0.0000000001
40
0
40
0
40
0
40
0
40
0.17328406517113379
40
0.17328406517113379
40
0.17328406517113379
40
0.17328406517113379
10
95.402304214567678
20
68.249367521260837
30
0
10
95.45033571063064
20
68.277385893964237
30
0
10
95.506372456037496
20
68.291395080315951
30
0
10
95.570414450788121
20
68.291395080315951
30
0
0
SPLINE
5
188
100
AcDbEntity
8
0
100
AcDbSpline
70
1064
71
3
72
8
73
4
74
0
42
0.000000001
43
0.0000000001
44
0.0000000001
40
0
40
0
40
0
40
0
40
0.18760679709033529
40
0.18760679709033529
40
0.18760679709033529
40
0.18760679709033529
10
101.66598531692989
20
68.249367521260837
30
0
10
101.71001418832094
20
68.221349148557422
30
0
10
101.75004043504015
20
68.173301248294962
30
0
10
101.78606405708736
20
68.105223820473441
30
0
0
SPLINE
5
189
100
AcDbEntity
8
0
100
AcDbSpline
70
1064
71
3
72
8
73
4
74
0
42
0.000000001
43
0.0000000001
44
0.0000000001
40
0
40
0
40
0
40
0
40
1.6314844975748559
40
1.6314844975748559
40
1.6314844975748559
40
1.6314844975748559
10
111.08242232480387
20
62.177812403150597
30
0
10
111.08242232480387
20
61.57722185196949
30
0
10
111.14247809908208
20
61.036719883465558
30
0
10
111.26258964763851
20
60.556306497638786
30
0
0
LINE
5
190
100
AcDbEntity
8
0
100
AcDbLine
10
99.089607000000015
20
66.645824000000005
30
0
11
99.089607000000015
21
57.169249000000008
31
0
0
LINE
5
191
100
AcDbEntity
8
0
100
AcDbLine
10
95.570414000000014
20
68.291394999999994
30
0
11
97.095807999999991
21
68.291394999999994
31
0
0
SPLINE
5
192
100
AcDbEntity
8
0
100
AcDbSpline
70
1064
71
3
72
8
73
4
74
0
42
0.000000001
43
0.0000000001
44
0.0000000001
40
0
40
0
40
0
40
0
40
0.26814196328084028
40
0.26814196328084028
40
0.26814196328084028
40
0.26814196328084028
10
95.210079805118852
20
67.846956103937998
30
0
10
95.226090303806515
20
67.951057153806772
30
0
10
95.250122456037488
20
68.03714639265192
30
0
10
95.28217626181177
20
68.105223820473441
30
0
0
SPLINE
5
193
100
AcDbEntity
8
0
100
AcDbSpline
70
1064
71
3
72
8
73
4
74
0
42
0.000000001
43
0.0000000001
44
0.0000000001
40
0
40
0
40
0
40
0
40
2.0171491886486943
40
2.0171491886486943
40
2.0171491886486943
40
2.0171491886486943
10
112.0613593326779
20
57.013048623623035
30
0
10
111.39272416207422
20
57.261276970079734
30
0
10
110.83020775787477
20
57.629616865092856
30
0
10
110.37381012007948
20
58.118068308662416
30
0
0
SPLINE
5
194
100
AcDbEntity
8
0
100
AcDbSpline
70
1064
71
3
72
8
73
4
74
0
42
0.000000001
43
0.0000000001
44
0.0000000001
40
0
40
0
40
0
40
0
40
0.187638299688555
40
0.187638299688555
40
0.187638299688555
40
0.187638299688555
10
95.28217626181177
20
68.105223820473441
30
0
10
95.314230067586038
20
68.173301248294962
30
0
10
95.354272718504717
20
68.221349148557422
30
0
10
95.402304214567678
20
68.249367521260837
30
0
0
SPLINE
5
195
100
AcDbEntity
8
0
100
AcDbSpline
70
1064
71
3
72
8
73
4
74
0
42
0.000000001
43
0.0000000001
44
0.0000000001
40
0
40
0
40
0
40
0
40
2.025279206155719
40
2.025279206155719
40
2.025279206155719
40
2.025279206155719
10
110.3918219311031
20
66.916099804725405
30
0
10
110.84421694422646
20
67.432569620998365
30
0
10
111.3907064455388
20
67.828927888714901
30
0
10
112.03129043504013
20
68.105174607875014
30
0
0
SPLINE
5
196
100
AcDbEntity
8
0
100
AcDbSpline
70
1064
71
3
72
8
73
4
74
0
42
0.000000001
43
0.0000000001
44
0.0000000001
40
0
40
0
40
0
40
0
40
1.9511181662436805
40
1.9511181662436805
40
1.9511181662436805
40
1.9511181662436805
10
97.09580815157554
20
69.408422639371068
30
0
10
97.09580815157554
20
70.161112928084975
30
0
10
97.165870487533553
20
70.807700854594174
30
0
10
97.305995159449566
20
71.348186418898635
30
0
0
SPLINE
5
197
100
AcDbEntity
8
0
100
AcDbSpline
70
1064
71
3
72
8
73
4
74
0
42
0.000000001
43
0.0000000001
44
0.0000000001
40
0
40
0
40
0
40
0
40
1.474538119530044
40
1.474538119530044
40
1.474538119530044
40
1.474538119530044
10
97.305995159449566
20
71.348186418898635
30
0
10
97.446119831365579
20
71.888671983203082
30
0
10
97.660309463911489
20
72.331060434646659
30
0
10
97.948564057087367
20
72.675351773229337
30
0
0
SPLINE
5
198
100
AcDbEntity
8
0
100
AcDbSpline
70
1064
71
3
72
8
73
4
74
0
42
0.000000001
43
0.0000000001
44
0.0000000001
40
0
40
0
40
0
40
0
40
0.15587127049814051
40
0.15587127049814051
40
0.15587127049814051
40
0.15587127049814051
10
118.15693019881964
20
59.066985631497062
30
0
10
118.21296694422644
20
59.066985631497062
30
0
10
118.26299975262542
20
59.052976445145347
30
0
10
118.3070286240165
20
59.024958072441933
30
0
0
SPLINE
5
199
100
AcDbEntity
8
0
100
AcDbSpline
70
1064
71
3
72
8
73
4
74
0
42
0.000000001
43
0.0000000001
44
0.0000000001
40
0
40
0
40
0
40
0
40
0.1753519672947072
40
0.1753519672947072
40
0.1753519672947072
40
0.1753519672947072
10
118.37907586811097
20
57.661670670867132
30
0
10
118.35105749540757
20
57.613639174804135
30
0
10
118.31503387336031
20
57.567608991077108
30
0
10
118.27100500196926
20
57.523580119686031
30
0
0
SPLINE
5
200
100
AcDbEntity
8
0
100
AcDbSpline
70
1064
71
3
72
8
73
4
74
0
42
0.000000001
43
0.0000000001
44
0.0000000001
40
0
40
0
40
0
40
0
40
0.16911958675666039
40
0.16911958675666039
40
0.16911958675666039
40
0.16911958675666039
10
97.143839647638544
20
57.007093899213586
30
0
10
97.111818650263189
20
57.05115557900362
30
0
10
97.09580815157554
20
57.105207416273956
30
0
10
97.09580815157554
20
57.169249411024616
30
0
0
SPLINE
5
201
100
AcDbEntity
8
0
100
AcDbSpline
70
1064
71
3
72
8
73
4
74
0
42
0.000000001
43
0.0000000001
44
0.0000000001
40
0
40
0
40
0
40
0
40
0.1729307600713226
40
0.1729307600713226
40
0.1729307600713226
40
0.1729307600713226
10
118.43916445078816
20
57.823826182678161
30
0
10
118.42712376837343
20
57.763754004200464
30
0
10
118.4070942408144
20
57.709702166930121
30
0
10
118.37907586811097
20
57.661670670867132
30
0
0
SPLINE
5
202
100
AcDbEntity
8
0
100
AcDbSpline
70
1064
71
3
72
8
73
4
74
0
42
0.000000001
43
0.0000000001
44
0.0000000001
40
0
40
0
40
0
40
0
40
2.1080939517973487
40
2.1080939517973487
40
2.1080939517973487
40
2.1080939517973487
10
110.37381012007948
20
58.118068308662416
30
0
10
109.91741248228422
20
58.606519752231961
30
0
10
109.57310473950209
20
59.219085369029862
30
0
10
109.34088689173302
20
59.955765159056106
30
0
0
SPLINE
5
203
100
AcDbEntity
8
0
100
AcDbSpline
70
1064
71
3
72
8
73
4
74
0
42
0.000000001
43
0.0000000001
44
0.0000000001
40
0
40
0
40
0
40
0
40
0.16228666001144049
40
0.16228666001144049
40
0.16228666001144049
40
0.16228666001144049
10
118.3070286240165
20
59.024958072441933
30
0
10
118.35105749540757
20
58.996939699738526
30
0
10
118.38509620931832
20
58.954895736483934
30
0
10
118.40914476574878
20
58.898826182678157
30
0
0
SPLINE
5
204
100
AcDbEntity
8
0
100
AcDbSpline
70
1064
71
3
72
8
73
4
74
0
42
0.000000001
43
0.0000000001
44
0.0000000001
40
0
40
0
40
0
40
0
40
0.3854757273834758
40
0.3854757273834758
40
0.3854757273834758
40
0.3854757273834758
10
101.870168387796
20
67.846956103937998
30
0
10
101.89021431955454
20
67.742855054069224
30
0
10
101.9002372854338
20
67.614754660368433
30
0
10
101.9002372854338
20
67.46265492283564
30
0
0
SPLINE
5
205
100
AcDbEntity
8
0
100
AcDbSpline
70
1064
71
3
72
8
73
4
74
0
42
0.000000001
43
0.0000000001
44
0.0000000001
40
0
40
0
40
0
40
0
40
0.16911958675666439
40
0.16911958675666439
40
0.16911958675666439
40
0.16911958675666439
10
99.089607364173958
20
57.169249411024616
30
0
10
99.089607364173958
20
57.105207416273956
30
0
10
99.073596865486323
20
57.05115557900362
30
0
10
99.041575868110982
20
57.007093899213586
30
0
0
SPLINE
5
206
100
AcDbEntity
8
0
100
AcDbSpline
70
1064
71
3
72
8
73
4
74
0
42
0.000000001
43
0.0000000001
44
0.0000000001
40
0
40
0
40
0
40
0
40
0.27161692113780861
40
0.27161692113780861
40
0.27161692113780861
40
0.27161692113780861
10
101.78606405708736
20
68.105223820473441
30
0
10
101.8220876791346
20
68.03714639265192
30
0
10
101.8501224560375
20
67.951057153806772
30
0
10
101.870168387796
20
67.846956103937998
30
0
0
SPLINE
5
207
100
AcDbEntity
8
0
100
AcDbSpline
70
1064
71
3
72
8
73
4
74
0
42
0.000000001
43
0.0000000001
44
0.0000000001
40
0
40
0
40
0
40
0
40
0.19828943739178789
40
0.19828943739178789
40
0.19828943739178789
40
0.19828943739178789
10
61.715886891733014
20
57.007093899213586
30
0
10
61.683865894357687
20
56.963032219423567
30
0
10
61.629814057087344
20
56.924990880840895
30
0
10
61.553731379921999
20
56.892969883465554
30
0
0
SPLINE
5
208
100
AcDbEntity
8
0
100
AcDbSpline
70
1064
71
3
72
8
73
4
74
0
42
0.000000001
43
0.0000000001
44
0.0000000001
40
0
40
0
40
0
40
0
40
0.1617084723619448
40
0.1617084723619448
40
0.1617084723619448
40
0.1617084723619448
10
104.07543413582749
20
67.979091930709657
30
0
10
104.07543413582749
20
68.035128676116472
30
0
10
104.08944332217921
20
68.087179201050844
30
0
10
104.11746169488261
20
68.13524350551279
30
0
0
SPLINE
5
209
100
AcDbEntity
8
0
100
AcDbSpline
70
1064
71
3
72
8
73
4
74
0
42
0.000000001
43
0.0000000001
44
0.0000000001
40
0
40
0
40
0
40
0
40
1.5257055408149878
40
1.5257055408149878
40
1.5257055408149878
40
1.5257055408149878
10
41.700532561024339
20
61.685391143308081
30
0
10
41.700532561024339
20
61.052779594751641
30
0
10
41.74657914895085
20
60.546299935958992
30
0
10
41.838672324803881
20
60.165952166930118
30
0
0
SPLINE
5
210
100
AcDbEntity
8
0
100
AcDbSpline
70
1064
71
3
72
8
73
4
74
0
42
0.000000001
43
0.0000000001
44
0.0000000001
40
0
40
0
40
0
40
0
40
0.31465856578205709
40
0.31465856578205709
40
0.31465856578205709
40
0.31465856578205709
10
104.57991248228421
20
56.820922639371069
30
0
10
104.45179568438392
20
56.83693313805874
30
0
10
104.34969594685113
20
56.860948886090227
30
0
10
104.27361326968578
20
56.892969883465554
30
0
0
SPLINE
5
211
100
AcDbEntity
8
0
100
AcDbSpline
70
1064
71
3
72
8
73
4
74
0
42
0.000000001
43
0.0000000001
44
0.0000000001
40
0
40
0
40
0
40
0
40
0.20180469529726081
40
0.20180469529726081
40
0.20180469529726081
40
0.20180469529726081
10
48.811014844488902
20
68.261375395276588
30
0
10
48.883094896982364
20
68.225351773229335
30
0
10
48.937146734252693
20
68.185309122310699
30
0
10
48.973170356299931
20
68.14124744252068
30
0
0
SPLINE
5
212
100
AcDbEntity
8
0
100
AcDbSpline
70
1064
71
3
72
8
73
4
74
0
42
0.000000001
43
0.0000000001
44
0.0000000001
40
0
40
0
40
0
40
0
40
0.4810624332028009
40
0.4810624332028009
40
0.4810624332028009
40
0.4810624332028009
10
68.285916419292064
20
56.820922639371069
30
0
10
68.157799621391788
20
56.804912140683399
30
0
10
67.997645421916744
20
56.796906891339567
30
0
10
67.805453820866873
20
56.796906891339567
30
0
0
SPLINE
5
213
100
AcDbEntity
8
0
100
AcDbSpline
70
1064
71
3
72
8
73
4
74
0
42
0.000000001
43
0.0000000001
44
0.0000000001
40
0
40
0
40
0
40
0
40
0.16913357016298861
40
0.16913357016298861
40
0.16913357016298861
40
0.16913357016298861
10
66.844577836614889
20
57.007093899213586
30
0
10
66.812524030840621
20
57.05115557900362
30
0
10
66.796497127953501
20
57.105207416273956
30
0
10
66.796497127953501
20
57.169249411024616
30
0
0
SPLINE
5
214
100
AcDbEntity
8
0
100
AcDbSpline
70
1064
71
3
72
8
73
4
74
0
42
0.000000001
43
0.0000000001
44
0.0000000001
40
0
40
0
40
0
40
0
40
0.19341045805219509
40
0.19341045805219509
40
0.19341045805219509
40
0.19341045805219509
10
68.742314057087341
20
57.007093899213586
30
0
10
68.710260251313073
20
56.963032219423567
30
0
10
68.658209726378686
20
56.924990880840895
30
0
10
68.586162482284209
20
56.892969883465554
30
0
0
SPLINE
5
215
100
AcDbEntity
8
0
100
AcDbSpline
70
1064
71
3
72
8
73
4
74
0
42
0.000000001
43
0.0000000001
44
0.0000000001
40
0
40
0
40
0
40
0
40
0.82045797841781731
40
0.82045797841781731
40
0.82045797841781731
40
0.82045797841781731
10
100.57897744291412
20
73.684308466142724
30
0
10
100.85922678674618
20
73.684308466142724
30
0
10
101.13147088123434
20
73.658275001575802
30
0
10
101.3957097263787
20
73.606208072441945
30
0
0
SPLINE
5
216
100
AcDbEntity
8
0
100
AcDbSpline
70
1064
71
3
72
8
73
4
74
0
42
0.000000001
43
0.0000000001
44
0.0000000001
40
0
40
0
40
0
40
0
40
0.33073868559809722
40
0.33073868559809722
40
0.33073868559809722
40
0.33073868559809722
10
102.00825893897714
20
73.438048623623047
30
0
10
102.15238623556505
20
73.378009253544306
30
0
10
102.24848203609
20
73.323973820473441
30
0
10
102.29654634055194
20
73.275942324410451
30
0
0
SPLINE
5
217
100
AcDbEntity
8
0
100
AcDbSpline
70
1064
71
3
72
8
73
4
74
0
42
0.000000001
43
0.0000000001
44
0.0000000001
40
0
40
0
40
0
40
0
40
0.98484852123313582
40
0.98484852123313582
40
0.98484852123313582
40
0.98484852123313582
10
65.619430198819629
20
66.585834056693912
30
0
10
65.347186104331442
20
66.729961353281823
30
0
10
65.026910513780251
20
66.802025001575799
30
0
10
64.658603427166085
20
66.802025001575799
30
0
0
SPLINE
5
218
100
AcDbEntity
8
0
100
AcDbSpline
70
1064
71
3
72
8
73
4
74
0
42
0.000000001
43
0.0000000001
44
0.0000000001
40
0
40
0
40
0
40
0
40
0.47506607703289422
40
0.47506607703289422
40
0.47506607703289422
40
0.47506607703289422
10
60.767067994095221
20
56.796906891339567
30
0
10
60.582881642389182
20
56.796906891339567
30
0
10
60.424728755250079
20
56.804912140683399
30
0
10
60.292609332677898
20
56.820922639371069
30
0
0
SPLINE
5
219
100
AcDbEntity
8
0
100
AcDbSpline
70
1064
71
3
72
8
73
4
74
0
42
0.000000001
43
0.0000000001
44
0.0000000001
40
0
40
0
40
0
40
0
40
0.32050594789430992
40
0.32050594789430992
40
0.32050594789430992
40
0.32050594789430992
10
60.292609332677898
20
56.820922639371069
30
0
10
60.160489910105717
20
56.83693313805874
30
0
10
60.05638886023695
20
56.860948886090227
30
0
10
59.980306183071605
20
56.892969883465554
30
0
0
LINE
5
220
100
AcDbEntity
8
0
100
AcDbLine
10
47.033407000000011
20
60.424171000000001
30
0
11
47.033407000000011
21
67.979091999999994
31
0
0
LINE
5
221
100
AcDbEntity
8
0
100
AcDbLine
10
97.095807999999991
20
68.291394999999994
30
0
11
97.095807999999991
21
69.408422999999999
31
0
0
SPLINE
5
222
100
AcDbEntity
8
0
100
AcDbSpline
70
1064
71
3
72
8
73
4
74
0
42
0.000000001
43
0.0000000001
44
0.0000000001
40
0
40
0
40
0
40
0
40
1.0598194727376893
40
1.0598194727376893
40
1.0598194727376893
40
1.0598194727376893
10
41.838672324803881
20
60.165952166930118
30
0
10
41.930765500656904
20
59.785604397901253
30
0
10
42.070890172572902
20
59.461309778478679
30
0
10
42.259046340551905
20
59.193068308662404
30
0
0
SPLINE
5
223
100
AcDbEntity
8
0
100
AcDbSpline
70
1064
71
3
72
8
73
4
74
0
42
0.000000001
43
0.0000000001
44
0.0000000001
40
0
40
0
40
0
40
0
40
0.170921730736178
40
0.170921730736178
40
0.170921730736178
40
0.170921730736178
10
48.973170356299931
20
68.14124744252068
30
0
10
49.009193978347184
20
68.097185762730646
30
0
10
49.027205789370797
20
68.04313392546031
30
0
10
49.027205789370797
20
67.979091930709657
30
0
0
SPLINE
5
224
100
AcDbEntity
8
0
100
AcDbSpline
70
1064
71
3
72
8
73
4
74
0
42
0.000000001
43
0.0000000001
44
0.0000000001
40
0
40
0
40
0
40
0
40
0.19341045805219509
40
0.19341045805219509
40
0.19341045805219509
40
0.19341045805219509
10
106.00919397834718
20
57.007093899213586
30
0
10
105.97717298097187
20
56.963032219423567
30
0
10
105.9251224560375
20
56.924990880840895
30
0
10
105.85304240354404
20
56.892969883465554
30
0
0
SPLINE
5
225
100
AcDbEntity
8
0
100
AcDbSpline
70
1064
71
3
72
8
73
4
74
0
42
0.000000001
43
0.0000000001
44
0.0000000001
40
0
40
0
40
0
40
0
40
0.30881719175527
40
0.30881719175527
40
0.30881719175527
40
0.30881719175527
10
48.510719568898367
20
68.333422639371079
30
0
10
48.638836366798628
20
68.321414765355314
30
0
10
48.738934791995462
20
68.297399017323826
30
0
10
48.811014844488902
20
68.261375395276588
30
0
0
SPLINE
5
226
100
AcDbEntity
8
0
100
AcDbSpline
70
1064
71
3
72
8
73
4
74
0
42
0.000000001
43
0.0000000001
44
0.0000000001
40
0
40
0
40
0
40
0
40
0.4867015142683408
40
0.4867015142683408
40
0.4867015142683408
40
0.4867015142683408
10
47.543888860236947
20
68.333422639371079
30
0
10
47.668003033465297
20
68.345430513386816
30
0
10
47.830125736877356
20
68.351434450394692
30
0
10
48.030256970473161
20
68.351434450394692
30
0
0
SPLINE
5
227
100
AcDbEntity
8
0
100
AcDbSpline
70
1064
71
3
72
8
73
4
74
0
42
0.000000001
43
0.0000000001
44
0.0000000001
40
0
40
0
40
0
40
0
40
0.48096413075703592
40
0.48096413075703592
40
0.48096413075703592
40
0.48096413075703592
10
105.06027665551255
20
56.796906891339567
30
0
10
104.86815067126058
20
56.796906891339567
30
0
10
104.70802928018443
20
56.804912140683399
30
0
10
104.57991248228421
20
56.820922639371069
30
0
0
SPLINE
5
228
100
AcDbEntity
8
0
100
AcDbSpline
70
1064
71
3
72
8
73
4
74
0
42
0.000000001
43
0.0000000001
44
0.0000000001
40
0
40
0
40
0
40
0
40
0.31465856578205881
40
0.31465856578205881
40
0.31465856578205881
40
0.31465856578205881
10
104.27361326968578
20
68.255371458268698
30
0
10
104.34969594685113
20
68.287392455644039
30
0
10
104.45179568438392
20
68.311408203675526
30
0
10
104.57991248228421
20
68.327418702363204
30
0
0
SPLINE
5
229
100
AcDbEntity
8
0
100
AcDbSpline
70
1064
71
3
72
8
73
4
74
0
42
0.000000001
43
0.0000000001
44
0.0000000001
40
0
40
0
40
0
40
0
40
0.31461066078824113
40
0.31461066078824113
40
0.31461066078824113
40
0.31461066078824113
10
67.312983348425931
20
56.820922639371069
30
0
10
67.184866550525669
20
56.83693313805874
30
0
10
67.082783217192329
20
56.860948886090227
30
0
10
67.006733348425925
20
56.892969883465554
30
0
0
SPLINE
5
230
100
AcDbEntity
8
0
100
AcDbSpline
70
1064
71
3
72
8
73
4
74
0
42
0.000000001
43
0.0000000001
44
0.0000000001
40
0
40
0
40
0
40
0
40
1.3278902830327144
40
1.3278902830327144
40
1.3278902830327144
40
1.3278902830327144
10
97.948564057087367
20
72.675351773229337
30
0
10
98.236818650263189
20
73.019643111812016
30
0
10
98.599154608268464
20
73.273875395276576
30
0
10
99.035571931103092
20
73.438048623623047
30
0
0
SPLINE
5
231
100
AcDbEntity
8
0
100
AcDbSpline
70
1064
71
3
72
8
73
4
74
0
42
0.000000001
43
0.0000000001
44
0.0000000001
40
0
40
0
40
0
40
0
40
1.4733441902592248
40
1.4733441902592248
40
1.4733441902592248
40
1.4733441902592248
10
64.658603427166085
20
66.802025001575799
30
0
10
64.202172980971852
20
66.802025001575799
30
0
10
63.743741222441663
20
66.625860303413063
30
0
10
63.283308151575532
20
66.273530907087604
30
0
0
SPLINE
5
232
100
AcDbEntity
8
0
100
AcDbSpline
70
1064
71
3
72
8
73
4
74
0
42
0.000000001
43
0.0000000001
44
0.0000000001
40
0
40
0
40
0
40
0
40
2.1701076926547027
40
2.1701076926547027
40
2.1701076926547027
40
2.1701076926547027
10
63.283308151575532
20
66.273530907087604
30
0
10
62.82287508070938
20
65.921201510762145
30
0
10
62.316411826116216
20
65.404715290289715
30
0
10
61.763918387796011
20
64.724072245670285
30
0
0
SPLINE
5
233
100
AcDbEntity
8
0
100
AcDbSpline
70
1064
71
3
72
8
73
4
74
0
42
0.000000001
43
0.0000000001
44
0.0000000001
40
0
40
0
40
0
40
0
40
0.20180469529726081
40
0.20180469529726081
40
0.20180469529726081
40
0.20180469529726081
10
47.075434135827493
20
68.14124744252068
30
0
10
47.103452508530907
20
68.185309122310699
30
0
10
47.157504345801257
20
68.225351773229335
30
0
10
47.237589647638522
20
68.261375395276588
30
0
0
SPLINE
5
234
100
AcDbEntity
8
0
100
AcDbSpline
70
1064
71
3
72
8
73
4
74
0
42
0.000000001
43
0.0000000001
44
0.0000000001
40
0
40
0
40
0
40
0
40
0.16913357016298861
40
0.16913357016298861
40
0.16913357016298861
40
0.16913357016298861
10
68.790394765748758
20
57.169249411024616
30
0
10
68.790394765748758
20
57.105207416273956
30
0
10
68.77436786286161
20
57.05115557900362
30
0
10
68.742314057087341
20
57.007093899213586
30
0
0
SPLINE
5
235
100
AcDbEntity
8
0
100
AcDbSpline
70
1064
71
3
72
8
73
4
74
0
42
0.000000001
43
0.0000000001
44
0.0000000001
40
0
40
0
40
0
40
0
40
0.3087693374088244
40
0.3087693374088244
40
0.3087693374088244
40
0.3087693374088244
10
68.586162482284209
20
56.892969883465554
30
0
10
68.514115238189703
20
56.860948886090227
30
0
10
68.414033217192326
20
56.83693313805874
30
0
10
68.285916419292064
20
56.820922639371069
30
0
0
SPLINE
5
236
100
AcDbEntity
8
0
100
AcDbSpline
70
1064
71
3
72
8
73
4
74
0
42
0.000000001
43
0.0000000001
44
0.0000000001
40
0
40
0
40
0
40
0
40
0.48096413075703592
40
0.48096413075703592
40
0.48096413075703592
40
0.48096413075703592
10
61.247432167323581
20
56.820922639371069
30
0
10
61.119315369423298
20
56.804912140683399
30
0
10
60.959193978347187
20
56.796906891339567
30
0
10
60.767067994095221
20
56.796906891339567
30
0
0
SPLINE
5
237
100
AcDbEntity
8
0
100
AcDbSpline
70
1064
71
3
72
8
73
4
74
0
42
0.000000001
43
0.0000000001
44
0.0000000001
40
0
40
0
40
0
40
0
40
1.5629281761893239
40
1.5629281761893239
40
1.5629281761893239
40
1.5629281761893239
10
99.035571931103092
20
73.438048623623047
30
0
10
99.471989253937778
20
73.602221851969489
30
0
10
99.986457757874788
20
73.684308466142724
30
0
10
100.57897744291412
20
73.684308466142724
30
0
0
SPLINE
5
238
100
AcDbEntity
8
0
100
AcDbSpline
70
1064
71
3
72
8
73
4
74
0
42
0.000000001
43
0.0000000001
44
0.0000000001
40
0
40
0
40
0
40
0
40
0.63521188439923293
40
0.63521188439923293
40
0.63521188439923293
40
0.63521188439923293
10
101.3957097263787
20
73.606208072441945
30
0
10
101.65994857152306
20
73.554141143308073
30
0
10
101.8641316423892
20
73.498087993701787
30
0
10
102.00825893897714
20
73.438048623623047
30
0
0
SPLINE
5
239
100
AcDbEntity
8
0
100
AcDbSpline
70
1064
71
3
72
8
73
4
74
0
42
0.000000001
43
0.0000000001
44
0.0000000001
40
0
40
0
40
0
40
0
40
0.48080009756847042
40
0.48080009756847042
40
0.48080009756847042
40
0.48080009756847042
10
48.030256970473161
20
68.351434450394692
30
0
10
48.222448571523024
20
68.351434450394692
30
0
10
48.382602770998105
20
68.345430513386816
30
0
10
48.510719568898367
20
68.333422639371079
30
0
0
SPLINE
5
240
100
AcDbEntity
8
0
100
AcDbSpline
70
1064
71
3
72
8
73
4
74
0
42
0.000000001
43
0.0000000001
44
0.0000000001
40
0
40
0
40
0
40
0
40
0.4809641307570352
40
0.4809641307570352
40
0.4809641307570352
40
0.4809641307570352
10
104.57991248228421
20
68.327418702363204
30
0
10
104.70802928018443
20
68.343429201050853
30
0
10
104.86815067126058
20
68.351434450394692
30
0
10
105.06027665551255
20
68.351434450394692
30
0
0
SPLINE
5
241
100
AcDbEntity
8
0
100
AcDbSpline
70
1064
71
3
72
8
73
4
74
0
42
0.000000001
43
0.0000000001
44
0.0000000001
40
0
40
0
40
0
40
0
40
0.31465856578205709
40
0.31465856578205709
40
0.31465856578205709
40
0.31465856578205709
10
61.553731379921999
20
56.892969883465554
30
0
10
61.477648702756639
20
56.860948886090227
30
0
10
61.375548965223828
20
56.83693313805874
30
0
10
61.247432167323581
20
56.820922639371069
30
0
0
SPLINE
5
242
100
AcDbEntity
8
0
100
AcDbSpline
70
1064
71
3
72
8
73
4
74
0
42
0.000000001
43
0.0000000001
44
0.0000000001
40
0
40
0
40
0
40
0
40
0.16751335985773111
40
0.16751335985773111
40
0.16751335985773111
40
0.16751335985773111
10
59.824154608268458
20
57.007093899213586
30
0
10
59.796136235565044
20
57.05115557900362
30
0
10
59.782127049213329
20
57.105207416273956
30
0
10
59.782127049213329
20
57.169249411024616
30
0
0
SPLINE
5
243
100
AcDbEntity
8
0
100
AcDbSpline
70
1064
71
3
72
8
73
4
74
0
42
0.000000001
43
0.0000000001
44
0.0000000001
40
0
40
0
40
0
40
0
40
0.39081882242681149
40
0.39081882242681149
40
0.39081882242681149
40
0.39081882242681149
10
102.48271760039444
20
72.813491537008872
30
0
10
102.49472547441023
20
72.705387862468186
30
0
10
102.50072941141806
20
72.57525334803249
30
0
10
102.50072941141806
20
72.423087993701785
30
0
0
SPLINE
5
244
100
AcDbEntity
8
0
100
AcDbSpline
70
1064
71
3
72
8
73
4
74
0
42
0.000000001
43
0.0000000001
44
0.0000000001
40
0
40
0
40
0
40
0
40
1.0331331829501575
40
1.0331331829501575
40
1.0331331829501575
40
1.0331331829501575
10
42.973662482284176
20
58.56851122204823
30
0
10
43.261917075460047
20
58.420381300788392
30
0
10
43.598235973097836
20
58.346316340158467
30
0
10
43.98261917519757
20
58.346316340158467
30
0
0
LINE
5
245
100
AcDbEntity
8
0
100
AcDbLine
10
49.027206000000007
20
67.979092000000009
30
0
11
49.027206000000007
21
57.169249000000008
31
0
0
SPLINE
5
246
100
AcDbEntity
8
0
100
AcDbSpline
70
1064
71
3
72
8
73
4
74
0
42
0.000000001
43
0.0000000001
44
0.0000000001
40
0
40
0
40
0
40
0
40
0.16751335985773111
40
0.16751335985773111
40
0.16751335985773111
40
0.16751335985773111
10
47.033406576772386
20
67.979091930709657
30
0
10
47.033406576772386
20
68.04313392546031
30
0
10
47.047415763124071
20
68.097185762730646
30
0
10
47.075434135827493
20
68.14124744252068
30
0
0
SPLINE
5
247
100
AcDbEntity
8
0
100
AcDbSpline
70
1064
71
3
72
8
73
4
74
0
42
0.000000001
43
0.0000000001
44
0.0000000001
40
0
40
0
40
0
40
0
40
0.4930556990642303
40
0.4930556990642303
40
0.4930556990642303
40
0.4930556990642303
10
105.06027665551255
20
68.351434450394692
30
0
10
105.26047350590623
20
68.351434450394692
30
0
10
105.42463033005322
20
68.343429201050853
30
0
10
105.55274712795351
20
68.327418702363204
30
0
0
SPLINE
5
248
100
AcDbEntity
8
0
100
AcDbSpline
70
1064
71
3
72
8
73
4
74
0
42
0.000000001
43
0.0000000001
44
0.0000000001
40
0
40
0
40
0
40
0
40
0.16911958675666039
40
0.16911958675666039
40
0.16911958675666039
40
0.16911958675666039
10
41.652501064961356
20
68.14124744252068
30
0
10
41.684522062336676
20
68.097185762730646
30
0
10
41.700532561024339
20
68.04313392546031
30
0
10
41.700532561024339
20
67.979091930709657
30
0
0
LINE
5
249
100
AcDbEntity
8
0
100
AcDbLine
10
41.700533
20
67.979092000000009
30
0
11
41.700533
21
61.685391000000003
31
0
0
SPLINE
5
250
100
AcDbEntity
8
0
100
AcDbSpline
70
1064
71
3
72
8
73
4
74
0
42
0.000000001
43
0.0000000001
44
0.0000000001
40
0
40
0
40
0
40
0
40
0.2215636771329596
40
0.2215636771329596
40
0.2215636771329596
40
0.2215636771329596
10
102.29654634055194
20
73.275942324410451
30
0
10
102.34461064501389
20
73.227910828347461
30
0
10
102.38465329593248
20
73.165853741733272
30
0
10
102.41667429330782
20
73.089771064567927
30
0
0
SPLINE
5
251
100
AcDbEntity
8
0
100
AcDbSpline
70
1064
71
3
72
8
73
4
74
0
42
0.000000001
43
0.0000000001
44
0.0000000001
40
0
40
0
40
0
40
0
40
0.19341045805220661
40
0.19341045805220661
40
0.19341045805220661
40
0.19341045805220661
10
104.27361326968578
20
56.892969883465554
30
0
10
104.19753059252042
20
56.924990880840895
30
0
10
104.14548006758602
20
56.963032219423567
30
0
10
104.11746169488261
20
57.007093899213586
30
0
0
SPLINE
5
252
100
AcDbEntity
8
0
100
AcDbSpline
70
1064
71
3
72
8
73
4
74
0
42
0.000000001
43
0.0000000001
44
0.0000000001
40
0
40
0
40
0
40
0
40
0.30881719175528222
40
0.30881719175528222
40
0.30881719175528222
40
0.30881719175528222
10
105.85304240354404
20
56.892969883465554
30
0
10
105.78096235105059
20
56.860948886090227
30
0
10
105.68086392585373
20
56.83693313805874
30
0
10
105.55274712795351
20
56.820922639371069
30
0
0
LINE
5
253
100
AcDbEntity
8
0
100
AcDbLine
10
104.07543400000002
20
57.169249000000008
30
0
11
104.07543400000002
21
67.979092000000009
31
0
0
SPLINE
5
254
100
AcDbEntity
8
0
100
AcDbSpline
70
1064
71
3
72
8
73
4
74
0
42
0.000000001
43
0.0000000001
44
0.0000000001
40
0
40
0
40
0
40
0
40
0.19701278980521261
40
0.19701278980521261
40
0.19701278980521261
40
0.19701278980521261
10
104.11746169488261
20
68.13524350551279
30
0
10
104.14548006758602
20
68.183307809974735
30
0
10
104.19753059252042
20
68.223350460893386
30
0
10
104.27361326968578
20
68.255371458268698
30
0
0
SPLINE
5
255
100
AcDbEntity
8
0
100
AcDbSpline
70
1064
71
3
72
8
73
4
74
0
42
0.000000001
43
0.0000000001
44
0.0000000001
40
0
40
0
40
0
40
0
40
0.49305569906423097
40
0.49305569906423097
40
0.49305569906423097
40
0.49305569906423097
10
105.55274712795351
20
56.820922639371069
30
0
10
105.42463033005322
20
56.804912140683399
30
0
10
105.26047350590623
20
56.796906891339567
30
0
10
105.06027665551255
20
56.796906891339567
30
0
0
SPLINE
5
256
100
AcDbEntity
8
0
100
AcDbSpline
70
1064
71
3
72
8
73
4
74
0
42
0.000000001
43
0.0000000001
44
0.0000000001
40
0
40
0
40
0
40
0
40
2.2039343337285406
40
2.2039343337285406
40
2.2039343337285406
40
2.2039343337285406
10
45.465985316929853
20
58.874810434646662
30
0
10
45.958439385171332
20
59.227139830972121
30
0
10
46.480913138452166
20
59.743593243045609
30
0
10
47.033406576772386
20
60.424170670867134
30
0
0
SPLINE
5
257
100
AcDbEntity
8
0
100
AcDbSpline
70
1064
71
3
72
8
73
4
74
0
42
0.000000001
43
0.0000000001
44
0.0000000001
40
0
40
0
40
0
40
0
40
0.31465856578207257
40
0.31465856578207257
40
0.31465856578207257
40
0.31465856578207257
10
47.237589647638522
20
68.261375395276588
30
0
10
47.317674949475787
20
68.297399017323826
30
0
10
47.419774687008612
20
68.321414765355314
30
0
10
47.543888860236947
20
68.333422639371079
30
0
0
SPLINE
5
258
100
AcDbEntity
8
0
100
AcDbSpline
70
1064
71
3
72
8
73
4
74
0
42
0.000000001
43
0.0000000001
44
0.0000000001
40
0
40
0
40
0
40
0
40
0.49305569906423097
40
0.49305569906423097
40
0.49305569906423097
40
0.49305569906423097
10
67.805453820866873
20
56.796906891339567
30
0
10
67.605256970473178
20
56.796906891339567
30
0
10
67.441100146326193
20
56.804912140683399
30
0
10
67.312983348425931
20
56.820922639371069
30
0
0
SPLINE
5
259
100
AcDbEntity
8
0
100
AcDbSpline
70
1064
71
3
72
8
73
4
74
0
42
0.000000001
43
0.0000000001
44
0.0000000001
40
0
40
0
40
0
40
0
40
0.28406354176344362
40
0.28406354176344362
40
0.28406354176344362
40
0.28406354176344362
10
102.41667429330782
20
73.089771064567927
30
0
10
102.44869529068318
20
73.013688387402567
30
0
10
102.4707097263787
20
72.921595211549544
30
0
10
102.48271760039444
20
72.813491537008872
30
0
0
LINE
5
260
100
AcDbEntity
8
0
100
AcDbLine
10
66.796497000000002
20
57.169249000000008
30
0
11
66.796497000000002
21
63.739230000000006
31
0
0
SPLINE
5
261
100
AcDbEntity
8
0
100
AcDbSpline
70
1064
71
3
72
8
73
4
74
0
42
0.000000001
43
0.0000000001
44
0.0000000001
40
0
40
0
40
0
40
0
40
0.16751335985773111
40
0.16751335985773111
40
0.16751335985773111
40
0.16751335985773111
10
104.11746169488261
20
57.007093899213586
30
0
10
104.08944332217921
20
57.05115557900362
30
0
10
104.07543413582749
20
57.105207416273956
30
0
10
104.07543413582749
20
57.169249411024616
30
0
0
SPLINE
5
262
100
AcDbEntity
8
0
100
AcDbSpline
70
1064
71
3
72
8
73
4
74
0
42
0.000000001
43
0.0000000001
44
0.0000000001
40
0
40
0
40
0
40
0
40
1.2549215387138699
40
1.2549215387138699
40
1.2549215387138699
40
1.2549215387138699
10
66.796497127953501
20
63.739229725985247
30
0
10
66.796497127953501
20
64.195660172179473
30
0
10
66.756470881234321
20
64.612047967455055
30
0
10
66.676418387796005
20
64.988393111812016
30
0
0
SPLINE
5
263
100
AcDbEntity
8
0
100
AcDbSpline
70
1064
71
3
72
8
73
4
74
0
42
0.000000001
43
0.0000000001
44
0.0000000001
40
0
40
0
40
0
40
0
40
0.16911958675666039
40
0.16911958675666039
40
0.16911958675666039
40
0.16911958675666039
10
106.05722547441016
20
57.169249411024616
30
0
10
106.05722547441016
20
57.105207416273956
30
0
10
106.04121497572253
20
57.05115557900362
30
0
10
106.00919397834718
20
57.007093899213586
30
0
0
SPLINE
5
264
100
AcDbEntity
8
0
100
AcDbSpline
70
1064
71
3
72
8
73
4
74
0
42
0.000000001
43
0.0000000001
44
0.0000000001
40
0
40
0
40
0
40
0
40
1.0460536443298862
40
1.0460536443298862
40
1.0460536443298862
40
1.0460536443298862
10
66.676418387796005
20
64.988393111812016
30
0
10
66.596365894357689
20
65.364738256168962
30
0
10
66.468249096457427
20
65.689032875591536
30
0
10
66.29206799409522
20
65.961276970079737
30
0
0
SPLINE
5
265
100
AcDbEntity
8
0
100
AcDbSpline
70
1064
71
3
72
8
73
4
74
0
42
0.000000001
43
0.0000000001
44
0.0000000001
40
0
40
0
40
0
40
0
40
0.94907733323703081
40
0.94907733323703081
40
0.94907733323703081
40
0.94907733323703081
10
42.259046340551905
20
59.193068308662404
30
0
10
42.447202508530914
20
58.924826838846144
30
0
10
42.685407889108326
20
58.716641143308081
30
0
10
42.973662482284176
20
58.56851122204823
30
0
0
SPLINE
5
266
100
AcDbEntity
8
0
100
AcDbSpline
70
1064
71
3
72
8
73
4
74
0
42
0.000000001
43
0.0000000001
44
0.0000000001
40
0
40
0
40
0
40
0
40
0.91788515516549984
40
0.91788515516549984
40
0.91788515516549984
40
0.91788515516549984
10
66.29206799409522
20
65.961276970079737
30
0
10
66.115886891733012
20
66.233521064567924
30
0
10
65.89167429330783
20
66.441706760105987
30
0
10
65.619430198819629
20
66.585834056693912
30
0
0
SPLINE
5
267
100
AcDbEntity
8
0
100
AcDbSpline
70
1064
71
3
72
8
73
4
74
0
42
0.000000001
43
0.0000000001
44
0.0000000001
40
0
40
0
40
0
40
0
40
0.16911958675666439
40
0.16911958675666439
40
0.16911958675666439
40
0.16911958675666439
10
61.763918387796011
20
57.169249411024616
30
0
10
61.763918387796011
20
57.105207416273956
30
0
10
61.74790788910834
20
57.05115557900362
30
0
10
61.715886891733014
20
57.007093899213586
30
0
0
LINE
5
268
100
AcDbEntity
8
0
100
AcDbLine
10
61.763918000000011
20
64.724072000000007
30
0
11
61.763918000000011
21
57.169249000000008
31
0
0
SPLINE
5
269
100
AcDbEntity
8
0
100
AcDbSpline
70
1064
71
3
72
8
73
4
74
0
42
0.000000001
43
0.0000000001
44
0.0000000001
40
0
40
0
40
0
40
0
40
0.19828943739178789
40
0.19828943739178789
40
0.19828943739178789
40
0.19828943739178789
10
67.006733348425925
20
56.892969883465554
30
0
10
66.930683479659521
20
56.924990880840895
30
0
10
66.876631642389185
20
56.963032219423567
30
0
10
66.844577836614889
20
57.007093899213586
30
0
0
SPLINE
5
270
100
AcDbEntity
8
0
100
AcDbSpline
70
1064
71
3
72
8
73
4
74
0
42
0.000000001
43
0.0000000001
44
0.0000000001
40
0
40
0
40
0
40
0
40
1.5747003265214086
40
1.5747003265214086
40
1.5747003265214086
40
1.5747003265214086
10
43.98261917519757
20
58.346316340158467
30
0
10
44.479075868110968
20
58.346316340158467
30
0
10
44.973531248688403
20
58.522481038321203
30
0
10
45.465985316929853
20
58.874810434646662
30
0
0
SPLINE
5
271
100
AcDbEntity
8
0
100
AcDbSpline
70
1064
71
3
72
8
73
4
74
0
42
0.000000001
43
0.0000000001
44
0.0000000001
40
0
40
0
40
0
40
0
40
1.4788582159989538
40
1.4788582159989538
40
1.4788582159989538
40
1.4788582159989538
10
57.632127049213331
20
66.802025001575799
30
0
10
57.17576221981701
20
66.802025001575799
30
0
10
56.715361957349813
20
66.625860303413063
30
0
10
56.25092626181177
20
66.273530907087604
30
0
0
SPLINE
5
272
100
AcDbEntity
8
0
100
AcDbSpline
70
1064
71
3
72
8
73
4
74
0
42
0.000000001
43
0.0000000001
44
0.0000000001
40
0
40
0
40
0
40
0
40
2.1659083092583744
40
2.1659083092583744
40
2.1659083092583744
40
2.1659083092583744
10
56.25092626181177
20
66.273530907087604
30
0
10
55.786490566273699
20
65.921201510762145
30
0
10
55.282028624016483
20
65.404715290289715
30
0
10
54.737540435040103
20
64.724072245670285
30
0
0
SPLINE
5
273
100
AcDbEntity
8
0
100
AcDbSpline
70
1064
71
3
72
8
73
4
74
0
42
0.000000001
43
0.0000000001
44
0.0000000001
40
0
40
0
40
0
40
0
40
0.2854715262243489
40
0.2854715262243489
40
0.2854715262243489
40
0.2854715262243489
10
52.935916419292077
20
68.261375395276588
30
0
10
53.007996471785511
20
68.297399017323826
30
0
10
53.100073243439041
20
68.321414765355314
30
0
10
53.212146734252705
20
68.333422639371079
30
0
0
SPLINE
5
274
100
AcDbEntity
8
0
100
AcDbSpline
70
1064
71
3
72
8
73
4
74
0
42
0.000000001
43
0.0000000001
44
0.0000000001
40
0
40
0
40
0
40
0
40
1.7992986268824558
40
1.7992986268824558
40
1.7992986268824558
40
1.7992986268824558
10
56.316969568898365
20
68.045135237796273
30
0
10
56.88947613057816
20
68.361408203675524
30
0
10
57.468019437664779
20
68.519544686615163
30
0
10
58.052599490158215
20
68.519544686615163
30
0
0
SPLINE
5
275
100
AcDbEntity
8
0
100
AcDbSpline
70
1064
71
3
72
8
73
4
74
0
42
0.000000001
43
0.0000000001
44
0.0000000001
40
0
40
0
40
0
40
0
40
0.19341045805220661
40
0.19341045805220661
40
0.19341045805220661
40
0.19341045805220661
10
54.689508938977113
20
57.007093899213586
30
0
10
54.657487941601779
20
56.963032219423567
30
0
10
54.605437416667399
20
56.924990880840895
30
0
10
54.533357364173966
20
56.892969883465554
30
0
0
SPLINE
5
276
100
AcDbEntity
8
0
100
AcDbSpline
70
1064
71
3
72
8
73
4
74
0
42
0.000000001
43
0.0000000001
44
0.0000000001
40
0
40
0
40
0
40
0
40
1.4312145246258716
40
1.4312145246258716
40
1.4312145246258716
40
1.4312145246258716
10
61.379567994095218
20
66.381650985827761
30
0
10
61.739935448163472
20
66.773973820473429
30
0
10
62.082258282809136
20
67.106257285040357
30
0
10
62.406536498032217
20
67.378501379528558
30
0
0
SPLINE
5
277
100
AcDbEntity
8
0
100
AcDbSpline
70
1064
71
3
72
8
73
4
74
0
42
0.000000001
43
0.0000000001
44
0.0000000001
40
0
40
0
40
0
40
0
40
0.99450160253359055
40
0.99450160253359055
40
0.99450160253359055
40
0.99450160253359055
10
60.899154608268454
20
67.252418702363201
30
0
10
61.091346209318331
20
66.992182481890751
30
0
10
61.251484004593905
20
66.701926576378952
30
0
10
61.379567994095218
20
66.381650985827761
30
0
0
LINE
5
278
100
AcDbEntity
8
0
100
AcDbLine
10
54.737540000000003
20
64.724072000000007
30
0
11
54.737540000000003
21
57.169249000000008
31
0
0
SPLINE
5
279
100
AcDbEntity
8
0
100
AcDbSpline
70
1064
71
3
72
8
73
4
74
0
42
0.000000001
43
0.0000000001
44
0.0000000001
40
0
40
0
40
0
40
0
40
1.039795644476275
40
1.039795644476275
40
1.039795644476275
40
1.039795644476275
10
59.25963689173301
20
68.363442324410443
30
0
10
59.615968912730395
20
68.259374082940639
30
0
10
59.930256970473181
20
68.113245474016736
30
0
10
60.202501064961353
20
67.925056497638792
30
0
0
SPLINE
5
280
100
AcDbEntity
8
0
100
AcDbSpline
70
1064
71
3
72
8
73
4
74
0
42
0.000000001
43
0.0000000001
44
0.0000000001
40
0
40
0
40
0
40
0
40
0.4447546373995141
40
0.4447546373995141
40
0.4447546373995141
40
0.4447546373995141
10
53.212146734252705
20
68.333422639371079
30
0
10
53.324220225066348
20
68.345430513386816
30
0
10
53.472350146326178
20
68.351434450394692
30
0
10
53.656536498032217
20
68.351434450394692
30
0
0
SPLINE
5
281
100
AcDbEntity
8
0
100
AcDbSpline
70
1064
71
3
72
8
73
4
74
0
42
0.000000001
43
0.0000000001
44
0.0000000001
40
0
40
0
40
0
40
0
40
0.18302930191318509
40
0.18302930191318509
40
0.18302930191318509
40
0.18302930191318509
10
54.365197915355061
20
68.261375395276588
30
0
10
54.429239910105721
20
68.225351773229335
30
0
10
54.475270093832762
20
68.185309122310699
30
0
10
54.503288466536162
20
68.14124744252068
30
0
0
SPLINE
5
282
100
AcDbEntity
8
0
100
AcDbSpline
70
1064
71
3
72
8
73
4
74
0
42
0.000000001
43
0.0000000001
44
0.0000000001
40
0
40
0
40
0
40
0
40
0.19341045805219509
40
0.19341045805219509
40
0.19341045805219509
40
0.19341045805219509
10
59.980306183071605
20
56.892969883465554
30
0
10
59.904223505906238
20
56.924990880840895
30
0
10
59.852172980971865
20
56.963032219423567
30
0
10
59.824154608268458
20
57.007093899213586
30
0
0
SPLINE
5
283
100
AcDbEntity
8
0
100
AcDbSpline
70
1064
71
3
72
8
73
4
74
0
42
0.000000001
43
0.0000000001
44
0.0000000001
40
0
40
0
40
0
40
0
40
0.43880486447143152
40
0.43880486447143152
40
0.43880486447143152
40
0.43880486447143152
10
53.656536498032217
20
68.351434450394692
30
0
10
53.832717600394432
20
68.351434450394692
30
0
10
53.978862613517791
20
68.345430513386816
30
0
10
54.094971537402294
20
68.333422639371079
30
0
0
SPLINE
5
284
100
AcDbEntity
8
0
100
AcDbSpline
70
1064
71
3
72
8
73
4
74
0
42
0.000000001
43
0.0000000001
44
0.0000000001
40
0
40
0
40
0
40
0
40
0.96838409891712685
40
0.96838409891712685
40
0.96838409891712685
40
0.96838409891712685
10
60.202501064961353
20
67.925056497638792
30
0
10
60.474745159449547
20
67.736867521260834
30
0
10
60.70696300721859
20
67.512654922835637
30
0
10
60.899154608268454
20
67.252418702363201
30
0
0
SPLINE
5
285
100
AcDbEntity
8
0
100
AcDbSpline
70
1064
71
3
72
8
73
4
74
0
42
0.000000001
43
0.0000000001
44
0.0000000001
40
0
40
0
40
0
40
0
40
0.95027300732971676
40
0.95027300732971676
40
0.95027300732971676
40
0.95027300732971676
10
63.343396734252693
20
68.039131300788398
30
0
10
63.643692009843242
20
68.207307153806767
30
0
10
63.935965631890497
20
68.329420014699153
30
0
10
64.220217600394434
20
68.405469883465557
30
0
0
SPLINE
5
286
100
AcDbEntity
8
0
100
AcDbSpline
70
1064
71
3
72
8
73
4
74
0
42
0.000000001
43
0.0000000001
44
0.0000000001
40
0
40
0
40
0
40
0
40
1.1463590166587665
40
1.1463590166587665
40
1.1463590166587665
40
1.1463590166587665
10
62.406536498032217
20
67.378501379528558
30
0
10
62.730814713255327
20
67.650745474016745
30
0
10
63.043101458662143
20
67.870955447770029
30
0
10
63.343396734252693
20
68.039131300788398
30
0
0
SPLINE
5
287
100
AcDbEntity
8
0
100
AcDbSpline
70
1064
71
3
72
8
73
4
74
0
42
0.000000001
43
0.0000000001
44
0.0000000001
40
0
40
0
40
0
40
0
40
1.7914493245004861
40
1.7914493245004861
40
1.7914493245004861
40
1.7914493245004861
10
65.078977442914109
20
68.519544686615163
30
0
10
65.775630986221202
20
68.519544686615163
30
0
10
66.360161826116212
20
68.397431825722762
30
0
10
66.832569962599138
20
68.15320610393799
30
0
0
SPLINE
5
288
100
AcDbEntity
8
0
100
AcDbSpline
70
1064
71
3
72
8
73
4
74
0
42
0.000000001
43
0.0000000001
44
0.0000000001
40
0
40
0
40
0
40
0
40
0.86630336940244979
40
0.86630336940244979
40
0.86630336940244979
40
0.86630336940244979
10
64.220217600394434
20
68.405469883465557
30
0
10
64.504469568898358
20
68.481519752231961
30
0
10
64.790722849738259
20
68.519544686615163
30
0
10
65.078977442914109
20
68.519544686615163
30
0
0
SPLINE
5
289
100
AcDbEntity
8
0
100
AcDbSpline
70
1064
71
3
72
8
73
4
74
0
42
0.000000001
43
0.0000000001
44
0.0000000001
40
0
40
0
40
0
40
0
40
0.16610873353348071
40
0.16610873353348071
40
0.16610873353348071
40
0.16610873353348071
10
52.755749096457421
20
67.979091930709657
30
0
10
52.755749096457421
20
68.04313392546031
30
0
10
52.767756970473172
20
68.097185762730646
30
0
10
52.79177271850466
20
68.14124744252068
30
0
0
SPLINE
5
290
100
AcDbEntity
8
0
100
AcDbSpline
70
1064
71
3
72
8
73
4
74
0
42
0.000000001
43
0.0000000001
44
0.0000000001
40
0
40
0
40
0
40
0
40
1.5079584529834678
40
1.5079584529834678
40
1.5079584529834678
40
1.5079584529834678
10
66.832569962599138
20
68.15320610393799
30
0
10
67.304978099082092
20
67.908980382153231
30
0
10
67.687327180446928
20
67.582684450394694
30
0
10
67.979617206693646
20
67.174318308662407
30
0
0
SPLINE
5
291
100
AcDbEntity
8
0
100
AcDbSpline
70
1064
71
3
72
8
73
4
74
0
42
0.000000001
43
0.0000000001
44
0.0000000001
40
0
40
0
40
0
40
0
40
1.05052504875664
40
1.05052504875664
40
1.05052504875664
40
1.05052504875664
10
59.64999122244167
20
64.988393111812016
30
0
10
59.561900671260574
20
65.364738256168962
30
0
10
59.4297812486884
20
65.689032875591536
30
0
10
59.253632954725148
20
65.961276970079737
30
0
0
SPLINE
5
292
100
AcDbEntity
8
0
100
AcDbSpline
70
1064
71
3
72
8
73
4
74
0
42
0.000000001
43
0.0000000001
44
0.0000000001
40
0
40
0
40
0
40
0
40
1.7454882731826049
40
1.7454882731826049
40
1.7454882731826049
40
1.7454882731826049
10
68.604223505906234
20
65.739032875591533
30
0
10
68.728337679134597
20
65.190542061943248
30
0
10
68.790394765748758
20
64.612031563255584
30
0
10
68.790394765748758
20
64.003501379528558
30
0
0
LINE
5
293
100
AcDbEntity
8
0
100
AcDbLine
10
68.79039499999999
20
64.003501
30
0
11
68.79039499999999
21
57.169248999999994
31
0
0
SPLINE
5
294
100
AcDbEntity
8
0
100
AcDbSpline
70
1064
71
3
72
8
73
4
74
0
42
0.000000001
43
0.0000000001
44
0.0000000001
40
0
40
0
40
0
40
0
40
0.16911958675666039
40
0.16911958675666039
40
0.16911958675666039
40
0.16911958675666039
10
74.372186104331433
20
57.169249411024616
30
0
10
74.372186104331433
20
57.105207416273956
30
0
10
74.356175605643784
20
57.05115557900362
30
0
10
74.324154608268458
20
57.007093899213586
30
0
0
SPLINE
5
295
100
AcDbEntity
8
0
100
AcDbSpline
70
1064
71
3
72
8
73
4
74
0
42
0.000000001
43
0.0000000001
44
0.0000000001
40
0
40
0
40
0
40
0
40
1.565304220719234
40
1.565304220719234
40
1.565304220719234
40
1.565304220719234
10
67.979617206693646
20
67.174318308662407
30
0
10
68.271907232940364
20
66.76595216693012
30
0
10
68.480109332677898
20
66.287523689239833
30
0
10
68.604223505906234
20
65.739032875591533
30
0
0
SPLINE
5
296
100
AcDbEntity
8
0
100
AcDbSpline
70
1064
71
3
72
8
73
4
74
0
42
0.000000001
43
0.0000000001
44
0.0000000001
40
0
40
0
40
0
40
0
40
0.19341045805219509
40
0.19341045805219509
40
0.19341045805219509
40
0.19341045805219509
10
74.324154608268458
20
57.007093899213586
30
0
10
74.292133610893103
20
56.963032219423567
30
0
10
74.240083085958744
20
56.924990880840895
30
0
10
74.168003033465311
20
56.892969883465554
30
0
0
SPLINE
5
297
100
AcDbEntity
8
0
100
AcDbSpline
70
1064
71
3
72
8
73
4
74
0
42
0.000000001
43
0.0000000001
44
0.0000000001
40
0
40
0
40
0
40
0
40
0.16751335985773111
40
0.16751335985773111
40
0.16751335985773111
40
0.16751335985773111
10
52.797776655512543
20
57.007093899213586
30
0
10
52.769758282809114
20
57.05115557900362
30
0
10
52.755749096457421
20
57.105207416273956
30
0
10
52.755749096457421
20
57.169249411024616
30
0
0
SPLINE
5
298
100
AcDbEntity
8
0
100
AcDbSpline
70
1064
71
3
72
8
73
4
74
0
42
0.000000001
43
0.0000000001
44
0.0000000001
40
0
40
0
40
0
40
0
40
1.2561325731015851
40
1.2561325731015851
40
1.2561325731015851
40
1.2561325731015851
10
59.782127049213329
20
63.739229725985247
30
0
10
59.782127049213329
20
64.195660172179473
30
0
10
59.738081773622767
20
64.612047967455055
30
0
10
59.64999122244167
20
64.988393111812016
30
0
0
SPLINE
5
299
100
AcDbEntity
8
0
100
AcDbSpline
70
1064
71
3
72
8
73
4
74
0
42
0.000000001
43
0.0000000001
44
0.0000000001
40
0
40
0
40
0
40
0
40
0.91345861662257977
40
0.91345861662257977
40
0.91345861662257977
40
0.91345861662257977
10
59.253632954725148
20
65.961276970079737
30
0
10
59.07748466076189
20
66.233521064567924
30
0
10
58.85528977887212
20
66.441706760105987
30
0
10
58.587048309055859
20
66.585834056693912
30
0
0
SPLINE
5
300
100
AcDbEntity
8
0
100
AcDbSpline
70
1064
71
3
72
8
73
4
74
0
42
0.000000001
43
0.0000000001
44
0.0000000001
40
0
40
0
40
0
40
0
40
0.16911958675666039
40
0.16911958675666039
40
0.16911958675666039
40
0.16911958675666039
10
54.737540435040103
20
57.169249411024616
30
0
10
54.737540435040103
20
57.105207416273956
30
0
10
54.721529936352439
20
57.05115557900362
30
0
10
54.689508938977113
20
57.007093899213586
30
0
0
SPLINE
5
301
100
AcDbEntity
8
0
100
AcDbSpline
70
1064
71
3
72
8
73
4
74
0
42
0.000000001
43
0.0000000001
44
0.0000000001
40
0
40
0
40
0
40
0
40
0.19341045805219509
40
0.19341045805219509
40
0.19341045805219509
40
0.19341045805219509
10
52.953928230315682
20
56.892969883465554
30
0
10
52.877845553150337
20
56.924990880840895
30
0
10
52.82579502821595
20
56.963032219423567
30
0
10
52.797776655512543
20
57.007093899213586
30
0
0
LINE
5
302
100
AcDbEntity
8
0
100
AcDbLine
10
52.755749000000009
20
57.169249000000008
30
0
11
52.755749000000009
21
67.979092000000009
31
0
0
SPLINE
5
303
100
AcDbEntity
8
0
100
AcDbSpline
70
1064
71
3
72
8
73
4
74
0
42
0.000000001
43
0.0000000001
44
0.0000000001
40
0
40
0
40
0
40
0
40
0.48096413075703592
40
0.48096413075703592
40
0.48096413075703592
40
0.48096413075703592
10
53.740591616142481
20
56.796906891339567
30
0
10
53.548465631890494
20
56.796906891339567
30
0
10
53.388344240814391
20
56.804912140683399
30
0
10
53.260227442914115
20
56.820922639371069
30
0
0
SPLINE
5
304
100
AcDbEntity
8
0
100
AcDbSpline
70
1064
71
3
72
8
73
4
74
0
42
0.000000001
43
0.0000000001
44
0.0000000001
40
0
40
0
40
0
40
0
40
0.31465856578207108
40
0.31465856578207108
40
0.31465856578207108
40
0.31465856578207108
10
53.260227442914115
20
56.820922639371069
30
0
10
53.132110645013846
20
56.83693313805874
30
0
10
53.030010907481042
20
56.860948886090227
30
0
10
52.953928230315682
20
56.892969883465554
30
0
0
SPLINE
5
305
100
AcDbEntity
8
0
100
AcDbSpline
70
1064
71
3
72
8
73
4
74
0
42
0.000000001
43
0.0000000001
44
0.0000000001
40
0
40
0
40
0
40
0
40
2.3183829977997523
40
2.3183829977997523
40
2.3183829977997523
40
2.3183829977997523
10
54.545316025591283
20
66.549761222048247
30
0
10
55.153911826116214
20
67.230404266667662
30
0
10
55.744463007218584
20
67.728862271916995
30
0
10
56.316969568898365
20
68.045135237796273
30
0
0
SPLINE
5
306
100
AcDbEntity
8
0
100
AcDbSpline
70
1064
71
3
72
8
73
4
74
0
42
0.000000001
43
0.0000000001
44
0.0000000001
40
0
40
0
40
0
40
0
40
1.2170896582776165
40
1.2170896582776165
40
1.2170896582776165
40
1.2170896582776165
10
58.052599490158215
20
68.519544686615163
30
0
10
58.500959070210712
20
68.519544686615163
30
0
10
58.903304870735653
20
68.467510565880247
30
0
10
59.25963689173301
20
68.363442324410443
30
0
0
SPLINE
5
307
100
AcDbEntity
8
0
100
AcDbSpline
70
1064
71
3
72
8
73
4
74
0
42
0.000000001
43
0.0000000001
44
0.0000000001
40
0
40
0
40
0
40
0
40
0.97908791083750579
40
0.97908791083750579
40
0.97908791083750579
40
0.97908791083750579
10
58.587048309055859
20
66.585834056693912
30
0
10
58.318806839239585
20
66.729961353281823
30
0
10
58.000499752625387
20
66.802025001575799
30
0
10
57.632127049213331
20
66.802025001575799
30
0
0
LINE
5
308
100
AcDbEntity
8
0
100
AcDbLine
10
59.782127000000003
20
57.169249000000008
30
0
11
59.782127000000003
21
63.739230000000006
31
0
0
SPLINE
5
309
100
AcDbEntity
8
0
100
AcDbSpline
70
1064
71
3
72
8
73
4
74
0
42
0.000000001
43
0.0000000001
44
0.0000000001
40
0
40
0
40
0
40
0
40
0.18763829968856591
40
0.18763829968856591
40
0.18763829968856591
40
0.18763829968856591
10
52.79177271850466
20
68.14124744252068
30
0
10
52.815788466536162
20
68.185309122310699
30
0
10
52.863836366798637
20
68.225351773229335
30
0
10
52.935916419292077
20
68.261375395276588
30
0
0
SPLINE
5
310
100
AcDbEntity
8
0
100
AcDbSpline
70
1064
71
3
72
8
73
4
74
0
42
0.000000001
43
0.0000000001
44
0.0000000001
40
0
40
0
40
0
40
0
40
0.30881719175526828
40
0.30881719175526828
40
0.30881719175526828
40
0.30881719175526828
10
54.533357364173966
20
56.892969883465554
30
0
10
54.461277311680512
20
56.860948886090227
30
0
10
54.361178886483678
20
56.83693313805874
30
0
10
54.233062088583409
20
56.820922639371069
30
0
0
SPLINE
5
311
100
AcDbEntity
8
0
100
AcDbSpline
70
1064
71
3
72
8
73
4
74
0
42
0.000000001
43
0.0000000001
44
0.0000000001
40
0
40
0
40
0
40
0
40
0.49305569906423097
40
0.49305569906423097
40
0.49305569906423097
40
0.49305569906423097
10
54.233062088583409
20
56.820922639371069
30
0
10
54.104945290683133
20
56.804912140683399
30
0
10
53.940788466536169
20
56.796906891339567
30
0
10
53.740591616142481
20
56.796906891339567
30
0
0
SPLINE
5
312
100
AcDbEntity
8
0
100
AcDbSpline
70
1064
71
3
72
8
73
4
74
0
42
0.000000001
43
0.0000000001
44
0.0000000001
40
0
40
0
40
0
40
0
40
0.27966605214626111
40
0.27966605214626111
40
0.27966605214626111
40
0.27966605214626111
10
54.094971537402294
20
68.333422639371079
30
0
10
54.211080461286812
20
68.321414765355314
30
0
10
54.301155920604401
20
68.297399017323826
30
0
10
54.365197915355061
20
68.261375395276588
30
0
0
LINE
5
313
100
AcDbEntity
8
0
100
AcDbLine
10
54.545316000000014
20
67.979092000000009
30
0
11
54.545316000000014
21
66.549761000000004
31
0
0
SPLINE
5
314
100
AcDbEntity
8
0
100
AcDbSpline
70
1064
71
3
72
8
73
4
74
0
42
0.000000001
43
0.0000000001
44
0.0000000001
40
0
40
0
40
0
40
0
40
0.16751335985773111
40
0.16751335985773111
40
0.16751335985773111
40
0.16751335985773111
10
54.503288466536162
20
68.14124744252068
30
0
10
54.531306839239583
20
68.097185762730646
30
0
10
54.545316025591283
20
68.04313392546031
30
0
10
54.545316025591283
20
67.979091930709657
30
0
0
SPLINE
5
315
100
AcDbEntity
8
0
100
AcDbSpline
70
1064
71
3
72
8
73
4
74
0
42
0.000000001
43
0.0000000001
44
0.0000000001
40
0
40
0
40
0
40
0
40
0.98606823070141159
40
0.98606823070141159
40
0.98606823070141159
40
0.98606823070141159
10
73.363229411418047
20
70.429288781103338
30
0
10
72.898859332677887
20
70.429288781103338
30
0
10
72.580585054462688
20
70.511375395276573
30
0
10
72.408406576772379
20
70.67554862362303
30
0
0
SPLINE
5
316
100
AcDbEntity
8
0
100
AcDbSpline
70
1064
71
3
72
8
73
4
74
0
42
0.000000001
43
0.0000000001
44
0.0000000001
40
0
40
0
40
0
40
0
40
0.27822762849638938
40
0.27822762849638938
40
0.27822762849638938
40
0.27822762849638938
10
87.064656576772364
20
56.886965946457686
30
0
10
86.996579148950843
20
56.858947573754278
30
0
10
86.906487285433784
20
56.83693313805874
30
0
10
86.794380986221199
20
56.820922639371069
30
0
0
SPLINE
5
317
100
AcDbEntity
8
0
100
AcDbSpline
70
1064
71
3
72
8
73
4
74
0
42
0.000000001
43
0.0000000001
44
0.0000000001
40
0
40
0
40
0
40
0
40
0.183852379498193
40
0.183852379498193
40
0.183852379498193
40
0.183852379498193
10
87.208800277559803
20
57.001089962205711
30
0
10
87.180781904856389
20
56.953025657743773
30
0
10
87.132734004593914
20
56.914984319161093
30
0
10
87.064656576772364
20
56.886965946457686
30
0
0
SPLINE
5
318
100
AcDbEntity
8
0
100
AcDbSpline
70
1064
71
3
72
8
73
4
74
0
42
0.000000001
43
0.0000000001
44
0.0000000001
40
0
40
0
40
0
40
0
40
0.48096413075703592
40
0.48096413075703592
40
0.48096413075703592
40
0.48096413075703592
10
73.375237285433798
20
56.796906891339567
30
0
10
73.18311130118181
20
56.796906891339567
30
0
10
73.022989910105707
20
56.804912140683399
30
0
10
72.894873112205445
20
56.820922639371069
30
0
0
SPLINE
5
319
100
AcDbEntity
8
0
100
AcDbSpline
70
1064
71
3
72
8
73
4
74
0
42
0.000000001
43
0.0000000001
44
0.0000000001
40
0
40
0
40
0
40
0
40
1.8847839069544483
40
1.8847839069544483
40
1.8847839069544483
40
1.8847839069544483
10
45.399892797244817
20
57.109160828347441
30
0
10
44.799335054462659
20
56.796857678741148
30
0
10
44.190788466536162
20
56.640706103937994
30
0
10
43.574253033465304
20
56.640706103937994
30
0
0
SPLINE
5
320
100
AcDbEntity
8
0
100
AcDbSpline
70
1064
71
3
72
8
73
4
74
0
42
0.000000001
43
0.0000000001
44
0.0000000001
40
0
40
0
40
0
40
0
40
0.2017651537747023
40
0.2017651537747023
40
0.2017651537747023
40
0.2017651537747023
10
39.748760907481042
20
68.14124744252068
30
0
10
39.776779280184456
20
68.185309122310699
30
0
10
39.830814713255322
20
68.225351773229335
30
0
10
39.910867206693638
20
68.261375395276588
30
0
0
SPLINE
5
321
100
AcDbEntity
8
0
100
AcDbSpline
70
1064
71
3
72
8
73
4
74
0
42
0.000000001
43
0.0000000001
44
0.0000000001
40
0
40
0
40
0
40
0
40
0.31465856578207257
40
0.31465856578207257
40
0.31465856578207257
40
0.31465856578207257
10
41.184046340551916
20
68.333422639371079
30
0
10
41.312163138452156
20
68.321414765355314
30
0
10
41.414262875984981
20
68.297399017323826
30
0
10
41.490345553150334
20
68.261375395276588
30
0
0
SPLINE
5
322
100
AcDbEntity
8
0
100
AcDbSpline
70
1064
71
3
72
8
73
4
74
0
42
0.000000001
43
0.0000000001
44
0.0000000001
40
0
40
0
40
0
40
0
40
1.0049972316308879
40
1.0049972316308879
40
1.0049972316308879
40
1.0049972316308879
10
72.414410513780268
20
72.555223820473444
30
0
10
72.590591616142447
20
72.723366865092856
30
0
10
72.91486983136555
20
72.80743838740257
30
0
10
73.387245159449549
20
72.80743838740257
30
0
0
SPLINE
5
323
100
AcDbEntity
8
0
100
AcDbSpline
70
1064
71
3
72
8
73
4
74
0
42
0.000000001
43
0.0000000001
44
0.0000000001
40
0
40
0
40
0
40
0
40
0.42110859298615161
40
0.42110859298615161
40
0.42110859298615161
40
0.42110859298615161
10
86.386064057087339
20
56.796906891339567
30
0
10
86.21788820406897
20
56.796906891339567
30
0
10
86.077747127953472
20
56.804912140683399
30
0
10
85.965640828740902
20
56.820922639371069
30
0
0
SPLINE
5
324
100
AcDbEntity
8
0
100
AcDbSpline
70
1064
71
3
72
8
73
4
74
0
42
0.000000001
43
0.0000000001
44
0.0000000001
40
0
40
0
40
0
40
0
40
0.40902257978112549
40
0.40902257978112549
40
0.40902257978112549
40
0.40902257978112549
10
86.794380986221199
20
56.820922639371069
30
0
10
86.682274687008615
20
56.804912140683399
30
0
10
86.546169043963985
20
56.796906891339567
30
0
10
86.386064057087339
20
56.796906891339567
30
0
0
SPLINE
5
325
100
AcDbEntity
8
0
100
AcDbSpline
70
1064
71
3
72
8
73
4
74
0
42
0.000000001
43
0.0000000001
44
0.0000000001
40
0
40
0
40
0
40
0
40
0.96597310826729355
40
0.96597310826729355
40
0.96597310826729355
40
0.96597310826729355
10
72.408406576772379
20
70.67554862362303
30
0
10
72.236228099082112
20
70.839721851969486
30
0
10
72.15013886023695
20
71.149990880840875
30
0
10
72.15013886023695
20
71.60635571023721
30
0
0
SPLINE
5
326
100
AcDbEntity
8
0
100
AcDbSpline
70
1064
71
3
72
8
73
4
74
0
42
0.000000001
43
0.0000000001
44
0.0000000001
40
0
40
0
40
0
40
0
40
0.19341045805219509
40
0.19341045805219509
40
0.19341045805219509
40
0.19341045805219509
10
85.689410513780274
20
56.886965946457686
30
0
10
85.617363269685768
20
56.914984319161093
30
0
10
85.565312744751395
20
56.953025657743773
30
0
10
85.533258938977099
20
57.001089962205711
30
0
0
SPLINE
5
327
100
AcDbEntity
8
0
100
AcDbSpline
70
1064
71
3
72
8
73
4
74
0
42
0.000000001
43
0.0000000001
44
0.0000000001
40
0
40
0
40
0
40
0
40
0.16751335985773461
40
0.16751335985773461
40
0.16751335985773461
40
0.16751335985773461
10
39.706733348425928
20
67.979091930709657
30
0
10
39.706733348425928
20
68.04313392546031
30
0
10
39.720742534777628
20
68.097185762730646
30
0
10
39.748760907481042
20
68.14124744252068
30
0
0
SPLINE
5
328
100
AcDbEntity
8
0
100
AcDbSpline
70
1064
71
3
72
8
73
4
74
0
42
0.000000001
43
0.0000000001
44
0.0000000001
40
0
40
0
40
0
40
0
40
0.31465856578205709
40
0.31465856578205709
40
0.31465856578205709
40
0.31465856578205709
10
72.894873112205445
20
56.820922639371069
30
0
10
72.766756314305198
20
56.83693313805874
30
0
10
72.664656576772373
20
56.860948886090227
30
0
10
72.588573899607013
20
56.892969883465554
30
0
0
SPLINE
5
329
100
AcDbEntity
8
0
100
AcDbSpline
70
1064
71
3
72
8
73
4
74
0
42
0.000000001
43
0.0000000001
44
0.0000000001
40
0
40
0
40
0
40
0
40
1.8550187867989163
40
1.8550187867989163
40
1.8550187867989163
40
1.8550187867989163
10
43.574253033465304
20
56.640706103937994
30
0
10
42.853583742126716
20
56.640706103937994
30
0
10
42.247022062336683
20
56.760817652494424
30
0
10
41.754567994095211
20
57.001040749607284
30
0
0
SPLINE
5
330
100
AcDbEntity
8
0
100
AcDbSpline
70
1064
71
3
72
8
73
4
74
0
42
0.000000001
43
0.0000000001
44
0.0000000001
40
0
40
0
40
0
40
0
40
2.009598867006074
40
2.009598867006074
40
2.009598867006074
40
2.009598867006074
10
39.904912482284189
20
59.421316340158469
30
0
10
39.772793059712008
20
59.969807153806762
30
0
10
39.706733348425928
20
60.636408203675529
30
0
10
39.706733348425928
20
61.42111948976477
30
0
0
SPLINE
5
331
100
AcDbEntity
8
0
100
AcDbSpline
70
1064
71
3
72
8
73
4
74
0
42
0.000000001
43
0.0000000001
44
0.0000000001
40
0
40
0
40
0
40
0
40
1.5830122109138005
40
1.5830122109138005
40
1.5830122109138005
40
1.5830122109138005
10
40.559489253937727
20
57.979977757481301
30
0
10
40.255224162074221
20
58.392379332284456
30
0
10
40.03703190485637
20
58.872825526510169
30
0
10
39.904912482284189
20
59.421316340158469
30
0
0
SPLINE
5
332
100
AcDbEntity
8
0
100
AcDbSpline
70
1064
71
3
72
8
73
4
74
0
42
0.000000001
43
0.0000000001
44
0.0000000001
40
0
40
0
40
0
40
0
40
0.48080009756847042
40
0.48080009756847042
40
0.48080009756847042
40
0.48080009756847042
10
40.223121143701512
20
68.333422639371079
30
0
10
40.351237941601774
20
68.345430513386816
30
0
10
40.511392141076854
20
68.351434450394692
30
0
10
40.70358374212671
20
68.351434450394692
30
0
0
SPLINE
5
333
100
AcDbEntity
8
0
100
AcDbSpline
70
1064
71
3
72
8
73
4
74
0
42
0.000000001
43
0.0000000001
44
0.0000000001
40
0
40
0
40
0
40
0
40
0.20180469529726081
40
0.20180469529726081
40
0.20180469529726081
40
0.20180469529726081
10
41.490345553150334
20
68.261375395276588
30
0
10
41.566428230315687
20
68.225351773229335
30
0
10
41.62048006758603
20
68.185309122310699
30
0
10
41.652501064961356
20
68.14124744252068
30
0
0
SPLINE
5
334
100
AcDbEntity
8
0
100
AcDbSpline
70
1064
71
3
72
8
73
4
74
0
42
0.000000001
43
0.0000000001
44
0.0000000001
40
0
40
0
40
0
40
0
40
0.17333180881536611
40
0.17333180881536611
40
0.17333180881536611
40
0.17333180881536611
10
87.250827836614917
20
57.169249411024616
30
0
10
87.250827836614917
20
57.105207416273956
30
0
10
87.236818650263203
20
57.049154266667657
30
0
10
87.208800277559803
20
57.001089962205711
30
0
0
SPLINE
5
335
100
AcDbEntity
8
0
100
AcDbSpline
70
1064
71
3
72
8
73
4
74
0
42
0.000000001
43
0.0000000001
44
0.0000000001
40
0
40
0
40
0
40
0
40
1.5448400760472687
40
1.5448400760472687
40
1.5448400760472687
40
1.5448400760472687
10
41.754567994095211
20
57.001040749607284
30
0
10
41.262113925853747
20
57.241263846720152
30
0
10
40.863754345801254
20
57.56757618267816
30
0
10
40.559489253937727
20
57.979977757481301
30
0
0
SPLINE
5
336
100
AcDbEntity
8
0
100
AcDbSpline
70
1064
71
3
72
8
73
4
74
0
42
0.000000001
43
0.0000000001
44
0.0000000001
40
0
40
0
40
0
40
0
40
0.48080009756845621
40
0.48080009756845621
40
0.48080009756845621
40
0.48080009756845621
10
40.70358374212671
20
68.351434450394692
30
0
10
40.895775343176581
20
68.351434450394692
30
0
10
41.05592954265164
20
68.345430513386816
30
0
10
41.184046340551916
20
68.333422639371079
30
0
0
SPLINE
5
337
100
AcDbEntity
8
0
100
AcDbSpline
70
1064
71
3
72
8
73
4
74
0
42
0.000000001
43
0.0000000001
44
0.0000000001
40
0
40
0
40
0
40
0
40
0.30881719175528222
40
0.30881719175528222
40
0.30881719175528222
40
0.30881719175528222
10
74.168003033465311
20
56.892969883465554
30
0
10
74.095922980971864
20
56.860948886090227
30
0
10
73.995824555775016
20
56.83693313805874
30
0
10
73.86770775787474
20
56.820922639371069
30
0
0
SPLINE
5
338
100
AcDbEntity
8
0
100
AcDbSpline
70
1064
71
3
72
8
73
4
74
0
42
0.000000001
43
0.0000000001
44
0.0000000001
40
0
40
0
40
0
40
0
40
0.49305569906423097
40
0.49305569906423097
40
0.49305569906423097
40
0.49305569906423097
10
73.86770775787474
20
56.820922639371069
30
0
10
73.739590959974464
20
56.804912140683399
30
0
10
73.575434135827479
20
56.796906891339567
30
0
10
73.375237285433798
20
56.796906891339567
30
0
0
LINE
5
339
100
AcDbEntity
8
0
100
AcDbLine
10
39.706733
20
61.421118999999997
30
0
11
39.706733
21
67.979091999999994
31
0
0
SPLINE
5
340
100
AcDbEntity
8
0
100
AcDbSpline
70
1064
71
3
72
8
73
4
74
0
42
0.000000001
43
0.0000000001
44
0.0000000001
40
0
40
0
40
0
40
0
40
0.98498233359273657
40
0.98498233359273657
40
0.98498233359273657
40
0.98498233359273657
10
72.15013886023695
20
71.60635571023721
30
0
10
72.15013886023695
20
72.070791405775267
30
0
10
72.238229411418047
20
72.387080775854017
30
0
10
72.414410513780268
20
72.555223820473444
30
0
0
SPLINE
5
341
100
AcDbEntity
8
0
100
AcDbSpline
70
1064
71
3
72
8
73
4
74
0
42
0.000000001
43
0.0000000001
44
0.0000000001
40
0
40
0
40
0
40
0
40
0.96602052938237082
40
0.96602052938237082
40
0.96602052938237082
40
0.96602052938237082
10
74.342166419292056
20
72.561227757481305
30
0
10
74.514344896982351
20
72.397087337533804
30
0
10
74.600434135827498
20
72.086801904462931
30
0
10
74.600434135827498
20
71.630371458268712
30
0
0
SPLINE
5
342
100
AcDbEntity
8
0
100
AcDbSpline
70
1064
71
3
72
8
73
4
74
0
42
0.000000001
43
0.0000000001
44
0.0000000001
40
0
40
0
40
0
40
0
40
0.32045799499860228
40
0.32045799499860228
40
0.32045799499860228
40
0.32045799499860228
10
39.910867206693638
20
68.261375395276588
30
0
10
39.990919700131961
20
68.297399017323826
30
0
10
40.09500434580125
20
68.321414765355314
30
0
10
40.223121143701512
20
68.333422639371079
30
0
0
SPLINE
5
343
100
AcDbEntity
8
0
100
AcDbSpline
70
1064
71
3
72
8
73
4
74
0
42
0.000000001
43
0.0000000001
44
0.0000000001
40
0
40
0
40
0
40
0
40
1.0051048576375332
40
1.0051048576375332
40
1.0051048576375332
40
1.0051048576375332
10
74.33616248228418
20
70.681552560630919
30
0
10
74.159981379921973
20
70.513376707612537
30
0
10
73.835670356299929
20
70.429288781103338
30
0
10
73.363229411418047
20
70.429288781103338
30
0
0
SPLINE
5
344
100
AcDbEntity
8
0
100
AcDbSpline
70
1064
71
3
72
8
73
4
74
0
42
0.000000001
43
0.0000000001
44
0.0000000001
40
0
40
0
40
0
40
0
40
0.98493492545503136
40
0.98493492545503136
40
0.98493492545503136
40
0.98493492545503136
10
74.600434135827498
20
71.630371458268712
30
0
10
74.600434135827498
20
71.166001379528552
30
0
10
74.512343584646402
20
70.849728413649288
30
0
10
74.33616248228418
20
70.681552560630919
30
0
0
SPLINE
5
345
100
AcDbEntity
8
0
100
AcDbSpline
70
1064
71
3
72
8
73
4
74
0
42
0.000000001
43
0.0000000001
44
0.0000000001
40
0
40
0
40
0
40
0
40
0.98615124944677079
40
0.98615124944677079
40
0.98615124944677079
40
0.98615124944677079
10
73.387245159449549
20
72.80743838740257
30
0
10
73.851680854987592
20
72.80743838740257
30
0
10
74.169987941601775
20
72.725368177428805
30
0
10
74.342166419292056
20
72.561227757481305
30
0
0
SPLINE
5
346
100
AcDbEntity
8
0
100
AcDbSpline
70
1064
71
3
72
8
73
4
74
0
42
0.000000001
43
0.0000000001
44
0.0000000001
40
0
40
0
40
0
40
0
40
0.28401567793729982
40
0.28401567793729982
40
0.28401567793729982
40
0.28401567793729982
10
85.965640828740902
20
56.820922639371069
30
0
10
85.853534529528289
20
56.83693313805874
30
0
10
85.761457757874751
20
56.858947573754278
30
0
10
85.689410513780274
20
56.886965946457686
30
0
0
SPLINE
5
347
100
AcDbEntity
8
0
100
AcDbSpline
70
1064
71
3
72
8
73
4
74
0
42
0.000000001
43
0.0000000001
44
0.0000000001
40
0
40
0
40
0
40
0
40
2.2529501340270199
40
2.2529501340270199
40
2.2529501340270199
40
2.2529501340270199
10
77.545955789370822
20
60.201975788977364
30
0
10
77.38581799409522
20
60.91060439790126
30
0
10
77.305749096457419
20
61.657307153806762
30
0
10
77.305749096457419
20
62.442084056693901
30
0
0
SPLINE
5
348
100
AcDbEntity
8
0
100
AcDbSpline
70
1064
71
3
72
8
73
4
74
0
42
0.000000001
43
0.0000000001
44
0.0000000001
40
0
40
0
40
0
40
0
40
1.3347459316580743
40
1.3347459316580743
40
1.3347459316580743
40
1.3347459316580743
10
82.134193978347184
20
66.81403287559155
30
0
10
81.629732036089976
20
66.81403287559155
30
0
10
81.201336366798643
20
66.693921327035113
30
0
10
80.84900697047317
20
66.453698229922239
30
0
0
SPLINE
5
349
100
AcDbEntity
8
0
100
AcDbSpline
70
1064
71
3
72
8
73
4
74
0
42
0.000000001
43
0.0000000001
44
0.0000000001
40
0
40
0
40
0
40
0
40
0.1748981268409113
40
0.1748981268409113
40
0.1748981268409113
40
0.1748981268409113
10
85.533258938977099
20
57.001089962205711
30
0
10
85.501205133202831
20
57.049154266667657
30
0
10
85.485178230315725
20
57.105207416273956
30
0
10
85.485178230315725
20
57.169249411024616
30
0
0
SPLINE
5
350
100
AcDbEntity
8
0
100
AcDbSpline
70
1064
71
3
72
8
73
4
74
0
42
0.000000001
43
0.0000000001
44
0.0000000001
40
0
40
0
40
0
40
0
40
1.9015128998509263
40
1.9015128998509263
40
1.9015128998509263
40
1.9015128998509263
10
78.494873112205454
20
66.874072245670277
30
0
10
78.887228755250078
20
67.402549935959001
30
0
10
79.373662482284189
20
67.808914765355325
30
0
10
79.95417429330783
20
68.093166733859249
30
0
0
SPLINE
5
351
100
AcDbEntity
8
0
100
AcDbSpline
70
1064
71
3
72
8
73
4
74
0
42
0.000000001
43
0.0000000001
44
0.0000000001
40
0
40
0
40
0
40
0
40
0.16756099886570189
40
0.16756099886570189
40
0.16756099886570189
40
0.16756099886570189
10
85.257028624016499
20
73.167773033071867
30
0
10
85.257028624016499
20
73.223875395276593
30
0
10
85.271037810368199
20
73.2779436367464
30
0
10
85.299056183071599
20
73.329977757481288
30
0
0
SPLINE
5
352
100
AcDbEntity
8
0
100
AcDbSpline
70
1064
71
3
72
8
73
4
74
0
42
0.000000001
43
0.0000000001
44
0.0000000001
40
0
40
0
40
0
40
0
40
0.30881719175528383
40
0.30881719175528383
40
0.30881719175528383
40
0.30881719175528383
10
86.734341616142444
20
73.522103741733275
30
0
10
86.86245841404272
20
73.5020906183737
30
0
10
86.962556839239582
20
73.478074870342198
30
0
10
87.03463689173303
20
73.450056497638784
30
0
0
SPLINE
5
353
100
AcDbEntity
8
0
100
AcDbSpline
70
1064
71
3
72
8
73
4
74
0
42
0.000000001
43
0.0000000001
44
0.0000000001
40
0
40
0
40
0
40
0
40
1.9762343413527317
40
1.9762343413527317
40
1.9762343413527317
40
1.9762343413527317
10
83.701615238189703
20
68.105174607875014
30
0
10
84.226090303806501
20
67.828927888714901
30
0
10
84.744561432415423
20
67.422563059318577
30
0
10
85.257028624016499
20
66.886080119686042
30
0
0
SPLINE
5
354
100
AcDbEntity
8
0
100
AcDbSpline
70
1064
71
3
72
8
73
4
74
0
42
0.000000001
43
0.0000000001
44
0.0000000001
40
0
40
0
40
0
40
0
40
2.1118965527484961
40
2.1118965527484961
40
2.1118965527484961
40
2.1118965527484961
10
77.606044372047961
20
64.958324214174212
30
0
10
77.806241222441685
20
65.707011878216221
30
0
10
78.10251746916083
20
66.345594555381567
30
0
10
78.494873112205454
20
66.874072245670277
30
0
0
SPLINE
5
355
100
AcDbEntity
8
0
100
AcDbSpline
70
1064
71
3
72
8
73
4
74
0
42
0.000000001
43
0.0000000001
44
0.0000000001
40
0
40
0
40
0
40
0
40
2.0818360816397927
40
2.0818360816397927
40
2.0818360816397927
40
2.0818360816397927
10
81.701713663386556
20
56.640706103937994
30
0
10
80.908997127953469
20
56.640706103937994
30
0
10
80.232389516404936
20
56.794856366405185
30
0
10
79.671890828740871
20
57.103156891339573
30
0
0
SPLINE
5
356
100
AcDbEntity
8
0
100
AcDbSpline
70
1064
71
3
72
8
73
4
74
0
42
0.000000001
43
0.0000000001
44
0.0000000001
40
0
40
0
40
0
40
0
40
2.2838959435480271
40
2.2838959435480271
40
2.2838959435480271
40
2.2838959435480271
10
85.485178230315725
20
58.598580119686034
30
0
10
84.916674293307807
20
57.981979069817264
30
0
10
84.326139516404936
20
57.501516471392065
30
0
10
83.713573899607013
20
57.157192324410445
30
0
0
LINE
5
357
100
AcDbEntity
8
0
100
AcDbLine
10
85.485178000000005
20
57.169249000000008
30
0
11
85.485178000000005
21
58.598579999999998
31
0
0
SPLINE
5
358
100
AcDbEntity
8
0
100
AcDbSpline
70
1064
71
3
72
8
73
4
74
0
42
0.000000001
43
0.0000000001
44
0.0000000001
40
0
40
0
40
0
40
0
40
2.0770988483996136
40
2.0770988483996136
40
2.0770988483996136
40
2.0770988483996136
10
83.713573899607013
20
57.157192324410445
30
0
10
83.101008282809147
20
56.812868177428811
30
0
10
82.430388204069004
20
56.640706103937994
30
0
10
81.701713663386556
20
56.640706103937994
30
0
0
SPLINE
5
359
100
AcDbEntity
8
0
100
AcDbSpline
70
1064
71
3
72
8
73
4
74
0
42
0.000000001
43
0.0000000001
44
0.0000000001
40
0
40
0
40
0
40
0
40
2.5340958511190115
40
2.5340958511190115
40
2.5340958511190115
40
2.5340958511190115
10
77.305749096457419
20
62.442084056693901
30
0
10
77.305749096457419
20
63.370889830972118
30
0
10
77.405847521654266
20
64.209636550132231
30
0
10
77.606044372047961
20
64.958324214174212
30
0
0
SPLINE
5
360
100
AcDbEntity
8
0
100
AcDbSpline
70
1064
71
3
72
8
73
4
74
0
42
0.000000001
43
0.0000000001
44
0.0000000001
40
0
40
0
40
0
40
0
40
1.7844085254581039
40
1.7844085254581039
40
1.7844085254581039
40
1.7844085254581039
10
81.96598531692986
20
68.519544686615163
30
0
10
82.598596865486286
20
68.519544686615163
30
0
10
83.177140172572905
20
68.381421327035113
30
0
10
83.701615238189703
20
68.105174607875014
30
0
0
SPLINE
5
361
100
AcDbEntity
8
0
100
AcDbSpline
70
1064
71
3
72
8
73
4
74
0
42
0.000000001
43
0.0000000001
44
0.0000000001
40
0
40
0
40
0
40
0
40
0.49338458398704388
40
0.49338458398704388
40
0.49338458398704388
40
0.49338458398704388
10
86.241871143701502
20
73.552123426772653
30
0
10
86.442067994095225
20
73.552123426772653
30
0
10
86.606224818242183
20
73.542116865092865
30
0
10
86.734341616142444
20
73.522103741733275
30
0
0
SPLINE
5
362
100
AcDbEntity
8
0
100
AcDbSpline
70
1064
71
3
72
8
73
4
74
0
42
0.000000001
43
0.0000000001
44
0.0000000001
40
0
40
0
40
0
40
0
40
2.1743289795411429
40
2.1743289795411429
40
2.1743289795411429
40
2.1743289795411429
10
85.257028624016499
20
64.772202166930128
30
0
10
84.720545684383936
20
65.436769096063983
30
0
10
84.202074555775027
20
65.943215946457684
30
0
10
83.701615238189703
20
66.291542718111231
30
0
0
SPLINE
5
363
100
AcDbEntity
8
0
100
AcDbSpline
70
1064
71
3
72
8
73
4
74
0
42
0.000000001
43
0.0000000001
44
0.0000000001
40
0
40
0
40
0
40
0
40
0.17096842003100049
40
0.17096842003100049
40
0.17096842003100049
40
0.17096842003100049
10
87.196792403544023
20
73.329977757481288
30
0
10
87.232816025591262
20
73.2779436367464
30
0
10
87.250827836614917
20
73.223875395276593
30
0
10
87.250827836614917
20
73.167773033071867
30
0
0
SPLINE
5
364
100
AcDbEntity
8
0
100
AcDbSpline
70
1064
71
3
72
8
73
4
74
0
42
0.000000001
43
0.0000000001
44
0.0000000001
40
0
40
0
40
0
40
0
40
2.000732865220487
40
2.000732865220487
40
2.000732865220487
40
2.000732865220487
10
78.308652639764517
20
58.352320277166349
30
0
10
77.960325868110985
20
58.87679534278314
30
0
10
77.706093584646382
20
59.493347180053476
30
0
10
77.545955789370822
20
60.201975788977364
30
0
0
SPLINE
5
365
100
AcDbEntity
8
0
100
AcDbSpline
70
1064
71
3
72
8
73
4
74
0
42
0.000000001
43
0.0000000001
44
0.0000000001
40
0
40
0
40
0
40
0
40
1.2798061117904147
40
1.2798061117904147
40
1.2798061117904147
40
1.2798061117904147
10
80.84900697047317
20
66.453698229922239
30
0
10
80.496677574147697
20
66.213475132809393
30
0
10
80.210407889108353
20
65.897185762730658
30
0
10
79.990197915355068
20
65.504830119686034
30
0
0
SPLINE
5
366
100
AcDbEntity
8
0
100
AcDbSpline
70
1064
71
3
72
8
73
4
74
0
42
0.000000001
43
0.0000000001
44
0.0000000001
40
0
40
0
40
0
40
0
40
0.47530917853224397
40
0.47530917853224397
40
0.47530917853224397
40
0.47530917853224397
10
85.767510907481054
20
73.522103741733275
30
0
10
85.891625080709403
20
73.542116865092865
30
0
10
86.049745159449543
20
73.552123426772653
30
0
10
86.241871143701502
20
73.552123426772653
30
0
0
SPLINE
5
367
100
AcDbEntity
8
0
100
AcDbSpline
70
1064
71
3
72
8
73
4
74
0
42
0.000000001
43
0.0000000001
44
0.0000000001
40
0
40
0
40
0
40
0
40
1.2780114437274672
40
1.2780114437274672
40
1.2780114437274672
40
1.2780114437274672
10
79.924154608268452
20
59.67353090708761
30
0
10
80.132356708005986
20
59.269167390027242
30
0
10
80.408603427166099
20
58.944872770604668
30
0
10
80.752894765748778
20
58.700647048819896
30
0
0
SPLINE
5
368
100
AcDbEntity
8
0
100
AcDbSpline
70
1064
71
3
72
8
73
4
74
0
42
0.000000001
43
0.0000000001
44
0.0000000001
40
0
40
0
40
0
40
0
40
1.4171506228081492
40
1.4171506228081492
40
1.4171506228081492
40
1.4171506228081492
10
79.990197915355068
20
65.504830119686034
30
0
10
79.769987941601784
20
65.11247447664141
30
0
10
79.609833742126725
20
64.668068308662399
30
0
10
79.509735316929849
20
64.171611615749029
30
0
0
SPLINE
5
369
100
AcDbEntity
8
0
100
AcDbSpline
70
1064
71
3
72
8
73
4
74
0
42
0.000000001
43
0.0000000001
44
0.0000000001
40
0
40
0
40
0
40
0
40
1.4548878889767678
40
1.4548878889767678
40
1.4548878889767678
40
1.4548878889767678
10
79.485719568898375
20
61.060784844095473
30
0
10
79.569807495407559
20
60.540312403150594
30
0
10
79.715952508530904
20
60.077894424147971
30
0
10
79.924154608268452
20
59.67353090708761
30
0
0
SPLINE
5
370
100
AcDbEntity
8
0
100
AcDbSpline
70
1064
71
3
72
8
73
4
74
0
42
0.000000001
43
0.0000000001
44
0.0000000001
40
0
40
0
40
0
40
0
40
0.83269141710780226
40
0.83269141710780226
40
0.83269141710780226
40
0.83269141710780226
10
82.812737285433812
20
58.442379332284453
30
0
10
83.056963007218599
20
58.514426576378938
30
0
10
83.307192666011233
20
58.634538124935375
30
0
10
83.563426261811728
20
58.802713977953751
30
0
0
SPLINE
5
371
100
AcDbEntity
8
0
100
AcDbSpline
70
1064
71
3
72
8
73
4
74
0
42
0.000000001
43
0.0000000001
44
0.0000000001
40
0
40
0
40
0
40
0
40
1.0373603782777807
40
1.0373603782777807
40
1.0373603782777807
40
1.0373603782777807
10
83.563426261811728
20
58.802713977953751
30
0
10
83.81965985761228
20
58.970889830972119
30
0
10
84.087901327428568
20
59.189098492389441
30
0
10
84.368150671260594
20
59.457339962205715
30
0
0
SPLINE
5
372
100
AcDbEntity
8
0
100
AcDbSpline
70
1064
71
3
72
8
73
4
74
0
42
0.000000001
43
0.0000000001
44
0.0000000001
40
0
40
0
40
0
40
0
40
0.31465856578207257
40
0.31465856578207257
40
0.31465856578207257
40
0.31465856578207257
10
85.461211694882621
20
73.450056497638784
30
0
10
85.541296996719893
20
73.478074870342198
30
0
10
85.643396734252718
20
73.5020906183737
30
0
10
85.767510907481054
20
73.522103741733275
30
0
0
SPLINE
5
373
100
AcDbEntity
8
0
100
AcDbSpline
70
1064
71
3
72
8
73
4
74
0
42
0.000000001
43
0.0000000001
44
0.0000000001
40
0
40
0
40
0
40
0
40
2.0564974479350786
40
2.0564974479350786
40
2.0564974479350786
40
2.0564974479350786
10
79.95417429330783
20
68.093166733859249
30
0
10
80.534686104331442
20
68.377418702363187
30
0
10
81.205289778872128
20
68.519544686615163
30
0
10
81.96598531692986
20
68.519544686615163
30
0
0
SPLINE
5
374
100
AcDbEntity
8
0
100
AcDbSpline
70
1064
71
3
72
8
73
4
74
0
42
0.000000001
43
0.0000000001
44
0.0000000001
40
0
40
0
40
0
40
0
40
1.8490071726128496
40
1.8490071726128496
40
1.8490071726128496
40
1.8490071726128496
10
79.671890828740871
20
57.103156891339573
30
0
10
79.111392141076834
20
57.411457416273954
30
0
10
78.65697941141805
20
57.827845211549544
30
0
10
78.308652639764517
20
58.352320277166349
30
0
0
SPLINE
5
375
100
AcDbEntity
8
0
100
AcDbSpline
70
1064
71
3
72
8
73
4
74
0
42
0.000000001
43
0.0000000001
44
0.0000000001
40
0
40
0
40
0
40
0
40
0.2017754044686878
40
0.2017754044686878
40
0.2017754044686878
40
0.2017754044686878
10
85.299056183071599
20
73.329977757481288
30
0
10
85.327074555775013
20
73.382011878216218
30
0
10
85.381126393045363
20
73.422038124935369
30
0
10
85.461211694882621
20
73.450056497638784
30
0
0
LINE
5
376
100
AcDbEntity
8
0
100
AcDbLine
10
87.250828000000013
20
73.167772999999997
30
0
11
87.250828000000013
21
57.169249000000008
31
0
0
SPLINE
5
377
100
AcDbEntity
8
0
100
AcDbSpline
70
1064
71
3
72
8
73
4
74
0
42
0.000000001
43
0.0000000001
44
0.0000000001
40
0
40
0
40
0
40
0
40
1.6522122655609712
40
1.6522122655609712
40
1.6522122655609712
40
1.6522122655609712
10
83.701615238189703
20
66.291542718111231
30
0
10
83.201155920604407
20
66.639869489764777
30
0
10
82.678682167323558
20
66.81403287559155
30
0
10
82.134193978347184
20
66.81403287559155
30
0
0
SPLINE
5
378
100
AcDbEntity
8
0
100
AcDbSpline
70
1064
71
3
72
8
73
4
74
0
42
0.000000001
43
0.0000000001
44
0.0000000001
40
0
40
0
40
0
40
0
40
0.2017754044686878
40
0.2017754044686878
40
0.2017754044686878
40
0.2017754044686878
10
87.03463689173303
20
73.450056497638784
30
0
10
87.106716944226449
20
73.422038124935369
30
0
10
87.160768781496799
20
73.382011878216218
30
0
10
87.196792403544023
20
73.329977757481288
30
0
0
SPLINE
5
379
100
AcDbEntity
8
0
100
AcDbSpline
70
1064
71
3
72
8
73
4
74
0
42
0.000000001
43
0.0000000001
44
0.0000000001
40
0
40
0
40
0
40
0
40
1.520815890832556
40
1.520815890832556
40
1.520815890832556
40
1.520815890832556
10
79.509735316929849
20
64.171611615749029
30
0
10
79.409636891733015
20
63.675154922835631
30
0
10
79.359587679134592
20
63.170692980578416
30
0
10
79.359587679134592
20
62.658225788977369
30
0
0
SPLINE
5
380
100
AcDbEntity
8
0
100
AcDbSpline
70
1064
71
3
72
8
73
4
74
0
42
0.000000001
43
0.0000000001
44
0.0000000001
40
0
40
0
40
0
40
0
40
1.6024128138530809
40
1.6024128138530809
40
1.6024128138530809
40
1.6024128138530809
10
79.359587679134592
20
62.658225788977369
30
0
10
79.359587679134592
20
62.113737600000995
30
0
10
79.401631642389177
20
61.581257285040358
30
0
10
79.485719568898375
20
61.060784844095473
30
0
0
SPLINE
5
381
100
AcDbEntity
8
0
100
AcDbSpline
70
1064
71
3
72
8
73
4
74
0
42
0.000000001
43
0.0000000001
44
0.0000000001
40
0
40
0
40
0
40
0
40
1.3478838394013006
40
1.3478838394013006
40
1.3478838394013006
40
1.3478838394013006
10
80.752894765748778
20
58.700647048819896
30
0
10
81.097186104331456
20
58.456421327035109
30
0
10
81.529567994095217
20
58.33430846614273
30
0
10
82.050040435040103
20
58.33430846614273
30
0
0
SPLINE
5
382
100
AcDbEntity
8
0
100
AcDbSpline
70
1064
71
3
72
8
73
4
74
0
42
0.000000001
43
0.0000000001
44
0.0000000001
40
0
40
0
40
0
40
0
40
0.77031538846701375
40
0.77031538846701375
40
0.77031538846701375
40
0.77031538846701375
10
82.050040435040103
20
58.33430846614273
30
0
10
82.314279280184465
20
58.33430846614273
30
0
10
82.568511563649011
20
58.370332088189969
30
0
10
82.812737285433812
20
58.442379332284453
30
0
0
SPLINE
5
383
100
AcDbEntity
8
0
100
AcDbSpline
70
1064
71
3
72
8
73
4
74
0
42
0.000000001
43
0.0000000001
44
0.0000000001
40
0
40
0
40
0
40
0
40
1.3311200981265432
40
1.3311200981265432
40
1.3311200981265432
40
1.3311200981265432
10
84.368150671260594
20
59.457339962205715
30
0
10
84.648400015092591
20
59.72558143202199
30
0
10
84.944692666011235
20
60.055863584252961
30
0
10
85.257028624016499
20
60.448186418898622
30
0
0
LINE
5
384
100
AcDbEntity
8
0
100
AcDbLine
10
85.257029000000003
20
66.886080000000007
30
0
11
85.257029000000003
21
73.167772999999997
31
0
0
SPLINE
5
385
100
AcDbEntity
8
0
100
AcDbSpline
70
1064
71
3
72
8
73
4
74
0
42
0.000000001
43
0.0000000001
44
0.0000000001
40
0
40
0
40
0
40
0
40
0.16911958675666039
40
0.16911958675666039
40
0.16911958675666039
40
0.16911958675666039
10
92.885571931103073
20
57.169249411024616
30
0
10
92.885571931103073
20
57.105207416273956
30
0
10
92.869561432415423
20
57.05115557900362
30
0
10
92.837540435040069
20
57.007093899213586
30
0
0
LINE
5
386
100
AcDbEntity
8
0
100
AcDbLine
10
85.257029000000003
20
60.448186
30
0
11
85.257029000000003
21
64.772202000000007
31
0
0
SPLINE
5
387
100
AcDbEntity
8
0
100
AcDbSpline
70
1064
71
3
72
8
73
4
74
0
42
0.000000001
43
0.0000000001
44
0.0000000001
40
0
40
0
40
0
40
0
40
0.1617084723619448
40
0.1617084723619448
40
0.1617084723619448
40
0.1617084723619448
10
90.903780592520405
20
67.979091930709657
30
0
10
90.903780592520405
20
68.035128676116472
30
0
10
90.917789778872091
20
68.087179201050844
30
0
10
90.945808151575505
20
68.13524350551279
30
0
0
SPLINE
5
388
100
AcDbEntity
8
0
100
AcDbSpline
70
1064
71
3
72
8
73
4
74
0
42
0.000000001
43
0.0000000001
44
0.0000000001
40
0
40
0
40
0
40
0
40
0.30881719175528383
40
0.30881719175528383
40
0.30881719175528383
40
0.30881719175528383
10
92.381093584646422
20
68.327418702363204
30
0
10
92.509210382546655
20
68.311408203675526
30
0
10
92.609308807743517
20
68.287392455644039
30
0
10
92.68138886023695
20
68.255371458268698
30
0
0
LINE
5
389
100
AcDbEntity
8
0
100
AcDbLine
10
92.885571999999996
20
67.979092000000009
30
0
11
92.885571999999996
21
57.169249000000008
31
0
0
SPLINE
5
390
100
AcDbEntity
8
0
100
AcDbSpline
70
1064
71
3
72
8
73
4
74
0
42
0.000000001
43
0.0000000001
44
0.0000000001
40
0
40
0
40
0
40
0
40
0.48096413075703592
40
0.48096413075703592
40
0.48096413075703592
40
0.48096413075703592
10
91.888623112205437
20
56.796906891339567
30
0
10
91.696497127953492
20
56.796906891339567
30
0
10
91.536375736877375
20
56.804912140683399
30
0
10
91.408258938977099
20
56.820922639371069
30
0
0
SPLINE
5
391
100
AcDbEntity
8
0
100
AcDbSpline
70
1064
71
3
72
8
73
4
74
0
42
0.000000001
43
0.0000000001
44
0.0000000001
40
0
40
0
40
0
40
0
40
0.96602052938237082
40
0.96602052938237082
40
0.96602052938237082
40
0.96602052938237082
10
92.855552246063709
20
72.561227757481305
30
0
10
93.027730723754004
20
72.397087337533804
30
0
10
93.113819962599166
20
72.086801904462931
30
0
10
93.113819962599166
20
71.630371458268712
30
0
0
SPLINE
5
392
100
AcDbEntity
8
0
100
AcDbSpline
70
1064
71
3
72
8
73
4
74
0
42
0.000000001
43
0.0000000001
44
0.0000000001
40
0
40
0
40
0
40
0
40
1.0051048576375332
40
1.0051048576375332
40
1.0051048576375332
40
1.0051048576375332
10
92.849548309055848
20
70.681552560630919
30
0
10
92.673367206693655
20
70.513376707612537
30
0
10
92.349056183071582
20
70.429288781103338
30
0
10
91.876615238189714
20
70.429288781103338
30
0
0
SPLINE
5
393
100
AcDbEntity
8
0
100
AcDbSpline
70
1064
71
3
72
8
73
4
74
0
42
0.000000001
43
0.0000000001
44
0.0000000001
40
0
40
0
40
0
40
0
40
0.1382210099264792
40
0.1382210099264792
40
0.1382210099264792
40
0.1382210099264792
10
102.42267823031571
20
71.834603741733275
30
0
10
102.40266510695612
20
71.778566996326447
30
0
10
102.3766480465887
20
71.740542061943245
30
0
10
102.34462704921333
20
71.720528938583669
30
0
0
SPLINE
5
394
100
AcDbEntity
8
0
100
AcDbSpline
70
1064
71
3
72
8
73
4
74
0
42
0.000000001
43
0.0000000001
44
0.0000000001
40
0
40
0
40
0
40
0
40
0.44301132174014002
40
0.44301132174014002
40
0.44301132174014002
40
0.44301132174014002
10
101.70806208858345
20
71.864623426772653
30
0
10
101.58795054002701
20
71.90865229816373
30
0
10
101.44580815157552
20
71.948678544882881
30
0
10
101.28163492322909
20
71.984702166930134
30
0
0
LINE
5
395
100
AcDbEntity
8
0
100
AcDbLine
10
72.390395000000012
20
57.169249000000008
30
0
11
72.390395000000012
21
67.979092000000009
31
0
0
SPLINE
5
396
100
AcDbEntity
8
0
100
AcDbSpline
70
1064
71
3
72
8
73
4
74
0
42
0.000000001
43
0.0000000001
44
0.0000000001
40
0
40
0
40
0
40
0
40
0.1617084723619448
40
0.1617084723619448
40
0.1617084723619448
40
0.1617084723619448
10
72.390394765748752
20
67.979091930709657
30
0
10
72.390394765748752
20
68.035128676116472
30
0
10
72.404403952100452
20
68.087179201050844
30
0
10
72.432422324803852
20
68.13524350551279
30
0
0
SPLINE
5
397
100
AcDbEntity
8
0
100
AcDbSpline
70
1064
71
3
72
8
73
4
74
0
42
0.000000001
43
0.0000000001
44
0.0000000001
40
0
40
0
40
0
40
0
40
0.16337178130739641
40
0.16337178130739641
40
0.16337178130739641
40
0.16337178130739641
10
92.837540435040069
20
68.13524350551279
30
0
10
92.869561432415423
20
68.087179201050844
30
0
10
92.885571931103073
20
68.035128676116472
30
0
10
92.885571931103073
20
67.979091930709657
30
0
0
SPLINE
5
398
100
AcDbEntity
8
0
100
AcDbSpline
70
1064
71
3
72
8
73
4
74
0
42
0.000000001
43
0.0000000001
44
0.0000000001
40
0
40
0
40
0
40
0
40
0.31465856578205881
40
0.31465856578205881
40
0.31465856578205881
40
0.31465856578205881
10
91.101959726378695
20
68.255371458268698
30
0
10
91.17804240354404
20
68.287392455644039
30
0
10
91.280142141076851
20
68.311408203675526
30
0
10
91.408258938977099
20
68.327418702363204
30
0
0
SPLINE
5
399
100
AcDbEntity
8
0
100
AcDbSpline
70
1064
71
3
72
8
73
4
74
0
42
0.000000001
43
0.0000000001
44
0.0000000001
40
0
40
0
40
0
40
0
40
0.4930556990642303
40
0.4930556990642303
40
0.4930556990642303
40
0.4930556990642303
10
91.888623112205437
20
68.351434450394692
30
0
10
92.08881996259916
20
68.351434450394692
30
0
10
92.252976786746132
20
68.343429201050853
30
0
10
92.381093584646422
20
68.327418702363204
30
0
0
LINE
5
400
100
AcDbEntity
8
0
100
AcDbLine
10
90.903781000000009
20
57.169249000000008
30
0
11
90.903781000000009
21
67.979092000000009
31
0
0
SPLINE
5
401
100
AcDbEntity
8
0
100
AcDbSpline
70
1064
71
3
72
8
73
4
74
0
42
0.000000001
43
0.0000000001
44
0.0000000001
40
0
40
0
40
0
40
0
40
0.98498233359273657
40
0.98498233359273657
40
0.98498233359273657
40
0.98498233359273657
10
90.663524687008589
20
71.60635571023721
30
0
10
90.663524687008589
20
72.070791405775267
30
0
10
90.7516152381897
20
72.387080775854017
30
0
10
90.927796340551907
20
72.555223820473444
30
0
0
SPLINE
5
402
100
AcDbEntity
8
0
100
AcDbSpline
70
1064
71
3
72
8
73
4
74
0
42
0.000000001
43
0.0000000001
44
0.0000000001
40
0
40
0
40
0
40
0
40
1.0049972316308879
40
1.0049972316308879
40
1.0049972316308879
40
1.0049972316308879
10
90.927796340551907
20
72.555223820473444
30
0
10
91.103977442914129
20
72.723366865092856
30
0
10
91.428255658137218
20
72.80743838740257
30
0
10
91.900630986221202
20
72.80743838740257
30
0
0
SPLINE
5
403
100
AcDbEntity
8
0
100
AcDbSpline
70
1064
71
3
72
8
73
4
74
0
42
0.000000001
43
0.0000000001
44
0.0000000001
40
0
40
0
40
0
40
0
40
0.19701278980521261
40
0.19701278980521261
40
0.19701278980521261
40
0.19701278980521261
10
72.432422324803852
20
68.13524350551279
30
0
10
72.460440697507281
20
68.183307809974735
30
0
10
72.512491222441653
20
68.223350460893386
30
0
10
72.588573899607013
20
68.255371458268698
30
0
0
SPLINE
5
404
100
AcDbEntity
8
0
100
AcDbSpline
70
1064
71
3
72
8
73
4
74
0
42
0.000000001
43
0.0000000001
44
0.0000000001
40
0
40
0
40
0
40
0
40
0.36707582157668378
40
0.36707582157668378
40
0.36707582157668378
40
0.36707582157668378
10
102.50072941141806
20
72.423087993701785
30
0
10
102.50072941141806
20
72.270988256168977
30
0
10
102.49272416207425
20
72.148891799476061
30
0
10
102.47671366338656
20
72.056798623623038
30
0
0
SPLINE
5
405
100
AcDbEntity
8
0
100
AcDbSpline
70
1064
71
3
72
8
73
4
74
0
42
0.000000001
43
0.0000000001
44
0.0000000001
40
0
40
0
40
0
40
0
40
0.31465856578205881
40
0.31465856578205881
40
0.31465856578205881
40
0.31465856578205881
10
72.588573899607013
20
68.255371458268698
30
0
10
72.664656576772373
20
68.287392455644039
30
0
10
72.766756314305198
20
68.311408203675526
30
0
10
72.894873112205445
20
68.327418702363204
30
0
0
SPLINE
5
406
100
AcDbEntity
8
0
100
AcDbSpline
70
1064
71
3
72
8
73
4
74
0
42
0.000000001
43
0.0000000001
44
0.0000000001
40
0
40
0
40
0
40
0
40
0.31465856578205709
40
0.31465856578205709
40
0.31465856578205709
40
0.31465856578205709
10
91.408258938977099
20
56.820922639371069
30
0
10
91.280142141076851
20
56.83693313805874
30
0
10
91.17804240354404
20
56.860948886090227
30
0
10
91.101959726378695
20
56.892969883465554
30
0
0
SPLINE
5
407
100
AcDbEntity
8
0
100
AcDbSpline
70
1064
71
3
72
8
73
4
74
0
42
0.000000001
43
0.0000000001
44
0.0000000001
40
0
40
0
40
0
40
0
40
0.4809641307570352
40
0.4809641307570352
40
0.4809641307570352
40
0.4809641307570352
10
72.894873112205445
20
68.327418702363204
30
0
10
73.022989910105707
20
68.343429201050853
30
0
10
73.18311130118181
20
68.351434450394692
30
0
10
73.375237285433798
20
68.351434450394692
30
0
0
SPLINE
5
408
100
AcDbEntity
8
0
100
AcDbSpline
70
1064
71
3
72
8
73
4
74
0
42
0.000000001
43
0.0000000001
44
0.0000000001
40
0
40
0
40
0
40
0
40
0.30881719175528383
40
0.30881719175528383
40
0.30881719175528383
40
0.30881719175528383
10
73.86770775787474
20
68.327418702363204
30
0
10
73.995824555775016
20
68.311408203675526
30
0
10
74.095922980971864
20
68.287392455644039
30
0
10
74.168003033465311
20
68.255371458268698
30
0
0
SPLINE
5
409
100
AcDbEntity
8
0
100
AcDbSpline
70
1064
71
3
72
8
73
4
74
0
42
0.000000001
43
0.0000000001
44
0.0000000001
40
0
40
0
40
0
40
0
40
0.4930556990642303
40
0.4930556990642303
40
0.4930556990642303
40
0.4930556990642303
10
73.375237285433798
20
68.351434450394692
30
0
10
73.575434135827479
20
68.351434450394692
30
0
10
73.739590959974464
20
68.343429201050853
30
0
10
73.86770775787474
20
68.327418702363204
30
0
0
SPLINE
5
410
100
AcDbEntity
8
0
100
AcDbSpline
70
1064
71
3
72
8
73
4
74
0
42
0.000000001
43
0.0000000001
44
0.0000000001
40
0
40
0
40
0
40
0
40
0.16337178130739641
40
0.16337178130739641
40
0.16337178130739641
40
0.16337178130739641
10
74.324154608268458
20
68.13524350551279
30
0
10
74.356175605643784
20
68.087179201050844
30
0
10
74.372186104331433
20
68.035128676116472
30
0
10
74.372186104331433
20
67.979091930709657
30
0
0
SPLINE
5
411
100
AcDbEntity
8
0
100
AcDbSpline
70
1064
71
3
72
8
73
4
74
0
42
0.000000001
43
0.0000000001
44
0.0000000001
40
0
40
0
40
0
40
0
40
0.22867092855271681
40
0.22867092855271681
40
0.22867092855271681
40
0.22867092855271681
10
102.47671366338656
20
72.056798623623038
30
0
10
102.46070316469891
20
71.964705447770015
30
0
10
102.4426913536753
20
71.890640487140104
30
0
10
102.42267823031571
20
71.834603741733275
30
0
0
SPLINE
5
412
100
AcDbEntity
8
0
100
AcDbSpline
70
1064
71
3
72
8
73
4
74
0
42
0.000000001
43
0.0000000001
44
0.0000000001
40
0
40
0
40
0
40
0
40
0.16751335985773111
40
0.16751335985773111
40
0.16751335985773111
40
0.16751335985773111
10
90.945808151575505
20
57.007093899213586
30
0
10
90.917789778872091
20
57.05115557900362
30
0
10
90.903780592520405
20
57.105207416273956
30
0
10
90.903780592520405
20
57.169249411024616
30
0
0
LINE
5
413
100
AcDbEntity
8
0
100
AcDbLine
10
74.372185999999999
20
67.979092000000009
30
0
11
74.372185999999999
21
57.169249000000008
31
0
0
SPLINE
5
414
100
AcDbEntity
8
0
100
AcDbSpline
70
1064
71
3
72
8
73
4
74
0
42
0.000000001
43
0.0000000001
44
0.0000000001
40
0
40
0
40
0
40
0
40
0.21697401003448721
40
0.21697401003448721
40
0.21697401003448721
40
0.21697401003448721
10
102.22444988385902
20
71.690509253544292
30
0
10
102.16841313845219
20
71.690509253544292
30
0
10
102.09836720669365
20
71.708521064567918
30
0
10
102.01431208858341
20
71.744544686615171
30
0
0
SPLINE
5
415
100
AcDbEntity
8
0
100
AcDbSpline
70
1064
71
3
72
8
73
4
74
0
42
0.000000001
43
0.0000000001
44
0.0000000001
40
0
40
0
40
0
40
0
40
0.19701278980521261
40
0.19701278980521261
40
0.19701278980521261
40
0.19701278980521261
10
90.945808151575505
20
68.13524350551279
30
0
10
90.973826524278948
20
68.183307809974735
30
0
10
91.025877049213321
20
68.223350460893386
30
0
10
91.101959726378695
20
68.255371458268698
30
0
0
SPLINE
5
416
100
AcDbEntity
8
0
100
AcDbSpline
70
1064
71
3
72
8
73
4
74
0
42
0.000000001
43
0.0000000001
44
0.0000000001
40
0
40
0
40
0
40
0
40
0.96597310826729355
40
0.96597310826729355
40
0.96597310826729355
40
0.96597310826729355
10
90.921792403544046
20
70.67554862362303
30
0
10
90.74961392585378
20
70.839721851969486
30
0
10
90.663524687008589
20
71.149990880840875
30
0
10
90.663524687008589
20
71.60635571023721
30
0
0
SPLINE
5
417
100
AcDbEntity
8
0
100
AcDbSpline
70
1064
71
3
72
8
73
4
74
0
42
0.000000001
43
0.0000000001
44
0.0000000001
40
0
40
0
40
0
40
0
40
0.98606823070141159
40
0.98606823070141159
40
0.98606823070141159
40
0.98606823070141159
10
91.876615238189714
20
70.429288781103338
30
0
10
91.41224515944954
20
70.429288781103338
30
0
10
91.093970881234327
20
70.511375395276573
30
0
10
90.921792403544046
20
70.67554862362303
30
0
0
SPLINE
5
418
100
AcDbEntity
8
0
100
AcDbSpline
70
1064
71
3
72
8
73
4
74
0
42
0.000000001
43
0.0000000001
44
0.0000000001
40
0
40
0
40
0
40
0
40
0.19701278980520129
40
0.19701278980520129
40
0.19701278980520129
40
0.19701278980520129
10
74.168003033465311
20
68.255371458268698
30
0
10
74.240083085958744
20
68.223350460893386
30
0
10
74.292133610893103
20
68.183307809974735
30
0
10
74.324154608268458
20
68.13524350551279
30
0
0
SPLINE
5
419
100
AcDbEntity
8
0
100
AcDbSpline
70
1064
71
3
72
8
73
4
74
0
42
0.000000001
43
0.0000000001
44
0.0000000001
40
0
40
0
40
0
40
0
40
2.2061364686825797
40
2.2061364686825797
40
2.2061364686825797
40
2.2061364686825797
10
19.037934135827491
20
68.519544686615163
30
0
10
19.88675303346529
20
68.519544686615163
30
0
10
20.609423637139837
20
68.383422639371062
30
0
10
21.20594594685112
20
68.11117854488289
30
0
0
SPLINE
5
420
100
AcDbEntity
8
0
100
AcDbSpline
70
1064
71
3
72
8
73
4
74
0
42
0.000000001
43
0.0000000001
44
0.0000000001
40
0
40
0
40
0
40
0
40
1.8364307179075163
40
1.8364307179075163
40
1.8364307179075163
40
1.8364307179075163
10
21.20594594685112
20
68.11117854488289
30
0
10
21.802468256562406
20
67.838934450394689
30
0
10
22.292904608268444
20
67.472612271917001
30
0
10
22.677255001969229
20
67.012212009449811
30
0
0
SPLINE
5
421
100
AcDbEntity
8
0
100
AcDbSpline
70
1064
71
3
72
8
73
4
74
0
42
0.000000001
43
0.0000000001
44
0.0000000001
40
0
40
0
40
0
40
0
40
1.8292605192563376
40
1.8292605192563376
40
1.8292605192563376
40
1.8292605192563376
10
22.677255001969229
20
67.012212009449811
30
0
10
23.061605395670014
20
66.551811746982608
30
0
10
23.34387245603747
20
66.011326182678147
30
0
10
23.52405618307159
20
65.390755316536428
30
0
0
SPLINE
5
422
100
AcDbEntity
8
0
100
AcDbSpline
70
1064
71
3
72
8
73
4
74
0
42
0.000000001
43
0.0000000001
44
0.0000000001
40
0
40
0
40
0
40
0
40
0.12386982103184881
40
0.12386982103184881
40
0.12386982103184881
40
0.12386982103184881
10
102.34462704921333
20
71.720528938583669
30
0
10
102.312606051838
20
71.700515815224094
30
0
10
102.27254699671991
20
71.690509253544292
30
0
10
102.22444988385902
20
71.690509253544292
30
0
0
SPLINE
5
423
100
AcDbEntity
8
0
100
AcDbSpline
70
1064
71
3
72
8
73
4
74
0
42
0.000000001
43
0.0000000001
44
0.0000000001
40
0
40
0
40
0
40
0
40
0.32894979303505067
40
0.32894979303505067
40
0.32894979303505067
40
0.32894979303505067
10
102.01431208858341
20
71.744544686615171
30
0
10
101.9302569704732
20
71.78056830866241
30
0
10
101.82817363713987
20
71.820594555381575
30
0
10
101.70806208858345
20
71.864623426772653
30
0
0
SPLINE
5
424
100
AcDbEntity
8
0
100
AcDbSpline
70
1064
71
3
72
8
73
4
74
0
42
0.000000001
43
0.0000000001
44
0.0000000001
40
0
40
0
40
0
40
0
40
0.4809641307570352
40
0.4809641307570352
40
0.4809641307570352
40
0.4809641307570352
10
91.408258938977099
20
68.327418702363204
30
0
10
91.536375736877375
20
68.343429201050853
30
0
10
91.696497127953492
20
68.351434450394692
30
0
10
91.888623112205437
20
68.351434450394692
30
0
0
SPLINE
5
425
100
AcDbEntity
8
0
100
AcDbSpline
70
1064
71
3
72
8
73
4
74
0
42
0.000000001
43
0.0000000001
44
0.0000000001
40
0
40
0
40
0
40
0
40
0.19341045805220661
40
0.19341045805220661
40
0.19341045805220661
40
0.19341045805220661
10
72.588573899607013
20
56.892969883465554
30
0
10
72.512491222441653
20
56.924990880840895
30
0
10
72.460440697507281
20
56.963032219423567
30
0
10
72.432422324803852
20
57.007093899213586
30
0
0
SPLINE
5
426
100
AcDbEntity
8
0
100
AcDbSpline
70
1064
71
3
72
8
73
4
74
0
42
0.000000001
43
0.0000000001
44
0.0000000001
40
0
40
0
40
0
40
0
40
0.16751335985773111
40
0.16751335985773111
40
0.16751335985773111
40
0.16751335985773111
10
72.432422324803852
20
57.007093899213586
30
0
10
72.404403952100452
20
57.05115557900362
30
0
10
72.390394765748752
20
57.105207416273956
30
0
10
72.390394765748752
20
57.169249411024616
30
0
0
SPLINE
5
427
100
AcDbEntity
8
0
100
AcDbSpline
70
1064
71
3
72
8
73
4
74
0
42
0.000000001
43
0.0000000001
44
0.0000000001
40
0
40
0
40
0
40
0
40
0.19701278980520129
40
0.19701278980520129
40
0.19701278980520129
40
0.19701278980520129
10
92.68138886023695
20
68.255371458268698
30
0
10
92.753468912730369
20
68.223350460893386
30
0
10
92.805519437664756
20
68.183307809974735
30
0
10
92.837540435040069
20
68.13524350551279
30
0
0
LINE
5
428
100
AcDbEntity
8
0
100
AcDbLine
10
23.794332000000004
20
63.402911000000003
30
0
11
23.794332000000004
21
63.042575999999997
31
0
0
SPLINE
5
429
100
AcDbEntity
8
0
100
AcDbSpline
70
1064
71
3
72
8
73
4
74
0
42
0.000000001
43
0.0000000001
44
0.0000000001
40
0
40
0
40
0
40
0
40
0.49305569906423097
40
0.49305569906423097
40
0.49305569906423097
40
0.49305569906423097
10
92.381093584646422
20
56.820922639371069
30
0
10
92.252976786746132
20
56.804912140683399
30
0
10
92.08881996259916
20
56.796906891339567
30
0
10
91.888623112205437
20
56.796906891339567
30
0
0
SPLINE
5
430
100
AcDbEntity
8
0
100
AcDbSpline
70
1064
71
3
72
8
73
4
74
0
42
0.000000001
43
0.0000000001
44
0.0000000001
40
0
40
0
40
0
40
0
40
0.19341045805219509
40
0.19341045805219509
40
0.19341045805219509
40
0.19341045805219509
10
92.837540435040069
20
57.007093899213586
30
0
10
92.805519437664756
20
56.963032219423567
30
0
10
92.753468912730369
20
56.924990880840895
30
0
10
92.68138886023695
20
56.892969883465554
30
0
0
SPLINE
5
431
100
AcDbEntity
8
0
100
AcDbSpline
70
1064
71
3
72
8
73
4
74
0
42
0.000000001
43
0.0000000001
44
0.0000000001
40
0
40
0
40
0
40
0
40
0.19341045805220661
40
0.19341045805220661
40
0.19341045805220661
40
0.19341045805220661
10
91.101959726378695
20
56.892969883465554
30
0
10
91.025877049213321
20
56.924990880840895
30
0
10
90.973826524278948
20
56.963032219423567
30
0
10
90.945808151575505
20
57.007093899213586
30
0
0
SPLINE
5
432
100
AcDbEntity
8
0
100
AcDbSpline
70
1064
71
3
72
8
73
4
74
0
42
0.000000001
43
0.0000000001
44
0.0000000001
40
0
40
0
40
0
40
0
40
0.98615124944677079
40
0.98615124944677079
40
0.98615124944677079
40
0.98615124944677079
10
91.900630986221202
20
72.80743838740257
30
0
10
92.365066681759259
20
72.80743838740257
30
0
10
92.683373768373428
20
72.725368177428805
30
0
10
92.855552246063709
20
72.561227757481305
30
0
0
SPLINE
5
433
100
AcDbEntity
8
0
100
AcDbSpline
70
1064
71
3
72
8
73
4
74
0
42
0.000000001
43
0.0000000001
44
0.0000000001
40
0
40
0
40
0
40
0
40
0.98493492545503136
40
0.98493492545503136
40
0.98493492545503136
40
0.98493492545503136
10
93.113819962599166
20
71.630371458268712
30
0
10
93.113819962599166
20
71.166001379528552
30
0
10
93.025729411418041
20
70.849728413649288
30
0
10
92.849548309055848
20
70.681552560630919
30
0
0
SPLINE
5
434
100
AcDbEntity
8
0
100
AcDbSpline
70
1064
71
3
72
8
73
4
74
0
42
0.000000001
43
0.0000000001
44
0.0000000001
40
0
40
0
40
0
40
0
40
0.30881719175528222
40
0.30881719175528222
40
0.30881719175528222
40
0.30881719175528222
10
92.68138886023695
20
56.892969883465554
30
0
10
92.609308807743517
20
56.860948886090227
30
0
10
92.509210382546655
20
56.83693313805874
30
0
10
92.381093584646422
20
56.820922639371069
30
0
0
SPLINE
5
435
100
AcDbEntity
8
0
100
AcDbSpline
70
1064
71
3
72
8
73
4
74
0
42
0.000000001
43
0.0000000001
44
0.0000000001
40
0
40
0
40
0
40
0
40
1.9976498759184371
40
1.9976498759184371
40
1.9976498759184371
40
1.9976498759184371
10
35.982569962599158
20
65.739032875591533
30
0
10
36.114689385171339
20
65.190542061943248
30
0
10
36.180749096457411
20
64.527943636746386
30
0
10
36.180749096457411
20
63.751237600000991
30
0
0
SPLINE
5
436
100
AcDbEntity
8
0
100
AcDbSpline
70
1064
71
3
72
8
73
4
74
0
42
0.000000001
43
0.0000000001
44
0.0000000001
40
0
40
0
40
0
40
0
40
0.16751335985773111
40
0.16751335985773111
40
0.16751335985773111
40
0.16751335985773111
10
49.027205789370797
20
57.169249411024616
30
0
10
49.027205789370797
20
57.105207416273956
30
0
10
49.013196603019097
20
57.05115557900362
30
0
10
48.985178230315682
20
57.007093899213586
30
0
0
SPLINE
5
437
100
AcDbEntity
8
0
100
AcDbSpline
70
1064
71
3
72
8
73
4
74
0
42
0.000000001
43
0.0000000001
44
0.0000000001
40
0
40
0
40
0
40
0
40
2.0061342437810721
40
2.0061342437810721
40
2.0061342437810721
40
2.0061342437810721
10
23.52405618307159
20
65.390755316536428
30
0
10
23.704239910105713
20
64.770184450394694
30
0
10
23.794331773622769
20
64.107569620998376
30
0
10
23.794331773622769
20
63.402910828347459
30
0
0
SPLINE
5
438
100
AcDbEntity
8
0
100
AcDbSpline
70
1064
71
3
72
8
73
4
74
0
42
0.000000001
43
0.0000000001
44
0.0000000001
40
0
40
0
40
0
40
0
40
0.16911958675666139
40
0.16911958675666139
40
0.16911958675666139
40
0.16911958675666139
10
28.854075868110964
20
57.169249411024616
30
0
10
28.854075868110964
20
57.105207416273956
30
0
10
28.83806536942329
20
57.05115557900362
30
0
10
28.806044372047968
20
57.007093899213586
30
0
0
SPLINE
5
439
100
AcDbEntity
8
0
100
AcDbSpline
70
1064
71
3
72
8
73
4
74
0
42
0.000000001
43
0.0000000001
44
0.0000000001
40
0
40
0
40
0
40
0
40
0.94911438884922539
40
0.94911438884922539
40
0.94911438884922539
40
0.94911438884922539
10
33.634440041339325
20
65.961276970079737
30
0
10
33.450286498032241
20
66.233521064567924
30
0
10
33.212064713255323
20
66.441706760105987
30
0
10
32.919774687008598
20
66.585834056693912
30
0
0
SPLINE
5
440
100
AcDbEntity
8
0
100
AcDbSpline
70
1064
71
3
72
8
73
4
74
0
42
0.000000001
43
0.0000000001
44
0.0000000001
40
0
40
0
40
0
40
0
40
0.30881719175526828
40
0.30881719175526828
40
0.30881719175526828
40
0.30881719175526828
10
34.703436104331431
20
56.820922639371069
30
0
10
34.575319306431169
20
56.83693313805874
30
0
10
34.475220881234335
20
56.860948886090227
30
0
10
34.403140828740895
20
56.892969883465554
30
0
0
SPLINE
5
441
100
AcDbEntity
8
0
100
AcDbSpline
70
1064
71
3
72
8
73
4
74
0
42
0.000000001
43
0.0000000001
44
0.0000000001
40
0
40
0
40
0
40
0
40
1.314537497415502
40
1.314537497415502
40
1.314537497415502
40
1.314537497415502
10
18.953879017717256
20
66.970135237796271
30
0
10
18.465427574147704
20
66.970135237796271
30
0
10
18.037031904856367
20
66.878058466142718
30
0
10
17.668692009843248
20
66.693904922835642
30
0
0
SPLINE
5
442
100
AcDbEntity
8
0
100
AcDbSpline
70
1064
71
3
72
8
73
4
74
0
42
0.000000001
43
0.0000000001
44
0.0000000001
40
0
40
0
40
0
40
0
40
0.16911958675666439
40
0.16911958675666439
40
0.16911958675666439
40
0.16911958675666439
10
34.246989253937741
20
57.007093899213586
30
0
10
34.214968256562408
20
57.05115557900362
30
0
10
34.19895775787473
20
57.105207416273956
30
0
10
34.19895775787473
20
57.169249411024616
30
0
0
SPLINE
5
443
100
AcDbEntity
8
0
100
AcDbSpline
70
1064
71
3
72
8
73
4
74
0
42
0.000000001
43
0.0000000001
44
0.0000000001
40
0
40
0
40
0
40
0
40
1.0598194727376959
40
1.0598194727376959
40
1.0598194727376959
40
1.0598194727376959
10
34.054814057087341
20
64.988393111812016
30
0
10
33.958718256562406
20
65.364738256168962
30
0
10
33.818593584646393
20
65.689032875591536
30
0
10
33.634440041339325
20
65.961276970079737
30
0
0
SPLINE
5
444
100
AcDbEntity
8
0
100
AcDbSpline
70
1064
71
3
72
8
73
4
74
0
42
0.000000001
43
0.0000000001
44
0.0000000001
40
0
40
0
40
0
40
0
40
1.4963780377592415
40
1.4963780377592415
40
1.4963780377592415
40
1.4963780377592415
10
34.19895775787473
20
63.498973820473438
30
0
10
34.19895775787473
20
64.115574870342186
30
0
10
34.150909857612284
20
64.612047967455055
30
0
10
34.054814057087341
20
64.988393111812016
30
0
0
SPLINE
5
445
100
AcDbEntity
8
0
100
AcDbSpline
70
1064
71
3
72
8
73
4
74
0
42
0.000000001
43
0.0000000001
44
0.0000000001
40
0
40
0
40
0
40
0
40
0.49305569906423458
40
0.49305569906423458
40
0.49305569906423458
40
0.49305569906423458
10
28.349597521654267
20
56.820922639371069
30
0
10
28.221480723754002
20
56.804912140683399
30
0
10
28.057323899607024
20
56.796906891339567
30
0
10
27.857127049213322
20
56.796906891339567
30
0
0
SPLINE
5
446
100
AcDbEntity
8
0
100
AcDbSpline
70
1064
71
3
72
8
73
4
74
0
42
0.000000001
43
0.0000000001
44
0.0000000001
40
0
40
0
40
0
40
0
40
0.48096413075702882
40
0.48096413075702882
40
0.48096413075702882
40
0.48096413075702882
10
27.857127049213322
20
56.796906891339567
30
0
10
27.665001064961352
20
56.796906891339567
30
0
10
27.504879673885235
20
56.804912140683399
30
0
10
27.376762875984969
20
56.820922639371069
30
0
0
LINE
5
447
100
AcDbEntity
8
0
100
AcDbLine
10
26.872284999999998
20
57.169249000000008
30
0
11
26.872284999999998
21
73.215902999999997
31
0
0
SPLINE
5
448
100
AcDbEntity
8
0
100
AcDbSpline
70
1064
71
3
72
8
73
4
74
0
42
0.000000001
43
0.0000000001
44
0.0000000001
40
0
40
0
40
0
40
0
40
2.5456750547468761
40
2.5456750547468761
40
2.5456750547468761
40
2.5456750547468761
10
21.80053256102434
20
63.631158859843502
30
0
10
21.824548309055839
20
64.672103741733281
30
0
10
21.594331773622773
20
65.488836025197841
30
0
10
21.109882954725133
20
66.081355710237219
30
0
0
SPLINE
5
449
100
AcDbEntity
8
0
100
AcDbSpline
70
1064
71
3
72
8
73
4
74
0
42
0.000000001
43
0.0000000001
44
0.0000000001
40
0
40
0
40
0
40
0
40
0.49295739071532563
40
0.49295739071532563
40
0.49295739071532563
40
0.49295739071532563
10
35.195808151575534
20
56.796906891339567
30
0
10
34.995676917979729
20
56.796906891339567
30
0
10
34.831552902231692
20
56.804912140683399
30
0
10
34.703436104331431
20
56.820922639371069
30
0
0
SPLINE
5
450
100
AcDbEntity
8
0
100
AcDbSpline
70
1064
71
3
72
8
73
4
74
0
42
0.000000001
43
0.0000000001
44
0.0000000001
40
0
40
0
40
0
40
0
40
1.1799015723810684
40
1.1799015723810684
40
1.1799015723810684
40
1.1799015723810684
10
17.668692009843248
20
66.693904922835642
30
0
10
17.300352114830119
20
66.509751379528552
30
0
10
16.992067994095212
20
66.26552565774378
30
0
10
16.74383964763852
20
65.961227757481296
30
0
0
LINE
5
451
100
AcDbEntity
8
0
100
AcDbLine
10
15.939114999999999
20
63.631159000000004
30
0
11
21.800533000000001
21
63.631159000000004
31
0
0
SPLINE
5
452
100
AcDbEntity
8
0
100
AcDbSpline
70
1064
71
3
72
8
73
4
74
0
42
0.000000001
43
0.0000000001
44
0.0000000001
40
0
40
0
40
0
40
0
40
0.19341045805219509
40
0.19341045805219509
40
0.19341045805219509
40
0.19341045805219509
10
36.132717600394422
20
57.007093899213586
30
0
10
36.100696603019102
20
56.963032219423567
30
0
10
36.048646078084715
20
56.924990880840895
30
0
10
35.976566025591282
20
56.892969883465554
30
0
0
SPLINE
5
453
100
AcDbEntity
8
0
100
AcDbSpline
70
1064
71
3
72
8
73
4
74
0
42
0.000000001
43
0.0000000001
44
0.0000000001
40
0
40
0
40
0
40
0
40
0.4810624332028009
40
0.4810624332028009
40
0.4810624332028009
40
0.4810624332028009
10
35.676270750000725
20
56.820922639371069
30
0
10
35.548153952100478
20
56.804912140683399
30
0
10
35.387999752625412
20
56.796906891339567
30
0
10
35.195808151575534
20
56.796906891339567
30
0
0
LINE
5
454
100
AcDbEntity
8
0
100
AcDbLine
10
34.198958000000005
20
57.169249000000008
30
0
11
34.198958000000005
21
63.498974000000004
31
0
0
SPLINE
5
455
100
AcDbEntity
8
0
100
AcDbSpline
70
1064
71
3
72
8
73
4
74
0
42
0.000000001
43
0.0000000001
44
0.0000000001
40
0
40
0
40
0
40
0
40
0.19341045805219509
40
0.19341045805219509
40
0.19341045805219509
40
0.19341045805219509
10
34.403140828740895
20
56.892969883465554
30
0
10
34.331060776247448
20
56.924990880840895
30
0
10
34.279010251313075
20
56.963032219423567
30
0
10
34.246989253937741
20
57.007093899213586
30
0
0
SPLINE
5
456
100
AcDbEntity
8
0
100
AcDbSpline
70
1064
71
3
72
8
73
4
74
0
42
0.000000001
43
0.0000000001
44
0.0000000001
40
0
40
0
40
0
40
0
40
1.0376818923259563
40
1.0376818923259563
40
1.0376818923259563
40
1.0376818923259563
10
32.919774687008598
20
66.585834056693912
30
0
10
32.62748466076188
20
66.729961353281823
30
0
10
32.289180854987606
20
66.802025001575799
30
0
10
31.904863269685762
20
66.802025001575799
30
0
0
SPLINE
5
457
100
AcDbEntity
8
0
100
AcDbSpline
70
1064
71
3
72
8
73
4
74
0
42
0.000000001
43
0.0000000001
44
0.0000000001
40
0
40
0
40
0
40
0
40
2.1997377569813295
40
2.1997377569813295
40
2.1997377569813295
40
2.1997377569813295
10
30.415493190945604
20
66.273530907087604
30
0
10
29.919036498032217
20
65.921201510762145
30
0
10
29.398564057087331
20
65.404715290289715
30
0
10
28.854075868110964
20
64.724072245670285
30
0
0
SPLINE
5
458
100
AcDbEntity
8
0
100
AcDbSpline
70
1064
71
3
72
8
73
4
74
0
42
0.000000001
43
0.0000000001
44
0.0000000001
40
0
40
0
40
0
40
0
40
0.30881719175527522
40
0.30881719175527522
40
0.30881719175527522
40
0.30881719175527522
10
28.64989279724481
20
56.892969883465554
30
0
10
28.577812744751377
20
56.860948886090227
30
0
10
28.477714319554529
20
56.83693313805874
30
0
10
28.349597521654267
20
56.820922639371069
30
0
0
SPLINE
5
459
100
AcDbEntity
8
0
100
AcDbSpline
70
1064
71
3
72
8
73
4
74
0
42
0.000000001
43
0.0000000001
44
0.0000000001
40
0
40
0
40
0
40
0
40
0.31465856578206397
40
0.31465856578206397
40
0.31465856578206397
40
0.31465856578206397
10
27.376762875984969
20
56.820922639371069
30
0
10
27.248646078084711
20
56.83693313805874
30
0
10
27.1465463405519
20
56.860948886090227
30
0
10
27.070463663386555
20
56.892969883465554
30
0
0
SPLINE
5
460
100
AcDbEntity
8
0
100
AcDbSpline
70
1064
71
3
72
8
73
4
74
0
42
0.000000001
43
0.0000000001
44
0.0000000001
40
0
40
0
40
0
40
0
40
2.3320124410048813
40
2.3320124410048813
40
2.3320124410048813
40
2.3320124410048813
10
21.109882954725133
20
66.081355710237219
30
0
10
20.625434135827497
20
66.673875395276582
30
0
10
19.906766156824869
20
66.970135237796271
30
0
10
18.953879017717256
20
66.970135237796271
30
0
0
SPLINE
5
461
100
AcDbEntity
8
0
100
AcDbSpline
70
1064
71
3
72
8
73
4
74
0
42
0.000000001
43
0.0000000001
44
0.0000000001
40
0
40
0
40
0
40
0
40
1.2092700345517986
40
1.2092700345517986
40
1.2092700345517986
40
1.2092700345517986
10
16.74383964763852
20
65.961227757481296
30
0
10
16.495611301181825
20
65.656929857218842
30
0
10
16.303436104331432
20
65.30259914855742
30
0
10
16.167314057087339
20
64.898235631497045
30
0
0
LINE
5
462
100
AcDbEntity
8
0
100
AcDbLine
10
28.854076000000003
20
64.724072000000007
30
0
11
28.854076000000003
21
57.169249000000008
31
0
0
SPLINE
5
463
100
AcDbEntity
8
0
100
AcDbSpline
70
1064
71
3
72
8
73
4
74
0
42
0.000000001
43
0.0000000001
44
0.0000000001
40
0
40
0
40
0
40
0
40
1.5803573138234794
40
1.5803573138234794
40
1.5803573138234794
40
1.5803573138234794
10
31.904863269685762
20
66.802025001575799
30
0
10
31.408406576772375
20
66.802025001575799
30
0
10
30.911949883858991
20
66.625860303413063
30
0
10
30.415493190945604
20
66.273530907087604
30
0
0
SPLINE
5
464
100
AcDbEntity
8
0
100
AcDbSpline
70
1064
71
3
72
8
73
4
74
0
42
0.000000001
43
0.0000000001
44
0.0000000001
40
0
40
0
40
0
40
0
40
0.193410458052198
40
0.193410458052198
40
0.193410458052198
40
0.193410458052198
10
28.806044372047968
20
57.007093899213586
30
0
10
28.774023374672637
20
56.963032219423567
30
0
10
28.721972849738254
20
56.924990880840895
30
0
10
28.64989279724481
20
56.892969883465554
30
0
0
SPLINE
5
465
100
AcDbEntity
8
0
100
AcDbSpline
70
1064
71
3
72
8
73
4
74
0
42
0.000000001
43
0.0000000001
44
0.0000000001
40
0
40
0
40
0
40
0
40
0.16751335985773191
40
0.16751335985773191
40
0.16751335985773191
40
0.16751335985773191
10
26.914312088583401
20
57.007093899213586
30
0
10
26.886293715879994
20
57.05115557900362
30
0
10
26.872284529528283
20
57.105207416273956
30
0
10
26.872284529528283
20
57.169249411024616
30
0
0
SPLINE
5
466
100
AcDbEntity
8
0
100
AcDbSpline
70
1064
71
3
72
8
73
4
74
0
42
0.000000001
43
0.0000000001
44
0.0000000001
40
0
40
0
40
0
40
0
40
0.193410458052198
40
0.193410458052198
40
0.193410458052198
40
0.193410458052198
10
27.070463663386555
20
56.892969883465554
30
0
10
26.994380986221191
20
56.924990880840895
30
0
10
26.942330461286808
20
56.963032219423567
30
0
10
26.914312088583401
20
57.007093899213586
30
0
0
SPLINE
5
467
100
AcDbEntity
8
0
100
AcDbSpline
70
1064
71
3
72
8
73
4
74
0
42
0.000000001
43
0.0000000001
44
0.0000000001
40
0
40
0
40
0
40
0
40
0.1969827864340227
40
0.1969827864340227
40
0.1969827864340227
40
0.1969827864340227
10
26.914312088583401
20
73.384013190552182
30
0
10
26.942330461286808
20
73.432044686615171
30
0
10
26.994380986221191
20
73.472070933334322
30
0
10
27.070463663386555
20
73.504091930709663
30
0
0
SPLINE
5
468
100
AcDbEntity
8
0
100
AcDbSpline
70
1064
71
3
72
8
73
4
74
0
42
0.000000001
43
0.0000000001
44
0.0000000001
40
0
40
0
40
0
40
0
40
0.31466983761728268
40
0.31466983761728268
40
0.31466983761728268
40
0.31466983761728268
10
27.070463663386555
20
73.504091930709663
30
0
10
27.1465463405519
20
73.536112928084975
30
0
10
27.248646078084711
20
73.560145080315948
30
0
10
27.376762875984969
20
73.576188387402567
30
0
0
SPLINE
5
469
100
AcDbEntity
8
0
100
AcDbSpline
70
1064
71
3
72
8
73
4
74
0
42
0.000000001
43
0.0000000001
44
0.0000000001
40
0
40
0
40
0
40
0
40
0.48096659057721641
40
0.48096659057721641
40
0.48096659057721641
40
0.48096659057721641
10
27.376762875984969
20
73.576188387402567
30
0
10
27.504879673885235
20
73.592231694489186
30
0
10
27.665001064961352
20
73.600253348032496
30
0
10
27.857127049213322
20
73.600253348032496
30
0
0
SPLINE
5
470
100
AcDbEntity
8
0
100
AcDbSpline
70
1064
71
3
72
8
73
4
74
0
42
0.000000001
43
0.0000000001
44
0.0000000001
40
0
40
0
40
0
40
0
40
0.49305809856073601
40
0.49305809856073601
40
0.49305809856073601
40
0.49305809856073601
10
27.857127049213322
20
73.600253348032496
30
0
10
28.057323899607024
20
73.600253348032496
30
0
10
28.221480723754002
20
73.592231694489186
30
0
10
28.349597521654267
20
73.576188387402567
30
0
0
SPLINE
5
471
100
AcDbEntity
8
0
100
AcDbSpline
70
1064
71
3
72
8
73
4
74
0
42
0.000000001
43
0.0000000001
44
0.0000000001
40
0
40
0
40
0
40
0
40
0.30882867679293641
40
0.30882867679293641
40
0.30882867679293641
40
0.30882867679293641
10
28.349597521654267
20
73.576188387402567
30
0
10
28.477714319554529
20
73.560145080315948
30
0
10
28.577812744751377
20
73.536112928084975
30
0
10
28.64989279724481
20
73.504091930709663
30
0
0
SPLINE
5
472
100
AcDbEntity
8
0
100
AcDbSpline
70
1064
71
3
72
8
73
4
74
0
42
0.000000001
43
0.0000000001
44
0.0000000001
40
0
40
0
40
0
40
0
40
0.1969827864340227
40
0.1969827864340227
40
0.1969827864340227
40
0.1969827864340227
10
28.64989279724481
20
73.504091930709663
30
0
10
28.721972849738254
20
73.472070933334322
30
0
10
28.774023374672637
20
73.432044686615171
30
0
10
28.806044372047968
20
73.384013190552182
30
0
0
SPLINE
5
473
100
AcDbEntity
8
0
100
AcDbSpline
70
1064
71
3
72
8
73
4
74
0
42
0.000000001
43
0.0000000001
44
0.0000000001
40
0
40
0
40
0
40
0
40
0.30881719175528222
40
0.30881719175528222
40
0.30881719175528222
40
0.30881719175528222
10
35.976566025591282
20
56.892969883465554
30
0
10
35.904485973097842
20
56.860948886090227
30
0
10
35.804387547901001
20
56.83693313805874
30
0
10
35.676270750000725
20
56.820922639371069
30
0
0
SPLINE
5
474
100
AcDbEntity
8
0
100
AcDbSpline
70
1064
71
3
72
8
73
4
74
0
42
0.000000001
43
0.0000000001
44
0.0000000001
40
0
40
0
40
0
40
0
40
1.2874619397132707
40
1.2874619397132707
40
1.2874619397132707
40
1.2874619397132707
10
16.167314057087339
20
64.898235631497045
30
0
10
16.031192009843245
20
64.493872114436684
30
0
10
15.955125736877367
20
64.071513190552167
30
0
10
15.9391152381897
20
63.631158859843502
30
0
0
SPLINE
5
475
100
AcDbEntity
8
0
100
AcDbSpline
70
1064
71
3
72
8
73
4
74
0
42
0.000000001
43
0.0000000001
44
0.0000000001
40
0
40
0
40
0
40
0
40
0.17328406517114839
40
0.17328406517114839
40
0.17328406517114839
40
0.17328406517114839
10
26.872284529528283
20
73.215902954331696
30
0
10
26.872284529528283
20
73.279944949082363
30
0
10
26.886293715879994
20
73.335981694489178
30
0
10
26.914312088583401
20
73.384013190552182
30
0
0
SPLINE
5
476
100
AcDbEntity
8
0
100
AcDbSpline
70
1064
71
3
72
8
73
4
74
0
42
0.000000001
43
0.0000000001
44
0.0000000001
40
0
40
0
40
0
40
0
40
0.1748372847425764
40
0.1748372847425764
40
0.1748372847425764
40
0.1748372847425764
10
28.806044372047968
20
73.384013190552182
30
0
10
28.83806536942329
20
73.335981694489178
30
0
10
28.854075868110964
20
73.279944949082363
30
0
10
28.854075868110964
20
73.215902954331696
30
0
0
LINE
5
477
100
AcDbEntity
8
0
100
AcDbLine
10
28.854076000000003
20
73.215902999999997
30
0
11
28.854076000000003
21
66.741985999999997
31
0
0
SPLINE
5
478
100
AcDbEntity
8
0
100
AcDbSpline
70
1064
71
3
72
8
73
4
74
0
42
0.000000001
43
0.0000000001
44
0.0000000001
40
0
40
0
40
0
40
0
40
2.1779411960961128
40
2.1779411960961128
40
2.1779411960961128
40
2.1779411960961128
10
28.854075868110964
20
66.741985631497045
30
0
10
29.422579805118829
20
67.342510565880247
30
0
10
29.995102770998091
20
67.788901641995736
30
0
10
30.571644765748751
20
68.081158859843512
30
0
0
SPLINE
5
479
100
AcDbEntity
8
0
100
AcDbSpline
70
1064
71
3
72
8
73
4
74
0
42
0.000000001
43
0.0000000001
44
0.0000000001
40
0
40
0
40
0
40
0
40
1.856194386282124
40
1.856194386282124
40
1.856194386282124
40
1.856194386282124
10
32.313229411418035
20
68.519544686615163
30
0
10
33.033898702756623
20
68.519544686615163
30
0
10
33.640460382546664
20
68.397431825722762
30
0
10
34.132914450788128
20
68.15320610393799
30
0
0
SPLINE
5
480
100
AcDbEntity
8
0
100
AcDbSpline
70
1064
71
3
72
8
73
4
74
0
42
0.000000001
43
0.0000000001
44
0.0000000001
40
0
40
0
40
0
40
0
40
0.16911958675666039
40
0.16911958675666039
40
0.16911958675666039
40
0.16911958675666039
10
36.180749096457411
20
57.169249411024616
30
0
10
36.180749096457411
20
57.105207416273956
30
0
10
36.164738597769755
20
57.05115557900362
30
0
10
36.132717600394422
20
57.007093899213586
30
0
0
SPLINE
5
481
100
AcDbEntity
8
0
100
AcDbSpline
70
1064
71
3
72
8
73
4
74
0
42
0.000000001
43
0.0000000001
44
0.0000000001
40
0
40
0
40
0
40
0
40
1.7959118049462428
40
1.7959118049462428
40
1.7959118049462428
40
1.7959118049462428
10
30.571644765748751
20
68.081158859843512
30
0
10
31.14818676049941
20
68.373416077691274
30
0
10
31.728714975722504
20
68.519544686615163
30
0
10
32.313229411418035
20
68.519544686615163
30
0
0
SPLINE
5
482
100
AcDbEntity
8
0
100
AcDbSpline
70
1064
71
3
72
8
73
4
74
0
42
0.000000001
43
0.0000000001
44
0.0000000001
40
0
40
0
40
0
40
0
40
1.5448088913894444
40
1.5448088913894444
40
1.5448088913894444
40
1.5448088913894444
10
34.132914450788128
20
68.15320610393799
30
0
10
34.6253685190296
20
67.908980382153231
30
0
10
35.023728099082085
20
67.582684450394694
30
0
10
35.327993190945598
20
67.174318308662407
30
0
0
LINE
5
483
100
AcDbEntity
8
0
100
AcDbLine
10
36.180748999999999
20
63.751238000000008
30
0
11
36.180748999999999
21
57.169249000000008
31
0
0
SPLINE
5
484
100
AcDbEntity
8
0
100
AcDbSpline
70
1064
71
3
72
8
73
4
74
0
42
0.000000001
43
0.0000000001
44
0.0000000001
40
0
40
0
40
0
40
0
40
1.5775027810985918
40
1.5775027810985918
40
1.5775027810985918
40
1.5775027810985918
10
35.327993190945598
20
67.174318308662407
30
0
10
35.632258282809133
20
66.76595216693012
30
0
10
35.850450540026976
20
66.287523689239833
30
0
10
35.982569962599158
20
65.739032875591533
30
0
0
SPLINE
5
485
100
AcDbEntity
8
0
100
AcDbSpline
70
1064
71
3
72
8
73
4
74
0
42
0.000000001
43
0.0000000001
44
0.0000000001
40
0
40
0
40
0
40
0
40
1.2226673335706728
40
1.2226673335706728
40
1.2226673335706728
40
1.2226673335706728
10
21.896595553150334
20
57.013097836221462
30
0
10
21.552304214567648
20
56.917002035696527
30
0
10
21.15394463451516
20
56.830912796851379
30
0
10
20.701516812992857
20
56.754830119686027
30
0
0
SPLINE
5
486
100
AcDbEntity
8
0
100
AcDbSpline
70
1064
71
3
72
8
73
4
74
0
42
0.000000001
43
0.0000000001
44
0.0000000001
40
0
40
0
40
0
40
0
40
2.5300237916699002
40
2.5300237916699002
40
2.5300237916699002
40
2.5300237916699002
10
13.849253033465292
20
62.526139174804136
30
0
10
13.849253033465292
20
63.454944949082346
30
0
10
13.969364582021724
20
64.289689043570533
30
0
10
14.209587679134581
20
65.030371458268689
30
0
0
SPLINE
5
487
100
AcDbEntity
8
0
100
AcDbSpline
70
1064
71
3
72
8
73
4
74
0
42
0.000000001
43
0.0000000001
44
0.0000000001
40
0
40
0
40
0
40
0
40
2.025279206155719
40
2.025279206155719
40
2.025279206155719
40
2.025279206155719
10
15.248514844488913
20
66.916099804725405
30
0
10
15.700909857612276
20
67.432569620998365
30
0
10
16.247399358924614
20
67.828927888714901
30
0
10
16.887983348425927
20
68.105174607875014
30
0
0
SPLINE
5
488
100
AcDbEntity
8
0
100
AcDbSpline
70
1064
71
3
72
8
73
4
74
0
42
0.000000001
43
0.0000000001
44
0.0000000001
40
0
40
0
40
0
40
0
40
0.45108266911178541
40
0.45108266911178541
40
0.45108266911178541
40
0.45108266911178541
10
48.126418387796008
20
56.796906891339567
30
0
10
47.942232036089962
20
56.796906891339567
30
0
10
47.792084398294691
20
56.804912140683399
30
0
10
47.67597547441018
20
56.820922639371069
30
0
0
SPLINE
5
489
100
AcDbEntity
8
0
100
AcDbSpline
70
1064
71
3
72
8
73
4
74
0
42
0.000000001
43
0.0000000001
44
0.0000000001
40
0
40
0
40
0
40
0
40
0.16610873353348071
40
0.16610873353348071
40
0.16610873353348071
40
0.16610873353348071
10
47.261556183071598
20
57.007093899213586
30
0
10
47.237540435040103
20
57.05115557900362
30
0
10
47.225532561024359
20
57.105207416273956
30
0
10
47.225532561024359
20
57.169249411024616
30
0
0
SPLINE
5
490
100
AcDbEntity
8
0
100
AcDbSpline
70
1064
71
3
72
8
73
4
74
0
42
0.000000001
43
0.0000000001
44
0.0000000001
40
0
40
0
40
0
40
0
40
2.5377421582952975
40
2.5377421582952975
40
2.5377421582952975
40
2.5377421582952975
10
3.8654931909456063
20
58.598580119686034
30
0
10
4.8584065767723779
20
58.598580119686034
30
0
10
5.6951683877960004
20
58.722677888714898
30
0
10
6.3757786240164727
20
58.970873426772641
30
0
0
SPLINE
5
491
100
AcDbEntity
8
0
100
AcDbSpline
70
1064
71
3
72
8
73
4
74
0
42
0.000000001
43
0.0000000001
44
0.0000000001
40
0
40
0
40
0
40
0
40
0.291332730309383
40
0.291332730309383
40
0.291332730309383
40
0.291332730309383
10
48.835030592520418
20
56.892969883465554
30
0
10
48.762950540026971
20
56.860948886090227
30
0
10
48.668856051837999
20
56.83693313805874
30
0
10
48.552747127953481
20
56.820922639371069
30
0
0
SPLINE
5
492
100
AcDbEntity
8
0
100
AcDbSpline
70
1064
71
3
72
8
73
4
74
0
42
0.000000001
43
0.0000000001
44
0.0000000001
40
0
40
0
40
0
40
0
40
0.20638523453358029
40
0.20638523453358029
40
0.20638523453358029
40
0.20638523453358029
10
23.325926261811752
20
58.028009253544298
30
0
10
23.317921012467913
20
57.951959384777894
30
0
10
23.307898046588651
20
57.883898361155843
30
0
10
23.295857364173955
20
57.823826182678161
30
0
0
SPLINE
5
493
100
AcDbEntity
8
0
100
AcDbSpline
70
1064
71
3
72
8
73
4
74
0
42
0.000000001
43
0.0000000001
44
0.0000000001
40
0
40
0
40
0
40
0
40
2.6676875458885143
40
2.6676875458885143
40
2.6676875458885143
40
2.6676875458885143
10
6.4718908287408814
20
70.24917067086713
30
0
10
5.7912477841214605
20
70.545430513386819
30
0
10
4.9144433221792028
20
70.69356043464667
30
0
10
3.8414774429141119
20
70.69356043464667
30
0
0
SPLINE
5
494
100
AcDbEntity
8
0
100
AcDbSpline
70
1064
71
3
72
8
73
4
74
0
42
0.000000001
43
0.0000000001
44
0.0000000001
40
0
40
0
40
0
40
0
40
2.1193360213088535
40
2.1193360213088535
40
2.1193360213088535
40
2.1193360213088535
10
9.1383278366148968
20
67.13233996220572
30
0
10
8.930125736877363
20
67.857011878216213
30
0
10
8.6038298051188349
20
68.483586681365821
30
0
10
8.1594400413393107
20
69.012064371654546
30
0
0
SPLINE
5
495
100
AcDbEntity
8
0
100
AcDbSpline
70
1064
71
3
72
8
73
4
74
0
42
0.000000001
43
0.0000000001
44
0.0000000001
40
0
40
0
40
0
40
0
40
0.57005536114484567
40
0.57005536114484567
40
0.57005536114484567
40
0.57005536114484567
10
23.560129017717269
20
62.375991537008872
30
0
10
23.40399384711359
20
62.243872114436691
30
0
10
23.225827836614897
20
62.177812403150597
30
0
10
23.025630986221199
20
62.177812403150597
30
0
0
SPLINE
5
496
100
AcDbEntity
8
0
100
AcDbSpline
70
1064
71
3
72
8
73
4
74
0
42
0.000000001
43
0.0000000001
44
0.0000000001
40
0
40
0
40
0
40
0
40
0.2855191459952639
40
0.2855191459952639
40
0.2855191459952639
40
0.2855191459952639
10
47.67597547441018
20
56.820922639371069
30
0
10
47.559866550525662
20
56.83693313805874
30
0
10
47.467773374672653
20
56.860948886090227
30
0
10
47.399695946851132
20
56.892969883465554
30
0
0
SPLINE
5
497
100
AcDbEntity
8
0
100
AcDbSpline
70
1064
71
3
72
8
73
4
74
0
42
0.000000001
43
0.0000000001
44
0.0000000001
40
0
40
0
40
0
40
0
40
1.6314844975748559
40
1.6314844975748559
40
1.6314844975748559
40
1.6314844975748559
10
15.9391152381897
20
62.177812403150597
30
0
10
15.9391152381897
20
61.57722185196949
30
0
10
15.999171012467915
20
61.036719883465558
30
0
10
16.119282561024345
20
60.556306497638786
30
0
0
SPLINE
5
498
100
AcDbEntity
8
0
100
AcDbSpline
70
1064
71
3
72
8
73
4
74
0
42
0.000000001
43
0.0000000001
44
0.0000000001
40
0
40
0
40
0
40
0
40
2.3561261367983946
40
2.3561261367983946
40
2.3561261367983946
40
2.3561261367983946
10
47.225532561024359
20
58.598580119686034
30
0
10
46.608997127953479
20
57.917937075066604
30
0
10
46.000450540026975
20
57.421463977953742
30
0
10
45.399892797244817
20
57.109160828347441
30
0
0
SPLINE
5
499
100
AcDbEntity
8
0
100
AcDbSpline
70
1064
71
3
72
8
73
4
74
0
42
0.000000001
43
0.0000000001
44
0.0000000001
40
0
40
0
40
0
40
0
40
1.6685942174170738
40
1.6685942174170738
40
1.6685942174170738
40
1.6685942174170738
10
17.812835710630647
20
58.526483662993122
30
0
10
18.261260907481038
20
58.342330119686032
30
0
10
18.809784529528283
20
58.250253348032494
30
0
10
19.458406576772376
20
58.250253348032494
30
0
0
SPLINE
5
500
100
AcDbEntity
8
0
100
AcDbSpline
70
1064
71
3
72
8
73
4
74
0
42
0.000000001
43
0.0000000001
44
0.0000000001
40
0
40
0
40
0
40
0
40
0.36673195656914098
40
0.36673195656914098
40
0.36673195656914098
40
0.36673195656914098
10
23.31992232480388
20
58.664574214174216
30
0
10
23.331930198819624
20
58.564475788977362
30
0
10
23.337934135827499
20
58.442379332284453
30
0
10
23.337934135827499
20
58.298284844095477
30
0
0
SPLINE
5
501
100
AcDbEntity
8
0
100
AcDbSpline
70
1064
71
3
72
8
73
4
74
0
42
0.000000001
43
0.0000000001
44
0.0000000001
40
0
40
0
40
0
40
0
40
0.18859640533678571
40
0.18859640533678571
40
0.18859640533678571
40
0.18859640533678571
10
48.985178230315682
20
57.007093899213586
30
0
10
48.957159857612254
20
56.963032219423567
30
0
10
48.907110645013852
20
56.924990880840895
30
0
10
48.835030592520418
20
56.892969883465554
30
0
0
SPLINE
5
502
100
AcDbEntity
8
0
100
AcDbSpline
70
1064
71
3
72
8
73
4
74
0
42
0.000000001
43
0.0000000001
44
0.0000000001
40
0
40
0
40
0
40
0
40
2.0924278578945228
40
2.0924278578945228
40
2.0924278578945228
40
2.0924278578945228
10
8.1594400413393107
20
69.012064371654546
30
0
10
7.7150502775597793
20
69.540542061943256
30
0
10
7.152533873360305
20
69.952910828347456
30
0
10
6.4718908287408814
20
70.24917067086713
30
0
0
LINE
5
503
100
AcDbEntity
8
0
100
AcDbLine
10
3.8414769999999998
20
70.693560000000005
30
0
11
1.7396069999999999
21
70.693560000000005
31
0
0
SPLINE
5
504
100
AcDbEntity
8
0
100
AcDbSpline
70
1064
71
3
72
8
73
4
74
0
42
0.000000001
43
0.0000000001
44
0.0000000001
40
0
40
0
40
0
40
0
40
2.184240632191031
40
2.184240632191031
40
2.184240632191031
40
2.184240632191031
10
8.0813396476385186
20
60.111867521260834
30
0
10
8.5377700938327443
20
60.624334712861881
30
0
10
8.8800929284784136
20
61.266920014699153
30
0
10
9.1083081515755282
20
62.039623426772643
30
0
0
LINE
5
505
100
AcDbEntity
8
0
100
AcDbLine
10
1.7396069999999999
20
58.598579999999998
30
0
11
3.8654929999999998
21
58.598579999999998
31
0
0
SPLINE
5
506
100
AcDbEntity
8
0
100
AcDbSpline
70
1064
71
3
72
8
73
4
74
0
42
0.000000001
43
0.0000000001
44
0.0000000001
40
0
40
0
40
0
40
0
40
1.3750348508496255
40
1.3750348508496255
40
1.3750348508496255
40
1.3750348508496255
10
19.458406576772376
20
58.250253348032494
30
0
10
19.97087376837343
20
58.250253348032494
30
0
10
20.427287810368174
20
58.292280907087601
30
0
10
20.827648702756633
20
58.376336025197837
30
0
0
SPLINE
5
507
100
AcDbEntity
8
0
100
AcDbSpline
70
1064
71
3
72
8
73
4
74
0
42
0.000000001
43
0.0000000001
44
0.0000000001
40
0
40
0
40
0
40
0
40
2.0520248363398559
40
2.0520248363398559
40
2.0520248363398559
40
2.0520248363398559
10
6.3757786240164727
20
58.970873426772641
30
0
10
7.0563888602369467
20
59.219068964830385
30
0
10
7.6249092014442956
20
59.59940032965978
30
0
10
8.0813396476385186
20
60.111867521260834
30
0
0
SPLINE
5
508
100
AcDbEntity
8
0
100
AcDbSpline
70
1064
71
3
72
8
73
4
74
0
42
0.000000001
43
0.0000000001
44
0.0000000001
40
0
40
0
40
0
40
0
40
0.70653097647292573
40
0.70653097647292573
40
0.70653097647292573
40
0.70653097647292573
10
23.794331773622769
20
63.042576182678154
30
0
10
23.794331773622769
20
62.730305841470802
30
0
10
23.716264188320931
20
62.508110959581046
30
0
10
23.560129017717269
20
62.375991537008872
30
0
0
SPLINE
5
509
100
AcDbEntity
8
0
100
AcDbSpline
70
1064
71
3
72
8
73
4
74
0
42
0.000000001
43
0.0000000001
44
0.0000000001
40
0
40
0
40
0
40
0
40
0.16228666001144049
40
0.16228666001144049
40
0.16228666001144049
40
0.16228666001144049
10
23.163721537402296
20
59.024958072441933
30
0
10
23.207750408793373
20
58.996939699738526
30
0
10
23.241789122704137
20
58.954895736483934
30
0
10
23.265837679134581
20
58.898826182678157
30
0
0
LINE
5
510
100
AcDbEntity
8
0
100
AcDbLine
10
1.7396069999999999
20
70.693560000000005
30
0
11
1.7396069999999999
21
58.598579999999998
31
0
0
SPLINE
5
511
100
AcDbEntity
8
0
100
AcDbSpline
70
1064
71
3
72
8
73
4
74
0
42
0.000000001
43
0.0000000001
44
0.0000000001
40
0
40
0
40
0
40
0
40
0.42700462624868918
40
0.42700462624868918
40
0.42700462624868918
40
0.42700462624868918
10
48.552747127953481
20
56.820922639371069
30
0
10
48.436638204068956
20
56.804912140683399
30
0
10
48.294528624016465
20
56.796906891339567
30
0
10
48.126418387796008
20
56.796906891339567
30
0
0
SPLINE
5
512
100
AcDbEntity
8
0
100
AcDbSpline
70
1064
71
3
72
8
73
4
74
0
42
0.000000001
43
0.0000000001
44
0.0000000001
40
0
40
0
40
0
40
0
40
2.7658526001612445
40
2.7658526001612445
40
2.7658526001612445
40
2.7658526001612445
10
9.1083081515755282
20
62.039623426772643
30
0
10
9.3365233746726393
20
62.812326838846133
30
0
10
9.4506309862211975
20
63.72718904357054
30
0
10
9.4506309862211975
20
64.784210040945879
30
0
0
LINE
5
513
100
AcDbEntity
8
0
100
AcDbLine
10
23.025631000000001
20
62.177812000000003
30
0
11
15.939114999999999
21
62.177812000000003
31
0
0
LINE
5
514
100
AcDbEntity
8
0
100
AcDbLine
10
47.225533000000006
20
57.169249000000008
30
0
11
47.225533000000006
21
58.598579999999998
31
0
0
SPLINE
5
515
100
AcDbEntity
8
0
100
AcDbSpline
70
1064
71
3
72
8
73
4
74
0
42
0.000000001
43
0.0000000001
44
0.0000000001
40
0
40
0
40
0
40
0
40
1.0765806183911195
40
1.0765806183911195
40
1.0765806183911195
40
1.0765806183911195
10
20.827648702756633
20
58.376336025197837
30
0
10
21.228009595145082
20
58.460391143308073
30
0
10
21.574318650263194
20
58.554469227297581
30
0
10
21.866575868110964
20
58.658570277166348
30
0
0
SPLINE
5
516
100
AcDbEntity
8
0
100
AcDbSpline
70
1064
71
3
72
8
73
4
74
0
42
0.000000001
43
0.0000000001
44
0.0000000001
40
0
40
0
40
0
40
0
40
1.3502126960542742
40
1.3502126960542742
40
1.3502126960542742
40
1.3502126960542742
10
16.719823899607029
20
59.319200198426188
30
0
10
17.000073243439047
20
58.974876051444561
30
0
10
17.364410513780257
20
58.710637206300198
30
0
10
17.812835710630647
20
58.526483662993122
30
0
0
SPLINE
5
517
100
AcDbEntity
8
0
100
AcDbSpline
70
1064
71
3
72
8
73
4
74
0
42
0.000000001
43
0.0000000001
44
0.0000000001
40
0
40
0
40
0
40
0
40
0.44469020786105917
40
0.44469020786105917
40
0.44469020786105917
40
0.44469020786105917
10
22.587195946851125
20
58.940853741733278
30
0
10
22.775352114830124
20
59.024941668242462
30
0
10
22.917494503281564
20
59.066985631497062
30
0
10
23.013623112205451
20
59.066985631497062
30
0
0
SPLINE
5
518
100
AcDbEntity
8
0
100
AcDbSpline
70
1064
71
3
72
8
73
4
74
0
42
0.000000001
43
0.0000000001
44
0.0000000001
40
0
40
0
40
0
40
0
40
0.15587127049814739
40
0.15587127049814739
40
0.15587127049814739
40
0.15587127049814739
10
23.013623112205451
20
59.066985631497062
30
0
10
23.069659857612272
20
59.066985631497062
30
0
10
23.119692666011229
20
59.052976445145347
30
0
10
23.163721537402296
20
59.024958072441933
30
0
0
SPLINE
5
519
100
AcDbEntity
8
0
100
AcDbSpline
70
1064
71
3
72
8
73
4
74
0
42
0.000000001
43
0.0000000001
44
0.0000000001
40
0
40
0
40
0
40
0
40
0.77393620683579645
40
0.77393620683579645
40
0.77393620683579645
40
0.77393620683579645
10
21.866575868110964
20
58.658570277166348
30
0
10
22.158833085958733
20
58.762671327035108
30
0
10
22.399039778872112
20
58.856765815224094
30
0
10
22.587195946851125
20
58.940853741733278
30
0
0
SPLINE
5
520
100
AcDbEntity
8
0
100
AcDbSpline
70
1064
71
3
72
8
73
4
74
0
42
0.000000001
43
0.0000000001
44
0.0000000001
40
0
40
0
40
0
40
0
40
0.1791839426609505
40
0.1791839426609505
40
0.1791839426609505
40
0.1791839426609505
10
47.399695946851132
20
56.892969883465554
30
0
10
47.331618519029597
20
56.924990880840895
30
0
10
47.285571931103107
20
56.963032219423567
30
0
10
47.261556183071598
20
57.007093899213586
30
0
0
SPLINE
5
521
100
AcDbEntity
8
0
100
AcDbSpline
70
1064
71
3
72
8
73
4
74
0
42
0.000000001
43
0.0000000001
44
0.0000000001
40
0
40
0
40
0
40
0
40
1.3751661335628391
40
1.3751661335628391
40
1.3751661335628391
40
1.3751661335628391
10
16.119282561024345
20
60.556306497638786
30
0
10
16.239394109580775
20
60.075893111812007
30
0
10
16.439574555775007
20
59.663524345407815
30
0
10
16.719823899607029
20
59.319200198426188
30
0
0
SPLINE
5
522
100
AcDbEntity
8
0
100
AcDbSpline
70
1064
71
3
72
8
73
4
74
0
42
0.000000001
43
0.0000000001
44
0.0000000001
40
0
40
0
40
0
40
0
40
0.2404145038161051
40
0.2404145038161051
40
0.2404145038161051
40
0.2404145038161051
10
23.265837679134581
20
58.898826182678157
30
0
10
23.289886235565032
20
58.84275662887238
30
0
10
23.307914450788125
20
58.764672639371071
30
0
10
23.31992232480388
20
58.664574214174216
30
0
0
SPLINE
5
523
100
AcDbEntity
8
0
100
AcDbSpline
70
1064
71
3
72
8
73
4
74
0
42
0.000000001
43
0.0000000001
44
0.0000000001
40
0
40
0
40
0
40
0
40
0.17293076007132141
40
0.17293076007132141
40
0.17293076007132141
40
0.17293076007132141
10
23.295857364173955
20
57.823826182678161
30
0
10
23.283816681759252
20
57.763754004200464
30
0
10
23.263787154200202
20
57.709702166930121
30
0
10
23.235768781496787
20
57.661670670867132
30
0
0
SPLINE
5
524
100
AcDbEntity
8
0
100
AcDbSpline
70
1064
71
3
72
8
73
4
74
0
42
0.000000001
43
0.0000000001
44
0.0000000001
40
0
40
0
40
0
40
0
40
0.27054220352131159
40
0.27054220352131159
40
0.27054220352131159
40
0.27054220352131159
10
23.337934135827499
20
58.298284844095477
30
0
10
23.337934135827499
20
58.194150985827761
30
0
10
23.33393151115558
20
58.104059122310701
30
0
10
23.325926261811752
20
58.028009253544298
30
0
0
SPLINE
5
525
100
AcDbEntity
8
0
100
AcDbSpline
70
1064
71
3
72
8
73
4
74
0
42
0.000000001
43
0.0000000001
44
0.0000000001
40
0
40
0
40
0
40
0
40
0.4462230699458879
40
0.4462230699458879
40
0.4462230699458879
40
0.4462230699458879
10
23.127697915355053
20
57.523580119686031
30
0
10
23.08366904396398
20
57.479551248294953
30
0
10
22.953550933727765
20
57.407487600000991
30
0
10
22.7373435846464
20
57.307389174804143
30
0
0
SPLINE
5
526
100
AcDbEntity
8
0
100
AcDbSpline
70
1064
71
3
72
8
73
4
74
0
42
0.000000001
43
0.0000000001
44
0.0000000001
40
0
40
0
40
0
40
0
40
0.89076632425641566
40
0.89076632425641566
40
0.89076632425641566
40
0.89076632425641566
10
22.7373435846464
20
57.307389174804143
30
0
10
22.521136235565034
20
57.207290749607289
30
0
10
22.240886891733012
20
57.109193636746404
30
0
10
21.896595553150334
20
57.013097836221462
30
0
0
SPLINE
5
527
100
AcDbEntity
8
0
100
AcDbSpline
70
1064
71
3
72
8
73
4
74
0
42
0.000000001
43
0.0000000001
44
0.0000000001
40
0
40
0
40
0
40
0
40
1.4518349287225114
40
1.4518349287225114
40
1.4518349287225114
40
1.4518349287225114
10
20.701516812992857
20
56.754830119686027
30
0
10
20.24908899147054
20
56.678747442520674
30
0
10
19.76664148490886
20
56.640706103937994
30
0
10
19.254174293307813
20
56.640706103937994
30
0
0
SPLINE
5
528
100
AcDbEntity
8
0
100
AcDbSpline
70
1064
71
3
72
8
73
4
74
0
42
0.000000001
43
0.0000000001
44
0.0000000001
40
0
40
0
40
0
40
0
40
2.3656088374000754
40
2.3656088374000754
40
2.3656088374000754
40
2.3656088374000754
10
19.254174293307813
20
56.640706103937994
30
0
10
18.365394765748754
20
56.640706103937994
30
0
10
17.586687416667392
20
56.764820277166343
30
0
10
16.918052246063713
20
57.013048623623035
30
0
0
SPLINE
5
529
100
AcDbEntity
8
0
100
AcDbSpline
70
1064
71
3
72
8
73
4
74
0
42
0.000000001
43
0.0000000001
44
0.0000000001
40
0
40
0
40
0
40
0
40
0.17535196729470931
40
0.17535196729470931
40
0.17535196729470931
40
0.17535196729470931
10
23.235768781496787
20
57.661670670867132
30
0
10
23.207750408793373
20
57.613639174804135
30
0
10
23.171726786746131
20
57.567608991077108
30
0
10
23.127697915355053
20
57.523580119686031
30
0
0
SPLINE
5
530
100
AcDbEntity
8
0
100
AcDbSpline
70
1064
71
3
72
8
73
4
74
0
42
0.000000001
43
0.0000000001
44
0.0000000001
40
0
40
0
40
0
40
0
40
2.593868562723106
40
2.593868562723106
40
2.593868562723106
40
2.593868562723106
10
14.197579805118837
20
59.955765159056106
30
0
10
13.965361957349806
20
60.692444949082358
30
0
10
13.849253033465292
20
61.549236287665032
30
0
10
13.849253033465292
20
62.526139174804136
30
0
0
SPLINE
5
531
100
AcDbEntity
8
0
100
AcDbSpline
70
1064
71
3
72
8
73
4
74
0
42
0.000000001
43
0.0000000001
44
0.0000000001
40
0
40
0
40
0
40
0
40
2.0171491886486925
40
2.0171491886486925
40
2.0171491886486925
40
2.0171491886486925
10
16.918052246063713
20
57.013048623623035
30
0
10
16.249417075460038
20
57.261276970079734
30
0
10
15.686900671260569
20
57.629616865092856
30
0
10
15.230503033465295
20
58.118068308662416
30
0
0
SPLINE
5
532
100
AcDbEntity
8
0
100
AcDbSpline
70
1064
71
3
72
8
73
4
74
0
42
0.000000001
43
0.0000000001
44
0.0000000001
40
0
40
0
40
0
40
0
40
2.1080939517973536
40
2.1080939517973536
40
2.1080939517973536
40
2.1080939517973536
10
15.230503033465295
20
58.118068308662416
30
0
10
14.774105395670016
20
58.606519752231961
30
0
10
14.429797652887864
20
59.219085369029862
30
0
10
14.197579805118837
20
59.955765159056106
30
0
0
SPLINE
5
533
100
AcDbEntity
8
0
100
AcDbSpline
70
1064
71
3
72
8
73
4
74
0
42
0.000000001
43
0.0000000001
44
0.0000000001
40
0
40
0
40
0
40
0
40
2.152984219993614
40
2.152984219993614
40
2.152984219993614
40
2.152984219993614
10
14.209587679134581
20
65.030371458268689
30
0
10
14.449810776247444
20
65.77105387296686
30
0
10
14.796119831365553
20
66.399629988452432
30
0
10
15.248514844488913
20
66.916099804725405
30
0
0
SPLINE
5
534
100
AcDbEntity
8
0
100
AcDbSpline
70
1064
71
3
72
8
73
4
74
0
42
0.000000001
43
0.0000000001
44
0.0000000001
40
0
40
0
40
0
40
0
40
2.7695043153337155
40
2.7695043153337155
40
2.7695043153337155
40
2.7695043153337155
10
9.7088494901582045
20
70.387310434646665
30
0
10
10.337425605643769
20
69.734718571129591
30
0
10
10.813852770998098
20
68.943986943833011
30
0
10
11.138130986221196
20
68.015115552756896
30
0
0
SPLINE
5
535
100
AcDbEntity
8
0
100
AcDbSpline
70
1064
71
3
72
8
73
4
74
0
42
0.000000001
43
0.0000000001
44
0.0000000001
40
0
40
0
40
0
40
0
40
2.1895184288796834
40
2.1895184288796834
40
2.1895184288796834
40
2.1895184288796834
10
16.887983348425927
20
68.105174607875014
30
0
10
17.528567337927235
20
68.381421327035113
30
0
10
18.245217600394426
20
68.519544686615163
30
0
10
19.037934135827491
20
68.519544686615163
30
0
0
LINE
5
536
100
AcDbEntity
8
0
100
AcDbLine
10
3.7334070000000001
20
56.868954000000002
30
0
11
0.44236300000000006
21
56.868954000000002
31
0
0
SPLINE
5
537
100
AcDbEntity
8
0
100
AcDbSpline
70
1064
71
3
72
8
73
4
74
0
42
0.000000001
43
0.0000000001
44
0.0000000001
40
0
40
0
40
0
40
0
40
0.27395327944658332
40
0.27395327944658332
40
0.27395327944658332
40
0.27395327944658332
10
127.9189872854338
20
68.327418702363204
30
0
10
128.03509620931831
20
68.287392455644039
30
0
10
128.11716641929206
20
68.247349804725403
30
0
10
128.16519791535507
20
68.207290749607296
30
0
0
SPLINE
5
538
100
AcDbEntity
8
0
100
AcDbSpline
70
1064
71
3
72
8
73
4
74
0
42
0.000000001
43
0.0000000001
44
0.0000000001
40
0
40
0
40
0
40
0
40
2.7769505227214197
40
2.7769505227214197
40
2.7769505227214197
40
2.7769505227214197
10
7.3727274429141119
20
71.888639174804126
30
0
10
8.3015660255912778
20
71.54034521154955
30
0
10
9.0802733746726396
20
71.039902298163724
30
0
10
9.7088494901582045
20
70.387310434646665
30
0
0
SPLINE
5
539
100
AcDbEntity
8
0
100
AcDbSpline
70
1064
71
3
72
8
73
4
74
0
42
0.000000001
43
0.0000000001
44
0.0000000001
40
0
40
0
40
0
40
0
40
3.4702591889882006
40
3.4702591889882006
40
3.4702591889882006
40
3.4702591889882006
10
7.1685443720479691
20
57.361424607875009
30
0
10
6.2076519835965254
20
57.033110959581037
30
0
10
5.0626060518379932
20
56.868954135434066
30
0
10
3.7334065767723779
20
56.868954135434066
30
0
0
SPLINE
5
540
100
AcDbEntity
8
0
100
AcDbSpline
70
1064
71
3
72
8
73
4
74
0
42
0.000000001
43
0.0000000001
44
0.0000000001
40
0
40
0
40
0
40
0
40
0.55462084245043874
40
0.55462084245043874
40
0.55462084245043874
40
0.55462084245043874
10
-0.080077675196125311
20
72.224908859843509
30
0
10
0.084095553150331306
20
72.349023033071859
30
0
10
0.25824253477762787
20
72.411080119686034
30
0
10
0.44236326968576434
20
72.411080119686034
30
0
0
SPLINE
5
541
100
AcDbEntity
8
0
100
AcDbSpline
70
1064
71
3
72
8
73
4
74
0
42
0.000000001
43
0.0000000001
44
0.0000000001
40
0
40
0
40
0
40
0
40
3.5628247244465334
40
3.5628247244465334
40
3.5628247244465334
40
3.5628247244465334
10
11.624548309055847
20
64.868265159056108
30
0
10
11.624548309055847
20
63.52305518530283
30
0
10
11.452402639764507
20
62.347989568504929
30
0
10
11.108111301181825
20
61.343068308662403
30
0
0
SPLINE
5
542
100
AcDbEntity
8
0
100
AcDbSpline
70
1064
71
3
72
8
73
4
74
0
42
0.000000001
43
0.0000000001
44
0.0000000001
40
0
40
0
40
0
40
0
40
0.43847614645158928
40
0.43847614645158928
40
0.43847614645158928
40
0.43847614645158928
10
128.32730421456768
20
67.70886555275689
30
0
10
128.33130683923955
20
67.600761878216218
30
0
10
128.33330815157549
20
67.454616865092859
30
0
10
128.33330815157549
20
67.270430513386827
30
0
0
SPLINE
5
543
100
AcDbEntity
8
0
100
AcDbSpline
70
1064
71
3
72
8
73
4
74
0
42
0.000000001
43
0.0000000001
44
0.0000000001
40
0
40
0
40
0
40
0
40
2.9177804169828927
40
2.9177804169828927
40
2.9177804169828927
40
2.9177804169828927
10
11.108111301181825
20
61.343068308662403
30
0
10
10.763819962599149
20
60.338147048819891
30
0
10
10.261375736877362
20
59.505387862468176
30
0
10
9.6007786240164741
20
58.844790749607292
30
0
0
SPLINE
5
544
100
AcDbEntity
8
0
100
AcDbSpline
70
1064
71
3
72
8
73
4
74
0
42
0.000000001
43
0.0000000001
44
0.0000000001
40
0
40
0
40
0
40
0
40
0.4196001436678326
40
0.4196001436678326
40
0.4196001436678326
40
0.4196001436678326
10
127.11426287598499
20
68.50153287559155
30
0
10
127.24638229855715
20
68.489525001575799
30
0
10
127.38450565813721
20
68.467510565880261
30
0
10
127.52863295472514
20
68.435489568504934
30
0
0
SPLINE
5
545
100
AcDbEntity
8
0
100
AcDbSpline
70
1064
71
3
72
8
73
4
74
0
42
0.000000001
43
0.0000000001
44
0.0000000001
40
0
40
0
40
0
40
0
40
0.1443444354508843
40
0.1443444354508843
40
0.1443444354508843
40
0.1443444354508843
10
128.26126090748102
20
68.093166733859249
30
0
10
128.27727140616869
20
68.057143111812024
30
0
10
128.29128059252042
20
68.011112928084984
30
0
10
128.30328846653617
20
67.955076182678155
30
0
0
SPLINE
5
546
100
AcDbEntity
8
0
100
AcDbSpline
70
1064
71
3
72
8
73
4
74
0
42
0.000000001
43
0.0000000001
44
0.0000000001
40
0
40
0
40
0
40
0
40
3.4508495220955004
40
3.4508495220955004
40
3.4508495220955004
40
3.4508495220955004
10
3.9616546082684412
20
72.411080119686034
30
0
10
5.3068645820217224
20
72.411080119686034
30
0
10
6.443888860236946
20
72.236933138058731
30
0
10
7.3727274429141119
20
71.888639174804126
30
0
0
SPLINE
5
547
100
AcDbEntity
8
0
100
AcDbSpline
70
1064
71
3
72
8
73
4
74
0
42
0.000000001
43
0.0000000001
44
0.0000000001
40
0
40
0
40
0
40
0
40
0.5546208424504363
40
0.5546208424504363
40
0.5546208424504363
40
0.5546208424504363
10
0.44236326968576434
20
56.868954135434066
30
0
10
0.25824253477762787
20
56.868954135434066
30
0
10
0.084095553150331306
20
56.931011222048234
30
0
10
-0.080077675196125311
20
57.055125395276576
30
0
0
SPLINE
5
548
100
AcDbEntity
8
0
100
AcDbSpline
70
1064
71
3
72
8
73
4
74
0
42
0.000000001
43
0.0000000001
44
0.0000000001
40
0
40
0
40
0
40
0
40
2.3688071648763973
40
2.3688071648763973
40
2.3688071648763973
40
2.3688071648763973
10
9.4506309862211975
20
64.784210040945879
30
0
10
9.4506309862211975
20
65.624958072441927
30
0
10
9.3465299363524306
20
66.407668046195212
30
0
10
9.1383278366148968
20
67.13233996220572
30
0
0
LINE
5
549
100
AcDbEntity
8
0
100
AcDbLine
10
0
20
72.280034000000001
30
0
11
0
21
57
31
0
0
SPLINE
5
550
100
AcDbEntity
8
0
100
AcDbSpline
70
1064
71
3
72
8
73
4
74
0
42
0.000000001
43
0.0000000001
44
0.0000000001
40
0
40
0
40
0
40
0
40
0.24737912288576761
40
0.24737912288576761
40
0.24737912288576761
40
0.24737912288576761
10
128.30328846653617
20
67.955076182678155
30
0
10
128.31529634055192
20
67.899039437271327
30
0
10
128.32330158989572
20
67.816969227297577
30
0
10
128.32730421456768
20
67.70886555275689
30
0
0
SPLINE
5
551
100
AcDbEntity
8
0
100
AcDbSpline
70
1064
71
3
72
8
73
4
74
0
42
0.000000001
43
0.0000000001
44
0.0000000001
40
0
40
0
40
0
40
0
40
0.40503804217830003
40
0.40503804217830003
40
0.40503804217830003
40
0.40503804217830003
10
127.52863295472514
20
68.435489568504934
30
0
10
127.67276025131306
20
68.403468571129608
30
0
10
127.80287836154928
20
68.367444949082355
30
0
10
127.9189872854338
20
68.327418702363204
30
0
0
LINE
5
552
100
AcDbEntity
8
0
100
AcDbLine
10
0.44236300000000006
20
72.411079999999998
30
0
11
3.9616550000000004
21
72.411079999999998
31
0
0
SPLINE
5
553
100
AcDbEntity
8
0
100
AcDbSpline
70
1064
71
3
72
8
73
4
74
0
42
0.000000001
43
0.0000000001
44
0.0000000001
40
0
40
0
40
0
40
0
40
2.8488837405002183
40
2.8488837405002183
40
2.8488837405002183
40
2.8488837405002183
10
9.6007786240164741
20
58.844790749607292
30
0
10
8.9401815111555827
20
58.184193636746393
30
0
10
8.1294367604994129
20
57.689738256168965
30
0
10
7.1685443720479691
20
57.361424607875009
30
0
0
SPLINE
5
554
100
AcDbEntity
8
0
100
AcDbSpline
70
1064
71
3
72
8
73
4
74
0
42
0.000000001
43
0.0000000001
44
0.0000000001
40
0
40
0
40
0
40
0
40
0.14917234806308161
40
0.14917234806308161
40
0.14917234806308161
40
0.14917234806308161
10
128.16519791535507
20
68.207290749607296
30
0
10
128.21322941141804
20
68.167231694489175
30
0
10
128.24525040879337
20
68.129190355906502
30
0
10
128.26126090748102
20
68.093166733859249
30
0
0
SPLINE
5
555
100
AcDbEntity
8
0
100
AcDbSpline
70
1064
71
3
72
8
73
4
74
0
42
0.000000001
43
0.0000000001
44
0.0000000001
40
0
40
0
40
0
40
0
40
3.1842219163067811
40
3.1842219163067811
40
3.1842219163067811
40
3.1842219163067811
10
11.138130986221196
20
68.015115552756896
30
0
10
11.462409201444292
20
67.086244161680781
30
0
10
11.624548309055847
20
66.037294030447185
30
0
10
11.624548309055847
20
64.868265159056108
30
0
0
LINE
5
556
100
AcDbEntity
8
0
100
AcDbLine
10
123.805159
20
67.979092000000009
30
0
11
123.805159
21
66.405667000000008
31
0
0
SPLINE
5
557
100
AcDbEntity
8
0
100
AcDbSpline
70
1064
71
3
72
8
73
4
74
0
42
0.000000001
43
0.0000000001
44
0.0000000001
40
0
40
0
40
0
40
0
40
0.1830293019131744
40
0.1830293019131744
40
0.1830293019131744
40
0.1830293019131744
10
123.62504043504015
20
68.261375395276588
30
0
10
123.68908242979076
20
68.225351773229335
30
0
10
123.7351126135178
20
68.185309122310699
30
0
10
123.7631309862212
20
68.14124744252068
30
0
0
SPLINE
5
558
100
AcDbEntity
8
0
100
AcDbSpline
70
1064
71
3
72
8
73
4
74
0
42
0.000000001
43
0.0000000001
44
0.0000000001
40
0
40
0
40
0
40
0
40
0.43880486447143152
40
0.43880486447143152
40
0.43880486447143152
40
0.43880486447143152
10
122.91637901771728
20
68.351434450394692
30
0
10
123.0925601200795
20
68.351434450394692
30
0
10
123.23870513320286
20
68.345430513386816
30
0
10
123.35481405708734
20
68.333422639371079
30
0
0
SPLINE
5
559
100
AcDbEntity
8
0
100
AcDbSpline
70
1064
71
3
72
8
73
4
74
0
42
0.000000001
43
0.0000000001
44
0.0000000001
40
0
40
0
40
0
40
0
40
0.27966605214627482
40
0.27966605214627482
40
0.27966605214627482
40
0.27966605214627482
10
123.35481405708734
20
68.333422639371079
30
0
10
123.47092298097186
20
68.321414765355314
30
0
10
123.56099844028945
20
68.297399017323826
30
0
10
123.62504043504015
20
68.261375395276588
30
0
0
SPLINE
5
560
100
AcDbEntity
8
0
100
AcDbSpline
70
1064
71
3
72
8
73
4
74
0
42
0.000000001
43
0.0000000001
44
0.0000000001
40
0
40
0
40
0
40
0
40
0.16751335985773111
40
0.16751335985773111
40
0.16751335985773111
40
0.16751335985773111
10
123.7631309862212
20
68.14124744252068
30
0
10
123.7911493589246
20
68.097185762730646
30
0
10
123.80515854527631
20
68.04313392546031
30
0
10
123.80515854527631
20
67.979091930709657
30
0
0
SPLINE
5
561
100
AcDbEntity
8
0
100
AcDbSpline
70
1064
71
3
72
8
73
4
74
0
42
0.000000001
43
0.0000000001
44
0.0000000001
40
0
40
0
40
0
40
0
40
2.5456750547468734
40
2.5456750547468734
40
2.5456750547468734
40
2.5456750547468734
10
116.94383964763851
20
63.631158859843502
30
0
10
116.96785539567006
20
64.672103741733281
30
0
10
116.73763886023696
20
65.488836025197841
30
0
10
116.25319004133934
20
66.081355710237219
30
0
0
SPLINE
5
562
100
AcDbEntity
8
0
100
AcDbSpline
70
1064
71
3
72
8
73
4
74
0
42
0.000000001
43
0.0000000001
44
0.0000000001
40
0
40
0
40
0
40
0
40
2.2061364686825722
40
2.2061364686825722
40
2.2061364686825722
40
2.2061364686825722
10
114.18124122244171
20
68.519544686615163
30
0
10
115.0300601200795
20
68.519544686615163
30
0
10
115.75273072375401
20
68.383422639371062
30
0
10
116.34925303346529
20
68.11117854488289
30
0
0
SPLINE
5
563
100
AcDbEntity
8
0
100
AcDbSpline
70
1064
71
3
72
8
73
4
74
0
42
0.000000001
43
0.0000000001
44
0.0000000001
40
0
40
0
40
0
40
0
40
2.0061342437810721
40
2.0061342437810721
40
2.0061342437810721
40
2.0061342437810721
10
118.66736326968578
20
65.390755316536428
30
0
10
118.84754699671993
20
64.770184450394694
30
0
10
118.93763886023694
20
64.107569620998376
30
0
10
118.93763886023694
20
63.402910828347459
30
0
0
LINE
5
564
100
AcDbEntity
8
0
100
AcDbLine
10
118.93763899999999
20
63.402911000000003
30
0
11
118.93763899999999
21
63.042575999999997
31
0
0
SPLINE
5
565
100
AcDbEntity
8
0
100
AcDbSpline
70
1064
71
3
72
8
73
4
74
0
42
0.000000001
43
0.0000000001
44
0.0000000001
40
0
40
0
40
0
40
0
40
0.35483736264446109
40
0.35483736264446109
40
0.35483736264446109
40
0.35483736264446109
10
126.75988295472514
20
68.519544686615163
30
0
10
126.86401681299287
20
68.519544686615163
30
0
10
126.98214345341282
20
68.513540749607287
30
0
10
127.11426287598499
20
68.50153287559155
30
0
0
SPLINE
5
566
100
AcDbEntity
8
0
100
AcDbSpline
70
1064
71
3
72
8
73
4
74
0
42
0.000000001
43
0.0000000001
44
0.0000000001
40
0
40
0
40
0
40
0
40
2.3320124410048879
40
2.3320124410048879
40
2.3320124410048879
40
2.3320124410048879
10
116.25319004133934
20
66.081355710237219
30
0
10
115.7687412224417
20
66.673875395276582
30
0
10
115.05007324343907
20
66.970135237796271
30
0
10
114.09718610433146
20
66.970135237796271
30
0
0
SPLINE
5
567
100
AcDbEntity
8
0
100
AcDbSpline
70
1064
71
3
72
8
73
4
74
0
42
0.000000001
43
0.0000000001
44
0.0000000001
40
0
40
0
40
0
40
0
40
0.69649659876415038
40
0.69649659876415038
40
0.69649659876415038
40
0.69649659876415038
10
126.06923334842593
20
68.429485631497059
30
0
10
126.29744857152306
20
68.489525001575785
30
0
10
126.52766510695614
20
68.519544686615163
30
0
10
126.75988295472514
20
68.519544686615163
30
0
0
SPLINE
5
568
100
AcDbEntity
8
0
100
AcDbSpline
70
1064
71
3
72
8
73
4
74
0
42
0.000000001
43
0.0000000001
44
0.0000000001
40
0
40
0
40
0
40
0
40
1.314537497415502
40
1.314537497415502
40
1.314537497415502
40
1.314537497415502
10
114.09718610433146
20
66.970135237796271
30
0
10
113.60873466076187
20
66.970135237796271
30
0
10
113.18033899147056
20
66.878058466142718
30
0
10
112.81199909645744
20
66.693904922835642
30
0
0
SPLINE
5
569
100
AcDbEntity
8
0
100
AcDbSpline
70
1064
71
3
72
8
73
4
74
0
42
0.000000001
43
0.0000000001
44
0.0000000001
40
0
40
0
40
0
40
0
40
1.8364307179075217
40
1.8364307179075217
40
1.8364307179075217
40
1.8364307179075217
10
116.34925303346529
20
68.11117854488289
30
0
10
116.94577534317659
20
67.838934450394689
30
0
10
117.43621169488264
20
67.472612271917001
30
0
10
117.82056208858343
20
67.012212009449811
30
0
0
SPLINE
5
570
100
AcDbEntity
8
0
100
AcDbSpline
70
1064
71
3
72
8
73
4
74
0
42
0.000000001
43
0.0000000001
44
0.0000000001
40
0
40
0
40
0
40
0
40
1.1799015723810629
40
1.1799015723810629
40
1.1799015723810629
40
1.1799015723810629
10
112.81199909645744
20
66.693904922835642
30
0
10
112.44365920144432
20
66.509751379528552
30
0
10
112.13537508070941
20
66.26552565774378
30
0
10
111.88714673425274
20
65.961227757481296
30
0
0
SPLINE
5
571
100
AcDbEntity
8
0
100
AcDbSpline
70
1064
71
3
72
8
73
4
74
0
42
0.000000001
43
0.0000000001
44
0.0000000001
40
0
40
0
40
0
40
0
40
1.3469172447888649
40
1.3469172447888649
40
1.3469172447888649
40
1.3469172447888649
10
123.80515854527631
20
66.405666733859263
30
0
10
124.10148400459391
20
66.83808143202198
30
0
10
124.37976484448895
20
67.190410828347439
30
0
10
124.64000106496137
20
67.46265492283564
30
0
0
SPLINE
5
572
100
AcDbEntity
8
0
100
AcDbSpline
70
1064
71
3
72
8
73
4
74
0
42
0.000000001
43
0.0000000001
44
0.0000000001
40
0
40
0
40
0
40
0
40
0.76293815337024795
40
0.76293815337024795
40
0.76293815337024795
40
0.76293815337024795
10
125.37863295472513
20
68.105223820473441
30
0
10
125.61081799409521
20
68.261358991077103
30
0
10
125.8410181253288
20
68.369446261418318
30
0
10
126.06923334842593
20
68.429485631497059
30
0
0
SPLINE
5
573
100
AcDbEntity
8
0
100
AcDbSpline
70
1064
71
3
72
8
73
4
74
0
42
0.000000001
43
0.0000000001
44
0.0000000001
40
0
40
0
40
0
40
0
40
0.97901575921303363
40
0.97901575921303363
40
0.97901575921303363
40
0.97901575921303363
10
124.64000106496137
20
67.46265492283564
30
0
10
124.90023728543379
20
67.734899017323826
30
0
10
125.14644791535505
20
67.949088649869765
30
0
10
125.37863295472513
20
68.105223820473441
30
0
0
SPLINE
5
574
100
AcDbEntity
8
0
100
AcDbSpline
70
1064
71
3
72
8
73
4
74
0
42
0.000000001
43
0.0000000001
44
0.0000000001
40
0
40
0
40
0
40
0
40
1.8292605192563376
40
1.8292605192563376
40
1.8292605192563376
40
1.8292605192563376
10
117.82056208858343
20
67.012212009449811
30
0
10
118.20491248228421
20
66.551811746982608
30
0
10
118.48717954265167
20
66.011326182678147
30
0
10
118.66736326968578
20
65.390755316536428
30
0
0
ENDSEC
0
SECTION
2
OBJECTS
0
DICTIONARY
5
C
100
AcDbDictionary
3
ACAD_GROUP
350
D
3
ACAD_MLINESTYLE
350
17
0
DICTIONARY
5
D
100
AcDbDictionary
0
DICTIONARY
5
1A
330
C
100
AcDbDictionary
0
DICTIONARY
5
17
100
AcDbDictionary
0
ENDSEC
0
EOF
