  0
SECTION
  2
HEADER
  9
$ACADVER
  1
AC1018
  9
$ACADMAINTVER
 70
     0
  9
$DWGCODEPAGE
  3
UNDEFINED
  9
$INSBASE
 10
0.0
 20
0.0
 30
0.0
  9
$EXTMIN
 10
-272.5901713386198
 20
-294.0
 30
-20.96192531576147
  9
$EXTMAX
 10
691.4662497052622
 20
353.0
 30
11.0
  9
$LIMMIN
 10
0.0
 20
0.0
  9
$LIMMAX
 10
12.0
 20
9.0
  9
$ORTHOMODE
 70
     0
  9
$REGENMODE
 70
     1
  9
$FILLMODE
 70
     1
  9
$QTEXTMODE
 70
     0
  9
$MIRRTEXT
 70
     1
  9
$LTSCALE
 40
1.0
  9
$ATTMODE
 70
     1
  9
$TEXTSIZE
 40
0.2
  9
$TRACEWID
 40
0.05
  9
$TEXTSTYLE
  7
Standard
  9
$CLAYER
  8
Default
  9
$CELTYPE
  6
ByLayer
  9
$CECOLOR
 62
   256
  9
$CELTSCALE
 40
1.0
  9
$DISPSILH
 70
     0
  9
$DIMSCALE
 40
1.0
  9
$DIMASZ
 40
0.18
  9
$DIMEXO
 40
0.0625
  9
$DIMDLI
 40
0.38
  9
$DIMRND
 40
0.0
  9
$DIMDLE
 40
0.0
  9
$DIMEXE
 40
0.18
  9
$DIMTP
 40
0.0
  9
$DIMTM
 40
0.0
  9
$DIMTXT
 40
0.18
  9
$DIMCEN
 40
0.09
  9
$DIMTSZ
 40
0.0
  9
$DIMTOL
 70
     0
  9
$DIMLIM
 70
     0
  9
$DIMTIH
 70
     1
  9
$DIMTOH
 70
     1
  9
$DIMSE1
 70
     0
  9
$DIMSE2
 70
     0
  9
$DIMTAD
 70
     0
  9
$DIMZIN
 70
     0
  9
$DIMBLK
  1

  9
$DIMASO
 70
     1
  9
$DIMSHO
 70
     1
  9
$DIMPOST
  1

  9
$DIMAPOST
  1

  9
$DIMALT
 70
     0
  9
$DIMALTD
 70
     2
  9
$DIMALTF
 40
25.4
  9
$DIMLFAC
 40
1.0
  9
$DIMTOFL
 70
     0
  9
$DIMTVP
 40
0.0
  9
$DIMTIX
 70
     0
  9
$DIMSOXD
 70
     0
  9
$DIMSAH
 70
     0
  9
$DIMBLK1
  1

  9
$DIMBLK2
  1

  9
$DIMSTYLE
  2
STANDARD_ACAD
  9
$DIMCLRD
 70
     0
  9
$DIMCLRE
 70
     0
  9
$DIMCLRT
 70
     0
  9
$DIMTFAC
 40
1.0
  9
$DIMGAP
 40
0.09
  9
$DIMJUST
 70
     0
  9
$DIMSD1
 70
     0
  9
$DIMSD2
 70
     0
  9
$DIMTOLJ
 70
     1
  9
$DIMTZIN
 70
     0
  9
$DIMALTZ
 70
     0
  9
$DIMALTTZ
 70
     0
  9
$DIMUPT
 70
     0
  9
$DIMDEC
 70
     4
  9
$DIMTDEC
 70
     4
  9
$DIMALTU
 70
     2
  9
$DIMALTTD
 70
     2
  9
$DIMTXSTY
  7
Standard
  9
$DIMAUNIT
 70
     0
  9
$DIMADEC
 70
     0
  9
$DIMALTRND
 40
0.0
  9
$DIMAZIN
 70
     0
  9
$DIMDSEP
 70
    46
  9
$DIMATFIT
 70
     3
  9
$DIMFRAC
 70
     0
  9
$DIMLDRBLK
  1

  9
$DIMLUNIT
 70
     2
  9
$DIMLWD
 70
    -2
  9
$DIMLWE
 70
    -2
  9
$DIMTMOVE
 70
     2
  9
$LUNITS
 70
     2
  9
$LUPREC
 70
     3
  9
$SKETCHINC
 40
0.1
  9
$FILLETRAD
 40
0.5
  9
$AUNITS
 70
     0
  9
$AUPREC
 70
     0
  9
$MENU
  1
.
  9
$ELEVATION
 40
0.0
  9
$PELEVATION
 40
0.0
  9
$THICKNESS
 40
0.0
  9
$LIMCHECK
 70
     0
  9
$CHAMFERA
 40
0.0
  9
$CHAMFERB
 40
0.0
  9
$CHAMFERC
 40
0.0
  9
$CHAMFERD
 40
0.0
  9
$SKPOLY
 70
     0
  9
$TDCREATE
 40
2458666.702233796
  9
$TDUCREATE
 40
2458666.660567129
  9
$TDUPDATE
 40
2458666.702256944
  9
$TDUUPDATE
 40
2458666.660590278
  9
$TDINDWG
 40
0.0000000116
  9
$TDUSRTIMER
 40
0.0000000116
  9
$USRTIMER
 70
     1
  9
$ANGBASE
 50
0.0
  9
$ANGDIR
 70
     0
  9
$PDMODE
 70
     0
  9
$PDSIZE
 40
0.0
  9
$PLINEWID
 40
0.0
  9
$SPLFRAME
 70
     0
  9
$SPLINETYPE
 70
     6
  9
$SPLINESEGS
 70
     8
  9
$HANDSEED
  5
1B5
  9
$SURFTAB1
 70
     6
  9
$SURFTAB2
 70
     6
  9
$SURFTYPE
 70
     6
  9
$SURFU
 70
     6
  9
$SURFV
 70
     6
  9
$UCSBASE
  2

  9
$UCSNAME
  2

  9
$UCSORG
 10
0.0
 20
0.0
 30
0.0
  9
$UCSXDIR
 10
1.0
 20
0.0
 30
0.0
  9
$UCSYDIR
 10
0.0
 20
1.0
 30
0.0
  9
$UCSORTHOREF
  2

  9
$UCSORTHOVIEW
 70
     0
  9
$UCSORGTOP
 10
0.0
 20
0.0
 30
0.0
  9
$UCSORGBOTTOM
 10
0.0
 20
0.0
 30
0.0
  9
$UCSORGLEFT
 10
0.0
 20
0.0
 30
0.0
  9
$UCSORGRIGHT
 10
0.0
 20
0.0
 30
0.0
  9
$UCSORGFRONT
 10
0.0
 20
0.0
 30
0.0
  9
$UCSORGBACK
 10
0.0
 20
0.0
 30
0.0
  9
$PUCSBASE
  2

  9
$PUCSNAME
  2

  9
$PUCSORG
 10
0.0
 20
0.0
 30
0.0
  9
$PUCSXDIR
 10
1.0
 20
0.0
 30
0.0
  9
$PUCSYDIR
 10
0.0
 20
1.0
 30
0.0
  9
$PUCSORTHOREF
  2

  9
$PUCSORTHOVIEW
 70
     0
  9
$PUCSORGTOP
 10
0.0
 20
0.0
 30
0.0
  9
$PUCSORGBOTTOM
 10
0.0
 20
0.0
 30
0.0
  9
$PUCSORGLEFT
 10
0.0
 20
0.0
 30
0.0
  9
$PUCSORGRIGHT
 10
0.0
 20
0.0
 30
0.0
  9
$PUCSORGFRONT
 10
0.0
 20
0.0
 30
0.0
  9
$PUCSORGBACK
 10
0.0
 20
0.0
 30
0.0
  9
$USERI1
 70
     0
  9
$USERI2
 70
     0
  9
$USERI3
 70
     0
  9
$USERI4
 70
     0
  9
$USERI5
 70
     0
  9
$USERR1
 40
0.0
  9
$USERR2
 40
0.0
  9
$USERR3
 40
0.0
  9
$USERR4
 40
0.0
  9
$USERR5
 40
0.0
  9
$WORLDVIEW
 70
     1
  9
$SHADEDGE
 70
     3
  9
$SHADEDIF
 70
    70
  9
$TILEMODE
 70
     1
  9
$MAXACTVP
 70
    64
  9
$PINSBASE
 10
0.0
 20
0.0
 30
0.0
  9
$PLIMCHECK
 70
     0
  9
$PEXTMIN
 10
1.000000000000000E+20
 20
1.000000000000000E+20
 30
1.000000000000000E+20
  9
$PEXTMAX
 10
-1.000000000000000E+20
 20
-1.000000000000000E+20
 30
-1.000000000000000E+20
  9
$PLIMMIN
 10
0.0
 20
0.0
  9
$PLIMMAX
 10
12.0
 20
9.0
  9
$UNITMODE
 70
     0
  9
$VISRETAIN
 70
     1
  9
$PLINEGEN
 70
     0
  9
$PSLTSCALE
 70
     1
  9
$TREEDEPTH
 70
  3020
  9
$CMLSTYLE
  2
Standard
  9
$CMLJUST
 70
     0
  9
$CMLSCALE
 40
1.0
  9
$PROXYGRAPHICS
 70
     1
  9
$MEASUREMENT
 70
     0
  9
$CELWEIGHT
370
    -1
  9
$ENDCAPS
280
     0
  9
$JOINSTYLE
280
     0
  9
$LWDISPLAY
290
     0
  9
$INSUNITS
 70
     4
  9
$HYPERLINKBASE
  1

  9
$STYLESHEET
  1

  9
$XEDIT
290
     1
  9
$CEPSNTYPE
380
     0
  9
$PSTYLEMODE
290
     1
  9
$FINGERPRINTGUID
  2
{53BD6001-ACBA-405E-B58B-0DBF98563F9B}
  9
$VERSIONGUID
  2
{FAEB1C32-E019-11D5-929B-00C0DF256EC4}
  9
$EXTNAMES
290
     1
  9
$PSVPSCALE
 40
0.0
  9
$OLESTARTUP
290
     0
  9
$SORTENTS
280
   127
  9
$INDEXCTL
280
     0
  9
$HIDETEXT
280
     1
  9
$XCLIPFRAME
290
     0
  9
$HALOGAP
280
     0
  9
$OBSCOLOR
 70
   257
  9
$OBSLTYPE
280
     0
  9
$INTERSECTIONDISPLAY
280
     0
  9
$INTERSECTIONCOLOR
 70
   257
  9
$DIMASSOC
280
     2
  9
$PROJECTNAME
  1

  0
ENDSEC
  0
SECTION
  2
CLASSES
  0
CLASS
  1
ACDBDICTIONARYWDFLT
  2
AcDbDictionaryWithDefault
  3
ObjectDBX Classes
 90
        0
 91
        4
280
     0
281
     0
  0
CLASS
  1
VISUALSTYLE
  2
AcDbVisualStyle
  3
ObjectDBX Classes
 90
     4095
 91
        4
280
     0
281
     0
  0
CLASS
  1
MATERIAL
  2
AcDbMaterial
  3
ObjectDBX Classes
 90
     1153
 91
        4
280
     0
281
     0
  0
CLASS
  1
SCALE
  2
AcDbScale
  3
ObjectDBX Classes
 90
     1153
 91
        4
280
     0
281
     0
  0
CLASS
  1
TABLESTYLE
  2
AcDbTableStyle
  3
ObjectDBX Classes
 90
     4095
 91
        4
280
     0
281
     0
  0
CLASS
  1
MLEADERSTYLE
  2
AcDbMLeaderStyle
  3
ACDB_MLEADERSTYLE_CLASS
 90
     4095
 91
        4
280
     0
281
     0
  0
CLASS
  1
SUN
  2
AcDbSun
  3
SCENEOE
 90
     1153
 91
        4
280
     0
281
     0
  0
CLASS
  1
DICTIONARYVAR
  2
AcDbDictionaryVar
  3
ObjectDBX Classes
 90
        0
 91
        4
280
     0
281
     0
  0
CLASS
  1
CELLSTYLEMAP
  2
AcDbCellStyleMap
  3
ObjectDBX Classes
 90
     1152
 91
        4
280
     0
281
     0
  0
ENDSEC
  0
SECTION
  2
TABLES
  0
TABLE
  2
VPORT
  5
8
102
{ACAD_XDICTIONARY
360
16E
102
}
330
0
100
AcDbSymbolTable
 70
     1
  0
VPORT
  5
29
330
8
100
AcDbSymbolTableRecord
100
AcDbViewportTableRecord
  2
*Active
 70
     0
 10
0.0
 20
0.0
 11
1.0
 21
1.0
 12
292.7331248526311
 22
29.5
 13
0.0
 23
0.0
 14
0.5
 24
0.5
 15
0.5
 25
0.5
 16
0.0
 26
0.0
 36
1.0
 17
0.0
 27
0.0
 37
0.0
 40
659.94
 41
1.232559891352801
 42
50.0
 43
0.0
 44
0.0
 50
0.0
 51
0.0
 71
     0
 72
   100
 73
     1
 74
     3
 75
     0
 76
     0
 77
     0
 78
     0
281
     0
 65
     1
110
0.0
120
0.0
130
0.0
111
1.0
121
0.0
131
0.0
112
0.0
122
1.0
132
0.0
 79
     0
146
0.0
  0
ENDTAB
  0
TABLE
  2
LTYPE
  5
5
330
0
100
AcDbSymbolTable
 70
     1
  0
LTYPE
  5
14
330
5
100
AcDbSymbolTableRecord
100
AcDbLinetypeTableRecord
  2
ByBlock
 70
     0
  3

 72
    65
 73
     0
 40
0.0
  0
LTYPE
  5
15
330
5
100
AcDbSymbolTableRecord
100
AcDbLinetypeTableRecord
  2
ByLayer
 70
     0
  3

 72
    65
 73
     0
 40
0.0
  0
LTYPE
  5
16
330
5
100
AcDbSymbolTableRecord
100
AcDbLinetypeTableRecord
  2
Continuous
 70
     0
  3
Solid line
 72
    65
 73
     0
 40
0.0
  0
ENDTAB
  0
TABLE
  2
LAYER
  5
2
330
0
100
AcDbSymbolTable
 70
     3
  0
LAYER
  5
10
330
2
100
AcDbSymbolTableRecord
100
AcDbLayerTableRecord
  2
0
 70
     0
 62
     7
  6
Continuous
370
    -3
390
F
  0
LAYER
  5
6E
330
2
100
AcDbSymbolTableRecord
100
AcDbLayerTableRecord
  2
Layer 02
 70
     0
 62
   192
420
  8201933
  6
Continuous
370
    -3
390
F
  0
LAYER
  5
7E
330
2
100
AcDbSymbolTableRecord
100
AcDbLayerTableRecord
  2
Default
 70
     0
 62
   178
420
        0
  6
Continuous
370
    -3
390
F
  0
ENDTAB
  0
TABLE
  2
STYLE
  5
3
330
0
100
AcDbSymbolTable
 70
     1
  0
STYLE
  5
11
330
3
100
AcDbSymbolTableRecord
100
AcDbTextStyleTableRecord
  2
Standard
 70
     0
 40
0.0
 41
1.0
 50
0.0
 71
     0
 42
0.2
  3
txt
  4

  0
ENDTAB
  0
TABLE
  2
VIEW
  5
6
330
0
100
AcDbSymbolTable
 70
     0
  0
ENDTAB
  0
TABLE
  2
UCS
  5
7
330
0
100
AcDbSymbolTable
 70
     0
  0
ENDTAB
  0
TABLE
  2
APPID
  5
9
330
0
100
AcDbSymbolTable
 70
     2
  0
APPID
  5
12
330
9
100
AcDbSymbolTableRecord
100
AcDbRegAppTableRecord
  2
ACAD
 70
     0
  0
APPID
  5
1AD
330
9
100
AcDbSymbolTableRecord
100
AcDbRegAppTableRecord
  2
ACAD_MLEADERVER
 70
     0
  0
ENDTAB
  0
TABLE
  2
DIMSTYLE
  5
A
330
0
100
AcDbSymbolTable
 70
     1
100
AcDbDimStyleTable
  0
DIMSTYLE
105
27
330
A
100
AcDbSymbolTableRecord
100
AcDbDimStyleTableRecord
  2
STANDARD_ACAD
 70
     0
178
     0
340
11
  0
ENDTAB
  0
TABLE
  2
BLOCK_RECORD
  5
1
330
0
100
AcDbSymbolTable
 70
     1
  0
BLOCK_RECORD
  5
1F
330
1
100
AcDbSymbolTableRecord
100
AcDbBlockTableRecord
  2
*Model_Space
340
22
  0
BLOCK_RECORD
  5
1B
330
1
100
AcDbSymbolTableRecord
100
AcDbBlockTableRecord
  2
*Paper_Space
340
1E
  0
BLOCK_RECORD
  5
23
330
1
100
AcDbSymbolTableRecord
100
AcDbBlockTableRecord
  2
*Paper_Space0
340
26
  0
ENDTAB
  0
ENDSEC
  0
SECTION
  2
BLOCKS
  0
BLOCK
  5
20
330
1F
100
AcDbEntity
  8
0
100
AcDbBlockBegin
  2
*Model_Space
 70
     0
 10
0.0
 20
0.0
 30
0.0
  3
*Model_Space
  1

  0
ENDBLK
  5
21
330
1F
100
AcDbEntity
  8
0
100
AcDbBlockEnd
  0
BLOCK
  5
1C
330
1B
100
AcDbEntity
 67
     1
  8
0
100
AcDbBlockBegin
  2
*Paper_Space
 70
     0
 10
0.0
 20
0.0
 30
0.0
  3
*Paper_Space
  1

  0
ENDBLK
  5
1D
330
1B
100
AcDbEntity
 67
     1
  8
0
100
AcDbBlockEnd
  0
BLOCK
  5
24
330
23
100
AcDbEntity
  8
0
100
AcDbBlockBegin
  2
*Paper_Space0
 70
     0
 10
0.0
 20
0.0
 30
0.0
  3
*Paper_Space0
  1

  0
ENDBLK
  5
25
330
23
100
AcDbEntity
  8
0
100
AcDbBlockEnd
  0
ENDSEC
  0
SECTION
  2
ENTITIES
  0
ARC
  5
6F
330
1F
100
AcDbEntity
  8
Layer 02
 60
     1
100
AcDbCircle
 10
339.5681743956458
 20
-41.46261869837409
 30
0.0
 40
68.59017133861985
100
AcDbArc
 50
45.00000000663083
 51
224.9999999989068
  0
LINE
  5
70
330
1F
100
AcDbEntity
  8
Layer 02
 60
     1
100
AcDbLine
 10
291.0675991184352
 20
-89.9631939737339
 30
0.0
 11
442.2908204166557
 21
-241.1864152598663
 31
0.0
  0
SPLINE
  5
71
330
1F
100
AcDbEntity
  8
Layer 02
 60
     1
100
AcDbSpline
210
0.0
220
0.0
230
1.0
 70
    12
 71
     2
 72
     6
 73
     3
 74
     0
 42
0.000000001
 43
0.0000000001
 40
472.0596494881946
 40
472.0596494881946
 40
472.0596494881946
 40
538.7946850645269
 40
538.7946850645269
 40
538.7946850645269
 10
442.2908204166557
 20
-241.1864152598663
 30
0.0
 41
1.0
 10
462.3803292246778
 20
-261.2765166640486
 30
0.0
 41
0.9238788269983799
 10
490.7914565850123
 20
-261.2768309347165
 30
0.0
 41
1.0
  0
ARC
  5
72
330
1F
100
AcDbEntity
  8
Layer 02
 60
     1
100
AcDbCircle
 10
490.792215297563
 20
-192.6866596002924
 30
0.0
 40
68.59017133862051
100
AcDbArc
 50
269.9993662207548
 51
45.00000000034038
  0
LINE
  5
73
330
1F
100
AcDbEntity
  8
Layer 02
 60
     1
100
AcDbLine
 10
539.2927905735605
 20
-144.1860843237185
 30
0.0
 11
388.0687496663181
 21
7.0379565835241
 31
0.0
  0
SPLINE
  5
74
330
1F
100
AcDbEntity
  8
Layer 02
 60
     1
100
AcDbSpline
210
0.0
220
0.0
230
1.0
 70
    12
 71
     2
 72
     8
 73
     5
 74
     0
 42
0.000000001
 43
0.0000000001
 40
0.0
 40
0.0
 40
0.0
 40
46.19850594534863
 40
46.19850594534863
 40
92.39701189069726
 40
92.39701189069726
 40
92.39701189069726
 10
380.911724601058
 20
-0.1190684845762036
 30
0.0
 41
1.0
 10
339.5681743895904
 20
41.22448171850579
 30
0.0
 41
0.7071067812064744
 10
298.2246241841781
 20
-0.1190684906316335
 30
0.0
 41
1.0
 10
256.881073978766
 20
-41.46261869976914
 30
0.0
 41
0.7071067812064744
 10
298.2246241855732
 20
-82.80616890751153
 30
0.0
 41
1.0
  0
POLYLINE
  5
75
330
1F
100
AcDbEntity
  8
Layer 02
 60
     1
100
AcDb2dPolyline
 66
     1
 10
0.0
 20
0.0
 30
0.0
  0
VERTEX
  5
76
330
75
100
AcDbEntity
  8
Layer 02
 60
     1
100
AcDbVertex
100
AcDb2dVertex
 10
298.2246241855732
 20
-82.80616890751153
 30
0.0
  0
VERTEX
  5
77
330
75
100
AcDbEntity
  8
Layer 02
 60
     1
100
AcDbVertex
100
AcDb2dVertex
 10
449.4480553282369
 20
-234.0296000411822
 30
0.0
  0
SEQEND
  5
78
330
75
100
AcDbEntity
  8
Layer 02
 60
     1
  0
SPLINE
  5
79
330
1F
100
AcDbEntity
  8
Layer 02
 60
     1
100
AcDbSpline
210
0.0
220
0.0
230
1.0
 70
    12
 71
     2
 72
    12
 73
     9
 74
     0
 42
0.000000001
 43
0.0000000001
 40
163.3967256053546
 40
163.3967256053546
 40
163.3967256053546
 40
186.496087022073
 40
186.496087022073
 40
209.5954484387914
 40
209.5954484387914
 40
232.6948098555098
 40
232.6948098555098
 40
255.7941712722282
 40
255.7941712722282
 40
255.7941712722282
 10
449.4480553282369
 20
-234.0296000411822
 30
0.0
 41
1.0
 10
466.5729512639217
 20
-251.1550011247198
 30
0.0
 41
0.92387882699838
 10
490.7915685450195
 20
-251.1552690197924
 30
0.0
 41
1.0
 10
515.0101858261174
 20
-251.1555369148651
 30
0.0
 41
0.92387882699838
 10
532.135460624044
 20
-234.0305146907756
 30
0.0
 41
1.0
 10
549.2607354219705
 20
-216.905492466686
 30
0.0
 41
0.92387882699838
 10
549.2608247202436
 20
-192.6868751842711
 30
0.0
 41
1.0
 10
549.2609140185168
 20
-168.4682579018562
 30
0.0
 41
0.92387882699838
 10
532.1357655069537
 20
-151.3431093904719
 30
0.0
 41
1.0
  0
POLYLINE
  5
7A
330
1F
100
AcDbEntity
  8
Layer 02
 60
     1
100
AcDb2dPolyline
 66
     1
 10
0.0
 20
0.0
 30
0.0
  0
VERTEX
  5
7B
330
7A
100
AcDbEntity
  8
Layer 02
 60
     1
100
AcDbVertex
100
AcDb2dVertex
 10
532.1357655069537
 20
-151.3431093904719
 30
0.0
  0
VERTEX
  5
7C
330
7A
100
AcDbEntity
  8
Layer 02
 60
     1
100
AcDbVertex
100
AcDb2dVertex
 10
380.911724601058
 20
-0.1190684845762036
 30
0.0
  0
SEQEND
  5
7D
330
7A
100
AcDbEntity
  8
Layer 02
 60
     1
  0
SPLINE
  5
7F
330
1F
100
AcDbEntity
  8
Default
 60
     1
100
AcDbSpline
210
0.0
220
0.0
230
1.0
 70
    12
 71
     2
 72
     8
 73
     5
 74
     0
 42
0.000000001
 43
0.0000000001
 40
-58.82176467941097
 40
-58.82176467941097
 40
-58.82176467941097
 40
-12.62325873406234
 40
-12.62325873406234
 40
33.57524721128629
 40
33.57524721128629
 40
33.57524721128629
 10
402.1806456876988
 20
21.34357517106501
 30
4.0
 41
1.0
 10
339.5379347848603
 20
83.9862860611976
 30
4.0
 41
0.7071067812064744
 10
276.8952238911971
 20
21.34357516188989
 30
4.0
 41
1.0
 10
214.2525129975338
 20
-41.29913573741791
 30
4.0
 41
0.7071067812064744
 10
276.8952238933109
 20
-103.9418466346118
 30
4.0
 41
1.0
  0
POLYLINE
  5
80
330
1F
100
AcDbEntity
  8
Default
 60
     1
100
AcDb2dPolyline
 66
     1
 10
0.0
 20
0.0
 30
4.0
  0
VERTEX
  5
81
330
80
100
AcDbEntity
  8
Default
 60
     1
100
AcDbVertex
100
AcDb2dVertex
 10
276.8952238933109
 20
-103.9418466346118
 30
4.0
  0
VERTEX
  5
82
330
80
100
AcDbEntity
  8
Default
 60
     1
100
AcDbVertex
100
AcDb2dVertex
 10
428.1183409032917
 20
-255.1649636309663
 30
4.0
  0
SEQEND
  5
83
330
80
100
AcDbEntity
  8
Default
 60
     1
  0
SPLINE
  5
84
330
1F
100
AcDbEntity
  8
Default
 60
     1
100
AcDbSpline
210
0.0
220
0.0
230
1.0
 70
    12
 71
     2
 72
    12
 73
     9
 74
     0
 42
0.000000001
 43
0.0000000001
 40
104.5748134389115
 40
104.5748134389115
 40
104.5748134389115
 40
127.6741748556299
 40
127.6741748556299
 40
150.7735362723483
 40
150.7735362723483
 40
173.8728976890667
 40
173.8728976890667
 40
196.9722591057851
 40
196.9722591057851
 40
196.9722591057851
 10
428.1183409032917
 20
-255.1649636309663
 30
4.0
 41
1.0
 10
454.0655539474859
 20
-281.1129420625244
 30
4.0
 41
0.92387882699838
 10
490.7609957527105
 20
-281.1133479704229
 30
4.0
 41
1.0
 10
527.4564375579353
 20
-281.1137538783215
 30
4.0
 41
0.92387882699838
 10
553.4042246447011
 20
-255.1663494851021
 30
4.0
 41
1.0
 10
579.352011731467
 20
-229.2189450918827
 30
4.0
 41
0.92387882699838
 10
579.352147033972
 20
-192.5235032846624
 30
4.0
 41
1.0
 10
579.3522823364771
 20
-155.8280614774422
 30
4.0
 41
0.92387882699838
 10
553.4046865956432
 20
-129.8804657368795
 30
4.0
 41
1.0
  0
POLYLINE
  5
85
330
1F
100
AcDbEntity
  8
Default
 60
     1
100
AcDb2dPolyline
 66
     1
 10
0.0
 20
0.0
 30
4.0
  0
VERTEX
  5
86
330
85
100
AcDbEntity
  8
Default
 60
     1
100
AcDbVertex
100
AcDb2dVertex
 10
553.4046865956432
 20
-129.8804657368795
 30
4.0
  0
VERTEX
  5
87
330
85
100
AcDbEntity
  8
Default
 60
     1
100
AcDbVertex
100
AcDb2dVertex
 10
402.1806456876988
 20
21.34357517106501
 30
4.0
  0
SEQEND
  5
88
330
85
100
AcDbEntity
  8
Default
 60
     1
  0
SPLINE
  5
89
330
1F
100
AcDbEntity
  8
Default
 60
     1
100
AcDbSpline
210
0.0
220
0.0
230
1.0
 70
    12
 71
     2
 72
     8
 73
     5
 74
     0
 42
0.000000001
 43
0.0000000001
 40
-58.82176467941097
 40
-58.82176467941097
 40
-58.82176467941097
 40
-12.62325873406234
 40
-12.62325873406234
 40
33.57524721128629
 40
33.57524721128629
 40
33.57524721128629
 10
402.2108852893091
 20
21.18009220799497
 30
0.0
 41
1.0
 10
339.5681743864708
 20
83.82280309812761
 30
0.0
 41
0.7071067812064744
 10
276.9254634928075
 20
21.18009219881991
 30
0.0
 41
1.0
 10
214.2827525991442
 20
-41.46261870048779
 30
0.0
 41
0.7071067812064744
 10
276.9254634949212
 20
-104.1053295976817
 30
0.0
 41
1.0
  0
SPLINE
  5
8A
330
1F
100
AcDbEntity
  8
Default
 60
     1
100
AcDbSpline
210
0.0
220
0.0
230
1.0
 70
    28
 71
     2
 72
     6
 73
     3
 74
     0
 42
0.000000001
 43
0.0000000001
 40
0.0
 40
0.0
 40
0.0
 40
4.0
 40
4.0
 40
4.0
 10
276.9254634949212
 20
-104.1053295976817
 30
0.0
 41
1.0
 10
276.9254634949212
 20
-104.1053295976817
 30
2.0
 41
1.0
 10
276.9254634949212
 20
-104.1053295976817
 30
4.0
 41
1.0
  0
SPLINE
  5
8B
330
1F
100
AcDbEntity
  8
Default
 60
     1
100
AcDbSpline
210
0.0
220
0.0
230
1.0
 70
    12
 71
     2
 72
     8
 73
     5
 74
     0
 42
0.000000001
 43
0.0000000001
 40
-58.82176467941097
 40
-58.82176467941097
 40
-58.82176467941097
 40
-12.62325873406234
 40
-12.62325873406234
 40
33.57524721128629
 40
33.57524721128629
 40
33.57524721128629
 10
402.2108852893091
 20
21.18009220799497
 30
4.0
 41
1.0
 10
339.5681743864708
 20
83.82280309812761
 30
4.0
 41
0.7071067812064744
 10
276.9254634928075
 20
21.18009219881991
 30
4.0
 41
1.0
 10
214.2827525991442
 20
-41.46261870048779
 30
4.0
 41
0.7071067812064744
 10
276.9254634949212
 20
-104.1053295976817
 30
4.0
 41
1.0
  0
SPLINE
  5
8C
330
1F
100
AcDbEntity
  8
Default
 60
     1
100
AcDbSpline
210
0.0
220
0.0
230
1.0
 70
    28
 71
     2
 72
     6
 73
     3
 74
     0
 42
0.000000001
 43
0.0000000001
 40
0.0
 40
0.0
 40
0.0
 40
4.0
 40
4.0
 40
4.0
 10
402.2108852893091
 20
21.18009220799497
 30
0.0
 41
1.0
 10
402.2108852893091
 20
21.18009220799497
 30
2.0
 41
1.0
 10
402.2108852893091
 20
21.18009220799497
 30
4.0
 41
1.0
  0
SPLINE
  5
8D
330
1F
100
AcDbEntity
  8
Default
 60
     1
100
AcDbSpline
210
0.0
220
0.0
230
1.0
 70
    28
 71
     2
 72
     6
 73
     3
 74
     0
 42
0.000000001
 43
0.0000000001
 40
33.57524721128629
 40
33.57524721128629
 40
33.57524721128629
 40
104.5748134389115
 40
104.5748134389115
 40
104.5748134389115
 10
276.9254634949212
 20
-104.1053295976817
 30
0.0
 41
1.0
 10
352.5370219999116
 20
-179.716888095859
 30
0.0
 41
1.0
 10
428.1485805049019
 20
-255.3284465940362
 30
0.0
 41
1.0
  0
SPLINE
  5
8E
330
1F
100
AcDbEntity
  8
Default
 60
     1
100
AcDbSpline
210
0.0
220
0.0
230
1.0
 70
    28
 71
     2
 72
     6
 73
     3
 74
     0
 42
0.000000001
 43
0.0000000001
 40
0.0
 40
0.0
 40
0.0
 40
4.0
 40
4.0
 40
4.0
 10
428.1485805049019
 20
-255.3284465940362
 30
0.0
 41
1.0
 10
428.1485805049019
 20
-255.3284465940362
 30
2.0
 41
1.0
 10
428.1485805049019
 20
-255.3284465940362
 30
4.0
 41
1.0
  0
SPLINE
  5
8F
330
1F
100
AcDbEntity
  8
Default
 60
     1
100
AcDbSpline
210
0.0
220
0.0
230
1.0
 70
    28
 71
     2
 72
     6
 73
     3
 74
     0
 42
0.000000001
 43
0.0000000001
 40
33.57524721128629
 40
33.57524721128629
 40
33.57524721128629
 40
104.5748134389115
 40
104.5748134389115
 40
104.5748134389115
 10
276.9254634949212
 20
-104.1053295976817
 30
4.0
 41
1.0
 10
352.5370219999116
 20
-179.716888095859
 30
4.0
 41
1.0
 10
428.1485805049019
 20
-255.3284465940362
 30
4.0
 41
1.0
  0
SPLINE
  5
90
330
1F
100
AcDbEntity
  8
Default
 60
     1
100
AcDbSpline
210
0.0
220
0.0
230
1.0
 70
    12
 71
     2
 72
    12
 73
     9
 74
     0
 42
0.000000001
 43
0.0000000001
 40
104.5748134389115
 40
104.5748134389115
 40
104.5748134389115
 40
127.6741748556299
 40
127.6741748556299
 40
150.7735362723483
 40
150.7735362723483
 40
173.8728976890667
 40
173.8728976890667
 40
196.9722591057851
 40
196.9722591057851
 40
196.9722591057851
 10
428.1485805049019
 20
-255.3284465940362
 30
0.0
 41
1.0
 10
454.095793549096
 20
-281.2764250255942
 30
0.0
 41
0.92387882699838
 10
490.7912353543207
 20
-281.2768309334929
 30
0.0
 41
1.0
 10
527.4866771595455
 20
-281.2772368413914
 30
0.0
 41
0.92387882699838
 10
553.4344642463113
 20
-255.329832448172
 30
0.0
 41
1.0
 10
579.3822513330771
 20
-229.3824280549526
 30
0.0
 41
0.92387882699838
 10
579.3823866355822
 20
-192.6869862477323
 30
0.0
 41
1.0
 10
579.382521938087
 20
-155.991544440512
 30
0.0
 41
0.92387882699838
 10
553.4349261972534
 20
-130.0439486999495
 30
0.0
 41
1.0
  0
SPLINE
  5
91
330
1F
100
AcDbEntity
  8
Default
 60
     1
100
AcDbSpline
210
0.0
220
0.0
230
1.0
 70
    28
 71
     2
 72
     6
 73
     3
 74
     0
 42
0.000000001
 43
0.0000000001
 40
0.0
 40
0.0
 40
0.0
 40
4.0
 40
4.0
 40
4.0
 10
553.4349261972534
 20
-130.0439486999495
 30
0.0
 41
1.0
 10
553.4349261972534
 20
-130.0439486999495
 30
2.0
 41
1.0
 10
553.4349261972534
 20
-130.0439486999495
 30
4.0
 41
1.0
  0
SPLINE
  5
92
330
1F
100
AcDbEntity
  8
Default
 60
     1
100
AcDbSpline
210
0.0
220
0.0
230
1.0
 70
    12
 71
     2
 72
    12
 73
     9
 74
     0
 42
0.000000001
 43
0.0000000001
 40
104.5748134389115
 40
104.5748134389115
 40
104.5748134389115
 40
127.6741748556299
 40
127.6741748556299
 40
150.7735362723483
 40
150.7735362723483
 40
173.8728976890667
 40
173.8728976890667
 40
196.9722591057851
 40
196.9722591057851
 40
196.9722591057851
 10
428.1485805049019
 20
-255.3284465940362
 30
4.0
 41
1.0
 10
454.095793549096
 20
-281.2764250255942
 30
4.0
 41
0.92387882699838
 10
490.7912353543207
 20
-281.2768309334929
 30
4.0
 41
1.0
 10
527.4866771595455
 20
-281.2772368413914
 30
4.0
 41
0.92387882699838
 10
553.4344642463113
 20
-255.329832448172
 30
4.0
 41
1.0
 10
579.3822513330771
 20
-229.3824280549526
 30
4.0
 41
0.92387882699838
 10
579.3823866355822
 20
-192.6869862477323
 30
4.0
 41
1.0
 10
579.382521938087
 20
-155.991544440512
 30
4.0
 41
0.92387882699838
 10
553.4349261972534
 20
-130.0439486999495
 30
4.0
 41
1.0
  0
SPLINE
  5
93
330
1F
100
AcDbEntity
  8
Default
 60
     1
100
AcDbSpline
210
0.0
220
0.0
230
1.0
 70
    28
 71
     2
 72
     6
 73
     3
 74
     0
 42
0.000000001
 43
0.0000000001
 40
196.9722591057851
 40
196.9722591057851
 40
196.9722591057851
 40
267.9722591118129
 40
267.9722591118129
 40
267.9722591118129
 10
553.4349261972534
 20
-130.0439486999495
 30
0.0
 41
1.0
 10
477.8229057432812
 20
-54.43192824597726
 30
0.0
 41
1.0
 10
402.2108852893091
 20
21.18009220799497
 30
0.0
 41
1.0
  0
SPLINE
  5
94
330
1F
100
AcDbEntity
  8
Default
 60
     1
100
AcDbSpline
210
0.0
220
0.0
230
1.0
 70
    28
 71
     2
 72
     6
 73
     3
 74
     0
 42
0.000000001
 43
0.0000000001
 40
196.9722591057851
 40
196.9722591057851
 40
196.9722591057851
 40
267.9722591118129
 40
267.9722591118129
 40
267.9722591118129
 10
553.4349261972534
 20
-130.0439486999495
 30
4.0
 41
1.0
 10
477.8229057432812
 20
-54.43192824597726
 30
4.0
 41
1.0
 10
402.2108852893091
 20
21.18009220799497
 30
4.0
 41
1.0
  0
SPLINE
  5
95
330
1F
100
AcDbEntity
  8
Default
 60
     1
100
AcDbSpline
210
0.0
220
0.0
230
1.0
 70
    28
 71
     2
 72
     6
 73
     3
 74
     0
 42
0.000000001
 43
0.0000000001
 40
267.9722591118129
 40
267.9722591118129
 40
267.9722591118129
 40
481.835348728234
 40
481.835348728234
 40
481.835348728234
 10
395.1398174778022
 20
14.10902439577093
 30
0.0
 41
1.0
 10
470.7518379316043
 20
-61.50299605803124
 30
0.0
 41
1.0
 10
546.3638583854064
 20
-137.1150165118335
 30
0.0
 41
1.0
  0
SPLINE
  5
96
330
1F
100
AcDbEntity
  8
Default
 60
     1
100
AcDbSpline
210
0.0
220
0.0
230
1.0
 70
    28
 71
     2
 72
     6
 73
     3
 74
     0
 42
0.000000001
 43
0.0000000001
 40
0.0
 40
0.0
 40
0.0
 40
4.0
 40
4.0
 40
4.0
 10
546.3638583854064
 20
-137.1150165118335
 30
0.0
 41
1.0
 10
546.3638583854064
 20
-137.1150165118335
 30
2.0
 41
1.0
 10
546.3638583854064
 20
-137.1150165118335
 30
4.0
 41
1.0
  0
SPLINE
  5
97
330
1F
100
AcDbEntity
  8
Default
 60
     1
100
AcDbSpline
210
0.0
220
0.0
230
1.0
 70
    28
 71
     2
 72
     6
 73
     3
 74
     0
 42
0.000000001
 43
0.0000000001
 40
267.9722591118129
 40
267.9722591118129
 40
267.9722591118129
 40
481.835348728234
 40
481.835348728234
 40
481.835348728234
 10
395.1398174778022
 20
14.10902439577093
 30
4.0
 41
1.0
 10
470.7518379316043
 20
-61.50299605803124
 30
4.0
 41
1.0
 10
546.3638583854064
 20
-137.1150165118335
 30
4.0
 41
1.0
  0
SPLINE
  5
98
330
1F
100
AcDbEntity
  8
Default
 60
     1
100
AcDbSpline
210
0.0
220
0.0
230
1.0
 70
    28
 71
     2
 72
     6
 73
     3
 74
     0
 42
0.000000001
 43
0.0000000001
 40
0.0
 40
0.0
 40
0.0
 40
4.0
 40
4.0
 40
4.0
 10
395.1398174778022
 20
14.10902439577093
 30
0.0
 41
1.0
 10
395.1398174778022
 20
14.10902439577093
 30
2.0
 41
1.0
 10
395.1398174778022
 20
14.10902439577093
 30
4.0
 41
1.0
  0
SPLINE
  5
99
330
1F
100
AcDbEntity
  8
Default
 60
     1
100
AcDbSpline
210
0.0
220
0.0
230
1.0
 70
    12
 71
     2
 72
    10
 73
     7
 74
     0
 42
0.000000001
 43
0.0000000001
 40
481.835348728234
 40
481.835348728234
 40
481.835348728234
 40
574.4226477380646
 40
574.4226477380646
 40
667.0099467478954
 40
667.0099467478954
 40
736.5888312595338
 40
736.5888312595338
 40
736.5888312595338
 10
546.3638583854064
 20
-137.1150165118335
 30
0.0
 41
1.0
 10
583.495865459633
 20
-174.2470235856489
 30
0.0
 41
0.8314680759337638
 10
563.3998997141506
 20
-222.7622176947804
 30
0.0
 41
1.0
 10
543.3039339686682
 20
-271.2774118039118
 30
0.0
 41
0.8314680759337638
 10
490.7913459696665
 20
-271.2768309341047
 30
0.0
 41
1.0
 10
458.2380613869358
 20
-271.2764708448215
 30
0.0
 41
0.9238788269983799
 10
435.2197004608038
 20
-248.2574309269763
 30
0.0
 41
1.0
  0
SPLINE
  5
9A
330
1F
100
AcDbEntity
  8
Default
 60
     1
100
AcDbSpline
210
0.0
220
0.0
230
1.0
 70
    28
 71
     2
 72
     6
 73
     3
 74
     0
 42
0.000000001
 43
0.0000000001
 40
0.0
 40
0.0
 40
0.0
 40
4.0
 40
4.0
 40
4.0
 10
435.2197004608038
 20
-248.2574309269763
 30
0.0
 41
1.0
 10
435.2197004608038
 20
-248.2574309269763
 30
2.0
 41
1.0
 10
435.2197004608038
 20
-248.2574309269763
 30
4.0
 41
1.0
  0
SPLINE
  5
9B
330
1F
100
AcDbEntity
  8
Default
 60
     1
100
AcDbSpline
210
0.0
220
0.0
230
1.0
 70
    12
 71
     2
 72
    10
 73
     7
 74
     0
 42
0.000000001
 43
0.0000000001
 40
481.835348728234
 40
481.835348728234
 40
481.835348728234
 40
574.4226477380646
 40
574.4226477380646
 40
667.0099467478954
 40
667.0099467478954
 40
736.5888312595338
 40
736.5888312595338
 40
736.5888312595338
 10
546.3638583854064
 20
-137.1150165118335
 30
4.0
 41
1.0
 10
583.495865459633
 20
-174.2470235856489
 30
4.0
 41
0.8314680759337638
 10
563.3998997141506
 20
-222.7622176947804
 30
4.0
 41
1.0
 10
543.3039339686682
 20
-271.2774118039118
 30
4.0
 41
0.8314680759337638
 10
490.7913459696665
 20
-271.2768309341047
 30
4.0
 41
1.0
 10
458.2380613869358
 20
-271.2764708448215
 30
4.0
 41
0.9238788269983799
 10
435.2197004608038
 20
-248.2574309269763
 30
4.0
 41
1.0
  0
SPLINE
  5
9C
330
1F
100
AcDbEntity
  8
Default
 60
     1
100
AcDbSpline
210
0.0
220
0.0
230
1.0
 70
    28
 71
     2
 72
     6
 73
     3
 74
     0
 42
0.000000001
 43
0.0000000001
 40
736.5888312595338
 40
736.5888312595338
 40
736.5888312595338
 40
950.4506142676535
 40
950.4506142676535
 40
950.4506142676535
 10
435.2197004608038
 20
-248.2574309269763
 30
0.0
 41
1.0
 10
359.6081158837356
 20
-172.6458463563365
 30
0.0
 41
1.0
 10
283.9965313066674
 20
-97.03426178569693
 30
0.0
 41
1.0
  0
SPLINE
  5
9D
330
1F
100
AcDbEntity
  8
Default
 60
     1
100
AcDbSpline
210
0.0
220
0.0
230
1.0
 70
    28
 71
     2
 72
     6
 73
     3
 74
     0
 42
0.000000001
 43
0.0000000001
 40
0.0
 40
0.0
 40
0.0
 40
4.0
 40
4.0
 40
4.0
 10
283.9965313066674
 20
-97.03426178569693
 30
0.0
 41
1.0
 10
283.9965313066674
 20
-97.03426178569693
 30
2.0
 41
1.0
 10
283.9965313066674
 20
-97.03426178569693
 30
4.0
 41
1.0
  0
SPLINE
  5
9E
330
1F
100
AcDbEntity
  8
Default
 60
     1
100
AcDbSpline
210
0.0
220
0.0
230
1.0
 70
    28
 71
     2
 72
     6
 73
     3
 74
     0
 42
0.000000001
 43
0.0000000001
 40
736.5888312595338
 40
736.5888312595338
 40
736.5888312595338
 40
950.4506142676535
 40
950.4506142676535
 40
950.4506142676535
 10
435.2197004608038
 20
-248.2574309269763
 30
4.0
 41
1.0
 10
359.6081158837356
 20
-172.6458463563365
 30
4.0
 41
1.0
 10
283.9965313066674
 20
-97.03426178569693
 30
4.0
 41
1.0
  0
SPLINE
  5
9F
330
1F
100
AcDbEntity
  8
Default
 60
     1
100
AcDbSpline
210
0.0
220
0.0
230
1.0
 70
    12
 71
     2
 72
     8
 73
     5
 74
     0
 42
0.000000001
 43
0.0000000001
 40
950.4506142676535
 40
950.4506142676535
 40
950.4506142676535
 40
1089.607729990133
 40
1089.607729990133
 40
1228.764845712612
 40
1228.764845712612
 40
1228.764845712612
 10
283.9965313066674
 20
-97.03426178569693
 30
0.0
 41
1.0
 10
228.4248882227554
 20
-41.46261870012953
 30
0.0
 41
0.7071067812082489
 10
283.9965313049118
 20
14.1090243871934
 30
0.0
 41
1.0
 10
339.5681743870682
 20
69.68066747451638
 30
0.0
 41
0.7071067812082489
 10
395.1398174778022
 20
14.10902439577093
 30
0.0
 41
1.0
  0
SPLINE
  5
A0
330
1F
100
AcDbEntity
  8
Default
 60
     1
100
AcDbSpline
210
0.0
220
0.0
230
1.0
 70
    12
 71
     2
 72
     8
 73
     5
 74
     0
 42
0.000000001
 43
0.0000000001
 40
950.4506142676535
 40
950.4506142676535
 40
950.4506142676535
 40
1089.607729990133
 40
1089.607729990133
 40
1228.764845712612
 40
1228.764845712612
 40
1228.764845712612
 10
283.9965313066674
 20
-97.03426178569693
 30
4.0
 41
1.0
 10
228.4248882227554
 20
-41.46261870012953
 30
4.0
 41
0.7071067812082489
 10
283.9965313049118
 20
14.1090243871934
 30
4.0
 41
1.0
 10
339.5681743870682
 20
69.68066747451638
 30
4.0
 41
0.7071067812082489
 10
395.1398174778022
 20
14.10902439577093
 30
4.0
 41
1.0
  0
ARC
  5
A1
330
1F
100
AcDbEntity
  8
Layer 02
 60
     1
100
AcDbCircle
 10
339.5681743956458
 20
-41.46261869837406
 30
0.0
 40
78.59017133861983
100
AcDbArc
 50
45.00000000618029
 51
224.9999999991466
  0
LINE
  5
A2
330
1F
100
AcDbEntity
  8
Layer 02
 60
     1
100
AcDbLine
 10
283.9965313066674
 20
-97.03426178569697
 30
0.0
 11
435.2197004608038
 21
-248.2574309269763
 31
0.0
  0
SPLINE
  5
A3
330
1F
100
AcDbEntity
  8
Layer 02
 60
     1
100
AcDbSpline
210
0.0
220
0.0
230
1.0
 70
    12
 71
     2
 72
     6
 73
     3
 74
     0
 42
0.000000001
 43
0.0000000001
 40
492.1760144530783
 40
492.1760144530783
 40
492.1760144530783
 40
561.7548989647167
 40
561.7548989647167
 40
561.7548989647167
 10
435.2197004608038
 20
-248.2574309269763
 30
0.0
 41
1.0
 10
458.2380613869358
 20
-271.2764708448215
 30
0.0
 41
0.9238788269983799
 10
490.7913459696665
 20
-271.2768309341047
 30
0.0
 41
1.0
  0
ARC
  5
A4
330
1F
100
AcDbEntity
  8
Layer 02
 60
     1
100
AcDbCircle
 10
490.7922152975628
 20
-192.6866596002923
 30
0.0
 40
78.59017133862054
100
AcDbArc
 50
269.9993662207548
 51
45.00000000031716
  0
LINE
  5
A5
330
1F
100
AcDbEntity
  8
Layer 02
 60
     1
100
AcDbLine
 10
546.3638583854064
 20
-137.1150165118335
 30
0.0
 11
395.1398174778022
 21
14.10902439577094
 31
0.0
  0
SPLINE
  5
A6
330
1F
100
AcDbEntity
  8
Layer 02
 60
     1
100
AcDbSpline
210
0.0
220
0.0
230
1.0
 70
    12
 71
     2
 72
     8
 73
     5
 74
     0
 42
0.000000001
 43
0.0000000001
 40
-58.82176467941097
 40
-58.82176467941097
 40
-58.82176467941097
 40
-12.62325873406234
 40
-12.62325873406234
 40
33.57524721128629
 40
33.57524721128629
 40
33.57524721128629
 10
402.2108852893091
 20
21.18009220799496
 30
0.0
 41
1.0
 10
339.5681743864707
 20
83.8228030981276
 30
0.0
 41
0.7071067812064744
 10
276.9254634928074
 20
21.18009219881989
 30
0.0
 41
1.0
 10
214.2827525991442
 20
-41.46261870048784
 30
0.0
 41
0.7071067812064744
 10
276.9254634949212
 20
-104.1053295976818
 30
0.0
 41
1.0
  0
POLYLINE
  5
A7
330
1F
100
AcDbEntity
  8
Layer 02
 60
     1
100
AcDb2dPolyline
 66
     1
 10
0.0
 20
0.0
 30
0.0
  0
VERTEX
  5
A8
330
A7
100
AcDbEntity
  8
Layer 02
 60
     1
100
AcDbVertex
100
AcDb2dVertex
 10
276.9254634949212
 20
-104.1053295976818
 30
0.0
  0
VERTEX
  5
A9
330
A7
100
AcDbEntity
  8
Layer 02
 60
     1
100
AcDbVertex
100
AcDb2dVertex
 10
428.1485805049019
 20
-255.3284465940363
 30
0.0
  0
SEQEND
  5
AA
330
A7
100
AcDbEntity
  8
Layer 02
 60
     1
  0
SPLINE
  5
AB
330
1F
100
AcDbEntity
  8
Layer 02
 60
     1
100
AcDbSpline
210
0.0
220
0.0
230
1.0
 70
    12
 71
     2
 72
    12
 73
     9
 74
     0
 42
0.000000001
 43
0.0000000001
 40
104.5748134389115
 40
104.5748134389115
 40
104.5748134389115
 40
127.6741748556299
 40
127.6741748556299
 40
150.7735362723483
 40
150.7735362723483
 40
173.8728976890667
 40
173.8728976890667
 40
196.9722591057851
 40
196.9722591057851
 40
196.9722591057851
 10
428.1485805049019
 20
-255.3284465940363
 30
0.0
 41
1.0
 10
454.0957935490961
 20
-281.2764250255944
 30
0.0
 41
0.92387882699838
 10
490.7912353543207
 20
-281.276830933493
 30
0.0
 41
1.0
 10
527.4866771595455
 20
-281.2772368413914
 30
0.0
 41
0.92387882699838
 10
553.4344642463113
 20
-255.3298324481721
 30
0.0
 41
1.0
 10
579.3822513330771
 20
-229.3824280549527
 30
0.0
 41
0.92387882699838
 10
579.3823866355822
 20
-192.6869862477324
 30
0.0
 41
1.0
 10
579.382521938087
 20
-155.9915444405121
 30
0.0
 41
0.92387882699838
 10
553.4349261972534
 20
-130.0439486999496
 30
0.0
 41
1.0
  0
POLYLINE
  5
AC
330
1F
100
AcDbEntity
  8
Layer 02
 60
     1
100
AcDb2dPolyline
 66
     1
 10
0.0
 20
0.0
 30
0.0
  0
VERTEX
  5
AD
330
AC
100
AcDbEntity
  8
Layer 02
 60
     1
100
AcDbVertex
100
AcDb2dVertex
 10
553.4349261972534
 20
-130.0439486999496
 30
0.0
  0
VERTEX
  5
AE
330
AC
100
AcDbEntity
  8
Layer 02
 60
     1
100
AcDbVertex
100
AcDb2dVertex
 10
402.2108852893091
 20
21.18009220799496
 30
0.0
  0
SEQEND
  5
AF
330
AC
100
AcDbEntity
  8
Layer 02
 60
     1
  0
ARC
  5
B0
330
1F
100
AcDbEntity
  8
Default
100
AcDbCircle
 10
1.537934794035493
 20
-18.29913573530405
 30
0.0
 40
73.59017133861977
100
AcDbArc
 50
45.00000000640559
 51
224.9999999990217
  0
LINE
  5
B1
330
1F
100
AcDbEntity
  8
Default
100
AcDbLine
 10
-50.49817438907091
 20
-70.33524491663354
 30
0.0
 11
100.7250208371489
 21
-221.5584401303807
 31
0.0
  0
SPLINE
  5
B2
330
1F
100
AcDbEntity
  8
Default
100
AcDbSpline
210
0.0
220
0.0
230
1.0
 70
    12
 71
     2
 72
     6
 73
     3
 74
     0
 42
0.000000001
 43
0.0000000001
 40
447.642461692583
 40
447.642461692583
 40
447.642461692583
 40
510.9256413477817
 40
510.9256413477817
 40
510.9256413477817
 10
100.7250208371489
 20
-221.5584401303807
 30
0.0
 41
1.0
 10
122.2789557042527
 20
-243.1130107913652
 30
0.0
 41
0.9238788269983799
 10
152.7611616757293
 20
-243.1133479713407
 30
0.0
 41
1.0
  0
ARC
  5
B3
330
1F
100
AcDbEntity
  8
Default
100
AcDbCircle
 10
152.7619756959553
 20
-169.5231766372235
 30
0.0
 40
73.5901713386194
100
AcDbArc
 50
269.9993662207529
 51
45.00000000033072
  0
LINE
  5
B4
330
1F
100
AcDbEntity
  8
Default
100
AcDbLine
 10
204.7980848778726
 20
-117.4870674547054
 30
0.0
 11
53.57404397043588
 21
33.73697345273146
 31
0.0
  0
ARC
  5
B5
330
1F
100
AcDbEntity
  8
Default
100
AcDbCircle
 10
-0.9315448001787575
 20
231.0
 30
0.0
 40
68.59017133861985
100
AcDbArc
 50
90.00000000663086
 51
269.9999999989068
  0
LINE
  5
B6
330
1F
100
AcDbEntity
  8
Default
100
AcDbLine
 10
-0.9315448014874104
 20
162.4098286613802
 30
0.0
 11
212.9303856956565
 21
162.4098286699278
 31
0.0
  0
SPLINE
  5
B7
330
1F
100
AcDbEntity
  8
Default
100
AcDbSpline
210
0.0
220
0.0
230
1.0
 70
    12
 71
     2
 72
     6
 73
     3
 74
     0
 42
0.000000001
 43
0.0000000001
 40
472.0596494881946
 40
472.0596494881946
 40
472.0596494881946
 40
538.7946850645269
 40
538.7946850645269
 40
538.7946850645269
 10
212.9303856956565
 20
162.4098286699278
 30
0.0
 41
1.0
 10
241.3416605421385
 20
162.4094096411644
 30
0.0
 41
0.9238788269983799
 10
261.4315835827061
 20
182.4988882358913
 30
0.0
 41
1.0
  0
ARC
  5
B8
330
1F
100
AcDbEntity
  8
Default
100
AcDbCircle
 10
212.9315448001771
 20
230.9999999999993
 30
0.0
 40
68.59017133862051
100
AcDbArc
 50
314.9993662207548
 51
90.00000000034042
  0
LINE
  5
B9
330
1F
100
AcDbEntity
  8
Default
100
AcDbLine
 10
212.9315447997696
 20
299.5901713386198
 30
0.0
 11
-0.931544808116717
 21
299.5901713386198
 31
0.0
  0
ARC
  5
BA
330
1F
100
AcDbEntity
  8
Default
100
AcDbCircle
 10
-0.9315448001787688
 20
231.0
 30
0.0
 40
78.59017133861983
100
AcDbArc
 50
90.00000000618033
 51
269.9999999991466
  0
LINE
  5
BB
330
1F
100
AcDbEntity
  8
Default
100
AcDbLine
 10
-0.9315448013493306
 20
152.4098286613802
 30
0.0
 11
212.93031195238
 21
152.4098286704717
 31
0.0
  0
SPLINE
  5
BC
330
1F
100
AcDbEntity
  8
Default
100
AcDbSpline
210
0.0
220
0.0
230
1.0
 70
    12
 71
     2
 72
     6
 73
     3
 74
     0
 42
0.000000001
 43
0.0000000001
 40
492.1760144530783
 40
492.1760144530783
 40
492.1760144530783
 40
561.7548989647167
 40
561.7548989647167
 40
561.7548989647167
 10
212.93031195238
 20
152.4098286704717
 30
0.0
 41
1.0
 10
245.4836702773595
 20
152.4093485508269
 30
0.0
 41
0.9238788269983799
 10
268.5025731772779
 20
175.4277422075973
 30
0.0
 41
1.0
  0
ARC
  5
BD
330
1F
100
AcDbEntity
  8
Default
100
AcDbCircle
 10
212.931544800177
 20
230.9999999999993
 30
0.0
 40
78.59017133862054
100
AcDbArc
 50
314.9993662207548
 51
90.00000000031723
  0
LINE
  5
BE
330
1F
100
AcDbEntity
  8
Default
100
AcDbLine
 10
212.9315447997419
 20
309.5901713386198
 30
0.0
 11
-0.9315448086560513
 21
309.5901713386198
 31
0.0
  0
SPLINE
  5
BF
330
1F
100
AcDbEntity
  8
Default
100
AcDbSpline
210
0.0
220
0.0
230
1.0
 70
    12
 71
     2
 72
     8
 73
     5
 74
     0
 42
0.000000001
 43
0.0000000001
 40
-58.82176467941097
 40
-58.82176467941097
 40
-58.82176467941097
 40
-12.62325873406234
 40
-12.62325873406234
 40
33.57524721128629
 40
33.57524721128629
 40
33.57524721128629
 10
64.18064568769876
 20
44.34357517106501
 30
0.0
 41
1.0
 10
1.537934784860363
 20
106.9862860611976
 30
0.0
 41
0.7071067812064744
 10
-61.10477610880292
 20
44.34357516188989
 30
0.0
 41
1.0
 10
-123.7474870024662
 20
-18.29913573741792
 30
0.0
 41
0.7071067812064744
 10
-61.10477610668909
 20
-80.94184663461179
 30
0.0
 41
1.0
  0
POLYLINE
  5
C0
330
1F
100
AcDbEntity
  8
Default
100
AcDb2dPolyline
 66
     1
 10
0.0
 20
0.0
 30
0.0
  0
VERTEX
  5
C1
330
C0
100
AcDbEntity
  8
Default
100
AcDbVertex
100
AcDb2dVertex
 10
-61.10477610668909
 20
-80.94184663461179
 30
0.0
  0
VERTEX
  5
C2
330
C0
100
AcDbEntity
  8
Default
100
AcDbVertex
100
AcDb2dVertex
 10
90.11834090329174
 20
-232.1649636309663
 30
0.0
  0
SEQEND
  5
C3
330
C0
100
AcDbEntity
  8
Default
  0
SPLINE
  5
C4
330
1F
100
AcDbEntity
  8
Default
100
AcDbSpline
210
0.0
220
0.0
230
1.0
 70
    12
 71
     2
 72
    12
 73
     9
 74
     0
 42
0.000000001
 43
0.0000000001
 40
104.5748134389115
 40
104.5748134389115
 40
104.5748134389115
 40
127.6741748556299
 40
127.6741748556299
 40
150.7735362723483
 40
150.7735362723483
 40
173.8728976890667
 40
173.8728976890667
 40
196.9722591057851
 40
196.9722591057851
 40
196.9722591057851
 10
90.11834090329174
 20
-232.1649636309663
 30
0.0
 41
1.0
 10
116.0655539474859
 20
-258.1129420625244
 30
0.0
 41
0.92387882699838
 10
152.7609957527105
 20
-258.1133479704229
 30
0.0
 41
1.0
 10
189.4564375579353
 20
-258.1137538783215
 30
0.0
 41
0.92387882699838
 10
215.4042246447011
 20
-232.1663494851021
 30
0.0
 41
1.0
 10
241.352011731467
 20
-206.2189450918827
 30
0.0
 41
0.92387882699838
 10
241.352147033972
 20
-169.5235032846624
 30
0.0
 41
1.0
 10
241.352282336477
 20
-132.8280614774422
 30
0.0
 41
0.92387882699838
 10
215.4046865956432
 20
-106.8804657368795
 30
0.0
 41
1.0
  0
POLYLINE
  5
C5
330
1F
100
AcDbEntity
  8
Default
100
AcDb2dPolyline
 66
     1
 10
0.0
 20
0.0
 30
0.0
  0
VERTEX
  5
C6
330
C5
100
AcDbEntity
  8
Default
100
AcDbVertex
100
AcDb2dVertex
 10
215.4046865956432
 20
-106.8804657368795
 30
0.0
  0
VERTEX
  5
C7
330
C5
100
AcDbEntity
  8
Default
100
AcDbVertex
100
AcDb2dVertex
 10
64.18064568769876
 20
44.34357517106501
 30
0.0
  0
SEQEND
  5
C8
330
C5
100
AcDbEntity
  8
Default
  0
SPLINE
  5
C9
330
1F
100
AcDbEntity
  8
Default
 60
     1
100
AcDbSpline
210
0.0
220
0.0
230
1.0
 70
    12
 71
     2
 72
     8
 73
     5
 74
     0
 42
0.000000001
 43
0.0000000001
 40
0.0
 40
0.0
 40
0.0
 40
46.19850594534863
 40
46.19850594534863
 40
92.39701189069726
 40
92.39701189069726
 40
92.39701189069726
 10
42.8814849994477
 20
23.04441447849384
 30
0.0
 41
1.0
 10
1.537934787980007
 20
64.38796468157581
 30
0.0
 41
0.7071067812064744
 10
-39.8056154174322
 20
23.04441447243837
 30
0.0
 41
1.0
 10
-81.14916562284438
 20
-18.29913573669919
 30
0.0
 41
0.7071067812064744
 10
-39.80561541603711
 20
-59.64268594444157
 30
0.0
 41
1.0
  0
POLYLINE
  5
CA
330
1F
100
AcDbEntity
  8
Default
 60
     1
100
AcDb2dPolyline
 66
     1
 10
0.0
 20
0.0
 30
0.0
  0
VERTEX
  5
CB
330
CA
100
AcDbEntity
  8
Default
 60
     1
100
AcDbVertex
100
AcDb2dVertex
 10
-39.80561541603711
 20
-59.64268594444157
 30
0.0
  0
VERTEX
  5
CC
330
CA
100
AcDbEntity
  8
Default
 60
     1
100
AcDbVertex
100
AcDb2dVertex
 10
111.4178157266268
 20
-210.8661170781123
 30
0.0
  0
SEQEND
  5
CD
330
CA
100
AcDbEntity
  8
Default
 60
     1
  0
SPLINE
  5
CE
330
1F
100
AcDbEntity
  8
Default
 60
     1
100
AcDbSpline
210
0.0
220
0.0
230
1.0
 70
    12
 71
     2
 72
    12
 73
     9
 74
     0
 42
0.000000001
 43
0.0000000001
 40
163.3967256053546
 40
163.3967256053546
 40
163.3967256053546
 40
186.496087022073
 40
186.496087022073
 40
209.5954484387914
 40
209.5954484387914
 40
232.6948098555098
 40
232.6948098555098
 40
255.7941712722282
 40
255.7941712722282
 40
255.7941712722282
 10
111.4178157266268
 20
-210.8661170781123
 30
0.0
 41
1.0
 10
128.5427116623114
 20
-227.9915181616499
 30
0.0
 41
0.92387882699838
 10
152.7613289434093
 20
-227.9917860567224
 30
0.0
 41
1.0
 10
176.9799462245072
 20
-227.992053951795
 30
0.0
 41
0.92387882699838
 10
194.1052210224338
 20
-210.8670317277055
 30
0.0
 41
1.0
 10
211.2304958203602
 20
-193.742009503616
 30
0.0
 41
0.92387882699838
 10
211.2305851186334
 20
-169.523392221201
 30
0.0
 41
1.0
 10
211.2306744169066
 20
-145.3047749387862
 30
0.0
 41
0.92387882699838
 10
194.1055259053434
 20
-128.179626427402
 30
0.0
 41
1.0
  0
POLYLINE
  5
CF
330
1F
100
AcDbEntity
  8
Default
 60
     1
100
AcDb2dPolyline
 66
     1
 10
0.0
 20
0.0
 30
0.0
  0
VERTEX
  5
D0
330
CF
100
AcDbEntity
  8
Default
 60
     1
100
AcDbVertex
100
AcDb2dVertex
 10
194.1055259053434
 20
-128.179626427402
 30
0.0
  0
VERTEX
  5
D1
330
CF
100
AcDbEntity
  8
Default
 60
     1
100
AcDbVertex
100
AcDb2dVertex
 10
42.8814849994477
 20
23.04441447849384
 30
0.0
  0
SEQEND
  5
D2
330
CF
100
AcDbEntity
  8
Default
 60
     1
  0
SPLINE
  5
D3
330
1F
100
AcDbEntity
  8
Default
 60
     1
100
AcDbSpline
210
0.0
220
0.0
230
1.0
 70
    12
 71
     2
 72
     8
 73
     5
 74
     0
 42
0.000000001
 43
0.0000000001
 40
0.0
 40
0.0
 40
0.0
 40
46.19850594534863
 40
46.19850594534863
 40
92.39701189069726
 40
92.39701189069726
 40
92.39701189069726
 10
236.4686094230765
 20
106.9315448061083
 30
0.0000000000000142
 41
1.0
 10
236.4686094171469
 20
165.4001542258895
 30
0.0000000000000144
 41
0.7071067812064744
 10
177.9999999973658
 20
165.4001542232552
 30
0.0000000000000142
 41
1.0
 10
119.5313905775847
 20
165.4001542206209
 30
0.0000000000000144
 41
0.7071067812064744
 10
119.5313905769235
 20
106.9315448008399
 30
0.0000000000000142
 41
1.0
  0
POLYLINE
  5
D4
330
1F
100
AcDbEntity
  8
Default
 60
     1
100
AcDb2dPolyline
 66
     1
 10
0.0
 20
0.0
 30
0.0000000000000142
  0
VERTEX
  5
D5
330
D4
100
AcDbEntity
  8
Default
 60
     1
100
AcDbVertex
100
AcDb2dVertex
 10
119.5313905769235
 20
106.9315448008399
 30
0.0000000000000142
  0
VERTEX
  5
D6
330
D4
100
AcDbEntity
  8
Default
 60
     1
100
AcDbVertex
100
AcDb2dVertex
 10
119.5313905832826
 20
-106.9306824633502
 30
0.0000000000000142
  0
SEQEND
  5
D7
330
D4
100
AcDbEntity
  8
Default
 60
     1
  0
SPLINE
  5
D8
330
1F
100
AcDbEntity
  8
Default
 60
     1
100
AcDbSpline
210
0.0
220
0.0
230
1.0
 70
    12
 71
     2
 72
    12
 73
     9
 74
     0
 42
0.000000001
 43
0.0000000001
 40
163.3967256053546
 40
163.3967256053546
 40
163.3967256053546
 40
186.496087022073
 40
186.496087022073
 40
209.5954484387914
 40
209.5954484387914
 40
232.6948098555098
 40
232.6948098555098
 40
255.7941712722282
 40
255.7941712722282
 40
255.7941712722282
 10
119.5313905832826
 20
-106.9306824633502
 30
0.0000000000000142
 41
1.0
 10
119.5310333898104
 20
-131.1492997432958
 30
0.0000000000000144
 41
0.92387882699838
 10
136.6559924698139
 20
-148.2746376841441
 30
0.0000000000000142
 41
1.0
 10
153.7809515498175
 20
-165.3999756249927
 30
0.0000000000000144
 41
0.92387882699838
 10
177.9995688317384
 20
-165.4001542216656
 30
0.0000000000000142
 41
1.0
 10
202.2181861136594
 20
-165.4003328183385
 30
0.0000000000000144
 41
0.92387882699838
 10
219.3433977684312
 20
-148.2752474503956
 30
0.0000000000000142
 41
1.0
 10
236.468609423203
 20
-131.1501620824529
 30
0.0000000000000144
 41
0.92387882699838
 10
236.4686094230765
 20
-106.9315447998733
 30
0.0000000000000142
 41
1.0
  0
POLYLINE
  5
D9
330
1F
100
AcDbEntity
  8
Default
 60
     1
100
AcDb2dPolyline
 66
     1
 10
0.0
 20
0.0
 30
0.0000000000000142
  0
VERTEX
  5
DA
330
D9
100
AcDbEntity
  8
Default
 60
     1
100
AcDbVertex
100
AcDb2dVertex
 10
236.4686094230765
 20
-106.9315447998733
 30
0.0000000000000142
  0
VERTEX
  5
DB
330
D9
100
AcDbEntity
  8
Default
 60
     1
100
AcDbVertex
100
AcDb2dVertex
 10
236.4686094230765
 20
106.9315448061083
 30
0.0000000000000142
  0
SEQEND
  5
DC
330
D9
100
AcDbEntity
  8
Default
 60
     1
  0
ARC
  5
DD
330
1F
100
AcDbEntity
  8
Default
 60
     1
100
AcDbCircle
 10
178.0000000000001
 20
106.9315448001789
 30
0.0000000000000142
 40
78.5901713386197
100
AcDbArc
 50
0.0000000061801584
 51
179.9999999991468
  0
LINE
  5
DE
330
1F
100
AcDbEntity
  8
Default
 60
     1
100
AcDbLine
 10
99.40982866138027
 20
106.9315448013492
 30
0.0000000000000142
 11
99.40982867047161
 21
-106.9303119523801
 31
0.0000000000000142
  0
SPLINE
  5
DF
330
1F
100
AcDbEntity
  8
Default
 60
     1
100
AcDbSpline
210
0.0
220
0.0
230
1.0
 70
    12
 71
     2
 72
     6
 73
     3
 74
     0
 42
0.000000001
 43
0.0000000001
 40
492.1760144530783
 40
492.1760144530783
 40
492.1760144530783
 40
561.7548989647167
 40
561.7548989647167
 40
561.7548989647167
 10
99.40982867047161
 20
-106.9303119523801
 30
0.0000000000000142
 41
1.0
 10
99.40934855095081
 20
-139.4836618765553
 30
0.0000000000000135
 41
0.9238788451470819
 10
122.4277422075973
 20
-162.5025731772779
 30
0.0000000000000142
 41
0.9999999637026047
  0
ARC
  5
E0
330
1F
100
AcDbEntity
  8
Default
 60
     1
100
AcDbCircle
 10
177.999999999999
 20
-106.9315448001766
 30
0.000000000000016
 40
78.59017133862075
100
AcDbArc
 50
224.9993662207551
 51
0.0000000003168196
  0
LINE
  5
E1
330
1F
100
AcDbEntity
  8
Default
 60
     1
100
AcDbLine
 10
256.5901713386198
 20
-106.931544799742
 30
0.0000000000000142
 11
256.5901713386198
 21
106.931544808656
 31
0.0000000000000142
  0
SPLINE
  5
E2
330
1F
100
AcDbEntity
  8
Default
 60
     1
100
AcDbSpline
210
0.0
220
0.0
230
1.0
 70
    12
 71
     2
 72
     8
 73
     5
 74
     0
 42
0.000000001
 43
0.0000000001
 40
-58.82176467941097
 40
-58.82176467941097
 40
-58.82176467941097
 40
-12.62325873406234
 40
-12.62325873406234
 40
33.57524721128629
 40
33.57524721128629
 40
33.57524721128629
 10
-95.40982866138022
 20
106.931544809163
 30
0.0000000000000142
 41
1.0
 10
-95.40982867036458
 20
195.5217161427898
 30
0.0000000000000144
 41
0.7071067812064744
 10
-184.0000000039913
 20
195.5217161387985
 30
0.0000000000000142
 41
1.0
 10
-272.590171337618
 20
195.5217161348071
 30
0.0000000000000144
 41
0.7071067812064744
 10
-272.5901713386198
 20
106.9315448011805
 30
0.0000000000000142
 41
1.0
  0
POLYLINE
  5
E3
330
1F
100
AcDbEntity
  8
Default
 60
     1
100
AcDb2dPolyline
 66
     1
 10
0.0
 20
0.0
 30
0.0000000000000142
  0
VERTEX
  5
E4
330
E3
100
AcDbEntity
  8
Default
 60
     1
100
AcDbVertex
100
AcDb2dVertex
 10
-272.5901713386198
 20
106.9315448011805
 30
0.0000000000000142
  0
VERTEX
  5
E5
330
E3
100
AcDbEntity
  8
Default
 60
     1
100
AcDbVertex
100
AcDb2dVertex
 10
-272.5901713289846
 20
-106.9302382090327
 30
0.0000000000000142
  0
SEQEND
  5
E6
330
E3
100
AcDbEntity
  8
Default
 60
     1
  0
SPLINE
  5
E7
330
1F
100
AcDbEntity
  8
Default
 60
     1
100
AcDbSpline
210
0.0
220
0.0
230
1.0
 70
    12
 71
     2
 72
    12
 73
     9
 74
     0
 42
0.000000001
 43
0.0000000001
 40
104.5748134389115
 40
104.5748134389115
 40
104.5748134389115
 40
127.6741748556299
 40
127.6741748556299
 40
150.7735362723483
 40
150.7735362723483
 40
173.8728976890667
 40
173.8728976890667
 40
196.9722591057851
 40
196.9722591057851
 40
196.9722591057851
 10
-272.5901713289846
 20
-106.9302382090327
 30
0.0000000000000142
 41
1.0
 10
-272.5907125395799
 20
-143.6256800125115
 30
0.0000000000000144
 41
0.92387882699838
 10
-246.6434038206967
 20
-169.5735627718497
 30
0.0000000000000142
 41
1.0
 10
-220.6960951018136
 20
-195.5214455311881
 30
0.0000000000000144
 41
0.92387882699838
 10
-184.0006532953416
 20
-195.5217161363898
 30
0.0000000000000142
 41
1.0
 10
-147.3052114888697
 20
-195.5219867415916
 30
0.0000000000000144
 41
0.92387882699838
 10
-121.357520075029
 20
-169.5744866743886
 30
0.0000000000000142
 41
1.0
 10
-95.40982866118847
 20
-143.6269866071857
 30
0.0000000000000144
 41
0.92387882699838
 10
-95.40982866138022
 20
-106.9315447997159
 30
0.0000000000000142
 41
1.0
  0
POLYLINE
  5
E8
330
1F
100
AcDbEntity
  8
Default
 60
     1
100
AcDb2dPolyline
 66
     1
 10
0.0
 20
0.0
 30
0.0000000000000142
  0
VERTEX
  5
E9
330
E8
100
AcDbEntity
  8
Default
 60
     1
100
AcDbVertex
100
AcDb2dVertex
 10
-95.40982866138022
 20
-106.9315447997159
 30
0.0000000000000142
  0
VERTEX
  5
EA
330
E8
100
AcDbEntity
  8
Default
 60
     1
100
AcDbVertex
100
AcDb2dVertex
 10
-95.40982866138022
 20
106.931544809163
 30
0.0000000000000142
  0
SEQEND
  5
EB
330
E8
100
AcDbEntity
  8
Default
 60
     1
  0
SPLINE
  5
EC
330
1F
100
AcDbEntity
  8
Default
 60
     1
100
AcDbSpline
210
0.0
220
0.0
230
1.0
 70
     8
 71
     3
 72
    43
 73
    39
 74
     0
 42
0.000000001
 43
0.0000000001
 40
0.0
 40
0.0
 40
0.0
 40
0.0
 40
6.242023830649988
 40
12.45765562302396
 40
18.63436999040283
 40
24.77097780881695
 40
30.86225003671844
 40
36.92633434453359
 40
42.97488456972993
 40
49.01639948507977
 40
55.02800877105097
 40
61.062944572795
 40
67.12735415504113
 40
73.22981184208446
 40
79.36934627984394
 40
85.54290339953447
 40
91.7334206043243
 40
94.83391698351177
 40
96.38656035358557
 40
96.48258426703276
 40
96.57867920860707
 40
98.13594129429991
 40
101.2456849833979
 40
107.4548146999982
 40
113.6470914095662
 40
119.8052227767533
 40
125.9260760074482
 40
132.0086172231387
 40
138.0614764013349
 40
144.0908346607906
 40
150.1345236662094
 40
156.1830686248305
 40
162.2471489430152
 40
168.3384190920937
 40
174.4750276435733
 40
180.6517452570921
 40
186.8673826151968
 40
193.109413504735
 40
193.109413504735
 40
193.109413504735
 40
193.109413504735
 10
-245.4686094230133
 20
106.9315460202532
 30
-0.0000000000000426
 10
-245.4686094229896
 20
109.01222063047
 30
-0.0000000000000426
 10
-245.2579222773986
 20
113.1647917279694
 30
0.0000000000000284
 10
-244.3151110722665
 20
119.3123297207159
 30
0.0000000000001705
 10
-242.7679685582389
 20
125.2997685279167
 30
-0.0000000000002842
 10
-240.6438166089254
 20
131.0633365126255
 30
0.0000000000004121
 10
-237.9745971690461
 20
136.5536695022124
 30
0.0000000000000426
 10
-234.7917518251545
 20
141.7285715733408
 30
0.0000000000001421
 10
-231.1254426018068
 20
146.5520624151025
 30
-0.0000000000002132
 10
-227.0151361183615
 20
150.9794022578009
 30
0.0000000000001279
 10
-222.4946998546238
 20
154.980121493305
 30
0.0000000000000995
 10
-217.598252632082
 20
158.5238440598815
 30
0.0000000000000568
 10
-212.3511168687749
 20
161.584719191839
 30
-0.0000000000000853
 10
-206.79531148294
 20
164.1265645282127
 30
0.0000000000000568
 10
-200.979862088554
 20
166.1155295359202
 30
-0.0000000000001137
 10
-194.9658920857842
 20
167.5194406770962
 30
-0.0000000000001279
 10
-189.8472844691926
 20
168.1825305549734
 30
-0.0000000000000711
 10
-186.2366699000079
 20
168.3746540696515
 30
-0.0000000000000426
 10
-184.6536901611719
 20
168.3990228679789
 30
0.0000000000000853
 10
-184.0720982677532
 20
168.4001361393558
 30
-0.0000000000000568
 10
-183.4889719394193
 20
168.400367788341
 30
-0.0000000000000995
 10
-181.9012827968997
 20
168.3796292554646
 30
0.0000000000000426
 10
-178.2794461215501
 20
168.1948427696111
 30
-0.000000000000199
 10
-173.1440633752043
 20
167.5399074105901
 30
0.0000000000000568
 10
-167.1095537726871
 20
166.1417349944129
 30
-0.0000000000000711
 10
-161.2737414869705
 20
164.1547162285946
 30
0.0000000000001279
 10
-155.6984768143514
 20
161.6110862739309
 30
-0.0000000000001847
 10
-150.4332512503227
 20
158.5450662218752
 30
0.0000000000000568
 10
-145.5205665131223
 20
154.9930864826327
 30
-0.0000000000000284
 10
-140.9899023964742
 20
150.9847934213747
 30
0.0000000000000284
 10
-136.8750124319824
 20
146.5526402882215
 30
0.0000000000000568
 10
-133.2082416422713
 20
141.7285832557151
 30
0.0000000000000426
 10
-130.0254281037533
 20
136.5536785162896
 30
0.0000000000000711
 10
-127.3561780944251
 20
131.0633528000205
 30
-0.0000000000001279
 10
-125.2320422339369
 20
125.2997819075395
 30
0.0000000000000711
 10
-123.684887685331
 20
119.312341942284
 30
-0.0000000000000711
 10
-122.7420801050969
 20
113.1647979848887
 30
-0.0000000000000284
 10
-122.5313905768601
 20
109.0122229888809
 30
-0.0000000000000426
 10
-122.5313905768601
 20
106.9315460257014
 30
-0.0000000000000426
  0
LINE
  5
ED
330
1F
100
AcDbEntity
  8
Default
 60
     1
100
AcDbLine
 10
-122.5313905768601
 20
106.9315460257014
 30
-0.0000000000000426
 11
-122.5313905768601
 21
-106.9315436513414
 31
-0.0000000000000426
  0
SPLINE
  5
EE
330
1F
100
AcDbEntity
  8
Default
 60
     1
100
AcDbSpline
210
0.0
220
0.0
230
1.0
 70
     8
 71
     3
 72
    43
 73
    39
 74
     0
 42
0.000000001
 43
0.0000000001
 40
405.5384080398907
 40
405.5384080398907
 40
405.5384080398907
 40
405.5384080398907
 40
411.7340419429162
 40
417.9253152567454
 40
424.0965013522298
 40
430.2415492184779
 40
436.3496811420906
 40
442.4340620486345
 40
448.5011479149254
 40
454.5621621330334
 40
460.6262619178771
 40
466.7040698506054
 40
472.8001708807262
 40
478.9226304500616
 40
485.0700989335544
 40
491.2420585601447
 40
497.4249409352759
 40
500.5201293086601
 40
502.069714373281
 40
502.1654624535976
 40
502.2611397734156
 40
503.8061302935163
 40
506.8921281852394
 40
513.0565487655548
 40
519.2099641187916
 40
525.3389832580417
 40
531.4431316229409
 40
537.5211134305318
 40
543.580939074363
 40
549.6271694495503
 40
555.685988307219
 40
561.7530782654591
 40
567.8374633742588
 40
573.9455985281719
 40
580.0906473462965
 40
586.2618315084807
 40
592.4530969102933
 40
598.6487030620144
 40
598.6487030620144
 40
598.6487030620144
 40
598.6487030620144
 10
-122.5313905768601
 20
-106.9315436513414
 30
-0.0000000000000426
 10
-122.5313906744884
 20
-108.9967549523499
 30
-0.0000000000000426
 10
-122.7393117905162
 20
-113.1257441604878
 30
0.0000000000000711
 10
-123.6724308654077
 20
-119.2489462762716
 30
-0.0000000000002132
 10
-125.2106051159215
 20
-125.2312909510906
 30
-0.0000000000002842
 10
-127.3303001471311
 20
-131.0035526555953
 30
-0.0000000000000568
 10
-130.0008625110584
 20
-136.5101952193909
 30
0.0000000000000711
 10
-133.190026677504
 20
-141.7030898285691
 30
-0.0000000000001137
 10
-136.866462413052
 20
-146.5433912922358
 30
0.0000000000000284
 10
-140.9971756733742
 20
-150.993075331604
 30
0.0000000000001847
 10
-145.5486199521511
 20
-155.0167887145344
 30
-0.0000000000000853
 10
-150.4842094733694
 20
-158.5789192193089
 30
0.0000000000001137
 10
-155.7646049997823
 20
-161.6455460134045
 30
-0.0000000000000853
 10
-161.3445221605202
 20
-164.1825997904425
 30
0.0000000000001279
 10
-167.1734261047498
 20
-166.159389323255
 30
-0.0000000000000284
 10
-173.1906338267167
 20
-167.5474087714699
 30
-0.0000000000000142
 10
-178.3060918990307
 20
-168.1967946412378
 30
-0.0000000000001137
 10
-181.9118306619084
 20
-168.3798236929954
 30
-0.0000000000000284
 10
-183.4919840203424
 20
-168.4003864689303
 30
0.0
 10
-184.0723258351286
 20
-168.4001333588101
 30
-0.0000000000001421
 10
-184.6511295056325
 20
-168.3990047447193
 30
-0.0000000000000853
 10
-186.2266219952197
 20
-168.3748891908018
 30
-0.0000000000001705
 10
-189.8211920383427
 20
-168.1844477109837
 30
0.0000000000000426
 10
-194.9200432586028
 20
-167.5269674654207
 30
-0.0000000000003411
 10
-200.9168220065201
 20
-166.1330077766642
 30
0.0000000000001563
 10
-206.7254978543472
 20
-164.1541984261205
 30
-0.0000000000002132
 10
-212.2859608362078
 20
-161.6187307591316
 30
-0.0000000000000142
 10
-217.5482359308812
 20
-158.5571495744504
 30
-0.0000000000000568
 10
-222.4674390528751
 20
-155.0031758275168
 30
-0.0000000000001705
 10
-227.0085679913375
 20
-150.9870228454998
 30
0.0000000000000995
 10
-231.1345565312406
 20
-146.5421043327635
 30
-0.0000000000000853
 10
-234.8105028965625
 20
-141.7023379833448
 30
0.0000000000000711
 10
-237.9995601246571
 20
-136.5093859904437
 30
-0.0000000000000142
 10
-240.6700721561397
 20
-131.0027060389623
 30
-0.0000000000003695
 10
-242.7896625565878
 20
-125.2304089210037
 30
-0.0000000000001279
 10
-244.3277565133471
 20
-119.2480456634757
 30
-0.0000000000002842
 10
-245.2607769731783
 20
-113.1248412359258
 30
-0.0000000000001847
 10
-245.4686397780112
 20
-108.9958612421494
 30
-0.0000000000000426
 10
-245.468609416492
 20
-106.9306591917989
 30
-0.0000000000000426
  0
LINE
  5
EF
330
1F
100
AcDbEntity
  8
Default
 60
     1
100
AcDbLine
 10
-245.468609416492
 20
-106.9306591917989
 30
-0.0000000000000426
 11
-245.4686094230133
 21
106.9315460202532
 31
-0.0000000000000426
  0
ARC
  5
F0
330
1F
100
AcDbEntity
  8
Default
 60
     1
100
AcDbCircle
 10
0.0000000000000853
 20
106.9315448001787
 30
0.0000000000000142
 40
68.4686094230764
100
AcDbArc
 50
0.0000000053862706
 51
179.9999999995237
  0
LINE
  5
F1
330
1F
100
AcDbEntity
  8
Default
 60
     1
100
AcDbLine
 10
-68.46860942307654
 20
106.9315448007478
 30
0.0000000000000142
 11
-68.46860941617354
 21
-106.9306087199263
 31
0.0000000000000142
  0
SPLINE
  5
F2
330
1F
100
AcDbEntity
  8
Default
 60
     1
100
AcDbSpline
210
0.0
220
0.0
230
1.0
 70
    12
 71
     2
 72
     6
 73
     3
 74
     0
 42
0.000000001
 43
0.0000000001
 40
397.5467674668129
 40
397.5467674668129
 40
397.5467674668129
 40
453.7478720344988
 40
453.7478720344988
 40
453.7478720344988
 10
-68.46860941617354
 20
-106.9306087199263
 30
0.0000000000000142
 41
1.0
 10
-68.46902770059643
 20
-135.2913094784474
 30
0.0000000000000144
 41
0.9238788269983799
 10
-48.41515355848014
 20
-155.3456272787159
 30
0.0000000000000142
 41
1.0
  0
ARC
  5
F3
330
1F
100
AcDbEntity
  8
Default
 60
     1
100
AcDbCircle
 10
-0.000000000000826
 20
-106.9315448001769
 30
0.0000000000000142
 40
68.46860942307734
100
AcDbArc
 50
224.9993662207551
 51
0.0000000002759516
  0
LINE
  5
F4
330
1F
100
AcDbEntity
  8
Default
 60
     1
100
AcDbLine
 10
68.46860942307653
 20
-106.9315447998471
 30
0.0000000000000142
 11
68.46860942307649
 21
106.9315448066153
 31
0.0000000000000142
  0
SPLINE
  5
F5
330
1F
100
AcDbEntity
  8
Default
 60
     1
100
AcDbSpline
210
0.0
220
0.0
230
1.0
 70
    12
 71
     2
 72
     8
 73
     5
 74
     0
 42
0.000000001
 43
0.0000000001
 40
-58.82176467941097
 40
-58.82176467941097
 40
-58.82176467941097
 40
-12.62325873406234
 40
-12.62325873406234
 40
33.57524721128629
 40
33.57524721128629
 40
33.57524721128629
 10
88.59017133861978
 20
106.931544809163
 30
0.0000000000000142
 41
1.0
 10
88.59017132963542
 20
195.5217161427898
 30
0.0000000000000144
 41
0.7071067812064744
 10
-0.0000000039912869
 20
195.5217161387985
 30
0.0000000000000142
 41
1.0
 10
-88.59017133761802
 20
195.5217161348071
 30
0.0000000000000144
 41
0.7071067812064744
 10
-88.59017133861984
 20
106.9315448011805
 30
0.0000000000000142
 41
1.0
  0
POLYLINE
  5
F6
330
1F
100
AcDbEntity
  8
Default
 60
     1
100
AcDb2dPolyline
 66
     1
 10
0.0
 20
0.0
 30
0.0000000000000142
  0
VERTEX
  5
F7
330
F6
100
AcDbEntity
  8
Default
 60
     1
100
AcDbVertex
100
AcDb2dVertex
 10
-88.59017133861984
 20
106.9315448011805
 30
0.0000000000000142
  0
VERTEX
  5
F8
330
F6
100
AcDbEntity
  8
Default
 60
     1
100
AcDbVertex
100
AcDb2dVertex
 10
-88.59017132898457
 20
-106.9302382090327
 30
0.0000000000000142
  0
SEQEND
  5
F9
330
F6
100
AcDbEntity
  8
Default
 60
     1
  0
SPLINE
  5
FA
330
1F
100
AcDbEntity
  8
Default
 60
     1
100
AcDbSpline
210
0.0
220
0.0
230
1.0
 70
    12
 71
     2
 72
    12
 73
     9
 74
     0
 42
0.000000001
 43
0.0000000001
 40
104.5748134389115
 40
104.5748134389115
 40
104.5748134389115
 40
127.6741748556299
 40
127.6741748556299
 40
150.7735362723483
 40
150.7735362723483
 40
173.8728976890667
 40
173.8728976890667
 40
196.9722591057851
 40
196.9722591057851
 40
196.9722591057851
 10
-88.59017132898457
 20
-106.9302382090327
 30
0.0000000000000142
 41
1.0
 10
-88.59071253957985
 20
-143.6256800125115
 30
0.0000000000000144
 41
0.92387882699838
 10
-62.64340382069673
 20
-169.5735627718497
 30
0.0000000000000142
 41
1.0
 10
-36.69609510181356
 20
-195.5214455311881
 30
0.0000000000000144
 41
0.92387882699838
 10
-0.0006532953416256
 20
-195.5217161363898
 30
0.0000000000000142
 41
1.0
 10
36.69478851113031
 20
-195.5219867415916
 30
0.0000000000000144
 41
0.92387882699838
 10
62.64247992497095
 20
-169.5744866743886
 30
0.0000000000000142
 41
1.0
 10
88.59017133881153
 20
-143.6269866071857
 30
0.0000000000000144
 41
0.92387882699838
 10
88.59017133861978
 20
-106.9315447997159
 30
0.0000000000000142
 41
1.0
  0
POLYLINE
  5
FB
330
1F
100
AcDbEntity
  8
Default
 60
     1
100
AcDb2dPolyline
 66
     1
 10
0.0
 20
0.0
 30
0.0000000000000142
  0
VERTEX
  5
FC
330
FB
100
AcDbEntity
  8
Default
 60
     1
100
AcDbVertex
100
AcDb2dVertex
 10
88.59017133861978
 20
-106.9315447997159
 30
0.0000000000000142
  0
VERTEX
  5
FD
330
FB
100
AcDbEntity
  8
Default
 60
     1
100
AcDbVertex
100
AcDb2dVertex
 10
88.59017133861978
 20
106.931544809163
 30
0.0000000000000142
  0
SEQEND
  5
FE
330
FB
100
AcDbEntity
  8
Default
 60
     1
  0
POLYLINE
  5
FF
330
1F
100
AcDbEntity
  8
Default
100
AcDb2dPolyline
 66
     1
 10
0.0
 20
0.0
 30
0.0
 70
     1
  0
VERTEX
  5
100
330
FF
100
AcDbEntity
  8
Default
100
AcDbVertex
100
AcDb2dVertex
 10
-106.0
 20
103.0
 30
0.0
  0
VERTEX
  5
101
330
FF
100
AcDbEntity
  8
Default
100
AcDbVertex
100
AcDb2dVertex
 10
404.0
 20
103.0
 30
0.0
  0
VERTEX
  5
102
330
FF
100
AcDbEntity
  8
Default
100
AcDbVertex
100
AcDb2dVertex
 10
404.0
 20
353.0
 30
0.0
  0
VERTEX
  5
103
330
FF
100
AcDbEntity
  8
Default
100
AcDbVertex
100
AcDb2dVertex
 10
-106.0
 20
353.0
 30
0.0
  0
SEQEND
  5
104
330
FF
100
AcDbEntity
  8
Default
  0
SPLINE
  5
105
330
1F
100
AcDbEntity
  8
Default
100
AcDbSpline
210
0.0
220
0.0
230
1.0
 70
    12
 71
     2
 72
     8
 73
     5
 74
     0
 42
0.000000001
 43
0.0000000001
 40
0.0
 40
0.0
 40
0.0
 40
46.19850594534863
 40
46.19850594534863
 40
92.39701189069726
 40
92.39701189069726
 40
92.39701189069726
 10
-0.9315448061083629
 20
289.4686094230765
 30
0.0
 41
1.0
 10
-59.40015422588944
 20
289.4686094171469
 30
0.0
 41
0.7071067812064744
 10
-59.40015422325529
 20
230.9999999973658
 30
0.0
 41
1.0
 10
-59.40015422062104
 20
172.5313905775847
 30
0.0
 41
0.7071067812064744
 10
-0.9315448008399727
 20
172.5313905769235
 30
0.0
 41
1.0
  0
POLYLINE
  5
106
330
1F
100
AcDbEntity
  8
Default
100
AcDb2dPolyline
 66
     1
 10
0.0
 20
0.0
 30
0.0
  0
VERTEX
  5
107
330
106
100
AcDbEntity
  8
Default
100
AcDbVertex
100
AcDb2dVertex
 10
-0.9315448008399727
 20
172.5313905769235
 30
0.0
  0
VERTEX
  5
108
330
106
100
AcDbEntity
  8
Default
100
AcDbVertex
100
AcDb2dVertex
 10
212.9306824633501
 20
172.5313905832827
 30
0.0
  0
SEQEND
  5
109
330
106
100
AcDbEntity
  8
Default
  0
SPLINE
  5
10A
330
1F
100
AcDbEntity
  8
Default
100
AcDbSpline
210
0.0
220
0.0
230
1.0
 70
    12
 71
     2
 72
    12
 73
     9
 74
     0
 42
0.000000001
 43
0.0000000001
 40
163.3967256053546
 40
163.3967256053546
 40
163.3967256053546
 40
186.496087022073
 40
186.496087022073
 40
209.5954484387914
 40
209.5954484387914
 40
232.6948098555098
 40
232.6948098555098
 40
255.7941712722282
 40
255.7941712722282
 40
255.7941712722282
 10
212.9306824633501
 20
172.5313905832827
 30
0.0
 41
1.0
 10
237.1492997432956
 20
172.5310333898104
 30
0.0
 41
0.92387882699838
 10
254.2746376841441
 20
189.6559924698139
 30
0.0
 41
1.0
 10
271.3999756249926
 20
206.7809515498175
 30
0.0
 41
0.92387882699838
 10
271.4001542216655
 20
230.9995688317385
 30
0.0
 41
1.0
 10
271.4003328183384
 20
255.2181861136594
 30
0.0
 41
0.92387882699838
 10
254.2752474503955
 20
272.3433977684313
 30
0.0
 41
1.0
 10
237.1501620824527
 20
289.4686094232031
 30
0.0
 41
0.92387882699838
 10
212.9315447998732
 20
289.4686094230765
 30
0.0
 41
1.0
  0
POLYLINE
  5
10B
330
1F
100
AcDbEntity
  8
Default
100
AcDb2dPolyline
 66
     1
 10
0.0
 20
0.0
 30
0.0
  0
VERTEX
  5
10C
330
10B
100
AcDbEntity
  8
Default
100
AcDbVertex
100
AcDb2dVertex
 10
212.9315447998732
 20
289.4686094230765
 30
0.0
  0
VERTEX
  5
10D
330
10B
100
AcDbEntity
  8
Default
100
AcDbVertex
100
AcDb2dVertex
 10
-0.9315448061083629
 20
289.4686094230765
 30
0.0
  0
SEQEND
  5
10E
330
10B
100
AcDbEntity
  8
Default
  0
SPLINE
  5
10F
330
1F
100
AcDbEntity
  8
Default
100
AcDbSpline
210
0.0
220
0.0
230
1.0
 70
    12
 71
     2
 72
     8
 73
     5
 74
     0
 42
0.000000001
 43
0.0000000001
 40
-58.82176467941097
 40
-58.82176467941097
 40
-58.82176467941097
 40
-12.62325873406234
 40
-12.62325873406234
 40
33.57524721128629
 40
33.57524721128629
 40
33.57524721128629
 10
-0.9315448091631282
 20
319.5901713386198
 30
0.0
 41
1.0
 10
-89.52171614278984
 20
319.5901713296354
 30
0.0
 41
0.7071067812064744
 10
-89.5217161387986
 20
230.9999999960087
 30
0.0
 41
1.0
 10
-89.52171613480728
 20
142.409828662382
 30
0.0
 41
0.7071067812064744
 10
-0.9315448011806069
 20
142.4098286613802
 30
0.0
 41
1.0
  0
POLYLINE
  5
110
330
1F
100
AcDbEntity
  8
Default
100
AcDb2dPolyline
 66
     1
 10
0.0
 20
0.0
 30
0.0
  0
VERTEX
  5
111
330
110
100
AcDbEntity
  8
Default
100
AcDbVertex
100
AcDb2dVertex
 10
-0.9315448011806069
 20
142.4098286613802
 30
0.0
  0
VERTEX
  5
112
330
110
100
AcDbEntity
  8
Default
100
AcDbVertex
100
AcDb2dVertex
 10
212.9302382090326
 20
142.4098286710155
 30
0.0
  0
SEQEND
  5
113
330
110
100
AcDbEntity
  8
Default
  0
SPLINE
  5
114
330
1F
100
AcDbEntity
  8
Default
100
AcDbSpline
210
0.0
220
0.0
230
1.0
 70
    12
 71
     2
 72
    12
 73
     9
 74
     0
 42
0.000000001
 43
0.0000000001
 40
104.5748134389115
 40
104.5748134389115
 40
104.5748134389115
 40
127.6741748556299
 40
127.6741748556299
 40
150.7735362723483
 40
150.7735362723483
 40
173.8728976890667
 40
173.8728976890667
 40
196.9722591057851
 40
196.9722591057851
 40
196.9722591057851
 10
212.9302382090326
 20
142.4098286710155
 30
0.0
 41
1.0
 10
249.6256800125113
 20
142.4092874604202
 30
0.0
 41
0.92387882699838
 10
275.5735627718497
 20
168.3565961793033
 30
0.0
 41
1.0
 10
301.5214455311879
 20
194.3039048981865
 30
0.0
 41
0.92387882699838
 10
301.5217161363898
 20
230.9993467046584
 30
0.0
 41
1.0
 10
301.5219867415915
 20
267.6947885111304
 30
0.0
 41
0.92387882699838
 10
275.5744866743885
 20
293.642479924971
 30
0.0
 41
1.0
 10
249.6269866071855
 20
319.5901713388116
 30
0.0
 41
0.92387882699838
 10
212.9315447997158
 20
319.5901713386198
 30
0.0
 41
1.0
  0
POLYLINE
  5
115
330
1F
100
AcDbEntity
  8
Default
100
AcDb2dPolyline
 66
     1
 10
0.0
 20
0.0
 30
0.0
  0
VERTEX
  5
116
330
115
100
AcDbEntity
  8
Default
100
AcDbVertex
100
AcDb2dVertex
 10
212.9315447997158
 20
319.5901713386198
 30
0.0
  0
VERTEX
  5
117
330
115
100
AcDbEntity
  8
Default
100
AcDbVertex
100
AcDb2dVertex
 10
-0.9315448091631282
 20
319.5901713386198
 30
0.0
  0
SEQEND
  5
118
330
115
100
AcDbEntity
  8
Default
  0
POLYLINE
  5
119
330
1F
100
AcDbEntity
  8
Default
100
AcDb2dPolyline
 66
     1
 10
0.0
 20
0.0
 30
0.0
 70
     1
  0
VERTEX
  5
11A
330
119
100
AcDbEntity
  8
Default
100
AcDbVertex
100
AcDb2dVertex
 10
-102.0
 20
-294.0
 30
0.0
  0
VERTEX
  5
11B
330
119
100
AcDbEntity
  8
Default
100
AcDbVertex
100
AcDb2dVertex
 10
248.0
 20
-294.0
 30
0.0
  0
VERTEX
  5
11C
330
119
100
AcDbEntity
  8
Default
100
AcDbVertex
100
AcDb2dVertex
 10
248.0
 20
86.0
 30
0.0
  0
VERTEX
  5
11D
330
119
100
AcDbEntity
  8
Default
100
AcDbVertex
100
AcDb2dVertex
 10
-102.0
 20
86.0
 30
0.0
  0
SEQEND
  5
11E
330
119
100
AcDbEntity
  8
Default
  0
ARC
  5
11F
330
1F
100
AcDbEntity
  8
Layer 02
 60
     1
100
AcDbCircle
 10
339.5681743956458
 20
-41.46261869837409
 30
7.0
 40
68.59017133861985
100
AcDbArc
 50
45.00000000663083
 51
224.9999999989068
  0
LINE
  5
120
330
1F
100
AcDbEntity
  8
Layer 02
 60
     1
100
AcDbLine
 10
291.0675991184352
 20
-89.9631939737339
 30
7.0
 11
442.2908204166557
 21
-241.1864152598663
 31
7.0
  0
SPLINE
  5
121
330
1F
100
AcDbEntity
  8
Layer 02
 60
     1
100
AcDbSpline
210
0.0
220
0.0
230
1.0
 70
    12
 71
     2
 72
     6
 73
     3
 74
     0
 42
0.000000001
 43
0.0000000001
 40
472.0596494881946
 40
472.0596494881946
 40
472.0596494881946
 40
538.7946850645269
 40
538.7946850645269
 40
538.7946850645269
 10
442.2908204166557
 20
-241.1864152598663
 30
7.0
 41
1.0
 10
462.3803292246778
 20
-261.2765166640486
 30
6.999999999999999
 41
0.9238788269983799
 10
490.7914565850123
 20
-261.2768309347165
 30
7.0
 41
1.0
  0
ARC
  5
122
330
1F
100
AcDbEntity
  8
Layer 02
 60
     1
100
AcDbCircle
 10
490.792215297563
 20
-192.6866596002924
 30
7.0
 40
68.59017133862051
100
AcDbArc
 50
269.9993662207548
 51
45.00000000034038
  0
LINE
  5
123
330
1F
100
AcDbEntity
  8
Layer 02
 60
     1
100
AcDbLine
 10
539.2927905735605
 20
-144.1860843237185
 30
7.0
 11
388.0687496663181
 21
7.0379565835241
 31
7.0
  0
ARC
  5
124
330
1F
100
AcDbEntity
  8
Layer 02
 60
     1
100
AcDbCircle
 10
339.5681743956458
 20
-41.46261869837406
 30
7.0
 40
78.59017133861983
100
AcDbArc
 50
45.00000000618029
 51
224.9999999991466
  0
LINE
  5
125
330
1F
100
AcDbEntity
  8
Layer 02
 60
     1
100
AcDbLine
 10
283.9965313066674
 20
-97.03426178569697
 30
7.0
 11
435.2197004608038
 21
-248.2574309269763
 31
7.0
  0
SPLINE
  5
126
330
1F
100
AcDbEntity
  8
Layer 02
 60
     1
100
AcDbSpline
210
0.0
220
0.0
230
1.0
 70
    12
 71
     2
 72
     6
 73
     3
 74
     0
 42
0.000000001
 43
0.0000000001
 40
492.1760144530783
 40
492.1760144530783
 40
492.1760144530783
 40
561.7548989647167
 40
561.7548989647167
 40
561.7548989647167
 10
435.2197004608038
 20
-248.2574309269763
 30
7.0
 41
1.0
 10
458.2380613869358
 20
-271.2764708448215
 30
6.999999999999999
 41
0.9238788269983799
 10
490.7913459696665
 20
-271.2768309341047
 30
7.0
 41
1.0
  0
ARC
  5
127
330
1F
100
AcDbEntity
  8
Layer 02
 60
     1
100
AcDbCircle
 10
490.7922152975628
 20
-192.6866596002923
 30
7.0
 40
78.59017133862054
100
AcDbArc
 50
269.9993662207548
 51
45.00000000031716
  0
LINE
  5
128
330
1F
100
AcDbEntity
  8
Layer 02
 60
     1
100
AcDbLine
 10
546.3638583854064
 20
-137.1150165118335
 30
7.0
 11
395.1398174778022
 21
14.10902439577094
 31
7.0
  0
SPLINE
  5
129
330
1F
100
AcDbEntity
  8
Default
 60
     1
100
AcDbSpline
210
0.0
220
0.0
230
1.0
 70
    12
 71
     2
 72
     8
 73
     5
 74
     0
 42
0.000000001
 43
0.0000000001
 40
0.0
 40
0.0
 40
0.0
 40
139.1571157224793
 40
139.1571157224793
 40
278.3142314449586
 40
278.3142314449586
 40
278.3142314449586
 10
395.1398174778022
 20
14.10902439577097
 30
7.0
 41
1.0
 10
339.5681743870682
 20
69.68066747451635
 30
7.0
 41
0.7071067812082489
 10
283.9965313049117
 20
14.10902438719341
 30
7.0
 41
1.0
 10
228.4248882227554
 20
-41.46261870012956
 30
7.0
 41
0.7071067812082489
 10
283.9965313066673
 20
-97.03426178569704
 30
7.0
 41
1.0
  0
SPLINE
  5
12A
330
1F
100
AcDbEntity
  8
Default
 60
     1
100
AcDbSpline
210
0.0
220
0.0
230
1.0
 70
    28
 71
     2
 72
     6
 73
     3
 74
     0
 42
0.000000001
 43
0.0000000001
 40
0.0
 40
0.0
 40
0.0
 40
4.0
 40
4.0
 40
4.0
 10
283.9965313066673
 20
-97.03426178569704
 30
7.0
 41
1.0
 10
283.9965313066673
 20
-97.03426178569704
 30
9.0
 41
1.0
 10
283.9965313066673
 20
-97.03426178569704
 30
11.0
 41
1.0
  0
SPLINE
  5
12B
330
1F
100
AcDbEntity
  8
Default
 60
     1
100
AcDbSpline
210
0.0
220
0.0
230
1.0
 70
    12
 71
     2
 72
     8
 73
     5
 74
     0
 42
0.000000001
 43
0.0000000001
 40
0.0
 40
0.0
 40
0.0
 40
139.1571157224793
 40
139.1571157224793
 40
278.3142314449586
 40
278.3142314449586
 40
278.3142314449586
 10
395.1398174778022
 20
14.10902439577097
 30
11.0
 41
1.0
 10
339.5681743870682
 20
69.68066747451635
 30
11.0
 41
0.7071067812082489
 10
283.9965313049117
 20
14.10902438719341
 30
11.0
 41
1.0
 10
228.4248882227554
 20
-41.46261870012956
 30
11.0
 41
0.7071067812082489
 10
283.9965313066673
 20
-97.03426178569704
 30
11.0
 41
1.0
  0
SPLINE
  5
12C
330
1F
100
AcDbEntity
  8
Default
 60
     1
100
AcDbSpline
210
0.0
220
0.0
230
1.0
 70
    28
 71
     2
 72
     6
 73
     3
 74
     0
 42
0.000000001
 43
0.0000000001
 40
0.0
 40
0.0
 40
0.0
 40
4.0
 40
4.0
 40
4.0
 10
395.1398174778022
 20
14.10902439577097
 30
7.0
 41
1.0
 10
395.1398174778022
 20
14.10902439577097
 30
9.0
 41
1.0
 10
395.1398174778022
 20
14.10902439577097
 30
11.0
 41
1.0
  0
SPLINE
  5
12D
330
1F
100
AcDbEntity
  8
Default
 60
     1
100
AcDbSpline
210
0.0
220
0.0
230
1.0
 70
    28
 71
     2
 72
     6
 73
     3
 74
     0
 42
0.000000001
 43
0.0000000001
 40
278.3142314449586
 40
278.3142314449586
 40
278.3142314449586
 40
492.1760144530783
 40
492.1760144530783
 40
492.1760144530783
 10
283.9965313066673
 20
-97.03426178569704
 30
7.0
 41
1.0
 10
359.6081158837356
 20
-172.6458463563366
 30
7.0
 41
1.0
 10
435.2197004608039
 20
-248.2574309269763
 30
7.0
 41
1.0
  0
SPLINE
  5
12E
330
1F
100
AcDbEntity
  8
Default
 60
     1
100
AcDbSpline
210
0.0
220
0.0
230
1.0
 70
    28
 71
     2
 72
     6
 73
     3
 74
     0
 42
0.000000001
 43
0.0000000001
 40
0.0
 40
0.0
 40
0.0
 40
4.0
 40
4.0
 40
4.0
 10
435.2197004608039
 20
-248.2574309269763
 30
7.0
 41
1.0
 10
435.2197004608039
 20
-248.2574309269763
 30
9.0
 41
1.0
 10
435.2197004608039
 20
-248.2574309269763
 30
11.0
 41
1.0
  0
SPLINE
  5
12F
330
1F
100
AcDbEntity
  8
Default
 60
     1
100
AcDbSpline
210
0.0
220
0.0
230
1.0
 70
    28
 71
     2
 72
     6
 73
     3
 74
     0
 42
0.000000001
 43
0.0000000001
 40
278.3142314449586
 40
278.3142314449586
 40
278.3142314449586
 40
492.1760144530783
 40
492.1760144530783
 40
492.1760144530783
 10
283.9965313066673
 20
-97.03426178569704
 30
11.0
 41
1.0
 10
359.6081158837356
 20
-172.6458463563366
 30
11.0
 41
1.0
 10
435.2197004608039
 20
-248.2574309269763
 30
11.0
 41
1.0
  0
SPLINE
  5
130
330
1F
100
AcDbEntity
  8
Default
 60
     1
100
AcDbSpline
210
0.0
220
0.0
230
1.0
 70
    12
 71
     2
 72
    10
 73
     7
 74
     0
 42
0.000000001
 43
0.0000000001
 40
492.1760144530783
 40
492.1760144530783
 40
492.1760144530783
 40
561.7548989647167
 40
561.7548989647167
 40
654.3421979745474
 40
654.3421979745474
 40
746.9294969843781
 40
746.9294969843781
 40
746.9294969843781
 10
435.2197004608039
 20
-248.2574309269763
 30
7.0
 41
1.0
 10
458.2380613869358
 20
-271.2764708448215
 30
6.999999999999999
 41
0.9238788269983799
 10
490.7913459696665
 20
-271.2768309341047
 30
7.0
 41
1.0
 10
543.3039339686682
 20
-271.2774118039118
 30
7.000000000000001
 41
0.8314680759337638
 10
563.3998997141506
 20
-222.7622176947804
 30
7.0
 41
1.0
 10
583.495865459633
 20
-174.247023585649
 30
7.000000000000001
 41
0.8314680759337638
 10
546.3638583854065
 20
-137.1150165118335
 30
7.0
 41
1.0
  0
SPLINE
  5
131
330
1F
100
AcDbEntity
  8
Default
 60
     1
100
AcDbSpline
210
0.0
220
0.0
230
1.0
 70
    28
 71
     2
 72
     6
 73
     3
 74
     0
 42
0.000000001
 43
0.0000000001
 40
0.0
 40
0.0
 40
0.0
 40
4.0
 40
4.0
 40
4.0
 10
546.3638583854065
 20
-137.1150165118335
 30
7.0
 41
1.0
 10
546.3638583854065
 20
-137.1150165118335
 30
9.0
 41
1.0
 10
546.3638583854065
 20
-137.1150165118335
 30
11.0
 41
1.0
  0
SPLINE
  5
132
330
1F
100
AcDbEntity
  8
Default
 60
     1
100
AcDbSpline
210
0.0
220
0.0
230
1.0
 70
    12
 71
     2
 72
    10
 73
     7
 74
     0
 42
0.000000001
 43
0.0000000001
 40
492.1760144530783
 40
492.1760144530783
 40
492.1760144530783
 40
561.7548989647167
 40
561.7548989647167
 40
654.3421979745474
 40
654.3421979745474
 40
746.9294969843781
 40
746.9294969843781
 40
746.9294969843781
 10
435.2197004608039
 20
-248.2574309269763
 30
11.0
 41
1.0
 10
458.2380613869358
 20
-271.2764708448215
 30
11.0
 41
0.9238788269983799
 10
490.7913459696665
 20
-271.2768309341047
 30
11.0
 41
1.0
 10
543.3039339686682
 20
-271.2774118039118
 30
11.0
 41
0.8314680759337638
 10
563.3998997141506
 20
-222.7622176947804
 30
11.0
 41
1.0
 10
583.495865459633
 20
-174.247023585649
 30
11.0
 41
0.8314680759337638
 10
546.3638583854065
 20
-137.1150165118335
 30
11.0
 41
1.0
  0
SPLINE
  5
133
330
1F
100
AcDbEntity
  8
Default
 60
     1
100
AcDbSpline
210
0.0
220
0.0
230
1.0
 70
    28
 71
     2
 72
     6
 73
     3
 74
     0
 42
0.000000001
 43
0.0000000001
 40
746.9294969843781
 40
746.9294969843781
 40
746.9294969843781
 40
960.7925866007992
 40
960.7925866007992
 40
960.7925866007992
 10
546.3638583854065
 20
-137.1150165118335
 30
7.0
 41
1.0
 10
470.7518379316043
 20
-61.50299605803126
 30
7.0
 41
1.0
 10
395.1398174778022
 20
14.10902439577097
 30
7.0
 41
1.0
  0
SPLINE
  5
134
330
1F
100
AcDbEntity
  8
Default
 60
     1
100
AcDbSpline
210
0.0
220
0.0
230
1.0
 70
    28
 71
     2
 72
     6
 73
     3
 74
     0
 42
0.000000001
 43
0.0000000001
 40
746.9294969843781
 40
746.9294969843781
 40
746.9294969843781
 40
960.7925866007992
 40
960.7925866007992
 40
960.7925866007992
 10
546.3638583854065
 20
-137.1150165118335
 30
11.0
 41
1.0
 10
470.7518379316043
 20
-61.50299605803126
 30
11.0
 41
1.0
 10
395.1398174778022
 20
14.10902439577097
 30
11.0
 41
1.0
  0
SPLINE
  5
135
330
1F
100
AcDbEntity
  8
Default
 60
     1
100
AcDbSpline
210
0.0
220
0.0
230
1.0
 70
    28
 71
     2
 72
     6
 73
     3
 74
     0
 42
0.000000001
 43
0.0000000001
 40
960.7925866007992
 40
960.7925866007992
 40
960.7925866007992
 40
1165.914600185666
 40
1165.914600185666
 40
1165.914600185666
 10
388.0687496663181
 20
7.0379565835241
 30
7.0
 41
1.0
 10
463.6807701199393
 20
-68.57406387009718
 30
7.0
 41
1.0
 10
539.2927905735605
 20
-144.1860843237185
 30
7.0
 41
1.0
  0
SPLINE
  5
136
330
1F
100
AcDbEntity
  8
Default
 60
     1
100
AcDbSpline
210
0.0
220
0.0
230
1.0
 70
    28
 71
     2
 72
     6
 73
     3
 74
     0
 42
0.000000001
 43
0.0000000001
 40
0.0
 40
0.0
 40
0.0
 40
4.0
 40
4.0
 40
4.0
 10
539.2927905735605
 20
-144.1860843237185
 30
7.0
 41
1.0
 10
539.2927905735605
 20
-144.1860843237185
 30
9.0
 41
1.0
 10
539.2927905735605
 20
-144.1860843237185
 30
11.0
 41
1.0
  0
SPLINE
  5
137
330
1F
100
AcDbEntity
  8
Default
 60
     1
100
AcDbSpline
210
0.0
220
0.0
230
1.0
 70
    28
 71
     2
 72
     6
 73
     3
 74
     0
 42
0.000000001
 43
0.0000000001
 40
960.7925866007992
 40
960.7925866007992
 40
960.7925866007992
 40
1165.914600185666
 40
1165.914600185666
 40
1165.914600185666
 10
388.0687496663181
 20
7.0379565835241
 30
11.0
 41
1.0
 10
463.6807701199393
 20
-68.57406387009718
 30
11.0
 41
1.0
 10
539.2927905735605
 20
-144.1860843237185
 30
11.0
 41
1.0
  0
SPLINE
  5
138
330
1F
100
AcDbEntity
  8
Default
 60
     1
100
AcDbSpline
210
0.0
220
0.0
230
1.0
 70
    28
 71
     2
 72
     6
 73
     3
 74
     0
 42
0.000000001
 43
0.0000000001
 40
0.0
 40
0.0
 40
0.0
 40
4.0
 40
4.0
 40
4.0
 10
388.0687496663181
 20
7.0379565835241
 30
7.0
 41
1.0
 10
388.0687496663181
 20
7.0379565835241
 30
9.0
 41
1.0
 10
388.0687496663181
 20
7.0379565835241
 30
11.0
 41
1.0
  0
SPLINE
  5
139
330
1F
100
AcDbEntity
  8
Default
 60
     1
100
AcDbSpline
210
0.0
220
0.0
230
1.0
 70
    12
 71
     2
 72
    10
 73
     7
 74
     0
 42
0.000000001
 43
0.0000000001
 40
1165.914600185666
 40
1165.914600185666
 40
1165.914600185666
 40
1246.720871436848
 40
1246.720871436848
 40
1327.527142688031
 40
1327.527142688031
 40
1394.262178264363
 40
1394.262178264363
 40
1394.262178264363
 10
539.2927905735605
 20
-144.1860843237185
 30
7.0
 41
1.0
 10
571.7000329041049
 20
-176.5933266538775
 30
7.0
 41
0.8314680759337076
 10
554.161125554504
 20
-218.9353322735739
 30
7.0
 41
1.0
 10
536.6222182049032
 20
-261.2773378932702
 30
7.0
 41
0.8314680759337076
 10
490.7914565850122
 20
-261.2768309347166
 30
7.0
 41
1.0
 10
462.3803292246778
 20
-261.2765166640485
 30
6.999999999999999
 41
0.9238788269983799
 10
442.2908204166557
 20
-241.1864152598662
 30
7.0
 41
1.0
  0
SPLINE
  5
13A
330
1F
100
AcDbEntity
  8
Default
 60
     1
100
AcDbSpline
210
0.0
220
0.0
230
1.0
 70
    28
 71
     2
 72
     6
 73
     3
 74
     0
 42
0.000000001
 43
0.0000000001
 40
0.0
 40
0.0
 40
0.0
 40
4.0
 40
4.0
 40
4.0
 10
442.2908204166557
 20
-241.1864152598662
 30
7.0
 41
1.0
 10
442.2908204166557
 20
-241.1864152598662
 30
9.0
 41
1.0
 10
442.2908204166557
 20
-241.1864152598662
 30
11.0
 41
1.0
  0
SPLINE
  5
13B
330
1F
100
AcDbEntity
  8
Default
 60
     1
100
AcDbSpline
210
0.0
220
0.0
230
1.0
 70
    12
 71
     2
 72
    10
 73
     7
 74
     0
 42
0.000000001
 43
0.0000000001
 40
1165.914600185666
 40
1165.914600185666
 40
1165.914600185666
 40
1246.720871436848
 40
1246.720871436848
 40
1327.527142688031
 40
1327.527142688031
 40
1394.262178264363
 40
1394.262178264363
 40
1394.262178264363
 10
539.2927905735605
 20
-144.1860843237185
 30
11.0
 41
1.0
 10
571.7000329041049
 20
-176.5933266538775
 30
11.0
 41
0.8314680759337076
 10
554.161125554504
 20
-218.9353322735739
 30
11.0
 41
1.0
 10
536.6222182049032
 20
-261.2773378932702
 30
11.0
 41
0.8314680759337076
 10
490.7914565850122
 20
-261.2768309347166
 30
11.0
 41
1.0
 10
462.3803292246778
 20
-261.2765166640485
 30
11.0
 41
0.9238788269983799
 10
442.2908204166557
 20
-241.1864152598662
 30
11.0
 41
1.0
  0
SPLINE
  5
13C
330
1F
100
AcDbEntity
  8
Default
 60
     1
100
AcDbSpline
210
0.0
220
0.0
230
1.0
 70
    28
 71
     2
 72
     6
 73
     3
 74
     0
 42
0.000000001
 43
0.0000000001
 40
1394.262178264363
 40
1394.262178264363
 40
1394.262178264363
 40
1599.382938645013
 40
1599.382938645013
 40
1599.382938645013
 10
442.2908204166557
 20
-241.1864152598662
 30
7.0
 41
1.0
 10
366.6792097675455
 20
-165.5748046168
 30
7.0
 41
1.0
 10
291.0675991184352
 20
-89.96319397373391
 30
7.0
 41
1.0
  0
SPLINE
  5
13D
330
1F
100
AcDbEntity
  8
Default
 60
     1
100
AcDbSpline
210
0.0
220
0.0
230
1.0
 70
    28
 71
     2
 72
     6
 73
     3
 74
     0
 42
0.000000001
 43
0.0000000001
 40
0.0
 40
0.0
 40
0.0
 40
4.0
 40
4.0
 40
4.0
 10
291.0675991184352
 20
-89.96319397373391
 30
7.0
 41
1.0
 10
291.0675991184352
 20
-89.96319397373391
 30
9.0
 41
1.0
 10
291.0675991184352
 20
-89.96319397373391
 30
11.0
 41
1.0
  0
SPLINE
  5
13E
330
1F
100
AcDbEntity
  8
Default
 60
     1
100
AcDbSpline
210
0.0
220
0.0
230
1.0
 70
    28
 71
     2
 72
     6
 73
     3
 74
     0
 42
0.000000001
 43
0.0000000001
 40
1394.262178264363
 40
1394.262178264363
 40
1394.262178264363
 40
1599.382938645013
 40
1599.382938645013
 40
1599.382938645013
 10
442.2908204166557
 20
-241.1864152598662
 30
11.0
 41
1.0
 10
366.6792097675455
 20
-165.5748046168
 30
11.0
 41
1.0
 10
291.0675991184352
 20
-89.96319397373391
 30
11.0
 41
1.0
  0
SPLINE
  5
13F
330
1F
100
AcDbEntity
  8
Default
 60
     1
100
AcDbSpline
210
0.0
220
0.0
230
1.0
 70
    12
 71
     2
 72
     8
 73
     5
 74
     0
 42
0.000000001
 43
0.0000000001
 40
1599.382938645013
 40
1599.382938645013
 40
1599.382938645013
 40
1732.852383198785
 40
1732.852383198785
 40
1866.321827752558
 40
1866.321827752558
 40
1866.321827752558
 10
291.0675991184352
 20
-89.96319397373391
 30
7.0
 41
1.0
 10
242.5670238463444
 20
-41.46261869979243
 30
7.0
 41
0.7071067812103787
 10
291.0675991170167
 20
7.037956575567428
 30
7.0
 41
1.0
 10
339.5681743876891
 20
55.53853185092736
 30
7.0
 41
0.7071067812103787
 10
388.0687496663181
 20
7.0379565835241
 30
7.0
 41
1.0
  0
SPLINE
  5
140
330
1F
100
AcDbEntity
  8
Default
 60
     1
100
AcDbSpline
210
0.0
220
0.0
230
1.0
 70
    12
 71
     2
 72
     8
 73
     5
 74
     0
 42
0.000000001
 43
0.0000000001
 40
1599.382938645013
 40
1599.382938645013
 40
1599.382938645013
 40
1732.852383198785
 40
1732.852383198785
 40
1866.321827752558
 40
1866.321827752558
 40
1866.321827752558
 10
291.0675991184352
 20
-89.96319397373391
 30
11.0
 41
1.0
 10
242.5670238463444
 20
-41.46261869979243
 30
11.0
 41
0.7071067812103787
 10
291.0675991170167
 20
7.037956575567428
 30
11.0
 41
1.0
 10
339.5681743876891
 20
55.53853185092736
 30
11.0
 41
0.7071067812103787
 10
388.0687496663181
 20
7.0379565835241
 30
11.0
 41
1.0
  0
SPLINE
  5
141
330
1F
100
AcDbEntity
  8
Default
 60
     1
100
AcDbSpline
210
0.0
220
0.0
230
1.0
 70
    12
 71
     2
 72
     8
 73
     5
 74
     0
 42
0.000000001
 43
0.0000000001
 40
0.0
 40
0.0
 40
0.0
 40
46.19850594534863
 40
46.19850594534863
 40
92.39701189069726
 40
92.39701189069726
 40
92.39701189069726
 10
380.8814849994477
 20
0.0444144784938381
 30
0.0
 41
1.0
 10
339.53793478798
 20
41.38796468157581
 30
0.0
 41
0.7071067812064744
 10
298.1943845825678
 20
0.0444144724383726
 30
0.0
 41
1.0
 10
256.8508343771556
 20
-41.29913573669919
 30
0.0
 41
0.7071067812064744
 10
298.1943845839629
 20
-82.64268594444157
 30
0.0
 41
1.0
  0
POLYLINE
  5
142
330
1F
100
AcDbEntity
  8
Default
 60
     1
100
AcDb2dPolyline
 66
     1
 10
0.0
 20
0.0
 30
0.0
  0
VERTEX
  5
143
330
142
100
AcDbEntity
  8
Default
 60
     1
100
AcDbVertex
100
AcDb2dVertex
 10
298.1943845839629
 20
-82.64268594444157
 30
0.0
  0
VERTEX
  5
144
330
142
100
AcDbEntity
  8
Default
 60
     1
100
AcDbVertex
100
AcDb2dVertex
 10
449.4178157266268
 20
-233.8661170781123
 30
0.0
  0
SEQEND
  5
145
330
142
100
AcDbEntity
  8
Default
 60
     1
  0
SPLINE
  5
146
330
1F
100
AcDbEntity
  8
Default
 60
     1
100
AcDbSpline
210
0.0
220
0.0
230
1.0
 70
    12
 71
     2
 72
    12
 73
     9
 74
     0
 42
0.000000001
 43
0.0000000001
 40
163.3967256053546
 40
163.3967256053546
 40
163.3967256053546
 40
186.496087022073
 40
186.496087022073
 40
209.5954484387914
 40
209.5954484387914
 40
232.6948098555098
 40
232.6948098555098
 40
255.7941712722282
 40
255.7941712722282
 40
255.7941712722282
 10
449.4178157266268
 20
-233.8661170781123
 30
0.0
 41
1.0
 10
466.5427116623114
 20
-250.9915181616499
 30
0.0
 41
0.92387882699838
 10
490.7613289434092
 20
-250.9917860567224
 30
0.0
 41
1.0
 10
514.9799462245072
 20
-250.992053951795
 30
0.0
 41
0.92387882699838
 10
532.1052210224337
 20
-233.8670317277055
 30
0.0
 41
1.0
 10
549.2304958203603
 20
-216.742009503616
 30
0.0
 41
0.92387882699838
 10
549.2305851186334
 20
-192.523392221201
 30
0.0
 41
1.0
 10
549.2306744169066
 20
-168.3047749387862
 30
0.0
 41
0.92387882699838
 10
532.1055259053434
 20
-151.179626427402
 30
0.0
 41
1.0
  0
POLYLINE
  5
147
330
1F
100
AcDbEntity
  8
Default
 60
     1
100
AcDb2dPolyline
 66
     1
 10
0.0
 20
0.0
 30
0.0
  0
VERTEX
  5
148
330
147
100
AcDbEntity
  8
Default
 60
     1
100
AcDbVertex
100
AcDb2dVertex
 10
532.1055259053434
 20
-151.179626427402
 30
0.0
  0
VERTEX
  5
149
330
147
100
AcDbEntity
  8
Default
 60
     1
100
AcDbVertex
100
AcDb2dVertex
 10
380.8814849994477
 20
0.0444144784938381
 30
0.0
  0
SEQEND
  5
14A
330
147
100
AcDbEntity
  8
Default
 60
     1
  0
ARC
  5
14B
330
1F
100
AcDbEntity
  8
Default
 60
     1
100
AcDbCircle
 10
339.5379347940355
 20
-41.29913573530405
 30
0.0
 40
73.59017133861977
100
AcDbArc
 50
45.0000000064056
 51
224.9999999990217
  0
LINE
  5
14C
330
1F
100
AcDbEntity
  8
Default
 60
     1
100
AcDbLine
 10
287.5018256109291
 20
-93.33524491663354
 30
0.0
 11
438.7250208371489
 21
-244.5584401303807
 31
0.0
  0
SPLINE
  5
14D
330
1F
100
AcDbEntity
  8
Default
 60
     1
100
AcDbSpline
210
0.0
220
0.0
230
1.0
 70
    12
 71
     2
 72
     6
 73
     3
 74
     0
 42
0.000000001
 43
0.0000000001
 40
447.642461692583
 40
447.642461692583
 40
447.642461692583
 40
510.9256413477817
 40
510.9256413477817
 40
510.9256413477817
 10
438.7250208371489
 20
-244.5584401303807
 30
0.0
 41
1.0
 10
460.2789557042527
 20
-266.1130107913652
 30
0.0
 41
0.9238788269983799
 10
490.7611616757293
 20
-266.1133479713407
 30
0.0
 41
1.0
  0
ARC
  5
14E
330
1F
100
AcDbEntity
  8
Default
 60
     1
100
AcDbCircle
 10
490.7619756959552
 20
-192.5231766372235
 30
0.0
 40
73.5901713386194
100
AcDbArc
 50
269.9993662207528
 51
45.00000000033077
  0
LINE
  5
14F
330
1F
100
AcDbEntity
  8
Default
 60
     1
100
AcDbLine
 10
542.7980848778726
 20
-140.4870674547054
 30
0.0
 11
391.5740439704359
 21
10.73697345273146
 31
0.0
  0
SPLINE
  5
150
330
1F
100
AcDbEntity
  8
Default
 60
     1
100
AcDbSpline
210
0.0
220
0.0
230
1.0
 70
    12
 71
     2
 72
     8
 73
     5
 74
     0
 42
0.000000001
 43
0.0000000001
 40
-58.82176467941097
 40
-58.82176467941097
 40
-58.82176467941097
 40
-12.62325873406234
 40
-12.62325873406234
 40
33.57524721128629
 40
33.57524721128629
 40
33.57524721128629
 10
402.1806456876988
 20
21.34357517106501
 30
4.0
 41
1.0
 10
339.5379347848603
 20
83.98628606119757
 30
4.0
 41
0.7071067812064744
 10
276.895223891197
 20
21.34357516188985
 30
4.0
 41
1.0
 10
214.2525129975338
 20
-41.29913573741795
 30
4.0
 41
0.7071067812064744
 10
276.8952238933109
 20
-103.9418466346118
 30
4.0
 41
1.0
  0
SPLINE
  5
151
330
1F
100
AcDbEntity
  8
Default
 60
     1
100
AcDbSpline
210
0.0
220
0.0
230
1.0
 70
    28
 71
     2
 72
     6
 73
     3
 74
     0
 42
0.000000001
 43
0.0000000001
 40
0.0
 40
0.0
 40
0.0
 40
3.0
 40
3.0
 40
3.0
 10
276.8952238933109
 20
-103.9418466346118
 30
4.0
 41
1.0
 10
276.8952238933109
 20
-103.9418466346118
 30
5.5
 41
1.0
 10
276.8952238933109
 20
-103.9418466346118
 30
7.0
 41
1.0
  0
SPLINE
  5
152
330
1F
100
AcDbEntity
  8
Default
 60
     1
100
AcDbSpline
210
0.0
220
0.0
230
1.0
 70
    12
 71
     2
 72
     8
 73
     5
 74
     0
 42
0.000000001
 43
0.0000000001
 40
-58.82176467941097
 40
-58.82176467941097
 40
-58.82176467941097
 40
-12.62325873406234
 40
-12.62325873406234
 40
33.57524721128629
 40
33.57524721128629
 40
33.57524721128629
 10
402.1806456876988
 20
21.34357517106501
 30
7.0
 41
1.0
 10
339.5379347848603
 20
83.98628606119757
 30
7.0
 41
0.7071067812064744
 10
276.895223891197
 20
21.34357516188985
 30
7.0
 41
1.0
 10
214.2525129975338
 20
-41.29913573741795
 30
7.0
 41
0.7071067812064744
 10
276.8952238933109
 20
-103.9418466346118
 30
7.0
 41
1.0
  0
SPLINE
  5
153
330
1F
100
AcDbEntity
  8
Default
 60
     1
100
AcDbSpline
210
0.0
220
0.0
230
1.0
 70
    28
 71
     2
 72
     6
 73
     3
 74
     0
 42
0.000000001
 43
0.0000000001
 40
0.0
 40
0.0
 40
0.0
 40
3.0
 40
3.0
 40
3.0
 10
402.1806456876988
 20
21.34357517106501
 30
4.0
 41
1.0
 10
402.1806456876988
 20
21.34357517106501
 30
5.5
 41
1.0
 10
402.1806456876988
 20
21.34357517106501
 30
7.0
 41
1.0
  0
SPLINE
  5
154
330
1F
100
AcDbEntity
  8
Default
 60
     1
100
AcDbSpline
210
0.0
220
0.0
230
1.0
 70
    28
 71
     2
 72
     6
 73
     3
 74
     0
 42
0.000000001
 43
0.0000000001
 40
33.57524721128629
 40
33.57524721128629
 40
33.57524721128629
 40
104.5748134389115
 40
104.5748134389115
 40
104.5748134389115
 10
276.8952238933109
 20
-103.9418466346118
 30
4.0
 41
1.0
 10
352.5067823983013
 20
-179.5534051327891
 30
4.0
 41
1.0
 10
428.1183409032917
 20
-255.1649636309664
 30
4.0
 41
1.0
  0
SPLINE
  5
155
330
1F
100
AcDbEntity
  8
Default
 60
     1
100
AcDbSpline
210
0.0
220
0.0
230
1.0
 70
    28
 71
     2
 72
     6
 73
     3
 74
     0
 42
0.000000001
 43
0.0000000001
 40
0.0
 40
0.0
 40
0.0
 40
3.0
 40
3.0
 40
3.0
 10
428.1183409032917
 20
-255.1649636309664
 30
4.0
 41
1.0
 10
428.1183409032917
 20
-255.1649636309664
 30
5.5
 41
1.0
 10
428.1183409032917
 20
-255.1649636309664
 30
7.0
 41
1.0
  0
SPLINE
  5
156
330
1F
100
AcDbEntity
  8
Default
 60
     1
100
AcDbSpline
210
0.0
220
0.0
230
1.0
 70
    28
 71
     2
 72
     6
 73
     3
 74
     0
 42
0.000000001
 43
0.0000000001
 40
33.57524721128629
 40
33.57524721128629
 40
33.57524721128629
 40
104.5748134389115
 40
104.5748134389115
 40
104.5748134389115
 10
276.8952238933109
 20
-103.9418466346118
 30
7.0
 41
1.0
 10
352.5067823983013
 20
-179.5534051327891
 30
7.0
 41
1.0
 10
428.1183409032917
 20
-255.1649636309664
 30
7.0
 41
1.0
  0
SPLINE
  5
157
330
1F
100
AcDbEntity
  8
Default
 60
     1
100
AcDbSpline
210
0.0
220
0.0
230
1.0
 70
    12
 71
     2
 72
    12
 73
     9
 74
     0
 42
0.000000001
 43
0.0000000001
 40
104.5748134389115
 40
104.5748134389115
 40
104.5748134389115
 40
127.6741748556299
 40
127.6741748556299
 40
150.7735362723483
 40
150.7735362723483
 40
173.8728976890667
 40
173.8728976890667
 40
196.9722591057851
 40
196.9722591057851
 40
196.9722591057851
 10
428.1183409032917
 20
-255.1649636309664
 30
4.0
 41
1.0
 10
454.0655539474859
 20
-281.1129420625244
 30
4.0
 41
0.92387882699838
 10
490.7609957527106
 20
-281.113347970423
 30
4.0
 41
1.0
 10
527.4564375579353
 20
-281.1137538783216
 30
4.0
 41
0.92387882699838
 10
553.4042246447011
 20
-255.1663494851021
 30
4.0
 41
1.0
 10
579.352011731467
 20
-229.2189450918827
 30
4.0
 41
0.92387882699838
 10
579.352147033972
 20
-192.5235032846624
 30
4.0
 41
1.0
 10
579.3522823364771
 20
-155.8280614774422
 30
4.0
 41
0.92387882699838
 10
553.4046865956432
 20
-129.8804657368795
 30
4.0
 41
1.0
  0
SPLINE
  5
158
330
1F
100
AcDbEntity
  8
Default
 60
     1
100
AcDbSpline
210
0.0
220
0.0
230
1.0
 70
    28
 71
     2
 72
     6
 73
     3
 74
     0
 42
0.000000001
 43
0.0000000001
 40
0.0
 40
0.0
 40
0.0
 40
3.0
 40
3.0
 40
3.0
 10
553.4046865956432
 20
-129.8804657368795
 30
4.0
 41
1.0
 10
553.4046865956432
 20
-129.8804657368795
 30
5.5
 41
1.0
 10
553.4046865956432
 20
-129.8804657368795
 30
7.0
 41
1.0
  0
SPLINE
  5
159
330
1F
100
AcDbEntity
  8
Default
 60
     1
100
AcDbSpline
210
0.0
220
0.0
230
1.0
 70
    12
 71
     2
 72
    12
 73
     9
 74
     0
 42
0.000000001
 43
0.0000000001
 40
104.5748134389115
 40
104.5748134389115
 40
104.5748134389115
 40
127.6741748556299
 40
127.6741748556299
 40
150.7735362723483
 40
150.7735362723483
 40
173.8728976890667
 40
173.8728976890667
 40
196.9722591057851
 40
196.9722591057851
 40
196.9722591057851
 10
428.1183409032917
 20
-255.1649636309664
 30
7.0
 41
1.0
 10
454.0655539474859
 20
-281.1129420625244
 30
7.0
 41
0.92387882699838
 10
490.7609957527106
 20
-281.113347970423
 30
7.0
 41
1.0
 10
527.4564375579353
 20
-281.1137538783216
 30
7.0
 41
0.92387882699838
 10
553.4042246447011
 20
-255.1663494851021
 30
7.0
 41
1.0
 10
579.352011731467
 20
-229.2189450918827
 30
7.0
 41
0.92387882699838
 10
579.352147033972
 20
-192.5235032846624
 30
7.0
 41
1.0
 10
579.3522823364771
 20
-155.8280614774422
 30
7.0
 41
0.92387882699838
 10
553.4046865956432
 20
-129.8804657368795
 30
7.0
 41
1.0
  0
SPLINE
  5
15A
330
1F
100
AcDbEntity
  8
Default
 60
     1
100
AcDbSpline
210
0.0
220
0.0
230
1.0
 70
    28
 71
     2
 72
     6
 73
     3
 74
     0
 42
0.000000001
 43
0.0000000001
 40
196.9722591057851
 40
196.9722591057851
 40
196.9722591057851
 40
267.9722591118129
 40
267.9722591118129
 40
267.9722591118129
 10
553.4046865956432
 20
-129.8804657368795
 30
4.0
 41
1.0
 10
477.7926661416709
 20
-54.2684452829073
 30
4.0
 41
1.0
 10
402.1806456876988
 20
21.34357517106501
 30
4.0
 41
1.0
  0
SPLINE
  5
15B
330
1F
100
AcDbEntity
  8
Default
 60
     1
100
AcDbSpline
210
0.0
220
0.0
230
1.0
 70
    28
 71
     2
 72
     6
 73
     3
 74
     0
 42
0.000000001
 43
0.0000000001
 40
196.9722591057851
 40
196.9722591057851
 40
196.9722591057851
 40
267.9722591118129
 40
267.9722591118129
 40
267.9722591118129
 10
553.4046865956432
 20
-129.8804657368795
 30
7.0
 41
1.0
 10
477.7926661416709
 20
-54.2684452829073
 30
7.0
 41
1.0
 10
402.1806456876988
 20
21.34357517106501
 30
7.0
 41
1.0
  0
SPLINE
  5
15C
330
1F
100
AcDbEntity
  8
Default
100
AcDbSpline
210
0.0
220
0.0
230
1.0
 70
     8
 71
     3
 72
    43
 73
    39
 74
     0
 42
0.000000001
 43
0.0000000001
 40
0.0
 40
0.0
 40
0.0
 40
0.0
 40
6.242023830649988
 40
12.45765562302396
 40
18.63436999040283
 40
24.77097780881695
 40
30.86225003671844
 40
36.92633434453359
 40
42.97488456972993
 40
49.01639948507977
 40
55.02800877105097
 40
61.062944572795
 40
67.12735415504113
 40
73.22981184208446
 40
79.36934627984394
 40
85.54290339953447
 40
91.7334206043243
 40
94.83391698351177
 40
96.38656035358557
 40
96.48258426703276
 40
96.57867920860707
 40
98.13594129429991
 40
101.2456849833979
 40
107.4548146999982
 40
113.6470914095662
 40
119.8052227767533
 40
125.9260760074482
 40
132.0086172231387
 40
138.0614764013349
 40
144.0908346607906
 40
150.1345236662094
 40
156.1830686248305
 40
162.2471489430152
 40
168.3384190920937
 40
174.4750276435733
 40
180.6517452570921
 40
186.8673826151968
 40
193.109413504735
 40
193.109413504735
 40
193.109413504735
 40
193.109413504735
 10
-42.00225271746887
 20
-61.89805113724822
 30
-0.0000000000000426
 10
-43.47351184377904
 20
-60.42679201090461
 30
-0.0000000000000426
 10
-46.26084471682395
 20
-57.34150251914723
 30
0.0000000000000284
 10
-49.94114232256932
 20
-52.3278685203467
 30
0.0000000000001705
 10
-53.08090594194964
 20
-47.00011497470447
 30
-0.0000000000002842
 10
-55.65436170013665
 20
-41.42265472125707
 30
0.0000000000004121
 10
-57.6491902216322
 20
-35.65297986693434
 30
0.0000000000000426
 10
-59.05778704196963
 20
-29.74315999432935
 30
0.0000000000001421
 10
-59.87603801141451
 20
-23.73996479737255
 30
-0.0000000000002132
 10
-60.10021444960476
 20
-17.70293718478394
 30
0.0000000000001279
 10
-59.73271901464268
 20
-11.67757034772504
 30
0.0000000000000995
 10
-58.7761982373314
 20
-5.709469055473604
 30
0.0000000000000568
 10
-57.23027851946291
 20
0.1651817867397651
 30
-0.0000000000000853
 10
-55.09908693026354
 20
5.891085524093581
 30
0.0000000000000568
 10
-52.39335387233875
 20
11.40963987100382
 30
-0.0000000000001137
 10
-49.13354998963659
 20
16.65487392992372
 30
-0.0000000000001279
 10
-45.98302318289469
 20
20.74315143503184
 30
-0.0000000000000711
 10
-43.56578497682747
 20
23.4320933212075
 30
-0.0000000000000426
 10
-42.46368061156235
 20
24.56866037156609
 30
0.0000000000000853
 10
-42.0532202415828
 20
24.98069514502551
 30
-0.0000000000000568
 10
-41.6410514610978
 20
25.39319152664704
 30
-0.0000000000000995
 10
-40.50372134477713
 20
26.50119292851009
 30
0.0000000000000426
 10
-37.81203229406872
 20
28.93155442478143
 30
-0.000000000000199
 10
-33.71765909653657
 20
32.09970915510836
 30
0.0000000000000568
 10
-28.46195923871446
 20
35.37809461943663
 30
-0.0000000000000711
 10
-22.93038235409739
 20
38.09960261674359
 30
0.0000000000001279
 10
-17.18945690740673
 20
40.2432920838905
 30
-0.0000000000001847
 10
-11.29837663654275
 20
41.79836521462942
 30
0.0000000000000568
 10
-5.312954984781141
 20
42.76052894587988
 30
-0.0000000000000284
 10
0.7249995399778868
 20
43.12990106144164
 30
0.0000000000000284
 10
6.768671673416234
 20
42.90556212346052
 30
0.0000000000000568
 10
12.77259360439367
 20
42.08723717340603
 30
0.0000000000000426
 10
18.68239287397435
 20
40.67861597650232
 30
0.0000000000000711
 10
24.45208420114921
 20
38.68381421388386
 30
-0.0000000000001279
 10
30.02953513418471
 20
36.11034502307378
 30
0.0000000000000711
 10
35.3572980084271
 20
32.97058909455713
 30
-0.0000000000000711
 10
40.37093366168134
 20
29.29028470797811
 30
-0.0000000000000284
 10
43.45622759488538
 20
26.50295076305655
 30
-0.0000000000000426
 10
44.92748838500817
 20
25.03168997293375
 30
-0.0000000000000426
  0
LINE
  5
15D
330
1F
100
AcDbEntity
  8
Default
100
AcDbLine
 10
44.92748838500817
 20
25.03168997293375
 30
-0.0000000000000426
 11
196.1515293411518
 21
-126.1923509832099
 31
-0.0000000000000426
  0
SPLINE
  5
15E
330
1F
100
AcDbEntity
  8
Default
100
AcDbSpline
210
0.0
220
0.0
230
1.0
 70
     8
 71
     3
 72
    43
 73
    39
 74
     0
 42
0.000000001
 43
0.0000000001
 40
405.5384080398907
 40
405.5384080398907
 40
405.5384080398907
 40
405.5384080398907
 40
411.7340419429162
 40
417.9253152567454
 40
424.0965013522298
 40
430.2415492184779
 40
436.3496811420906
 40
442.4340620486345
 40
448.5011479149254
 40
454.5621621330334
 40
460.6262619178771
 40
466.7040698506054
 40
472.8001708807262
 40
478.9226304500616
 40
485.0700989335544
 40
491.2420585601447
 40
497.4249409352759
 40
500.5201293086601
 40
502.069714373281
 40
502.1654624535976
 40
502.2611397734156
 40
503.8061302935163
 40
506.8921281852394
 40
513.0565487655548
 40
519.2099641187916
 40
525.3389832580417
 40
531.4431316229409
 40
537.5211134305318
 40
543.580939074363
 40
549.6271694495503
 40
555.685988307219
 40
561.7530782654591
 40
567.8374633742588
 40
573.9455985281719
 40
580.0906473462965
 40
586.2618315084807
 40
592.4530969102933
 40
598.6487030620144
 40
598.6487030620144
 40
598.6487030620144
 40
598.6487030620144
 10
196.1515293411518
 20
-126.1923509832099
 30
-0.0000000000000426
 10
197.6118541876443
 20
-127.6526759677698
 30
-0.0000000000000426
 10
200.3844680250696
 20
-130.7193346673853
 30
0.0000000000000711
 10
204.0544109382058
 20
-135.7089072315421
 30
-0.0000000000002132
 10
207.1969139819807
 20
-141.0267171616866
 30
-0.0000000000002842
 10
209.7796686454037
 20
-146.6071732863411
 30
-0.0000000000000568
 10
211.7850801867195
 20
-152.389330341886
 30
0.0000000000000711
 10
213.2019315704456
 20
-158.3163409424338
 30
-0.0000000000001137
 10
214.024908919189
 20
-164.3385835695823
 30
0.0000000000000284
 10
214.2504553200528
 20
-170.4058406854681
 30
0.0000000000001847
 10
213.8772932249581
 20
-176.469392817805
 30
-0.0000000000000853
 10
212.9061110407488
 20
-182.4781882728093
 30
0.0000000000001137
 10
211.3407401581485
 20
-188.3804243583563
 30
-0.0000000000000853
 10
209.18911082531
 20
-194.1199895511518
 30
0.0000000000001279
 10
206.4652546030906
 20
-199.6394483406318
 30
-0.0000000000000284
 10
203.1919241833313
 20
-204.8757346888943
 30
-0.0000000000000142
 10
200.0339342436423
 20
-208.9520949328225
 30
-0.0000000000001137
 10
197.6137129968761
 20
-211.6311583468925
 30
-0.0000000000000284
 10
196.5109159201164
 20
-212.7630355802595
 30
0.0
 10
196.1003733115926
 20
-213.1732202370185
 30
-0.0000000000001421
 10
195.6902992605266
 20
-213.5816981867306
 30
-0.0000000000000853
 10
194.5592055657239
 20
-214.6786873381189
 30
-0.0000000000001705
 10
191.8827982509831
 20
-217.0857697292627
 30
0.0000000000000426
 10
187.812457236742
 20
-220.2262932632361
 30
-0.0000000000003411
 10
182.586415970194
 20
-223.4809778325434
 30
0.0000000000001563
 10
177.0798323780362
 20
-226.1891024038117
 30
-0.0000000000002132
 10
171.3551449162186
 20
-228.328097104015
 30
-0.0000000000000142
 10
165.4692896954647
 20
-229.8842226910864
 30
-0.0000000000000568
 10
159.4778488732532
 20
-230.8495856400667
 30
-0.0000000000001705
 10
153.4269367987571
 20
-231.2207996988291
 30
0.0000000000000995
 10
147.3663903009162
 20
-230.9952821523152
 30
-0.0000000000000853
 10
141.3448720936867
 20
-230.1723371494799
 30
0.0000000000000711
 10
135.4178965335524
 20
-228.755369572501
 30
-0.0000000000000142
 10
129.6357486313343
 20
-226.749896003686
 30
-0.0000000000003695
 10
124.0553414507074
 20
-224.1670423140487
 30
-0.0000000000001279
 10
118.7375751568616
 20
-221.024469354056
 30
-0.0000000000002842
 10
113.7480706894171
 20
-217.3544550748763
 30
-0.0000000000001847
 10
110.6814597375805
 20
-214.5818065207473
 30
-0.0000000000000426
 10
109.2211628320934
 20
-213.1214666775879
 30
-0.0000000000000426
  0
LINE
  5
15F
330
1F
100
AcDbEntity
  8
Default
100
AcDbLine
 10
109.2211628320934
 20
-213.1214666775879
 30
-0.0000000000000426
 11
-42.00225271746887
 21
-61.89805113724822
 31
-0.0000000000000426
  0
SPLINE
  5
160
330
1F
100
AcDbEntity
  8
Default
100
AcDbSpline
210
0.0
220
0.0
230
1.0
 70
    24
 71
     2
 72
     6
 73
     3
 74
     0
 42
0.000000001
 43
0.0000000001
 40
753.0964972013423
 40
753.0964972013423
 40
753.0964972013423
 40
754.2374010566928
 40
754.2374010566928
 40
754.2374010566928
 10
691.466249705262
 20
-107.1728190468513
 30
-20.96192531576147
 10
691.466249705262
 20
-108.8911093527823
 30
-20.96192531576147
 10
691.4662497052622
 20
-110.6093996587133
 30
-20.96192531576147
  0
SPLINE
  5
161
330
1F
100
AcDbEntity
  8
Default
100
AcDbSpline
210
0.0
220
0.0
230
1.0
 70
     8
 71
     3
 72
    53
 73
    49
 74
     0
 42
0.000000001
 43
0.0000000001
 40
754.2374010566928
 40
754.2374010566928
 40
754.2374010566928
 40
754.2374010566928
 40
755.4174928671665
 40
755.4174928671665
 40
755.4174928671665
 40
761.5399524365018
 40
761.5399524365018
 40
761.5399524365018
 40
767.6874209199947
 40
767.6874209199947
 40
767.6874209199947
 40
773.859380546585
 40
773.859380546585
 40
773.859380546585
 40
780.0422629217162
 40
780.0422629217162
 40
780.0422629217162
 40
783.1374512951004
 40
783.1374512951004
 40
783.1374512951004
 40
784.6870363597213
 40
784.6870363597213
 40
784.6870363597213
 40
784.7827844400379
 40
784.7827844400379
 40
784.7827844400379
 40
784.8784617598559
 40
784.8784617598559
 40
784.8784617598559
 40
786.4234522799566
 40
786.4234522799566
 40
786.4234522799566
 40
789.5094501716796
 40
789.5094501716796
 40
789.5094501716796
 40
795.6738707519951
 40
795.6738707519951
 40
795.6738707519951
 40
801.8272861052319
 40
801.8272861052319
 40
801.8272861052319
 40
807.956305244482
 40
807.956305244482
 40
807.956305244482
 40
814.0604536093812
 40
814.0604536093812
 40
814.0604536093812
 40
815.1834705166018
 40
815.1834705166018
 40
815.1834705166018
 40
815.1834705166018
 10
691.4662497052622
 20
-110.6093996587133
 30
-20.96192531576147
 10
691.1202441697139
 20
-110.7965229096222
 30
-20.96192531576147
 10
690.7724420918826
 20
-110.9803239916044
 30
-20.96192531576147
 10
690.4229060117916
 20
-111.1607662038749
 30
-20.96192531576147
 10
688.609470396539
 20
-112.0969223058177
 30
-20.96192531576147
 10
686.7493613298177
 20
-112.9426690431767
 30
-20.96192531576147
 10
684.8518242410241
 20
-113.6938693296304
 30
-20.96192531576147
 10
682.9465361264172
 20
-114.4481381056782
 30
-20.96192531576147
 10
681.0035135945943
 20
-115.1070864499427
 30
-20.96192531576147
 10
679.032437248587
 20
-115.6673447845667
 30
-20.96192531576147
 10
677.053508253481
 20
-116.2298351545531
 30
-20.96192531576147
 10
675.0463014695247
 20
-116.6928475984395
 30
-20.96192531576147
 10
673.0209555968099
 20
-117.0541517635379
 30
-20.96192531576147
 10
670.9920253935076
 20
-117.4160953421743
 30
-20.96192531576147
 10
668.9448918417836
 20
-117.6759703295605
 30
-20.96192531576147
 10
666.8898680400284
 20
-117.8323134935423
 30
-20.96192531576147
 10
665.861110675372
 20
-117.910579828571
 30
-20.96192531576147
 10
664.8303759633598
 20
-117.9629004234226
 30
-20.96192531576147
 10
663.7989872829146
 20
-117.9893023214736
 30
-20.96192531576147
 10
663.2826295359096
 20
-118.0025202526501
 30
-20.96192531576147
 10
662.766107875882
 20
-118.0092418275554
 30
-20.96192531576147
 10
662.2495757250358
 20
-118.00942081054
 30
-20.96192531576147
 10
662.2176594637124
 20
-118.0094318698084
 30
-20.96192531576147
 10
662.1857431623357
 20
-118.0094179498414
 30
-20.96192531576147
 10
662.1538270434409
 20
-118.0093798643535
 30
-20.96192531576147
 10
662.1219345114469
 20
-118.0093418070117
 30
-20.96192531576147
 10
662.0900421616652
 20
-118.0092796198536
 30
-20.96192531576147
 10
662.0581498807032
 20
-118.0091925923389
 30
-20.96192531576147
 10
661.5431556078258
 20
-118.0077872782526
 30
-20.96192531576147
 10
661.028179280093
 20
-117.9999047021821
 30
-20.96192531576147
 10
660.513382301139
 20
-117.9855590538056
 30
-20.96192531576147
 10
659.4851155441279
 20
-117.9569047416468
 30
-20.96192531576147
 10
658.4575643339044
 20
-117.902464747234
 30
-20.96192531576147
 10
657.4320312420941
 20
-117.8222438799276
 30
-20.96192531576147
 10
655.3834824359185
 20
-117.6619990635843
 30
-20.96192531576147
 10
653.3429863000433
 20
-117.3988837376939
 30
-20.96192531576147
 10
651.3207770863378
 20
-117.0343244439354
 30
-20.96192531576147
 10
649.3021780856777
 20
-116.6704159912023
 30
-20.96192531576147
 10
647.3018007708581
 20
-116.2054254593889
 30
-20.96192531576146
 10
645.3296768755846
 20
-115.6416114316069
 30
-20.96192531576146
 10
643.3653717856079
 20
-115.0800327360561
 30
-20.96192531576146
 10
641.4290965287441
 20
-114.4204125947563
 30
-20.96192531576146
 10
639.5304496376365
 20
-113.6660806361486
 30
-20.96192531576146
 10
637.6395072123379
 20
-112.9148096599758
 30
-20.96192531576146
 10
635.7858883902225
 20
-112.069593963778
 30
-20.96192531576146
 10
633.9787437213863
 20
-111.1345583457444
 30
-20.96192531576146
 10
633.6462724419255
 20
-110.9625342163927
 30
-20.96192531576147
 10
633.3153741812667
 20
-110.7874699364224
 30
-20.96192531576147
 10
632.9861028611116
 20
-110.609397113162
 30
-20.96192531576147
  0
SPLINE
  5
162
330
1F
100
AcDbEntity
  8
Default
100
AcDbSpline
210
0.0
220
0.0
230
1.0
 70
    24
 71
     2
 72
     6
 73
     3
 74
     0
 42
0.000000001
 43
0.0000000001
 40
815.1834705166018
 40
815.1834705166018
 40
815.1834705166018
 40
816.3243735540424
 40
816.3243735540424
 40
816.3243735540424
 10
632.9861028611116
 20
-110.609397113162
 30
-20.96192531576147
 10
632.9861028611115
 20
-108.8911080390671
 30
-20.96192531576147
 10
632.9861028611115
 20
-107.1728189649722
 30
-20.96192531576147
  0
SPLINE
  5
163
330
1F
100
AcDbEntity
  8
Default
100
AcDbSpline
210
0.0
220
0.0
230
1.0
 70
    24
 71
     2
 72
     6
 73
     3
 74
     0
 42
0.000000001
 43
0.0000000001
 40
816.3243735540424
 40
816.3243735540424
 40
816.3243735540424
 40
912.3242963224006
 40
912.3242963224006
 40
912.3242963224006
 10
632.9861028611115
 20
-107.1728189649722
 30
-20.96192531576147
 10
632.9861028611115
 20
37.41056191275183
 30
-20.96192531576147
 10
632.9861028611116
 20
181.9939427904758
 30
-20.96192531576147
  0
SPLINE
  5
164
330
1F
100
AcDbEntity
  8
Default
100
AcDbSpline
210
0.0
220
0.0
230
1.0
 70
    24
 71
     2
 72
     6
 73
     3
 74
     0
 42
0.000000001
 43
0.0000000001
 40
912.3242963224006
 40
912.3242963224006
 40
912.3242963224006
 40
920.2991837660767
 40
920.2991837660767
 40
920.2991837660767
 10
632.9861028611116
 20
181.9939427904758
 30
-20.96192531576147
 10
638.9915045087159
 20
192.3956035639844
 30
-20.96192531576147
 10
644.9969061563204
 20
202.7972643374931
 30
-20.96192531576147
  0
SPLINE
  5
165
330
1F
100
AcDbEntity
  8
Default
100
AcDbSpline
210
0.0
220
0.0
230
1.0
 70
    24
 71
     2
 72
     6
 73
     3
 74
     0
 42
0.000000001
 43
0.0000000001
 40
920.2991837660767
 40
920.2991837660767
 40
920.2991837660767
 40
931.7390089485655
 40
931.7390089485655
 40
931.7390089485655
 10
644.9969061563204
 20
202.7972643374931
 30
-20.96192531576147
 10
662.2261762831869
 20
202.7972643374931
 30
-20.96192531576147
 10
679.4554464100534
 20
202.7972643374931
 30
-20.96192531576147
  0
SPLINE
  5
166
330
1F
100
AcDbEntity
  8
Default
100
AcDbSpline
210
0.0
220
0.0
230
1.0
 70
    24
 71
     2
 72
     6
 73
     3
 74
     0
 42
0.000000001
 43
0.0000000001
 40
931.7390089485655
 40
931.7390089485655
 40
931.7390089485655
 40
939.7138963922415
 40
939.7138963922415
 40
939.7138963922415
 10
679.4554464100534
 20
202.7972643374931
 30
-20.96192531576147
 10
685.4608480576578
 20
192.3956035639844
 30
-20.96192531576147
 10
691.4662497052622
 20
181.9939427904757
 30
-20.96192531576147
  0
SPLINE
  5
167
330
1F
100
AcDbEntity
  8
Default
100
AcDbSpline
210
0.0
220
0.0
230
1.0
 70
    24
 71
     2
 72
     6
 73
     3
 74
     0
 42
0.000000001
 43
0.0000000001
 40
939.7138963922415
 40
939.7138963922415
 40
939.7138963922415
 40
1035.713819187783
 40
1035.713819187783
 40
1035.713819187783
 10
691.4662497052622
 20
181.9939427904757
 30
-20.96192531576147
 10
691.466249705262
 20
37.41056187181216
 30
-20.96192531576147
 10
691.466249705262
 20
-107.1728190468513
 30
-20.96192531576147
  0
POLYLINE
  5
168
330
1F
100
AcDbEntity
  8
Default
100
AcDb2dPolyline
 66
     1
 10
0.0
 20
0.0
 30
-20.96192531576147
 70
     1
  0
VERTEX
  5
169
330
168
100
AcDbEntity
  8
Default
100
AcDbVertex
100
AcDb2dVertex
 10
680.5515599254982
 20
-40.09451433931542
 30
-20.96192531576147
  0
VERTEX
  5
16A
330
168
100
AcDbEntity
  8
Default
100
AcDbVertex
100
AcDb2dVertex
 10
680.5515599254986
 20
181.9939427904756
 30
-20.96192531576147
  0
VERTEX
  5
16B
330
168
100
AcDbEntity
  8
Default
100
AcDbVertex
100
AcDb2dVertex
 10
643.9007926408749
 20
181.9939427904758
 30
-20.96192531576147
  0
VERTEX
  5
16C
330
168
100
AcDbEntity
  8
Default
100
AcDbVertex
100
AcDb2dVertex
 10
643.9007926408747
 20
-40.09451433931528
 30
-20.96192531576147
  0
SEQEND
  5
16D
330
168
100
AcDbEntity
  8
Default
  0
ENDSEC
  0
SECTION
  2
OBJECTS
  0
DICTIONARY
  5
C
330
0
100
AcDbDictionary
281
     1
  3
ACAD_DETAILVIEWSTYLE
350
1B3
  3
ACAD_GROUP
350
D
  3
ACAD_LAYOUT
350
1A
  3
ACAD_MATERIAL
350
43
  3
ACAD_MLEADERSTYLE
350
6B
  3
ACAD_MLINESTYLE
350
17
  3
ACAD_PLOTSETTINGS
350
19
  3
ACAD_PLOTSTYLENAME
350
E
  3
ACAD_SCALELIST
350
47
  3
ACAD_SECTIONVIEWSTYLE
350
1B4
  3
ACAD_TABLESTYLE
350
69
  3
ACAD_VISUALSTYLE
350
2A
  3
AcDbVariableDictionary
350
170
  3
ACDB_RECOMPOSE_DATA
350
1B0
  0
DICTIONARY
  5
16E
330
8
100
AcDbDictionary
280
     1
281
     1
  3
ACAD_XREC_ROUNDTRIP
360
16F
  0
DICTIONARY
  5
1B3
102
{ACAD_REACTORS
330
C
102
}
330
C
100
AcDbDictionary
281
     1
  0
DICTIONARY
  5
D
102
{ACAD_REACTORS
330
C
102
}
330
C
100
AcDbDictionary
281
     1
  0
DICTIONARY
  5
1A
102
{ACAD_REACTORS
330
C
102
}
330
C
100
AcDbDictionary
281
     1
  3
Layout1
350
1E
  3
Layout2
350
26
  3
Model
350
22
  0
DICTIONARY
  5
43
102
{ACAD_REACTORS
330
C
102
}
330
C
100
AcDbDictionary
281
     1
  3
ByBlock
350
45
  3
ByLayer
350
44
  3
Global
350
46
  0
DICTIONARY
  5
6B
102
{ACAD_REACTORS
330
C
102
}
330
C
100
AcDbDictionary
281
     1
  3
Standard
350
6C
  0
DICTIONARY
  5
17
102
{ACAD_REACTORS
330
C
102
}
330
C
100
AcDbDictionary
281
     1
  3
Standard
350
18
  0
DICTIONARY
  5
19
102
{ACAD_REACTORS
330
C
102
}
330
C
100
AcDbDictionary
281
     1
  0
ACDBDICTIONARYWDFLT
  5
E
102
{ACAD_REACTORS
330
C
102
}
330
C
100
AcDbDictionary
281
     1
  3
Normal
350
F
100
AcDbDictionaryWithDefault
340
F
  0
DICTIONARY
  5
47
102
{ACAD_REACTORS
330
C
102
}
330
C
100
AcDbDictionary
281
     1
  3
A0
350
48
  3
A1
350
49
  3
A2
350
4A
  3
A3
350
4B
  3
A4
350
4C
  3
A5
350
4D
  3
A6
350
4E
  3
A7
350
4F
  3
A8
350
50
  3
A9
350
51
  3
B0
350
52
  3
B1
350
53
  3
B2
350
54
  3
B3
350
55
  3
B4
350
56
  3
B5
350
57
  3
B6
350
58
  3
B7
350
59
  3
B8
350
5A
  3
B9
350
5B
  3
C0
350
5C
  3
C1
350
5D
  3
C2
350
5E
  3
C3
350
5F
  3
C4
350
60
  3
C5
350
61
  3
C6
350
62
  3
C7
350
63
  3
C8
350
64
  3
C9
350
65
  3
D0
350
66
  3
D1
350
67
  3
D2
350
68
  0
DICTIONARY
  5
1B4
102
{ACAD_REACTORS
330
C
102
}
330
C
100
AcDbDictionary
281
     1
  0
DICTIONARY
  5
69
102
{ACAD_REACTORS
330
C
102
}
330
C
100
AcDbDictionary
281
     1
  3
Standard
350
6A
  0
DICTIONARY
  5
2A
102
{ACAD_REACTORS
330
C
102
}
330
C
100
AcDbDictionary
281
     1
  3
2dWireframe
350
2F
  3
Basic
350
32
  3
Brighten
350
36
  3
ColorChange
350
3A
  3
Conceptual
350
34
  3
Dim
350
35
  3
EdgeColorOff
350
3D
  3
Facepattern
350
39
  3
Flat
350
2B
  3
FlatWithEdges
350
2C
  3
Gouraud
350
2D
  3
GouraudWithEdges
350
2E
  3
Hidden
350
31
  3
JitterOff
350
3B
  3
Linepattern
350
38
  3
OverhangOff
350
3C
  3
Realistic
350
33
  3
Shaded
350
42
  3
Shaded with edges
350
41
  3
Shades of Gray
350
3E
  3
Sketchy
350
3F
  3
Thicken
350
37
  3
Wireframe
350
30
  3
X-Ray
350
40
  0
DICTIONARY
  5
170
102
{ACAD_REACTORS
330
C
102
}
330
C
100
AcDbDictionary
281
     1
  3
CANNOSCALE
350
171
  3
CMLEADERSTYLE
350
1B2
  3
CTABLESTYLE
350
1B1
  3
MSLTSCALE
350
172
  3
XCLIPFRAME
350
173
  0
XRECORD
  5
1B0
102
{ACAD_REACTORS
330
C
102
}
330
C
100
AcDbXrecord
280
     1
 90
        1
330
6A
  0
XRECORD
  5
16F
102
{ACAD_REACTORS
330
16E
102
}
330
16E
100
AcDbXrecord
280
     1
102
VTR_0.000_0.000_1.000_1.000_GRIDDISPLAY
 70
     3
102
VTR_0.000_0.000_1.000_1.000_GRIDMAJOR
 70
     5
102
VTR_0.000_0.000_1.000_1.000_DEFAULTLIGHTING
280
     1
102
VTR_0.000_0.000_1.000_1.000_DEFAULTLIGHTINGTYPE
 70
     1
102
VTR_0.000_0.000_1.000_1.000_BRIGHTNESS
141
0.0
102
VTR_0.000_0.000_1.000_1.000_CONTRAST
142
0.0
  0
LAYOUT
  5
1E
102
{ACAD_REACTORS
330
1A
102
}
330
1A
100
AcDbPlotSettings
  1

  2
none_device
  4

  6

 40
0.0
 41
0.0
 42
0.0
 43
0.0
 44
0.0
 45
0.0
 46
0.0
 47
0.0
 48
0.0
 49
0.0
140
0.0
141
0.0
142
1.0
143
1.0
 70
   688
 72
     0
 73
     0
 74
     5
  7

 75
    16
 76
     0
 77
     2
 78
   300
147
1.0
148
0.0
149
0.0
100
AcDbLayout
  1
Layout1
 70
     1
 71
     1
 10
0.0
 20
0.0
 11
12.0
 21
9.0
 12
0.0
 22
0.0
 32
0.0
 14
1.000000000000000E+20
 24
1.000000000000000E+20
 34
1.000000000000000E+20
 15
-1.000000000000000E+20
 25
-1.000000000000000E+20
 35
-1.000000000000000E+20
146
0.0
 13
0.0
 23
0.0
 33
0.0
 16
1.0
 26
0.0
 36
0.0
 17
0.0
 27
1.0
 37
0.0
 76
     0
330
1B
  0
LAYOUT
  5
26
102
{ACAD_REACTORS
330
1A
102
}
330
1A
100
AcDbPlotSettings
  1

  2
none_device
  4

  6

 40
0.0
 41
0.0
 42
0.0
 43
0.0
 44
0.0
 45
0.0
 46
0.0
 47
0.0
 48
0.0
 49
0.0
140
0.0
141
0.0
142
1.0
143
1.0
 70
   688
 72
     0
 73
     0
 74
     5
  7

 75
    16
 76
     0
 77
     2
 78
   300
147
1.0
148
0.0
149
0.0
100
AcDbLayout
  1
Layout2
 70
     1
 71
     2
 10
0.0
 20
0.0
 11
0.0
 21
0.0
 12
0.0
 22
0.0
 32
0.0
 14
0.0
 24
0.0
 34
0.0
 15
0.0
 25
0.0
 35
0.0
146
0.0
 13
0.0
 23
0.0
 33
0.0
 16
1.0
 26
0.0
 36
0.0
 17
0.0
 27
1.0
 37
0.0
 76
     0
330
23
  0
LAYOUT
  5
22
102
{ACAD_REACTORS
330
1A
102
}
330
1A
100
AcDbPlotSettings
  1

  2
none_device
  4
Letter_(8.50_x_11.00_Inches)
  6

 40
6.35
 41
6.35
 42
6.35000508
 43
6.35000508
 44
215.9
 45
279.4
 46
0.0
 47
0.0
 48
0.0
 49
0.0
140
0.0
141
0.0
142
1.0
143
1.0
 70
  1712
 72
     0
 73
     0
 74
     0
  7

 75
     0
 76
     0
 77
     2
 78
   300
147
1.0
148
0.0
149
0.0
100
AcDbLayout
  1
Model
 70
     1
 71
     0
 10
0.0
 20
0.0
 11
12.0
 21
9.0
 12
0.0
 22
0.0
 32
0.0
 14
-272.5901713386198
 24
-294.0
 34
-20.96192531576147
 15
691.4662497052622
 25
353.0
 35
11.0
146
0.0
 13
0.0
 23
0.0
 33
0.0
 16
1.0
 26
0.0
 36
0.0
 17
0.0
 27
1.0
 37
0.0
 76
     0
330
1F
331
29
  0
MATERIAL
  5
45
102
{ACAD_REACTORS
330
43
102
}
102
{ACAD_XDICTIONARY
360
1A6
102
}
330
43
100
AcDbMaterial
  1
ByBlock
  0
MATERIAL
  5
44
102
{ACAD_REACTORS
330
43
102
}
102
{ACAD_XDICTIONARY
360
1A4
102
}
330
43
100
AcDbMaterial
  1
ByLayer
  0
MATERIAL
  5
46
102
{ACAD_REACTORS
330
43
102
}
102
{ACAD_XDICTIONARY
360
1A8
102
}
330
43
100
AcDbMaterial
  1
Global
  0
MLEADERSTYLE
  5
6C
102
{ACAD_REACTORS
330
6B
102
}
102
{ACAD_XDICTIONARY
360
1AE
102
}
330
6B
100
AcDbMLeaderStyle
170
     2
171
     1
172
     0
 90
        2
 40
0.0
 41
0.0
173
     1
 91
-1056964608
340
14
 92
       -2
290
     1
 42
0.09
291
     1
 43
0.36
  3
Standard
341
0
 44
0.18
300

342
11
174
     1
178
     6
175
     1
176
     0
 93
-1056964608
 45
0.18
292
     0
297
     0
 46
0.18
343
0
 94
-1056964608
 47
1.0
 49
1.0
140
1.0
293
     1
141
0.0
294
     1
177
     0
142
1.0
295
     0
296
     0
143
0.125
1001
ACAD_MLEADERVER
1070
     2
  0
MLINESTYLE
  5
18
102
{ACAD_REACTORS
330
17
102
}
330
17
100
AcDbMlineStyle
  2
Standard
 70
     0
  3

 62
   256
 51
90.0
 52
90.0
 71
     2
 49
0.5
 62
   256
  6
BYLAYER
 49
-0.5
 62
   256
  6
BYLAYER
  0
ACDBPLACEHOLDER
  5
F
102
{ACAD_REACTORS
330
E
102
}
330
E
  0
SCALE
  5
48
102
{ACAD_REACTORS
330
47
102
}
330
47
100
AcDbScale
 70
     0
300
1:1
140
1.0
141
1.0
290
     1
  0
SCALE
  5
49
102
{ACAD_REACTORS
330
47
102
}
330
47
100
AcDbScale
 70
     0
300
1:2
140
1.0
141
2.0
290
     0
  0
SCALE
  5
4A
102
{ACAD_REACTORS
330
47
102
}
330
47
100
AcDbScale
 70
     0
300
1:4
140
1.0
141
4.0
290
     0
  0
SCALE
  5
4B
102
{ACAD_REACTORS
330
47
102
}
330
47
100
AcDbScale
 70
     0
300
1:5
140
1.0
141
5.0
290
     0
  0
SCALE
  5
4C
102
{ACAD_REACTORS
330
47
102
}
330
47
100
AcDbScale
 70
     0
300
1:8
140
1.0
141
8.0
290
     0
  0
SCALE
  5
4D
102
{ACAD_REACTORS
330
47
102
}
330
47
100
AcDbScale
 70
     0
300
1:10
140
1.0
141
10.0
290
     0
  0
SCALE
  5
4E
102
{ACAD_REACTORS
330
47
102
}
330
47
100
AcDbScale
 70
     0
300
1:16
140
1.0
141
16.0
290
     0
  0
SCALE
  5
4F
102
{ACAD_REACTORS
330
47
102
}
330
47
100
AcDbScale
 70
     0
300
1:20
140
1.0
141
20.0
290
     0
  0
SCALE
  5
50
102
{ACAD_REACTORS
330
47
102
}
330
47
100
AcDbScale
 70
     0
300
1:30
140
1.0
141
30.0
290
     0
  0
SCALE
  5
51
102
{ACAD_REACTORS
330
47
102
}
330
47
100
AcDbScale
 70
     0
300
1:40
140
1.0
141
40.0
290
     0
  0
SCALE
  5
52
102
{ACAD_REACTORS
330
47
102
}
330
47
100
AcDbScale
 70
     0
300
1:50
140
1.0
141
50.0
290
     0
  0
SCALE
  5
53
102
{ACAD_REACTORS
330
47
102
}
330
47
100
AcDbScale
 70
     0
300
1:100
140
1.0
141
100.0
290
     0
  0
SCALE
  5
54
102
{ACAD_REACTORS
330
47
102
}
330
47
100
AcDbScale
 70
     0
300
2:1
140
2.0
141
1.0
290
     0
  0
SCALE
  5
55
102
{ACAD_REACTORS
330
47
102
}
330
47
100
AcDbScale
 70
     0
300
4:1
140
4.0
141
1.0
290
     0
  0
SCALE
  5
56
102
{ACAD_REACTORS
330
47
102
}
330
47
100
AcDbScale
 70
     0
300
8:1
140
8.0
141
1.0
290
     0
  0
SCALE
  5
57
102
{ACAD_REACTORS
330
47
102
}
330
47
100
AcDbScale
 70
     0
300
10:1
140
10.0
141
1.0
290
     0
  0
SCALE
  5
58
102
{ACAD_REACTORS
330
47
102
}
330
47
100
AcDbScale
 70
     0
300
100:1
140
100.0
141
1.0
290
     0
  0
SCALE
  5
59
102
{ACAD_REACTORS
330
47
102
}
330
47
100
AcDbScale
 70
     0
300
1/128" = 1'-0"
140
0.0078125
141
12.0
290
     0
  0
SCALE
  5
5A
102
{ACAD_REACTORS
330
47
102
}
330
47
100
AcDbScale
 70
     0
300
1/64" = 1'-0"
140
0.015625
141
12.0
290
     0
  0
SCALE
  5
5B
102
{ACAD_REACTORS
330
47
102
}
330
47
100
AcDbScale
 70
     0
300
1/32" = 1'-0"
140
0.03125
141
12.0
290
     0
  0
SCALE
  5
5C
102
{ACAD_REACTORS
330
47
102
}
330
47
100
AcDbScale
 70
     0
300
1/16" = 1'-0"
140
0.0625
141
12.0
290
     0
  0
SCALE
  5
5D
102
{ACAD_REACTORS
330
47
102
}
330
47
100
AcDbScale
 70
     0
300
3/32" = 1'-0"
140
0.09375
141
12.0
290
     0
  0
SCALE
  5
5E
102
{ACAD_REACTORS
330
47
102
}
330
47
100
AcDbScale
 70
     0
300
1/8" = 1'-0"
140
0.125
141
12.0
290
     0
  0
SCALE
  5
5F
102
{ACAD_REACTORS
330
47
102
}
330
47
100
AcDbScale
 70
     0
300
3/16" = 1'-0"
140
0.1875
141
12.0
290
     0
  0
SCALE
  5
60
102
{ACAD_REACTORS
330
47
102
}
330
47
100
AcDbScale
 70
     0
300
1/4" = 1'-0"
140
0.25
141
12.0
290
     0
  0
SCALE
  5
61
102
{ACAD_REACTORS
330
47
102
}
330
47
100
AcDbScale
 70
     0
300
3/8" = 1'-0"
140
0.375
141
12.0
290
     0
  0
SCALE
  5
62
102
{ACAD_REACTORS
330
47
102
}
330
47
100
AcDbScale
 70
     0
300
1/2" = 1'-0"
140
0.5
141
12.0
290
     0
  0
SCALE
  5
63
102
{ACAD_REACTORS
330
47
102
}
330
47
100
AcDbScale
 70
     0
300
3/4" = 1'-0"
140
0.75
141
12.0
290
     0
  0
SCALE
  5
64
102
{ACAD_REACTORS
330
47
102
}
330
47
100
AcDbScale
 70
     0
300
1" = 1'-0"
140
1.0
141
12.0
290
     0
  0
SCALE
  5
65
102
{ACAD_REACTORS
330
47
102
}
330
47
100
AcDbScale
 70
     0
300
1-1/2" = 1'-0"
140
1.5
141
12.0
290
     0
  0
SCALE
  5
66
102
{ACAD_REACTORS
330
47
102
}
330
47
100
AcDbScale
 70
     0
300
3" = 1'-0"
140
3.0
141
12.0
290
     0
  0
SCALE
  5
67
102
{ACAD_REACTORS
330
47
102
}
330
47
100
AcDbScale
 70
     0
300
6" = 1'-0"
140
6.0
141
12.0
290
     0
  0
SCALE
  5
68
102
{ACAD_REACTORS
330
47
102
}
330
47
100
AcDbScale
 70
     0
300
1'-0" = 1'-0"
140
12.0
141
12.0
290
     0
  0
TABLESTYLE
  5
6A
102
{ACAD_REACTORS
330
69
102
}
102
{ACAD_XDICTIONARY
360
1AA
102
}
330
69
100
AcDbTableStyle
  3
Standard
 70
     0
 71
     0
 40
0.06
 41
0.06
280
     0
281
     0
  7
Standard
140
0.18
170
     2
 62
     0
 63
   257
283
     0
274
    -2
284
     1
 64
     0
275
    -2
285
     1
 65
     0
276
    -2
286
     1
 66
     0
277
    -2
287
     1
 67
     0
278
    -2
288
     1
 68
     0
279
    -2
289
     1
 69
     0
  7
Standard
140
0.25
170
     5
 62
     0
 63
   257
283
     0
274
    -2
284
     1
 64
     0
275
    -2
285
     1
 65
     0
276
    -2
286
     1
 66
     0
277
    -2
287
     1
 67
     0
278
    -2
288
     1
 68
     0
279
    -2
289
     1
 69
     0
  7
Standard
140
0.18
170
     5
 62
     0
 63
   257
283
     0
274
    -2
284
     1
 64
     0
275
    -2
285
     1
 65
     0
276
    -2
286
     1
 66
     0
277
    -2
287
     1
 67
     0
278
    -2
288
     1
 68
     0
279
    -2
289
     1
 69
     0
  0
VISUALSTYLE
  5
2F
102
{ACAD_REACTORS
330
2A
102
}
102
{ACAD_XDICTIONARY
360
17C
102
}
330
2A
100
AcDbVisualStyle
  2
2dWireframe
 70
     4
 71
     0
 72
     2
 73
     0
 90
        0
 40
0.6
 41
30.0
 62
     5
 63
     7
421
 16777215
 74
     1
 91
        4
 64
     7
 65
   257
 75
     1
175
     1
 42
1.0
 92
        0
 66
   257
 43
1.0
 76
     1
 77
     6
 78
     2
 67
     7
 79
     5
170
     0
171
     0
290
     0
174
     0
 93
        1
 44
0.0
173
     0
291
     0
 45
0.0
1001
ACAD
1000
AcDbSavedByObjectVersion
1070
     0
  0
VISUALSTYLE
  5
32
102
{ACAD_REACTORS
330
2A
102
}
102
{ACAD_XDICTIONARY
360
182
102
}
330
2A
100
AcDbVisualStyle
  2
Basic
 70
     7
 71
     1
 72
     0
 73
     1
 90
        0
 40
0.6
 41
30.0
 62
     5
 63
     7
421
 16777215
 74
     0
 91
        4
 64
     7
 65
   257
 75
     1
175
     1
 42
1.0
 92
        8
 66
     7
 43
1.0
 76
     1
 77
     6
 78
     2
 67
     7
 79
     5
170
     0
171
     0
290
     0
174
     0
 93
        1
 44
0.0
173
     0
291
     1
 45
0.0
1001
ACAD
1000
AcDbSavedByObjectVersion
1070
     0
  0
VISUALSTYLE
  5
36
102
{ACAD_REACTORS
330
2A
102
}
102
{ACAD_XDICTIONARY
360
18A
102
}
330
2A
100
AcDbVisualStyle
  2
Brighten
 70
    12
 71
     2
 72
     2
 73
     0
 90
        0
 40
0.6
 41
30.0
 62
     5
 63
     7
421
 16777215
 74
     1
 91
        4
 64
     7
 65
   257
 75
     1
175
     1
 42
1.0
 92
        8
 66
     7
 43
1.0
 76
     1
 77
     6
 78
     2
 67
     7
 79
     5
170
     0
171
     0
290
     0
174
     0
 93
        1
 44
50.0
173
     0
291
     1
 45
0.0
1001
ACAD
1000
AcDbSavedByObjectVersion
1070
     0
  0
VISUALSTYLE
  5
3A
102
{ACAD_REACTORS
330
2A
102
}
102
{ACAD_XDICTIONARY
360
192
102
}
330
2A
100
AcDbVisualStyle
  2
ColorChange
 70
    16
 71
     2
 72
     2
 73
     3
 90
        0
 40
0.6
 41
30.0
 62
     5
 63
     8
421
  8421504
 74
     1
 91
        4
 64
     7
 65
   257
 75
     1
175
     1
 42
1.0
 92
        8
 66
     8
424
  8421504
 43
1.0
 76
     1
 77
     6
 78
     2
 67
     7
 79
     5
170
     0
171
     0
290
     0
174
     0
 93
        1
 44
0.0
173
     0
291
     1
 45
0.0
1001
ACAD
1000
AcDbSavedByObjectVersion
1070
     0
  0
VISUALSTYLE
  5
34
102
{ACAD_REACTORS
330
2A
102
}
102
{ACAD_XDICTIONARY
360
186
102
}
330
2A
100
AcDbVisualStyle
  2
Conceptual
 70
     9
 71
     3
 72
     2
 73
     0
 90
        0
 40
0.6
 41
30.0
 62
     5
 63
     7
421
 16777215
 74
     2
 91
        2
 64
     7
 65
   257
 75
     1
175
     1
 42
179.0
 92
        8
 66
     7
 43
1.0
 76
     1
 77
     6
 78
     2
 67
     7
 79
     3
170
     0
171
     0
290
     0
174
     0
 93
        1
 44
0.0
173
     0
291
     0
 45
0.0
1001
ACAD
1000
AcDbSavedByObjectVersion
1070
     0
  0
VISUALSTYLE
  5
35
102
{ACAD_REACTORS
330
2A
102
}
102
{ACAD_XDICTIONARY
360
188
102
}
330
2A
100
AcDbVisualStyle
  2
Dim
 70
    11
 71
     2
 72
     2
 73
     0
 90
        0
 40
0.6
 41
30.0
 62
     5
 63
     7
421
 16777215
 74
     1
 91
        4
 64
     7
 65
   257
 75
     1
175
     1
 42
1.0
 92
        8
 66
     7
 43
1.0
 76
     1
 77
     6
 78
     2
 67
     7
 79
     5
170
     0
171
     0
290
     0
174
     0
 93
        1
 44
-50.0
173
     0
291
     1
 45
0.0
1001
ACAD
1000
AcDbSavedByObjectVersion
1070
     0
  0
VISUALSTYLE
  5
3D
102
{ACAD_REACTORS
330
2A
102
}
102
{ACAD_XDICTIONARY
360
198
102
}
330
2A
100
AcDbVisualStyle
  2
EdgeColorOff
 70
    22
 71
     2
 72
     2
 73
     0
 90
        0
 40
0.6
 41
30.0
 62
     5
 63
     7
421
 16777215
 74
     1
 91
        4
 64
     7
 65
   257
 75
     1
175
     1
 42
1.0
 92
        8
 66
     7
 43
1.0
 76
     1
 77
     6
 78
     2
 67
     7
 79
     5
170
     0
171
     0
290
     0
174
     0
 93
        1
 44
0.0
173
     0
291
     1
 45
0.0
1001
ACAD
1000
AcDbSavedByObjectVersion
1070
     0
  0
VISUALSTYLE
  5
39
102
{ACAD_REACTORS
330
2A
102
}
102
{ACAD_XDICTIONARY
360
190
102
}
330
2A
100
AcDbVisualStyle
  2
Facepattern
 70
    15
 71
     2
 72
     2
 73
     0
 90
        0
 40
0.6
 41
30.0
 62
     5
 63
     7
421
 16777215
 74
     1
 91
        4
 64
     7
 65
   257
 75
     1
175
     1
 42
1.0
 92
        8
 66
     7
 43
1.0
 76
     1
 77
     6
 78
     2
 67
     7
 79
     5
170
     0
171
     0
290
     0
174
     0
 93
        1
 44
0.0
173
     0
291
     1
 45
0.0
1001
ACAD
1000
AcDbSavedByObjectVersion
1070
     0
  0
VISUALSTYLE
  5
2B
102
{ACAD_REACTORS
330
2A
102
}
102
{ACAD_XDICTIONARY
360
174
102
}
330
2A
100
AcDbVisualStyle
  2
Flat
 70
     0
 71
     2
 72
     1
 73
     1
 90
        2
 40
0.6
 41
30.0
 62
     5
 63
     7
421
 16777215
 74
     0
 91
        0
 64
     7
 65
   257
 75
     1
175
     1
 42
1.0
 92
        8
 66
     7
 43
1.0
 76
     1
 77
     6
 78
     2
 67
     7
 79
     5
170
     0
171
     0
290
     0
174
     0
 93
       13
 44
0.0
173
     0
291
     1
 45
0.0
1001
ACAD
1000
AcDbSavedByObjectVersion
1070
     0
  0
VISUALSTYLE
  5
2C
102
{ACAD_REACTORS
330
2A
102
}
102
{ACAD_XDICTIONARY
360
176
102
}
330
2A
100
AcDbVisualStyle
  2
FlatWithEdges
 70
     1
 71
     2
 72
     1
 73
     1
 90
        2
 40
0.6
 41
30.0
 62
     5
 63
     7
421
 16777215
 74
     1
 91
        0
 64
     7
 65
   257
 75
     1
175
     1
 42
1.0
 92
        0
 66
   257
 43
1.0
 76
     1
 77
     6
 78
     2
 67
     7
 79
     5
170
     0
171
     0
290
     0
174
     0
 93
       13
 44
0.0
173
     0
291
     1
 45
0.0
1001
ACAD
1000
AcDbSavedByObjectVersion
1070
     0
  0
VISUALSTYLE
  5
2D
102
{ACAD_REACTORS
330
2A
102
}
102
{ACAD_XDICTIONARY
360
178
102
}
330
2A
100
AcDbVisualStyle
  2
Gouraud
 70
     2
 71
     2
 72
     2
 73
     1
 90
        2
 40
0.6
 41
30.0
 62
     5
 63
     7
421
 16777215
 74
     0
 91
        0
 64
     7
 65
   257
 75
     1
175
     1
 42
1.0
 92
        0
 66
     7
 43
1.0
 76
     1
 77
     6
 78
     2
 67
     7
 79
     5
170
     0
171
     0
290
     0
174
     0
 93
       13
 44
0.0
173
     0
291
     1
 45
0.0
1001
ACAD
1000
AcDbSavedByObjectVersion
1070
     0
  0
VISUALSTYLE
  5
2E
102
{ACAD_REACTORS
330
2A
102
}
102
{ACAD_XDICTIONARY
360
17A
102
}
330
2A
100
AcDbVisualStyle
  2
GouraudWithEdges
 70
     3
 71
     2
 72
     2
 73
     1
 90
        2
 40
0.6
 41
30.0
 62
     5
 63
     7
421
 16777215
 74
     1
 91
        0
 64
     7
 65
   257
 75
     1
175
     1
 42
1.0
 92
        0
 66
   257
 43
1.0
 76
     1
 77
     6
 78
     2
 67
     7
 79
     5
170
     0
171
     0
290
     0
174
     0
 93
       13
 44
0.0
173
     0
291
     1
 45
0.0
1001
ACAD
1000
AcDbSavedByObjectVersion
1070
     0
  0
VISUALSTYLE
  5
31
102
{ACAD_REACTORS
330
2A
102
}
102
{ACAD_XDICTIONARY
360
180
102
}
330
2A
100
AcDbVisualStyle
  2
Hidden
 70
     6
 71
     1
 72
     2
 73
     2
 90
        0
 40
0.6
 41
30.0
 62
     5
 63
     7
421
 16777215
 74
     2
 91
        2
 64
     7
 65
   257
 75
     2
175
     1
 42
40.0
 92
        0
 66
   257
 43
1.0
 76
     1
 77
     6
 78
     2
 67
     7
 79
     3
170
     0
171
     0
290
     0
174
     0
 93
        1
 44
0.0
173
     0
291
     0
 45
0.0
1001
ACAD
1000
AcDbSavedByObjectVersion
1070
     0
  0
VISUALSTYLE
  5
3B
102
{ACAD_REACTORS
330
2A
102
}
102
{ACAD_XDICTIONARY
360
194
102
}
330
2A
100
AcDbVisualStyle
  2
JitterOff
 70
    20
 71
     2
 72
     2
 73
     0
 90
        0
 40
0.6
 41
30.0
 62
     5
 63
     7
421
 16777215
 74
     1
 91
        4
 64
     7
 65
   257
 75
     1
175
     1
 42
1.0
 92
       10
 66
     7
 43
1.0
 76
     1
 77
     6
 78
     2
 67
     7
 79
     5
170
     0
171
     0
290
     0
174
     0
 93
        1
 44
0.0
173
     0
291
     1
 45
0.0
1001
ACAD
1000
AcDbSavedByObjectVersion
1070
     0
  0
VISUALSTYLE
  5
38
102
{ACAD_REACTORS
330
2A
102
}
102
{ACAD_XDICTIONARY
360
18E
102
}
330
2A
100
AcDbVisualStyle
  2
Linepattern
 70
    14
 71
     2
 72
     2
 73
     0
 90
        0
 40
0.6
 41
30.0
 62
     5
 63
     7
421
 16777215
 74
     1
 91
        4
 64
     7
 65
   257
 75
     7
175
     7
 42
1.0
 92
        8
 66
     7
 43
1.0
 76
     1
 77
     6
 78
     2
 67
     7
 79
     5
170
     0
171
     0
290
     0
174
     0
 93
        1
 44
0.0
173
     0
291
     1
 45
0.0
1001
ACAD
1000
AcDbSavedByObjectVersion
1070
     0
  0
VISUALSTYLE
  5
3C
102
{ACAD_REACTORS
330
2A
102
}
102
{ACAD_XDICTIONARY
360
196
102
}
330
2A
100
AcDbVisualStyle
  2
OverhangOff
 70
    21
 71
     2
 72
     2
 73
     0
 90
        0
 40
0.6
 41
30.0
 62
     5
 63
     7
421
 16777215
 74
     1
 91
        4
 64
     7
 65
   257
 75
     1
175
     1
 42
1.0
 92
        9
 66
     7
 43
1.0
 76
     1
 77
     6
 78
     2
 67
     7
 79
     5
170
     0
171
     0
290
     0
174
     0
 93
        1
 44
0.0
173
     0
291
     1
 45
0.0
1001
ACAD
1000
AcDbSavedByObjectVersion
1070
     0
  0
VISUALSTYLE
  5
33
102
{ACAD_REACTORS
330
2A
102
}
102
{ACAD_XDICTIONARY
360
184
102
}
330
2A
100
AcDbVisualStyle
  2
Realistic
 70
     8
 71
     2
 72
     3
 73
     0
 90
        2
 40
0.6
 41
30.0
 62
     5
 63
     7
421
 16777215
 74
     0
 91
        0
 64
     7
 65
   257
 75
     1
175
     1
 42
1.0
 92
        8
 66
   257
 43
1.0
 76
     1
 77
     6
 78
     2
 67
     7
 79
     3
170
     0
171
     0
290
     0
174
     0
 93
       13
 44
0.0
173
     0
291
     0
 45
0.0
1001
ACAD
1000
AcDbSavedByObjectVersion
1070
     0
  0
VISUALSTYLE
  5
42
102
{ACAD_REACTORS
330
2A
102
}
102
{ACAD_XDICTIONARY
360
1A2
102
}
330
2A
100
AcDbVisualStyle
  2
Shaded
 70
    27
 71
     2
 72
     2
 73
     1
 90
        2
 40
0.6
 41
30.0
 62
     5
 63
     7
421
 16777215
 74
     0
 91
        4
 64
     7
 65
   257
 75
     1
175
     1
 42
1.0
 92
        8
 66
   257
 43
1.0
 76
     1
 77
     6
 78
     2
 67
     8
425
  7895160
 79
     3
170
     0
171
     0
290
     0
174
     0
 93
        5
 44
0.0
173
     0
291
     0
 45
0.0
1001
ACAD
1000
AcDbSavedByObjectVersion
1070
     0
  0
VISUALSTYLE
  5
41
102
{ACAD_REACTORS
330
2A
102
}
102
{ACAD_XDICTIONARY
360
1A0
102
}
330
2A
100
AcDbVisualStyle
  2
Shaded with edges
 70
    26
 71
     2
 72
     2
 73
     1
 90
        2
 40
0.6
 41
30.0
 62
     5
 63
     7
421
 16777215
 74
     1
 91
       10
 64
     7
 65
   257
 75
     2
175
     1
 42
1.0
 92
        8
 66
   257
 43
1.0
 76
     1
 77
     6
 78
     2
 67
     7
 79
     3
170
     0
171
     0
290
     0
174
     0
 93
        5
 44
0.0
173
     0
291
     0
 45
0.0
1001
ACAD
1000
AcDbSavedByObjectVersion
1070
     0
  0
VISUALSTYLE
  5
3E
102
{ACAD_REACTORS
330
2A
102
}
102
{ACAD_XDICTIONARY
360
19A
102
}
330
2A
100
AcDbVisualStyle
  2
Shades of Gray
 70
    23
 71
     2
 72
     2
 73
     3
 90
        0
 40
0.6
 41
30.0
 62
     5
 63
     7
421
 16777215
 74
     2
 91
        2
 64
     7
 65
     7
 75
     1
175
     1
 42
40.0
 92
        8
 66
     7
 43
1.0
 76
     1
 77
     6
 78
     2
 67
     7
 79
     3
170
     0
171
     0
290
     0
174
     0
 93
        1
 44
0.0
173
     0
291
     0
 45
0.0
1001
ACAD
1000
AcDbSavedByObjectVersion
1070
     0
  0
VISUALSTYLE
  5
3F
102
{ACAD_REACTORS
330
2A
102
}
102
{ACAD_XDICTIONARY
360
19C
102
}
330
2A
100
AcDbVisualStyle
  2
Sketchy
 70
    24
 71
     1
 72
     2
 73
     2
 90
        0
 40
0.6
 41
30.0
 62
     5
 63
     7
421
 16777215
 74
     2
 91
        2
 64
     7
 65
     7
 75
     1
175
     1
 42
40.0
 92
       11
 66
     7
 43
1.0
 76
     1
 77
     6
 78
     2
 67
     7
 79
     6
170
     0
171
     0
290
     0
174
     0
 93
        1
 44
0.0
173
     0
291
     0
 45
0.0
1001
ACAD
1000
AcDbSavedByObjectVersion
1070
     0
  0
VISUALSTYLE
  5
37
102
{ACAD_REACTORS
330
2A
102
}
102
{ACAD_XDICTIONARY
360
18C
102
}
330
2A
100
AcDbVisualStyle
  2
Thicken
 70
    13
 71
     2
 72
     2
 73
     0
 90
        0
 40
0.6
 41
30.0
 62
     5
 63
     7
421
 16777215
 74
     1
 91
        4
 64
     7
 65
   257
 75
     1
175
     1
 42
1.0
 92
       12
 66
     7
 43
1.0
 76
     1
 77
     6
 78
     2
 67
     7
 79
     5
170
     0
171
     0
290
     0
174
     0
 93
        1
 44
0.0
173
     0
291
     1
 45
0.0
1001
ACAD
1000
AcDbSavedByObjectVersion
1070
     0
  0
VISUALSTYLE
  5
30
102
{ACAD_REACTORS
330
2A
102
}
102
{ACAD_XDICTIONARY
360
17E
102
}
330
2A
100
AcDbVisualStyle
  2
Wireframe
 70
     5
 71
     0
 72
     2
 73
     0
 90
        0
 40
0.6
 41
30.0
 62
     5
 63
     7
421
 16777215
 74
     1
 91
        4
 64
     7
 65
   257
 75
     1
175
     1
 42
1.0
 92
        0
 66
   257
 43
1.0
 76
     1
 77
     6
 78
     2
 67
     7
 79
     3
170
     0
171
     0
290
     0
174
     0
 93
        1
 44
0.0
173
     0
291
     0
 45
0.0
1001
ACAD
1000
AcDbSavedByObjectVersion
1070
     0
  0
VISUALSTYLE
  5
40
102
{ACAD_REACTORS
330
2A
102
}
102
{ACAD_XDICTIONARY
360
19E
102
}
330
2A
100
AcDbVisualStyle
  2
X-Ray
 70
    25
 71
     2
 72
     2
 73
     1
 90
        1
 40
0.5
 41
30.0
 62
     5
 63
     7
421
 16777215
 74
     1
 91
        0
 64
     7
 65
   257
 75
     1
175
     1
 42
1.0
 92
        8
 66
     7
 43
1.0
 76
     1
 77
     6
 78
     2
 67
     7
 79
     3
170
     0
171
     0
290
     0
174
     0
 93
       13
 44
0.0
173
     0
291
     0
 45
0.0
1001
ACAD
1000
AcDbSavedByObjectVersion
1070
     0
  0
DICTIONARYVAR
  5
171
102
{ACAD_REACTORS
330
170
102
}
330
170
100
DictionaryVariables
280
     0
  1
1:1
  0
DICTIONARYVAR
  5
1B2
102
{ACAD_REACTORS
330
170
102
}
330
170
100
DictionaryVariables
280
     0
  1
Standard
  0
DICTIONARYVAR
  5
1B1
102
{ACAD_REACTORS
330
170
102
}
330
170
100
DictionaryVariables
280
     0
  1
Standard
  0
DICTIONARYVAR
  5
172
102
{ACAD_REACTORS
330
170
102
}
330
170
100
DictionaryVariables
280
     0
  1
1
  0
DICTIONARYVAR
  5
173
102
{ACAD_REACTORS
330
170
102
}
330
170
100
DictionaryVariables
280
     0
  1
2
  0
DICTIONARY
  5
1A6
330
45
100
AcDbDictionary
280
     1
281
     1
  3
ACAD_XREC_ROUNDTRIP
360
1A7
  0
DICTIONARY
  5
1A4
330
44
100
AcDbDictionary
280
     1
281
     1
  3
ACAD_XREC_ROUNDTRIP
360
1A5
  0
DICTIONARY
  5
1A8
330
46
100
AcDbDictionary
280
     1
281
     1
  3
ACAD_XREC_ROUNDTRIP
360
1A9
  0
DICTIONARY
  5
1AE
330
6C
100
AcDbDictionary
280
     1
281
     1
  3
ACAD_XREC_ROUNDTRIP
360
1AF
  0
DICTIONARY
  5
1AA
330
6A
100
AcDbDictionary
280
     1
281
     1
  3
ACAD_ROUNDTRIP_2008_TABLESTYLE_CELLSTYLEMAP
360
1AC
  3
ACAD_XREC_ROUNDTRIP
360
1AB
  0
DICTIONARY
  5
17C
330
2F
100
AcDbDictionary
280
     1
281
     1
  3
ACAD_XREC_ROUNDTRIP
360
17D
  0
DICTIONARY
  5
182
330
32
100
AcDbDictionary
280
     1
281
     1
  3
ACAD_XREC_ROUNDTRIP
360
183
  0
DICTIONARY
  5
18A
330
36
100
AcDbDictionary
280
     1
281
     1
  3
ACAD_XREC_ROUNDTRIP
360
18B
  0
DICTIONARY
  5
192
330
3A
100
AcDbDictionary
280
     1
281
     1
  3
ACAD_XREC_ROUNDTRIP
360
193
  0
DICTIONARY
  5
186
330
34
100
AcDbDictionary
280
     1
281
     1
  3
ACAD_XREC_ROUNDTRIP
360
187
  0
DICTIONARY
  5
188
330
35
100
AcDbDictionary
280
     1
281
     1
  3
ACAD_XREC_ROUNDTRIP
360
189
  0
DICTIONARY
  5
198
330
3D
100
AcDbDictionary
280
     1
281
     1
  3
ACAD_XREC_ROUNDTRIP
360
199
  0
DICTIONARY
  5
190
330
39
100
AcDbDictionary
280
     1
281
     1
  3
ACAD_XREC_ROUNDTRIP
360
191
  0
DICTIONARY
  5
174
330
2B
100
AcDbDictionary
280
     1
281
     1
  3
ACAD_XREC_ROUNDTRIP
360
175
  0
DICTIONARY
  5
176
330
2C
100
AcDbDictionary
280
     1
281
     1
  3
ACAD_XREC_ROUNDTRIP
360
177
  0
DICTIONARY
  5
178
330
2D
100
AcDbDictionary
280
     1
281
     1
  3
ACAD_XREC_ROUNDTRIP
360
179
  0
DICTIONARY
  5
17A
330
2E
100
AcDbDictionary
280
     1
281
     1
  3
ACAD_XREC_ROUNDTRIP
360
17B
  0
DICTIONARY
  5
180
330
31
100
AcDbDictionary
280
     1
281
     1
  3
ACAD_XREC_ROUNDTRIP
360
181
  0
DICTIONARY
  5
194
330
3B
100
AcDbDictionary
280
     1
281
     1
  3
ACAD_XREC_ROUNDTRIP
360
195
  0
DICTIONARY
  5
18E
330
38
100
AcDbDictionary
280
     1
281
     1
  3
ACAD_XREC_ROUNDTRIP
360
18F
  0
DICTIONARY
  5
196
330
3C
100
AcDbDictionary
280
     1
281
     1
  3
ACAD_XREC_ROUNDTRIP
360
197
  0
DICTIONARY
  5
184
330
33
100
AcDbDictionary
280
     1
281
     1
  3
ACAD_XREC_ROUNDTRIP
360
185
  0
DICTIONARY
  5
1A2
330
42
100
AcDbDictionary
280
     1
281
     1
  3
ACAD_XREC_ROUNDTRIP
360
1A3
  0
DICTIONARY
  5
1A0
330
41
100
AcDbDictionary
280
     1
281
     1
  3
ACAD_XREC_ROUNDTRIP
360
1A1
  0
DICTIONARY
  5
19A
330
3E
100
AcDbDictionary
280
     1
281
     1
  3
ACAD_XREC_ROUNDTRIP
360
19B
  0
DICTIONARY
  5
19C
330
3F
100
AcDbDictionary
280
     1
281
     1
  3
ACAD_XREC_ROUNDTRIP
360
19D
  0
DICTIONARY
  5
18C
330
37
100
AcDbDictionary
280
     1
281
     1
  3
ACAD_XREC_ROUNDTRIP
360
18D
  0
DICTIONARY
  5
17E
330
30
100
AcDbDictionary
280
     1
281
     1
  3
ACAD_XREC_ROUNDTRIP
360
17F
  0
DICTIONARY
  5
19E
330
40
100
AcDbDictionary
280
     1
281
     1
  3
ACAD_XREC_ROUNDTRIP
360
19F
  0
XRECORD
  5
1A7
102
{ACAD_REACTORS
330
1A6
102
}
330
1A6
100
AcDbXrecord
280
     1
102
MATERIAL
148
0.0
149
0.0
149
0.0
 93
        0
 94
      127
282
     0
 72
     1
 77
     1
171
     1
175
     1
179
     1
273
     0
  0
XRECORD
  5
1A5
102
{ACAD_REACTORS
330
1A4
102
}
330
1A4
100
AcDbXrecord
280
     1
102
MATERIAL
148
0.0
149
0.0
149
0.0
 93
        0
 94
      127
282
     0
 72
     1
 77
     1
171
     1
175
     1
179
     1
273
     0
  0
XRECORD
  5
1A9
102
{ACAD_REACTORS
330
1A8
102
}
330
1A8
100
AcDbXrecord
280
     1
102
MATERIAL
148
0.0
149
0.0
149
0.0
 93
        0
 94
      127
282
     0
 72
     1
 77
     1
171
     1
175
     1
179
     1
273
     0
  0
XRECORD
  5
1AF
102
{ACAD_REACTORS
330
1AE
102
}
330
1AE
100
AcDbXrecord
280
     1
102
ACAD_ROUNDTRIP_2010_MLEADER_STYLE
  0
CELLSTYLEMAP
  5
1AC
102
{ACAD_REACTORS
330
1AA
102
}
330
1AA
100
AcDbCellStyleMap
 90
        3
300
CELLSTYLE
  1
TABLEFORMAT_BEGIN
 90
        5
170
     1
 91
        0
 92
    32768
 62
   257
 93
        1
300
CONTENTFORMAT
  1
CONTENTFORMAT_BEGIN
 90
        0
 91
        0
 92
        4
 93
        0
300

 40
0.0
140
1.0
 94
        5
 62
     0
340
11
144
0.25
309
CONTENTFORMAT_END
171
     1
301
MARGIN
  1
CELLMARGIN_BEGIN
 40
0.06
 40
0.06
 40
0.06
 40
0.06
 40
0.06
 40
0.06
309
CELLMARGIN_END
 94
        6
 95
        1
302
GRIDFORMAT
  1
GRIDFORMAT_BEGIN
 90
        0
 91
        1
 62
     0
 92
       -2
340
14
 93
        0
 40
0.045
309
GRIDFORMAT_END
 95
        2
302
GRIDFORMAT
  1
GRIDFORMAT_BEGIN
 90
        0
 91
        1
 62
     0
 92
       -2
340
14
 93
        0
 40
0.045
309
GRIDFORMAT_END
 95
        4
302
GRIDFORMAT
  1
GRIDFORMAT_BEGIN
 90
        0
 91
        1
 62
     0
 92
       -2
340
14
 93
        0
 40
0.045
309
GRIDFORMAT_END
 95
        8
302
GRIDFORMAT
  1
GRIDFORMAT_BEGIN
 90
        0
 91
        1
 62
     0
 92
       -2
340
14
 93
        0
 40
0.045
309
GRIDFORMAT_END
 95
       16
302
GRIDFORMAT
  1
GRIDFORMAT_BEGIN
 90
        0
 91
        1
 62
     0
 92
       -2
340
14
 93
        0
 40
0.045
309
GRIDFORMAT_END
 95
       32
302
GRIDFORMAT
  1
GRIDFORMAT_BEGIN
 90
        0
 91
        1
 62
     0
 92
       -2
340
14
 93
        0
 40
0.045
309
GRIDFORMAT_END
309
TABLEFORMAT_END
  1
CELLSTYLE_BEGIN
 90
        1
 91
        1
300
_TITLE
309
CELLSTYLE_END
300
CELLSTYLE
  1
TABLEFORMAT_BEGIN
 90
        5
170
     1
 91
        0
 92
        0
 62
   257
 93
        1
300
CONTENTFORMAT
  1
CONTENTFORMAT_BEGIN
 90
        0
 91
        0
 92
        4
 93
        0
300

 40
0.0
140
1.0
 94
        5
 62
     0
340
11
144
0.18
309
CONTENTFORMAT_END
171
     1
301
MARGIN
  1
CELLMARGIN_BEGIN
 40
0.06
 40
0.06
 40
0.06
 40
0.06
 40
0.06
 40
0.06
309
CELLMARGIN_END
 94
        6
 95
        1
302
GRIDFORMAT
  1
GRIDFORMAT_BEGIN
 90
        0
 91
        1
 62
     0
 92
       -2
340
14
 93
        0
 40
0.045
309
GRIDFORMAT_END
 95
        2
302
GRIDFORMAT
  1
GRIDFORMAT_BEGIN
 90
        0
 91
        1
 62
     0
 92
       -2
340
14
 93
        0
 40
0.045
309
GRIDFORMAT_END
 95
        4
302
GRIDFORMAT
  1
GRIDFORMAT_BEGIN
 90
        0
 91
        1
 62
     0
 92
       -2
340
14
 93
        0
 40
0.045
309
GRIDFORMAT_END
 95
        8
302
GRIDFORMAT
  1
GRIDFORMAT_BEGIN
 90
        0
 91
        1
 62
     0
 92
       -2
340
14
 93
        0
 40
0.045
309
GRIDFORMAT_END
 95
       16
302
GRIDFORMAT
  1
GRIDFORMAT_BEGIN
 90
        0
 91
        1
 62
     0
 92
       -2
340
14
 93
        0
 40
0.045
309
GRIDFORMAT_END
 95
       32
302
GRIDFORMAT
  1
GRIDFORMAT_BEGIN
 90
        0
 91
        1
 62
     0
 92
       -2
340
14
 93
        0
 40
0.045
309
GRIDFORMAT_END
309
TABLEFORMAT_END
  1
CELLSTYLE_BEGIN
 90
        2
 91
        1
300
_HEADER
309
CELLSTYLE_END
300
CELLSTYLE
  1
TABLEFORMAT_BEGIN
 90
        5
170
     1
 91
        0
 92
        0
 62
   257
 93
        1
300
CONTENTFORMAT
  1
CONTENTFORMAT_BEGIN
 90
        0
 91
        0
 92
        4
 93
        0
300

 40
0.0
140
1.0
 94
        2
 62
     0
340
11
144
0.18
309
CONTENTFORMAT_END
171
     1
301
MARGIN
  1
CELLMARGIN_BEGIN
 40
0.06
 40
0.06
 40
0.06
 40
0.06
 40
0.06
 40
0.06
309
CELLMARGIN_END
 94
        6
 95
        1
302
GRIDFORMAT
  1
GRIDFORMAT_BEGIN
 90
        0
 91
        1
 62
     0
 92
       -2
340
14
 93
        0
 40
0.045
309
GRIDFORMAT_END
 95
        2
302
GRIDFORMAT
  1
GRIDFORMAT_BEGIN
 90
        0
 91
        1
 62
     0
 92
       -2
340
14
 93
        0
 40
0.045
309
GRIDFORMAT_END
 95
        4
302
GRIDFORMAT
  1
GRIDFORMAT_BEGIN
 90
        0
 91
        1
 62
     0
 92
       -2
340
14
 93
        0
 40
0.045
309
GRIDFORMAT_END
 95
        8
302
GRIDFORMAT
  1
GRIDFORMAT_BEGIN
 90
        0
 91
        1
 62
     0
 92
       -2
340
14
 93
        0
 40
0.045
309
GRIDFORMAT_END
 95
       16
302
GRIDFORMAT
  1
GRIDFORMAT_BEGIN
 90
        0
 91
        1
 62
     0
 92
       -2
340
14
 93
        0
 40
0.045
309
GRIDFORMAT_END
 95
       32
302
GRIDFORMAT
  1
GRIDFORMAT_BEGIN
 90
        0
 91
        1
 62
     0
 92
       -2
340
14
 93
        0
 40
0.045
309
GRIDFORMAT_END
309
TABLEFORMAT_END
  1
CELLSTYLE_BEGIN
 90
        3
 91
        2
300
_DATA
309
CELLSTYLE_END
  0
XRECORD
  5
1AB
102
{ACAD_REACTORS
330
1AA
102
}
330
1AA
100
AcDbXrecord
280
     1
102
ACAD_ROUNDTRIP_PRE2007_TABLESTYLE
 90
        4
 91
        0
  1

 92
        4
 93
        0
  2

 94
        4
 95
        0
  3

  0
XRECORD
  5
17D
102
{ACAD_REACTORS
330
17C
102
}
330
17C
100
AcDbXrecord
280
     1
102
RTVSPropertyOp0
 70
     1
102
RTVSPropertyOp1
 70
     1
102
RTVSPropertyOp2
 70
     1
102
RTVSPropertyOp3
 70
     1
102
RTVSPropertyOp4
 70
     1
102
RTVSPropertyOp5
 70
     1
102
RTVSPropertyOp6
 70
     1
102
RTVSPropertyOp7
 70
     1
102
RTVSPropertyOp8
 70
     1
102
RTVSPropertyOp9
 70
     1
102
RTVSPropertyOp10
 70
     1
102
RTVSPropertyOp11
 70
     1
102
RTVSPropertyOp12
 70
     1
102
RTVSPropertyOp13
 70
     1
102
RTVSPropertyOp14
 70
     1
102
RTVSPropertyOp15
 70
     1
102
RTVSPropertyOp16
 70
     1
102
RTVSPropertyOp17
 70
     1
102
RTVSPropertyOp18
 70
     1
102
RTVSPropertyOp19
 70
     1
102
RTVSPropertyOp20
 70
     1
102
RTVSPropertyOp21
 70
     1
102
RTVSPropertyOp22
 70
     1
102
RTVSPropertyOp23
 70
     1
102
RTVSPropertyOp24
 70
     1
102
RTVSPropertyOp25
 70
     1
102
RTVSPropertyOp26
 70
     1
102
RTVSPropertyOp27
 70
     1
102
RTVSPropertyOp28
 70
     1
102
RTVSPropertyOp29
 70
     1
102
RTVSPropertyOp30
 70
     1
102
RTVSPropertyOp31
 70
     1
102
RTVSPropertyOp32
 70
     1
102
RTVSPropertyOp33
 70
     1
102
RTVSPropertyOp34
 70
     1
102
RTVSPropertyOp35
 70
     1
102
RTVSPropertyOp36
 70
     1
102
RTVSPropertyOp37
 70
     1
102
RTVSPropertyOp38
 70
     1
102
RTVSPropertyOp39
 70
     1
102
RTVSPropertyOp40
 70
     1
102
RTVSPropertyOp41
 70
     1
102
RTVSPropertyOp42
 70
     1
102
RTVSPropertyOp43
 70
     1
102
RTVSPropertyOp44
 70
     1
102
RTVSPropertyOp45
 70
     1
102
RTVSPropertyOp46
 70
     1
102
RTVSPropertyOp47
 70
     1
102
RTVSPropertyOp48
 70
     1
102
RTVSPropertyOp49
 70
     1
102
RTVSPropertyOp50
 70
     1
102
RTVSPropertyOp51
 70
     0
102
RTVSPropertyOp52
 70
     0
102
RTVSPropertyOp53
 70
     1
102
RTVSPropertyOp54
 70
     1
102
RTVSPropertyOp55
 70
     1
102
RTVSPropertyOp56
 70
     1
102
RTVSPropertyOp57
 70
     1
102
RTVSPost2010Prop28
280
     1
102
RTVSPost2010PropOp28
 70
     1
102
RTVSPost2010Prop29
280
     1
102
RTVSPost2010PropOp29
 70
     1
102
RTVSPost2010Prop30
280
     0
102
RTVSPost2010PropOp30
 70
     1
102
RTVSPost2010Prop31
280
     0
102
RTVSPost2010PropOp31
 70
     1
102
RTVSPost2010Prop32
280
     0
102
RTVSPost2010PropOp32
 70
     1
102
RTVSPost2010Prop33
280
     0
102
RTVSPost2010PropOp33
 70
     1
102
RTVSPost2010Prop34
280
     0
102
RTVSPost2010PropOp34
 70
     1
102
RTVSPost2010Prop35
280
     0
102
RTVSPost2010PropOp35
 70
     1
102
RTVSPost2010Prop36
280
     0
102
RTVSPost2010PropOp36
 70
     1
102
RTVSPost2010Prop37
 90
       50
102
RTVSPost2010PropOp37
 70
     1
102
RTVSPost2010Prop38
140
0.0
102
RTVSPost2010PropOp38
 70
     1
102
RTVSPost2010Prop39
140
1.0
102
RTVSPost2010PropOp39
 70
     1
102
RTVSPost2010Prop40
 90
        0
102
RTVSPost2010PropOp40
 70
     1
102
RTVSPost2010Prop41ColorIndex
 90
      178
102
RTVSPost2010Prop41ColorRGB
 90
        0
102
RTVSPost2010PropOp41
 70
     1
102
RTVSPost2010Prop42
 90
       50
102
RTVSPost2010PropOp42
 70
     1
102
RTVSPost2010Prop43
 90
        3
102
RTVSPost2010PropOp43
 70
     1
102
RTVSPost2010Prop44ColorIndex
 90
        5
102
RTVSPost2010Prop44ColorRGB
 90
      255
102
RTVSPost2010PropOp44
 70
     1
102
RTVSPost2010Prop45
280
     0
102
RTVSPost2010PropOp45
 70
     1
102
RTVSPost2010Prop46
 90
       50
102
RTVSPost2010PropOp46
 70
     1
102
RTVSPost2010Prop47
 90
       50
102
RTVSPost2010PropOp47
 70
     1
102
RTVSPost2010Prop48
 90
       50
102
RTVSPost2010PropOp48
 70
     1
102
RTVSPost2010Prop49
280
     0
102
RTVSPost2010PropOp49
 70
     1
102
RTVSPost2010Prop50
 90
       50
102
RTVSPost2010PropOp50
 70
     1
102
RTVSPost2010Prop51ColorIndex
 90
      256
102
RTVSPost2010Prop51ColorRGB
 90
-16777216
102
RTVSPost2010PropOp51
 70
     0
102
RTVSPost2010Prop52
140
1.0
102
RTVSPost2010PropOp52
 70
     0
102
RTVSPost2010Prop53
 90
        2
102
RTVSPost2010PropOp53
 70
     1
102
RTVSPost2010Prop54
  1
strokes_ogs.tif
102
RTVSPost2010PropOp54
 70
     1
102
RTVSPost2010Prop55
280
     0
102
RTVSPost2010PropOp55
 70
     1
102
RTVSPost2010Prop56
140
1.0
102
RTVSPost2010PropOp56
 70
     1
102
RTVSPost2010Prop57
140
1.0
102
RTVSPost2010PropOp57
 70
     1
  0
XRECORD
  5
183
102
{ACAD_REACTORS
330
182
102
}
330
182
100
AcDbXrecord
280
     1
102
RTVSPropertyOp0
 70
     1
102
RTVSPropertyOp1
 70
     1
102
RTVSPropertyOp2
 70
     1
102
RTVSPropertyOp3
 70
     1
102
RTVSPropertyOp4
 70
     1
102
RTVSPropertyOp5
 70
     1
102
RTVSPropertyOp6
 70
     1
102
RTVSPropertyOp7
 70
     1
102
RTVSPropertyOp8
 70
     1
102
RTVSPropertyOp9
 70
     1
102
RTVSPropertyOp10
 70
     1
102
RTVSPropertyOp11
 70
     1
102
RTVSPropertyOp12
 70
     1
102
RTVSPropertyOp13
 70
     1
102
RTVSPropertyOp14
 70
     1
102
RTVSPropertyOp15
 70
     1
102
RTVSPropertyOp16
 70
     1
102
RTVSPropertyOp17
 70
     1
102
RTVSPropertyOp18
 70
     1
102
RTVSPropertyOp19
 70
     1
102
RTVSPropertyOp20
 70
     1
102
RTVSPropertyOp21
 70
     1
102
RTVSPropertyOp22
 70
     1
102
RTVSPropertyOp23
 70
     1
102
RTVSPropertyOp24
 70
     1
102
RTVSPropertyOp25
 70
     1
102
RTVSPropertyOp26
 70
     1
102
RTVSPropertyOp27
 70
     1
102
RTVSPropertyOp28
 70
     1
102
RTVSPropertyOp29
 70
     1
102
RTVSPropertyOp30
 70
     1
102
RTVSPropertyOp31
 70
     1
102
RTVSPropertyOp32
 70
     1
102
RTVSPropertyOp33
 70
     1
102
RTVSPropertyOp34
 70
     1
102
RTVSPropertyOp35
 70
     1
102
RTVSPropertyOp36
 70
     1
102
RTVSPropertyOp37
 70
     1
102
RTVSPropertyOp38
 70
     1
102
RTVSPropertyOp39
 70
     1
102
RTVSPropertyOp40
 70
     1
102
RTVSPropertyOp41
 70
     1
102
RTVSPropertyOp42
 70
     1
102
RTVSPropertyOp43
 70
     1
102
RTVSPropertyOp44
 70
     1
102
RTVSPropertyOp45
 70
     1
102
RTVSPropertyOp46
 70
     1
102
RTVSPropertyOp47
 70
     1
102
RTVSPropertyOp48
 70
     1
102
RTVSPropertyOp49
 70
     1
102
RTVSPropertyOp50
 70
     1
102
RTVSPropertyOp51
 70
     0
102
RTVSPropertyOp52
 70
     0
102
RTVSPropertyOp53
 70
     1
102
RTVSPropertyOp54
 70
     1
102
RTVSPropertyOp55
 70
     1
102
RTVSPropertyOp56
 70
     1
102
RTVSPropertyOp57
 70
     1
102
RTVSPost2010Prop28
280
     0
102
RTVSPost2010PropOp28
 70
     1
102
RTVSPost2010Prop29
280
     1
102
RTVSPost2010PropOp29
 70
     1
102
RTVSPost2010Prop30
280
     1
102
RTVSPost2010PropOp30
 70
     1
102
RTVSPost2010Prop31
280
     0
102
RTVSPost2010PropOp31
 70
     1
102
RTVSPost2010Prop32
280
     0
102
RTVSPost2010PropOp32
 70
     1
102
RTVSPost2010Prop33
280
     0
102
RTVSPost2010PropOp33
 70
     1
102
RTVSPost2010Prop34
280
     0
102
RTVSPost2010PropOp34
 70
     1
102
RTVSPost2010Prop35
280
     0
102
RTVSPost2010PropOp35
 70
     1
102
RTVSPost2010Prop36
280
     0
102
RTVSPost2010PropOp36
 70
     1
102
RTVSPost2010Prop37
 90
       50
102
RTVSPost2010PropOp37
 70
     1
102
RTVSPost2010Prop38
140
0.0
102
RTVSPost2010PropOp38
 70
     1
102
RTVSPost2010Prop39
140
1.0
102
RTVSPost2010PropOp39
 70
     1
102
RTVSPost2010Prop40
 90
        0
102
RTVSPost2010PropOp40
 70
     1
102
RTVSPost2010Prop41ColorIndex
 90
      178
102
RTVSPost2010Prop41ColorRGB
 90
        0
102
RTVSPost2010PropOp41
 70
     1
102
RTVSPost2010Prop42
 90
       50
102
RTVSPost2010PropOp42
 70
     1
102
RTVSPost2010Prop43
 90
        3
102
RTVSPost2010PropOp43
 70
     1
102
RTVSPost2010Prop44ColorIndex
 90
        5
102
RTVSPost2010Prop44ColorRGB
 90
      255
102
RTVSPost2010PropOp44
 70
     1
102
RTVSPost2010Prop45
280
     0
102
RTVSPost2010PropOp45
 70
     1
102
RTVSPost2010Prop46
 90
       50
102
RTVSPost2010PropOp46
 70
     1
102
RTVSPost2010Prop47
 90
       50
102
RTVSPost2010PropOp47
 70
     1
102
RTVSPost2010Prop48
 90
       50
102
RTVSPost2010PropOp48
 70
     1
102
RTVSPost2010Prop49
280
     0
102
RTVSPost2010PropOp49
 70
     1
102
RTVSPost2010Prop50
 90
       50
102
RTVSPost2010PropOp50
 70
     1
102
RTVSPost2010Prop51ColorIndex
 90
      256
102
RTVSPost2010Prop51ColorRGB
 90
-16777216
102
RTVSPost2010PropOp51
 70
     0
102
RTVSPost2010Prop52
140
1.0
102
RTVSPost2010PropOp52
 70
     0
102
RTVSPost2010Prop53
 90
        2
102
RTVSPost2010PropOp53
 70
     1
102
RTVSPost2010Prop54
  1
strokes_ogs.tif
102
RTVSPost2010PropOp54
 70
     1
102
RTVSPost2010Prop55
280
     0
102
RTVSPost2010PropOp55
 70
     1
102
RTVSPost2010Prop56
140
1.0
102
RTVSPost2010PropOp56
 70
     1
102
RTVSPost2010Prop57
140
1.0
102
RTVSPost2010PropOp57
 70
     1
  0
XRECORD
  5
18B
102
{ACAD_REACTORS
330
18A
102
}
330
18A
100
AcDbXrecord
280
     1
102
RTVSPropertyOp0
 70
     1
102
RTVSPropertyOp1
 70
     1
102
RTVSPropertyOp2
 70
     1
102
RTVSPropertyOp3
 70
     1
102
RTVSPropertyOp4
 70
     1
102
RTVSPropertyOp5
 70
     1
102
RTVSPropertyOp6
 70
     1
102
RTVSPropertyOp7
 70
     1
102
RTVSPropertyOp8
 70
     1
102
RTVSPropertyOp9
 70
     1
102
RTVSPropertyOp10
 70
     1
102
RTVSPropertyOp11
 70
     1
102
RTVSPropertyOp12
 70
     1
102
RTVSPropertyOp13
 70
     1
102
RTVSPropertyOp14
 70
     1
102
RTVSPropertyOp15
 70
     1
102
RTVSPropertyOp16
 70
     1
102
RTVSPropertyOp17
 70
     1
102
RTVSPropertyOp18
 70
     1
102
RTVSPropertyOp19
 70
     1
102
RTVSPropertyOp20
 70
     1
102
RTVSPropertyOp21
 70
     1
102
RTVSPropertyOp22
 70
     1
102
RTVSPropertyOp23
 70
     1
102
RTVSPropertyOp24
 70
     1
102
RTVSPropertyOp25
 70
     1
102
RTVSPropertyOp26
 70
     1
102
RTVSPropertyOp27
 70
     1
102
RTVSPropertyOp28
 70
     1
102
RTVSPropertyOp29
 70
     1
102
RTVSPropertyOp30
 70
     1
102
RTVSPropertyOp31
 70
     1
102
RTVSPropertyOp32
 70
     1
102
RTVSPropertyOp33
 70
     1
102
RTVSPropertyOp34
 70
     1
102
RTVSPropertyOp35
 70
     1
102
RTVSPropertyOp36
 70
     1
102
RTVSPropertyOp37
 70
     1
102
RTVSPropertyOp38
 70
     1
102
RTVSPropertyOp39
 70
     1
102
RTVSPropertyOp40
 70
     1
102
RTVSPropertyOp41
 70
     1
102
RTVSPropertyOp42
 70
     1
102
RTVSPropertyOp43
 70
     1
102
RTVSPropertyOp44
 70
     1
102
RTVSPropertyOp45
 70
     1
102
RTVSPropertyOp46
 70
     1
102
RTVSPropertyOp47
 70
     1
102
RTVSPropertyOp48
 70
     1
102
RTVSPropertyOp49
 70
     1
102
RTVSPropertyOp50
 70
     1
102
RTVSPropertyOp51
 70
     0
102
RTVSPropertyOp52
 70
     0
102
RTVSPropertyOp53
 70
     1
102
RTVSPropertyOp54
 70
     1
102
RTVSPropertyOp55
 70
     1
102
RTVSPropertyOp56
 70
     1
102
RTVSPropertyOp57
 70
     1
102
RTVSPost2010Prop28
280
     0
102
RTVSPost2010PropOp28
 70
     1
102
RTVSPost2010Prop29
280
     1
102
RTVSPost2010PropOp29
 70
     1
102
RTVSPost2010Prop30
280
     1
102
RTVSPost2010PropOp30
 70
     1
102
RTVSPost2010Prop31
280
     0
102
RTVSPost2010PropOp31
 70
     1
102
RTVSPost2010Prop32
280
     0
102
RTVSPost2010PropOp32
 70
     1
102
RTVSPost2010Prop33
280
     0
102
RTVSPost2010PropOp33
 70
     1
102
RTVSPost2010Prop34
280
     0
102
RTVSPost2010PropOp34
 70
     1
102
RTVSPost2010Prop35
280
     0
102
RTVSPost2010PropOp35
 70
     1
102
RTVSPost2010Prop36
280
     0
102
RTVSPost2010PropOp36
 70
     1
102
RTVSPost2010Prop37
 90
       50
102
RTVSPost2010PropOp37
 70
     1
102
RTVSPost2010Prop38
140
0.0
102
RTVSPost2010PropOp38
 70
     1
102
RTVSPost2010Prop39
140
1.0
102
RTVSPost2010PropOp39
 70
     1
102
RTVSPost2010Prop40
 90
        0
102
RTVSPost2010PropOp40
 70
     1
102
RTVSPost2010Prop41ColorIndex
 90
      178
102
RTVSPost2010Prop41ColorRGB
 90
        0
102
RTVSPost2010PropOp41
 70
     1
102
RTVSPost2010Prop42
 90
       50
102
RTVSPost2010PropOp42
 70
     1
102
RTVSPost2010Prop43
 90
        3
102
RTVSPost2010PropOp43
 70
     1
102
RTVSPost2010Prop44ColorIndex
 90
        5
102
RTVSPost2010Prop44ColorRGB
 90
      255
102
RTVSPost2010PropOp44
 70
     1
102
RTVSPost2010Prop45
280
     0
102
RTVSPost2010PropOp45
 70
     1
102
RTVSPost2010Prop46
 90
       50
102
RTVSPost2010PropOp46
 70
     1
102
RTVSPost2010Prop47
 90
       50
102
RTVSPost2010PropOp47
 70
     1
102
RTVSPost2010Prop48
 90
       50
102
RTVSPost2010PropOp48
 70
     1
102
RTVSPost2010Prop49
280
     0
102
RTVSPost2010PropOp49
 70
     1
102
RTVSPost2010Prop50
 90
       50
102
RTVSPost2010PropOp50
 70
     1
102
RTVSPost2010Prop51ColorIndex
 90
      256
102
RTVSPost2010Prop51ColorRGB
 90
-16777216
102
RTVSPost2010PropOp51
 70
     0
102
RTVSPost2010Prop52
140
1.0
102
RTVSPost2010PropOp52
 70
     0
102
RTVSPost2010Prop53
 90
        2
102
RTVSPost2010PropOp53
 70
     1
102
RTVSPost2010Prop54
  1
strokes_ogs.tif
102
RTVSPost2010PropOp54
 70
     1
102
RTVSPost2010Prop55
280
     0
102
RTVSPost2010PropOp55
 70
     1
102
RTVSPost2010Prop56
140
1.0
102
RTVSPost2010PropOp56
 70
     1
102
RTVSPost2010Prop57
140
1.0
102
RTVSPost2010PropOp57
 70
     1
  0
XRECORD
  5
193
102
{ACAD_REACTORS
330
192
102
}
330
192
100
AcDbXrecord
280
     1
102
RTVSPropertyOp0
 70
     1
102
RTVSPropertyOp1
 70
     1
102
RTVSPropertyOp2
 70
     1
102
RTVSPropertyOp3
 70
     1
102
RTVSPropertyOp4
 70
     1
102
RTVSPropertyOp5
 70
     1
102
RTVSPropertyOp6
 70
     1
102
RTVSPropertyOp7
 70
     1
102
RTVSPropertyOp8
 70
     1
102
RTVSPropertyOp9
 70
     1
102
RTVSPropertyOp10
 70
     1
102
RTVSPropertyOp11
 70
     1
102
RTVSPropertyOp12
 70
     1
102
RTVSPropertyOp13
 70
     1
102
RTVSPropertyOp14
 70
     1
102
RTVSPropertyOp15
 70
     1
102
RTVSPropertyOp16
 70
     1
102
RTVSPropertyOp17
 70
     1
102
RTVSPropertyOp18
 70
     1
102
RTVSPropertyOp19
 70
     1
102
RTVSPropertyOp20
 70
     1
102
RTVSPropertyOp21
 70
     1
102
RTVSPropertyOp22
 70
     1
102
RTVSPropertyOp23
 70
     1
102
RTVSPropertyOp24
 70
     1
102
RTVSPropertyOp25
 70
     1
102
RTVSPropertyOp26
 70
     1
102
RTVSPropertyOp27
 70
     1
102
RTVSPropertyOp28
 70
     1
102
RTVSPropertyOp29
 70
     1
102
RTVSPropertyOp30
 70
     1
102
RTVSPropertyOp31
 70
     1
102
RTVSPropertyOp32
 70
     1
102
RTVSPropertyOp33
 70
     1
102
RTVSPropertyOp34
 70
     1
102
RTVSPropertyOp35
 70
     1
102
RTVSPropertyOp36
 70
     1
102
RTVSPropertyOp37
 70
     1
102
RTVSPropertyOp38
 70
     1
102
RTVSPropertyOp39
 70
     1
102
RTVSPropertyOp40
 70
     1
102
RTVSPropertyOp41
 70
     1
102
RTVSPropertyOp42
 70
     1
102
RTVSPropertyOp43
 70
     1
102
RTVSPropertyOp44
 70
     1
102
RTVSPropertyOp45
 70
     1
102
RTVSPropertyOp46
 70
     1
102
RTVSPropertyOp47
 70
     1
102
RTVSPropertyOp48
 70
     1
102
RTVSPropertyOp49
 70
     1
102
RTVSPropertyOp50
 70
     1
102
RTVSPropertyOp51
 70
     0
102
RTVSPropertyOp52
 70
     0
102
RTVSPropertyOp53
 70
     1
102
RTVSPropertyOp54
 70
     1
102
RTVSPropertyOp55
 70
     1
102
RTVSPropertyOp56
 70
     1
102
RTVSPropertyOp57
 70
     1
102
RTVSPost2010Prop28
280
     0
102
RTVSPost2010PropOp28
 70
     1
102
RTVSPost2010Prop29
280
     1
102
RTVSPost2010PropOp29
 70
     1
102
RTVSPost2010Prop30
280
     1
102
RTVSPost2010PropOp30
 70
     1
102
RTVSPost2010Prop31
280
     0
102
RTVSPost2010PropOp31
 70
     1
102
RTVSPost2010Prop32
280
     0
102
RTVSPost2010PropOp32
 70
     1
102
RTVSPost2010Prop33
280
     0
102
RTVSPost2010PropOp33
 70
     1
102
RTVSPost2010Prop34
280
     0
102
RTVSPost2010PropOp34
 70
     1
102
RTVSPost2010Prop35
280
     0
102
RTVSPost2010PropOp35
 70
     1
102
RTVSPost2010Prop36
280
     0
102
RTVSPost2010PropOp36
 70
     1
102
RTVSPost2010Prop37
 90
       50
102
RTVSPost2010PropOp37
 70
     1
102
RTVSPost2010Prop38
140
0.0
102
RTVSPost2010PropOp38
 70
     1
102
RTVSPost2010Prop39
140
1.0
102
RTVSPost2010PropOp39
 70
     1
102
RTVSPost2010Prop40
 90
        0
102
RTVSPost2010PropOp40
 70
     1
102
RTVSPost2010Prop41ColorIndex
 90
      178
102
RTVSPost2010Prop41ColorRGB
 90
        0
102
RTVSPost2010PropOp41
 70
     1
102
RTVSPost2010Prop42
 90
       50
102
RTVSPost2010PropOp42
 70
     1
102
RTVSPost2010Prop43
 90
        3
102
RTVSPost2010PropOp43
 70
     1
102
RTVSPost2010Prop44ColorIndex
 90
        5
102
RTVSPost2010Prop44ColorRGB
 90
      255
102
RTVSPost2010PropOp44
 70
     1
102
RTVSPost2010Prop45
280
     0
102
RTVSPost2010PropOp45
 70
     1
102
RTVSPost2010Prop46
 90
       50
102
RTVSPost2010PropOp46
 70
     1
102
RTVSPost2010Prop47
 90
       50
102
RTVSPost2010PropOp47
 70
     1
102
RTVSPost2010Prop48
 90
       50
102
RTVSPost2010PropOp48
 70
     1
102
RTVSPost2010Prop49
280
     0
102
RTVSPost2010PropOp49
 70
     1
102
RTVSPost2010Prop50
 90
       50
102
RTVSPost2010PropOp50
 70
     1
102
RTVSPost2010Prop51ColorIndex
 90
      256
102
RTVSPost2010Prop51ColorRGB
 90
-16777216
102
RTVSPost2010PropOp51
 70
     0
102
RTVSPost2010Prop52
140
1.0
102
RTVSPost2010PropOp52
 70
     0
102
RTVSPost2010Prop53
 90
        2
102
RTVSPost2010PropOp53
 70
     1
102
RTVSPost2010Prop54
  1
strokes_ogs.tif
102
RTVSPost2010PropOp54
 70
     1
102
RTVSPost2010Prop55
280
     0
102
RTVSPost2010PropOp55
 70
     1
102
RTVSPost2010Prop56
140
1.0
102
RTVSPost2010PropOp56
 70
     1
102
RTVSPost2010Prop57
140
1.0
102
RTVSPost2010PropOp57
 70
     1
  0
XRECORD
  5
187
102
{ACAD_REACTORS
330
186
102
}
330
186
100
AcDbXrecord
280
     1
102
RTVSPropertyOp0
 70
     1
102
RTVSPropertyOp1
 70
     1
102
RTVSPropertyOp2
 70
     1
102
RTVSPropertyOp3
 70
     1
102
RTVSPropertyOp4
 70
     1
102
RTVSPropertyOp5
 70
     1
102
RTVSPropertyOp6
 70
     1
102
RTVSPropertyOp7
 70
     1
102
RTVSPropertyOp8
 70
     1
102
RTVSPropertyOp9
 70
     1
102
RTVSPropertyOp10
 70
     1
102
RTVSPropertyOp11
 70
     1
102
RTVSPropertyOp12
 70
     1
102
RTVSPropertyOp13
 70
     1
102
RTVSPropertyOp14
 70
     1
102
RTVSPropertyOp15
 70
     1
102
RTVSPropertyOp16
 70
     1
102
RTVSPropertyOp17
 70
     1
102
RTVSPropertyOp18
 70
     1
102
RTVSPropertyOp19
 70
     1
102
RTVSPropertyOp20
 70
     1
102
RTVSPropertyOp21
 70
     1
102
RTVSPropertyOp22
 70
     1
102
RTVSPropertyOp23
 70
     1
102
RTVSPropertyOp24
 70
     1
102
RTVSPropertyOp25
 70
     1
102
RTVSPropertyOp26
 70
     1
102
RTVSPropertyOp27
 70
     1
102
RTVSPropertyOp28
 70
     1
102
RTVSPropertyOp29
 70
     1
102
RTVSPropertyOp30
 70
     1
102
RTVSPropertyOp31
 70
     1
102
RTVSPropertyOp32
 70
     1
102
RTVSPropertyOp33
 70
     1
102
RTVSPropertyOp34
 70
     1
102
RTVSPropertyOp35
 70
     1
102
RTVSPropertyOp36
 70
     1
102
RTVSPropertyOp37
 70
     1
102
RTVSPropertyOp38
 70
     1
102
RTVSPropertyOp39
 70
     1
102
RTVSPropertyOp40
 70
     1
102
RTVSPropertyOp41
 70
     1
102
RTVSPropertyOp42
 70
     1
102
RTVSPropertyOp43
 70
     1
102
RTVSPropertyOp44
 70
     1
102
RTVSPropertyOp45
 70
     1
102
RTVSPropertyOp46
 70
     1
102
RTVSPropertyOp47
 70
     1
102
RTVSPropertyOp48
 70
     1
102
RTVSPropertyOp49
 70
     1
102
RTVSPropertyOp50
 70
     1
102
RTVSPropertyOp51
 70
     0
102
RTVSPropertyOp52
 70
     0
102
RTVSPropertyOp53
 70
     1
102
RTVSPropertyOp54
 70
     1
102
RTVSPropertyOp55
 70
     1
102
RTVSPropertyOp56
 70
     1
102
RTVSPropertyOp57
 70
     1
102
RTVSPost2010Prop28
280
     0
102
RTVSPost2010PropOp28
 70
     1
102
RTVSPost2010Prop29
280
     1
102
RTVSPost2010PropOp29
 70
     1
102
RTVSPost2010Prop30
280
     1
102
RTVSPost2010PropOp30
 70
     1
102
RTVSPost2010Prop31
280
     0
102
RTVSPost2010PropOp31
 70
     1
102
RTVSPost2010Prop32
280
     0
102
RTVSPost2010PropOp32
 70
     1
102
RTVSPost2010Prop33
280
     0
102
RTVSPost2010PropOp33
 70
     1
102
RTVSPost2010Prop34
280
     0
102
RTVSPost2010PropOp34
 70
     1
102
RTVSPost2010Prop35
280
     0
102
RTVSPost2010PropOp35
 70
     1
102
RTVSPost2010Prop36
280
     0
102
RTVSPost2010PropOp36
 70
     1
102
RTVSPost2010Prop37
 90
       50
102
RTVSPost2010PropOp37
 70
     1
102
RTVSPost2010Prop38
140
0.0
102
RTVSPost2010PropOp38
 70
     1
102
RTVSPost2010Prop39
140
1.0
102
RTVSPost2010PropOp39
 70
     1
102
RTVSPost2010Prop40
 90
        0
102
RTVSPost2010PropOp40
 70
     1
102
RTVSPost2010Prop41ColorIndex
 90
      178
102
RTVSPost2010Prop41ColorRGB
 90
        0
102
RTVSPost2010PropOp41
 70
     1
102
RTVSPost2010Prop42
 90
       50
102
RTVSPost2010PropOp42
 70
     1
102
RTVSPost2010Prop43
 90
        3
102
RTVSPost2010PropOp43
 70
     1
102
RTVSPost2010Prop44ColorIndex
 90
        5
102
RTVSPost2010Prop44ColorRGB
 90
      255
102
RTVSPost2010PropOp44
 70
     1
102
RTVSPost2010Prop45
280
     0
102
RTVSPost2010PropOp45
 70
     1
102
RTVSPost2010Prop46
 90
       50
102
RTVSPost2010PropOp46
 70
     1
102
RTVSPost2010Prop47
 90
       50
102
RTVSPost2010PropOp47
 70
     1
102
RTVSPost2010Prop48
 90
       50
102
RTVSPost2010PropOp48
 70
     1
102
RTVSPost2010Prop49
280
     0
102
RTVSPost2010PropOp49
 70
     1
102
RTVSPost2010Prop50
 90
       50
102
RTVSPost2010PropOp50
 70
     1
102
RTVSPost2010Prop51ColorIndex
 90
      256
102
RTVSPost2010Prop51ColorRGB
 90
-16777216
102
RTVSPost2010PropOp51
 70
     0
102
RTVSPost2010Prop52
140
1.0
102
RTVSPost2010PropOp52
 70
     0
102
RTVSPost2010Prop53
 90
        2
102
RTVSPost2010PropOp53
 70
     1
102
RTVSPost2010Prop54
  1
strokes_ogs.tif
102
RTVSPost2010PropOp54
 70
     1
102
RTVSPost2010Prop55
280
     0
102
RTVSPost2010PropOp55
 70
     1
102
RTVSPost2010Prop56
140
1.0
102
RTVSPost2010PropOp56
 70
     1
102
RTVSPost2010Prop57
140
1.0
102
RTVSPost2010PropOp57
 70
     1
  0
XRECORD
  5
189
102
{ACAD_REACTORS
330
188
102
}
330
188
100
AcDbXrecord
280
     1
102
RTVSPropertyOp0
 70
     1
102
RTVSPropertyOp1
 70
     1
102
RTVSPropertyOp2
 70
     1
102
RTVSPropertyOp3
 70
     1
102
RTVSPropertyOp4
 70
     1
102
RTVSPropertyOp5
 70
     1
102
RTVSPropertyOp6
 70
     1
102
RTVSPropertyOp7
 70
     1
102
RTVSPropertyOp8
 70
     1
102
RTVSPropertyOp9
 70
     1
102
RTVSPropertyOp10
 70
     1
102
RTVSPropertyOp11
 70
     1
102
RTVSPropertyOp12
 70
     1
102
RTVSPropertyOp13
 70
     1
102
RTVSPropertyOp14
 70
     1
102
RTVSPropertyOp15
 70
     1
102
RTVSPropertyOp16
 70
     1
102
RTVSPropertyOp17
 70
     1
102
RTVSPropertyOp18
 70
     1
102
RTVSPropertyOp19
 70
     1
102
RTVSPropertyOp20
 70
     1
102
RTVSPropertyOp21
 70
     1
102
RTVSPropertyOp22
 70
     1
102
RTVSPropertyOp23
 70
     1
102
RTVSPropertyOp24
 70
     1
102
RTVSPropertyOp25
 70
     1
102
RTVSPropertyOp26
 70
     1
102
RTVSPropertyOp27
 70
     1
102
RTVSPropertyOp28
 70
     1
102
RTVSPropertyOp29
 70
     1
102
RTVSPropertyOp30
 70
     1
102
RTVSPropertyOp31
 70
     1
102
RTVSPropertyOp32
 70
     1
102
RTVSPropertyOp33
 70
     1
102
RTVSPropertyOp34
 70
     1
102
RTVSPropertyOp35
 70
     1
102
RTVSPropertyOp36
 70
     1
102
RTVSPropertyOp37
 70
     1
102
RTVSPropertyOp38
 70
     1
102
RTVSPropertyOp39
 70
     1
102
RTVSPropertyOp40
 70
     1
102
RTVSPropertyOp41
 70
     1
102
RTVSPropertyOp42
 70
     1
102
RTVSPropertyOp43
 70
     1
102
RTVSPropertyOp44
 70
     1
102
RTVSPropertyOp45
 70
     1
102
RTVSPropertyOp46
 70
     1
102
RTVSPropertyOp47
 70
     1
102
RTVSPropertyOp48
 70
     1
102
RTVSPropertyOp49
 70
     1
102
RTVSPropertyOp50
 70
     1
102
RTVSPropertyOp51
 70
     0
102
RTVSPropertyOp52
 70
     0
102
RTVSPropertyOp53
 70
     1
102
RTVSPropertyOp54
 70
     1
102
RTVSPropertyOp55
 70
     1
102
RTVSPropertyOp56
 70
     1
102
RTVSPropertyOp57
 70
     1
102
RTVSPost2010Prop28
280
     0
102
RTVSPost2010PropOp28
 70
     1
102
RTVSPost2010Prop29
280
     1
102
RTVSPost2010PropOp29
 70
     1
102
RTVSPost2010Prop30
280
     1
102
RTVSPost2010PropOp30
 70
     1
102
RTVSPost2010Prop31
280
     0
102
RTVSPost2010PropOp31
 70
     1
102
RTVSPost2010Prop32
280
     0
102
RTVSPost2010PropOp32
 70
     1
102
RTVSPost2010Prop33
280
     0
102
RTVSPost2010PropOp33
 70
     1
102
RTVSPost2010Prop34
280
     0
102
RTVSPost2010PropOp34
 70
     1
102
RTVSPost2010Prop35
280
     0
102
RTVSPost2010PropOp35
 70
     1
102
RTVSPost2010Prop36
280
     0
102
RTVSPost2010PropOp36
 70
     1
102
RTVSPost2010Prop37
 90
       50
102
RTVSPost2010PropOp37
 70
     1
102
RTVSPost2010Prop38
140
0.0
102
RTVSPost2010PropOp38
 70
     1
102
RTVSPost2010Prop39
140
1.0
102
RTVSPost2010PropOp39
 70
     1
102
RTVSPost2010Prop40
 90
        0
102
RTVSPost2010PropOp40
 70
     1
102
RTVSPost2010Prop41ColorIndex
 90
      178
102
RTVSPost2010Prop41ColorRGB
 90
        0
102
RTVSPost2010PropOp41
 70
     1
102
RTVSPost2010Prop42
 90
       50
102
RTVSPost2010PropOp42
 70
     1
102
RTVSPost2010Prop43
 90
        3
102
RTVSPost2010PropOp43
 70
     1
102
RTVSPost2010Prop44ColorIndex
 90
        5
102
RTVSPost2010Prop44ColorRGB
 90
      255
102
RTVSPost2010PropOp44
 70
     1
102
RTVSPost2010Prop45
280
     0
102
RTVSPost2010PropOp45
 70
     1
102
RTVSPost2010Prop46
 90
       50
102
RTVSPost2010PropOp46
 70
     1
102
RTVSPost2010Prop47
 90
       50
102
RTVSPost2010PropOp47
 70
     1
102
RTVSPost2010Prop48
 90
       50
102
RTVSPost2010PropOp48
 70
     1
102
RTVSPost2010Prop49
280
     0
102
RTVSPost2010PropOp49
 70
     1
102
RTVSPost2010Prop50
 90
       50
102
RTVSPost2010PropOp50
 70
     1
102
RTVSPost2010Prop51ColorIndex
 90
      256
102
RTVSPost2010Prop51ColorRGB
 90
-16777216
102
RTVSPost2010PropOp51
 70
     0
102
RTVSPost2010Prop52
140
1.0
102
RTVSPost2010PropOp52
 70
     0
102
RTVSPost2010Prop53
 90
        2
102
RTVSPost2010PropOp53
 70
     1
102
RTVSPost2010Prop54
  1
strokes_ogs.tif
102
RTVSPost2010PropOp54
 70
     1
102
RTVSPost2010Prop55
280
     0
102
RTVSPost2010PropOp55
 70
     1
102
RTVSPost2010Prop56
140
1.0
102
RTVSPost2010PropOp56
 70
     1
102
RTVSPost2010Prop57
140
1.0
102
RTVSPost2010PropOp57
 70
     1
  0
XRECORD
  5
199
102
{ACAD_REACTORS
330
198
102
}
330
198
100
AcDbXrecord
280
     1
102
RTVSPropertyOp0
 70
     0
102
RTVSPropertyOp1
 70
     0
102
RTVSPropertyOp2
 70
     0
102
RTVSPropertyOp3
 70
     0
102
RTVSPropertyOp4
 70
     0
102
RTVSPropertyOp5
 70
     0
102
RTVSPropertyOp6
 70
     0
102
RTVSPropertyOp7
 70
     0
102
RTVSPropertyOp8
 70
     0
102
RTVSPropertyOp9
 70
     0
102
RTVSPropertyOp10
 70
     0
102
RTVSPropertyOp11
 70
     0
102
RTVSPropertyOp12
 70
     0
102
RTVSPropertyOp13
 70
     0
102
RTVSPropertyOp14
 70
     2
102
RTVSPropertyOp15
 70
     0
102
RTVSPropertyOp16
 70
     0
102
RTVSPropertyOp17
 70
     0
102
RTVSPropertyOp18
 70
     0
102
RTVSPropertyOp19
 70
     0
102
RTVSPropertyOp20
 70
     0
102
RTVSPropertyOp21
 70
     0
102
RTVSPropertyOp22
 70
     0
102
RTVSPropertyOp23
 70
     0
102
RTVSPropertyOp24
 70
     0
102
RTVSPropertyOp25
 70
     0
102
RTVSPropertyOp26
 70
     0
102
RTVSPropertyOp27
 70
     0
102
RTVSPropertyOp28
 70
     0
102
RTVSPropertyOp29
 70
     0
102
RTVSPropertyOp30
 70
     0
102
RTVSPropertyOp31
 70
     0
102
RTVSPropertyOp32
 70
     0
102
RTVSPropertyOp33
 70
     0
102
RTVSPropertyOp34
 70
     0
102
RTVSPropertyOp35
 70
     0
102
RTVSPropertyOp36
 70
     0
102
RTVSPropertyOp37
 70
     0
102
RTVSPropertyOp38
 70
     0
102
RTVSPropertyOp39
 70
     0
102
RTVSPropertyOp40
 70
     0
102
RTVSPropertyOp41
 70
     0
102
RTVSPropertyOp42
 70
     0
102
RTVSPropertyOp43
 70
     0
102
RTVSPropertyOp44
 70
     0
102
RTVSPropertyOp45
 70
     0
102
RTVSPropertyOp46
 70
     0
102
RTVSPropertyOp47
 70
     0
102
RTVSPropertyOp48
 70
     0
102
RTVSPropertyOp49
 70
     0
102
RTVSPropertyOp50
 70
     0
102
RTVSPropertyOp51
 70
     0
102
RTVSPropertyOp52
 70
     0
102
RTVSPropertyOp53
 70
     0
102
RTVSPropertyOp54
 70
     0
102
RTVSPropertyOp55
 70
     0
102
RTVSPropertyOp56
 70
     0
102
RTVSPropertyOp57
 70
     0
102
RTVSPost2010Prop28
280
     0
102
RTVSPost2010PropOp28
 70
     0
102
RTVSPost2010Prop29
280
     1
102
RTVSPost2010PropOp29
 70
     0
102
RTVSPost2010Prop30
280
     1
102
RTVSPost2010PropOp30
 70
     0
102
RTVSPost2010Prop31
280
     0
102
RTVSPost2010PropOp31
 70
     0
102
RTVSPost2010Prop32
280
     0
102
RTVSPost2010PropOp32
 70
     0
102
RTVSPost2010Prop33
280
     0
102
RTVSPost2010PropOp33
 70
     0
102
RTVSPost2010Prop34
280
     0
102
RTVSPost2010PropOp34
 70
     0
102
RTVSPost2010Prop35
280
     0
102
RTVSPost2010PropOp35
 70
     0
102
RTVSPost2010Prop36
280
     0
102
RTVSPost2010PropOp36
 70
     0
102
RTVSPost2010Prop37
 90
       50
102
RTVSPost2010PropOp37
 70
     0
102
RTVSPost2010Prop38
140
0.0
102
RTVSPost2010PropOp38
 70
     0
102
RTVSPost2010Prop39
140
1.0
102
RTVSPost2010PropOp39
 70
     0
102
RTVSPost2010Prop40
 90
        0
102
RTVSPost2010PropOp40
 70
     0
102
RTVSPost2010Prop41ColorIndex
 90
      178
102
RTVSPost2010Prop41ColorRGB
 90
        0
102
RTVSPost2010PropOp41
 70
     0
102
RTVSPost2010Prop42
 90
       50
102
RTVSPost2010PropOp42
 70
     0
102
RTVSPost2010Prop43
 90
        3
102
RTVSPost2010PropOp43
 70
     0
102
RTVSPost2010Prop44ColorIndex
 90
        5
102
RTVSPost2010Prop44ColorRGB
 90
      255
102
RTVSPost2010PropOp44
 70
     0
102
RTVSPost2010Prop45
280
     0
102
RTVSPost2010PropOp45
 70
     0
102
RTVSPost2010Prop46
 90
       50
102
RTVSPost2010PropOp46
 70
     0
102
RTVSPost2010Prop47
 90
       50
102
RTVSPost2010PropOp47
 70
     0
102
RTVSPost2010Prop48
 90
       50
102
RTVSPost2010PropOp48
 70
     0
102
RTVSPost2010Prop49
280
     0
102
RTVSPost2010PropOp49
 70
     0
102
RTVSPost2010Prop50
 90
       50
102
RTVSPost2010PropOp50
 70
     0
102
RTVSPost2010Prop51ColorIndex
 90
      256
102
RTVSPost2010Prop51ColorRGB
 90
-16777216
102
RTVSPost2010PropOp51
 70
     0
102
RTVSPost2010Prop52
140
1.0
102
RTVSPost2010PropOp52
 70
     0
102
RTVSPost2010Prop53
 90
        2
102
RTVSPost2010PropOp53
 70
     0
102
RTVSPost2010Prop54
  1
strokes_ogs.tif
102
RTVSPost2010PropOp54
 70
     0
102
RTVSPost2010Prop55
280
     0
102
RTVSPost2010PropOp55
 70
     0
102
RTVSPost2010Prop56
140
1.0
102
RTVSPost2010PropOp56
 70
     0
102
RTVSPost2010Prop57
140
1.0
102
RTVSPost2010PropOp57
 70
     0
  0
XRECORD
  5
191
102
{ACAD_REACTORS
330
190
102
}
330
190
100
AcDbXrecord
280
     1
102
RTVSPropertyOp0
 70
     1
102
RTVSPropertyOp1
 70
     1
102
RTVSPropertyOp2
 70
     1
102
RTVSPropertyOp3
 70
     1
102
RTVSPropertyOp4
 70
     1
102
RTVSPropertyOp5
 70
     1
102
RTVSPropertyOp6
 70
     1
102
RTVSPropertyOp7
 70
     1
102
RTVSPropertyOp8
 70
     1
102
RTVSPropertyOp9
 70
     1
102
RTVSPropertyOp10
 70
     1
102
RTVSPropertyOp11
 70
     1
102
RTVSPropertyOp12
 70
     1
102
RTVSPropertyOp13
 70
     1
102
RTVSPropertyOp14
 70
     1
102
RTVSPropertyOp15
 70
     1
102
RTVSPropertyOp16
 70
     1
102
RTVSPropertyOp17
 70
     1
102
RTVSPropertyOp18
 70
     1
102
RTVSPropertyOp19
 70
     1
102
RTVSPropertyOp20
 70
     1
102
RTVSPropertyOp21
 70
     1
102
RTVSPropertyOp22
 70
     1
102
RTVSPropertyOp23
 70
     1
102
RTVSPropertyOp24
 70
     1
102
RTVSPropertyOp25
 70
     1
102
RTVSPropertyOp26
 70
     1
102
RTVSPropertyOp27
 70
     1
102
RTVSPropertyOp28
 70
     1
102
RTVSPropertyOp29
 70
     1
102
RTVSPropertyOp30
 70
     1
102
RTVSPropertyOp31
 70
     1
102
RTVSPropertyOp32
 70
     1
102
RTVSPropertyOp33
 70
     1
102
RTVSPropertyOp34
 70
     1
102
RTVSPropertyOp35
 70
     1
102
RTVSPropertyOp36
 70
     1
102
RTVSPropertyOp37
 70
     1
102
RTVSPropertyOp38
 70
     1
102
RTVSPropertyOp39
 70
     1
102
RTVSPropertyOp40
 70
     1
102
RTVSPropertyOp41
 70
     1
102
RTVSPropertyOp42
 70
     1
102
RTVSPropertyOp43
 70
     1
102
RTVSPropertyOp44
 70
     1
102
RTVSPropertyOp45
 70
     1
102
RTVSPropertyOp46
 70
     1
102
RTVSPropertyOp47
 70
     1
102
RTVSPropertyOp48
 70
     1
102
RTVSPropertyOp49
 70
     1
102
RTVSPropertyOp50
 70
     1
102
RTVSPropertyOp51
 70
     0
102
RTVSPropertyOp52
 70
     0
102
RTVSPropertyOp53
 70
     1
102
RTVSPropertyOp54
 70
     1
102
RTVSPropertyOp55
 70
     1
102
RTVSPropertyOp56
 70
     1
102
RTVSPropertyOp57
 70
     1
102
RTVSPost2010Prop28
280
     0
102
RTVSPost2010PropOp28
 70
     1
102
RTVSPost2010Prop29
280
     1
102
RTVSPost2010PropOp29
 70
     1
102
RTVSPost2010Prop30
280
     1
102
RTVSPost2010PropOp30
 70
     1
102
RTVSPost2010Prop31
280
     0
102
RTVSPost2010PropOp31
 70
     1
102
RTVSPost2010Prop32
280
     0
102
RTVSPost2010PropOp32
 70
     1
102
RTVSPost2010Prop33
280
     0
102
RTVSPost2010PropOp33
 70
     1
102
RTVSPost2010Prop34
280
     0
102
RTVSPost2010PropOp34
 70
     1
102
RTVSPost2010Prop35
280
     0
102
RTVSPost2010PropOp35
 70
     1
102
RTVSPost2010Prop36
280
     0
102
RTVSPost2010PropOp36
 70
     1
102
RTVSPost2010Prop37
 90
       50
102
RTVSPost2010PropOp37
 70
     1
102
RTVSPost2010Prop38
140
0.0
102
RTVSPost2010PropOp38
 70
     1
102
RTVSPost2010Prop39
140
1.0
102
RTVSPost2010PropOp39
 70
     1
102
RTVSPost2010Prop40
 90
        0
102
RTVSPost2010PropOp40
 70
     1
102
RTVSPost2010Prop41ColorIndex
 90
      178
102
RTVSPost2010Prop41ColorRGB
 90
        0
102
RTVSPost2010PropOp41
 70
     1
102
RTVSPost2010Prop42
 90
       50
102
RTVSPost2010PropOp42
 70
     1
102
RTVSPost2010Prop43
 90
        3
102
RTVSPost2010PropOp43
 70
     1
102
RTVSPost2010Prop44ColorIndex
 90
        5
102
RTVSPost2010Prop44ColorRGB
 90
      255
102
RTVSPost2010PropOp44
 70
     1
102
RTVSPost2010Prop45
280
     0
102
RTVSPost2010PropOp45
 70
     1
102
RTVSPost2010Prop46
 90
       50
102
RTVSPost2010PropOp46
 70
     1
102
RTVSPost2010Prop47
 90
       50
102
RTVSPost2010PropOp47
 70
     1
102
RTVSPost2010Prop48
 90
       50
102
RTVSPost2010PropOp48
 70
     1
102
RTVSPost2010Prop49
280
     0
102
RTVSPost2010PropOp49
 70
     1
102
RTVSPost2010Prop50
 90
       50
102
RTVSPost2010PropOp50
 70
     1
102
RTVSPost2010Prop51ColorIndex
 90
      256
102
RTVSPost2010Prop51ColorRGB
 90
-16777216
102
RTVSPost2010PropOp51
 70
     0
102
RTVSPost2010Prop52
140
1.0
102
RTVSPost2010PropOp52
 70
     0
102
RTVSPost2010Prop53
 90
        2
102
RTVSPost2010PropOp53
 70
     1
102
RTVSPost2010Prop54
  1
strokes_ogs.tif
102
RTVSPost2010PropOp54
 70
     1
102
RTVSPost2010Prop55
280
     0
102
RTVSPost2010PropOp55
 70
     1
102
RTVSPost2010Prop56
140
1.0
102
RTVSPost2010PropOp56
 70
     1
102
RTVSPost2010Prop57
140
1.0
102
RTVSPost2010PropOp57
 70
     1
  0
XRECORD
  5
175
102
{ACAD_REACTORS
330
174
102
}
330
174
100
AcDbXrecord
280
     1
102
RTVSPropertyOp0
 70
     1
102
RTVSPropertyOp1
 70
     1
102
RTVSPropertyOp2
 70
     1
102
RTVSPropertyOp3
 70
     1
102
RTVSPropertyOp4
 70
     1
102
RTVSPropertyOp5
 70
     1
102
RTVSPropertyOp6
 70
     1
102
RTVSPropertyOp7
 70
     1
102
RTVSPropertyOp8
 70
     1
102
RTVSPropertyOp9
 70
     1
102
RTVSPropertyOp10
 70
     1
102
RTVSPropertyOp11
 70
     1
102
RTVSPropertyOp12
 70
     1
102
RTVSPropertyOp13
 70
     1
102
RTVSPropertyOp14
 70
     1
102
RTVSPropertyOp15
 70
     1
102
RTVSPropertyOp16
 70
     1
102
RTVSPropertyOp17
 70
     1
102
RTVSPropertyOp18
 70
     1
102
RTVSPropertyOp19
 70
     1
102
RTVSPropertyOp20
 70
     1
102
RTVSPropertyOp21
 70
     1
102
RTVSPropertyOp22
 70
     1
102
RTVSPropertyOp23
 70
     1
102
RTVSPropertyOp24
 70
     1
102
RTVSPropertyOp25
 70
     1
102
RTVSPropertyOp26
 70
     1
102
RTVSPropertyOp27
 70
     1
102
RTVSPropertyOp28
 70
     1
102
RTVSPropertyOp29
 70
     1
102
RTVSPropertyOp30
 70
     1
102
RTVSPropertyOp31
 70
     1
102
RTVSPropertyOp32
 70
     1
102
RTVSPropertyOp33
 70
     1
102
RTVSPropertyOp34
 70
     1
102
RTVSPropertyOp35
 70
     1
102
RTVSPropertyOp36
 70
     1
102
RTVSPropertyOp37
 70
     1
102
RTVSPropertyOp38
 70
     1
102
RTVSPropertyOp39
 70
     1
102
RTVSPropertyOp40
 70
     1
102
RTVSPropertyOp41
 70
     1
102
RTVSPropertyOp42
 70
     1
102
RTVSPropertyOp43
 70
     1
102
RTVSPropertyOp44
 70
     1
102
RTVSPropertyOp45
 70
     1
102
RTVSPropertyOp46
 70
     1
102
RTVSPropertyOp47
 70
     1
102
RTVSPropertyOp48
 70
     1
102
RTVSPropertyOp49
 70
     1
102
RTVSPropertyOp50
 70
     1
102
RTVSPropertyOp51
 70
     0
102
RTVSPropertyOp52
 70
     0
102
RTVSPropertyOp53
 70
     1
102
RTVSPropertyOp54
 70
     1
102
RTVSPropertyOp55
 70
     1
102
RTVSPropertyOp56
 70
     1
102
RTVSPropertyOp57
 70
     1
102
RTVSPost2010Prop28
280
     0
102
RTVSPost2010PropOp28
 70
     1
102
RTVSPost2010Prop29
280
     1
102
RTVSPost2010PropOp29
 70
     1
102
RTVSPost2010Prop30
280
     1
102
RTVSPost2010PropOp30
 70
     1
102
RTVSPost2010Prop31
280
     0
102
RTVSPost2010PropOp31
 70
     1
102
RTVSPost2010Prop32
280
     0
102
RTVSPost2010PropOp32
 70
     1
102
RTVSPost2010Prop33
280
     0
102
RTVSPost2010PropOp33
 70
     1
102
RTVSPost2010Prop34
280
     0
102
RTVSPost2010PropOp34
 70
     1
102
RTVSPost2010Prop35
280
     0
102
RTVSPost2010PropOp35
 70
     1
102
RTVSPost2010Prop36
280
     0
102
RTVSPost2010PropOp36
 70
     1
102
RTVSPost2010Prop37
 90
       50
102
RTVSPost2010PropOp37
 70
     1
102
RTVSPost2010Prop38
140
0.0
102
RTVSPost2010PropOp38
 70
     1
102
RTVSPost2010Prop39
140
1.0
102
RTVSPost2010PropOp39
 70
     1
102
RTVSPost2010Prop40
 90
        0
102
RTVSPost2010PropOp40
 70
     1
102
RTVSPost2010Prop41ColorIndex
 90
      178
102
RTVSPost2010Prop41ColorRGB
 90
        0
102
RTVSPost2010PropOp41
 70
     1
102
RTVSPost2010Prop42
 90
       50
102
RTVSPost2010PropOp42
 70
     1
102
RTVSPost2010Prop43
 90
        3
102
RTVSPost2010PropOp43
 70
     1
102
RTVSPost2010Prop44ColorIndex
 90
        5
102
RTVSPost2010Prop44ColorRGB
 90
      255
102
RTVSPost2010PropOp44
 70
     1
102
RTVSPost2010Prop45
280
     0
102
RTVSPost2010PropOp45
 70
     1
102
RTVSPost2010Prop46
 90
       50
102
RTVSPost2010PropOp46
 70
     1
102
RTVSPost2010Prop47
 90
       50
102
RTVSPost2010PropOp47
 70
     1
102
RTVSPost2010Prop48
 90
       50
102
RTVSPost2010PropOp48
 70
     1
102
RTVSPost2010Prop49
280
     0
102
RTVSPost2010PropOp49
 70
     1
102
RTVSPost2010Prop50
 90
       50
102
RTVSPost2010PropOp50
 70
     1
102
RTVSPost2010Prop51ColorIndex
 90
      256
102
RTVSPost2010Prop51ColorRGB
 90
-16777216
102
RTVSPost2010PropOp51
 70
     0
102
RTVSPost2010Prop52
140
1.0
102
RTVSPost2010PropOp52
 70
     0
102
RTVSPost2010Prop53
 90
        2
102
RTVSPost2010PropOp53
 70
     1
102
RTVSPost2010Prop54
  1
strokes_ogs.tif
102
RTVSPost2010PropOp54
 70
     1
102
RTVSPost2010Prop55
280
     0
102
RTVSPost2010PropOp55
 70
     1
102
RTVSPost2010Prop56
140
1.0
102
RTVSPost2010PropOp56
 70
     1
102
RTVSPost2010Prop57
140
1.0
102
RTVSPost2010PropOp57
 70
     1
  0
XRECORD
  5
177
102
{ACAD_REACTORS
330
176
102
}
330
176
100
AcDbXrecord
280
     1
102
RTVSPropertyOp0
 70
     1
102
RTVSPropertyOp1
 70
     1
102
RTVSPropertyOp2
 70
     1
102
RTVSPropertyOp3
 70
     1
102
RTVSPropertyOp4
 70
     1
102
RTVSPropertyOp5
 70
     1
102
RTVSPropertyOp6
 70
     1
102
RTVSPropertyOp7
 70
     1
102
RTVSPropertyOp8
 70
     1
102
RTVSPropertyOp9
 70
     1
102
RTVSPropertyOp10
 70
     1
102
RTVSPropertyOp11
 70
     1
102
RTVSPropertyOp12
 70
     1
102
RTVSPropertyOp13
 70
     1
102
RTVSPropertyOp14
 70
     1
102
RTVSPropertyOp15
 70
     1
102
RTVSPropertyOp16
 70
     1
102
RTVSPropertyOp17
 70
     1
102
RTVSPropertyOp18
 70
     1
102
RTVSPropertyOp19
 70
     1
102
RTVSPropertyOp20
 70
     1
102
RTVSPropertyOp21
 70
     1
102
RTVSPropertyOp22
 70
     1
102
RTVSPropertyOp23
 70
     1
102
RTVSPropertyOp24
 70
     1
102
RTVSPropertyOp25
 70
     1
102
RTVSPropertyOp26
 70
     1
102
RTVSPropertyOp27
 70
     1
102
RTVSPropertyOp28
 70
     1
102
RTVSPropertyOp29
 70
     1
102
RTVSPropertyOp30
 70
     1
102
RTVSPropertyOp31
 70
     1
102
RTVSPropertyOp32
 70
     1
102
RTVSPropertyOp33
 70
     1
102
RTVSPropertyOp34
 70
     1
102
RTVSPropertyOp35
 70
     1
102
RTVSPropertyOp36
 70
     1
102
RTVSPropertyOp37
 70
     1
102
RTVSPropertyOp38
 70
     1
102
RTVSPropertyOp39
 70
     1
102
RTVSPropertyOp40
 70
     1
102
RTVSPropertyOp41
 70
     1
102
RTVSPropertyOp42
 70
     1
102
RTVSPropertyOp43
 70
     1
102
RTVSPropertyOp44
 70
     1
102
RTVSPropertyOp45
 70
     1
102
RTVSPropertyOp46
 70
     1
102
RTVSPropertyOp47
 70
     1
102
RTVSPropertyOp48
 70
     1
102
RTVSPropertyOp49
 70
     1
102
RTVSPropertyOp50
 70
     1
102
RTVSPropertyOp51
 70
     0
102
RTVSPropertyOp52
 70
     0
102
RTVSPropertyOp53
 70
     1
102
RTVSPropertyOp54
 70
     1
102
RTVSPropertyOp55
 70
     1
102
RTVSPropertyOp56
 70
     1
102
RTVSPropertyOp57
 70
     1
102
RTVSPost2010Prop28
280
     0
102
RTVSPost2010PropOp28
 70
     1
102
RTVSPost2010Prop29
280
     1
102
RTVSPost2010PropOp29
 70
     1
102
RTVSPost2010Prop30
280
     1
102
RTVSPost2010PropOp30
 70
     1
102
RTVSPost2010Prop31
280
     0
102
RTVSPost2010PropOp31
 70
     1
102
RTVSPost2010Prop32
280
     0
102
RTVSPost2010PropOp32
 70
     1
102
RTVSPost2010Prop33
280
     0
102
RTVSPost2010PropOp33
 70
     1
102
RTVSPost2010Prop34
280
     0
102
RTVSPost2010PropOp34
 70
     1
102
RTVSPost2010Prop35
280
     0
102
RTVSPost2010PropOp35
 70
     1
102
RTVSPost2010Prop36
280
     0
102
RTVSPost2010PropOp36
 70
     1
102
RTVSPost2010Prop37
 90
       50
102
RTVSPost2010PropOp37
 70
     1
102
RTVSPost2010Prop38
140
0.0
102
RTVSPost2010PropOp38
 70
     1
102
RTVSPost2010Prop39
140
1.0
102
RTVSPost2010PropOp39
 70
     1
102
RTVSPost2010Prop40
 90
        0
102
RTVSPost2010PropOp40
 70
     1
102
RTVSPost2010Prop41ColorIndex
 90
      178
102
RTVSPost2010Prop41ColorRGB
 90
        0
102
RTVSPost2010PropOp41
 70
     1
102
RTVSPost2010Prop42
 90
       50
102
RTVSPost2010PropOp42
 70
     1
102
RTVSPost2010Prop43
 90
        3
102
RTVSPost2010PropOp43
 70
     1
102
RTVSPost2010Prop44ColorIndex
 90
        5
102
RTVSPost2010Prop44ColorRGB
 90
      255
102
RTVSPost2010PropOp44
 70
     1
102
RTVSPost2010Prop45
280
     0
102
RTVSPost2010PropOp45
 70
     1
102
RTVSPost2010Prop46
 90
       50
102
RTVSPost2010PropOp46
 70
     1
102
RTVSPost2010Prop47
 90
       50
102
RTVSPost2010PropOp47
 70
     1
102
RTVSPost2010Prop48
 90
       50
102
RTVSPost2010PropOp48
 70
     1
102
RTVSPost2010Prop49
280
     0
102
RTVSPost2010PropOp49
 70
     1
102
RTVSPost2010Prop50
 90
       50
102
RTVSPost2010PropOp50
 70
     1
102
RTVSPost2010Prop51ColorIndex
 90
      256
102
RTVSPost2010Prop51ColorRGB
 90
-16777216
102
RTVSPost2010PropOp51
 70
     0
102
RTVSPost2010Prop52
140
1.0
102
RTVSPost2010PropOp52
 70
     0
102
RTVSPost2010Prop53
 90
        2
102
RTVSPost2010PropOp53
 70
     1
102
RTVSPost2010Prop54
  1
strokes_ogs.tif
102
RTVSPost2010PropOp54
 70
     1
102
RTVSPost2010Prop55
280
     0
102
RTVSPost2010PropOp55
 70
     1
102
RTVSPost2010Prop56
140
1.0
102
RTVSPost2010PropOp56
 70
     1
102
RTVSPost2010Prop57
140
1.0
102
RTVSPost2010PropOp57
 70
     1
  0
XRECORD
  5
179
102
{ACAD_REACTORS
330
178
102
}
330
178
100
AcDbXrecord
280
     1
102
RTVSPropertyOp0
 70
     1
102
RTVSPropertyOp1
 70
     1
102
RTVSPropertyOp2
 70
     1
102
RTVSPropertyOp3
 70
     1
102
RTVSPropertyOp4
 70
     1
102
RTVSPropertyOp5
 70
     1
102
RTVSPropertyOp6
 70
     1
102
RTVSPropertyOp7
 70
     1
102
RTVSPropertyOp8
 70
     1
102
RTVSPropertyOp9
 70
     1
102
RTVSPropertyOp10
 70
     1
102
RTVSPropertyOp11
 70
     1
102
RTVSPropertyOp12
 70
     1
102
RTVSPropertyOp13
 70
     1
102
RTVSPropertyOp14
 70
     1
102
RTVSPropertyOp15
 70
     1
102
RTVSPropertyOp16
 70
     1
102
RTVSPropertyOp17
 70
     1
102
RTVSPropertyOp18
 70
     1
102
RTVSPropertyOp19
 70
     1
102
RTVSPropertyOp20
 70
     1
102
RTVSPropertyOp21
 70
     1
102
RTVSPropertyOp22
 70
     1
102
RTVSPropertyOp23
 70
     1
102
RTVSPropertyOp24
 70
     1
102
RTVSPropertyOp25
 70
     1
102
RTVSPropertyOp26
 70
     1
102
RTVSPropertyOp27
 70
     1
102
RTVSPropertyOp28
 70
     1
102
RTVSPropertyOp29
 70
     1
102
RTVSPropertyOp30
 70
     1
102
RTVSPropertyOp31
 70
     1
102
RTVSPropertyOp32
 70
     1
102
RTVSPropertyOp33
 70
     1
102
RTVSPropertyOp34
 70
     1
102
RTVSPropertyOp35
 70
     1
102
RTVSPropertyOp36
 70
     1
102
RTVSPropertyOp37
 70
     1
102
RTVSPropertyOp38
 70
     1
102
RTVSPropertyOp39
 70
     1
102
RTVSPropertyOp40
 70
     1
102
RTVSPropertyOp41
 70
     1
102
RTVSPropertyOp42
 70
     1
102
RTVSPropertyOp43
 70
     1
102
RTVSPropertyOp44
 70
     1
102
RTVSPropertyOp45
 70
     1
102
RTVSPropertyOp46
 70
     1
102
RTVSPropertyOp47
 70
     1
102
RTVSPropertyOp48
 70
     1
102
RTVSPropertyOp49
 70
     1
102
RTVSPropertyOp50
 70
     1
102
RTVSPropertyOp51
 70
     0
102
RTVSPropertyOp52
 70
     0
102
RTVSPropertyOp53
 70
     1
102
RTVSPropertyOp54
 70
     1
102
RTVSPropertyOp55
 70
     1
102
RTVSPropertyOp56
 70
     1
102
RTVSPropertyOp57
 70
     1
102
RTVSPost2010Prop28
280
     0
102
RTVSPost2010PropOp28
 70
     1
102
RTVSPost2010Prop29
280
     1
102
RTVSPost2010PropOp29
 70
     1
102
RTVSPost2010Prop30
280
     1
102
RTVSPost2010PropOp30
 70
     1
102
RTVSPost2010Prop31
280
     0
102
RTVSPost2010PropOp31
 70
     1
102
RTVSPost2010Prop32
280
     0
102
RTVSPost2010PropOp32
 70
     1
102
RTVSPost2010Prop33
280
     0
102
RTVSPost2010PropOp33
 70
     1
102
RTVSPost2010Prop34
280
     0
102
RTVSPost2010PropOp34
 70
     1
102
RTVSPost2010Prop35
280
     0
102
RTVSPost2010PropOp35
 70
     1
102
RTVSPost2010Prop36
280
     0
102
RTVSPost2010PropOp36
 70
     1
102
RTVSPost2010Prop37
 90
       50
102
RTVSPost2010PropOp37
 70
     1
102
RTVSPost2010Prop38
140
0.0
102
RTVSPost2010PropOp38
 70
     1
102
RTVSPost2010Prop39
140
1.0
102
RTVSPost2010PropOp39
 70
     1
102
RTVSPost2010Prop40
 90
        0
102
RTVSPost2010PropOp40
 70
     1
102
RTVSPost2010Prop41ColorIndex
 90
      178
102
RTVSPost2010Prop41ColorRGB
 90
        0
102
RTVSPost2010PropOp41
 70
     1
102
RTVSPost2010Prop42
 90
       50
102
RTVSPost2010PropOp42
 70
     1
102
RTVSPost2010Prop43
 90
        3
102
RTVSPost2010PropOp43
 70
     1
102
RTVSPost2010Prop44ColorIndex
 90
        5
102
RTVSPost2010Prop44ColorRGB
 90
      255
102
RTVSPost2010PropOp44
 70
     1
102
RTVSPost2010Prop45
280
     0
102
RTVSPost2010PropOp45
 70
     1
102
RTVSPost2010Prop46
 90
       50
102
RTVSPost2010PropOp46
 70
     1
102
RTVSPost2010Prop47
 90
       50
102
RTVSPost2010PropOp47
 70
     1
102
RTVSPost2010Prop48
 90
       50
102
RTVSPost2010PropOp48
 70
     1
102
RTVSPost2010Prop49
280
     0
102
RTVSPost2010PropOp49
 70
     1
102
RTVSPost2010Prop50
 90
       50
102
RTVSPost2010PropOp50
 70
     1
102
RTVSPost2010Prop51ColorIndex
 90
      256
102
RTVSPost2010Prop51ColorRGB
 90
-16777216
102
RTVSPost2010PropOp51
 70
     0
102
RTVSPost2010Prop52
140
1.0
102
RTVSPost2010PropOp52
 70
     0
102
RTVSPost2010Prop53
 90
        2
102
RTVSPost2010PropOp53
 70
     1
102
RTVSPost2010Prop54
  1
strokes_ogs.tif
102
RTVSPost2010PropOp54
 70
     1
102
RTVSPost2010Prop55
280
     0
102
RTVSPost2010PropOp55
 70
     1
102
RTVSPost2010Prop56
140
1.0
102
RTVSPost2010PropOp56
 70
     1
102
RTVSPost2010Prop57
140
1.0
102
RTVSPost2010PropOp57
 70
     1
  0
XRECORD
  5
17B
102
{ACAD_REACTORS
330
17A
102
}
330
17A
100
AcDbXrecord
280
     1
102
RTVSPropertyOp0
 70
     1
102
RTVSPropertyOp1
 70
     1
102
RTVSPropertyOp2
 70
     1
102
RTVSPropertyOp3
 70
     1
102
RTVSPropertyOp4
 70
     1
102
RTVSPropertyOp5
 70
     1
102
RTVSPropertyOp6
 70
     1
102
RTVSPropertyOp7
 70
     1
102
RTVSPropertyOp8
 70
     1
102
RTVSPropertyOp9
 70
     1
102
RTVSPropertyOp10
 70
     1
102
RTVSPropertyOp11
 70
     1
102
RTVSPropertyOp12
 70
     1
102
RTVSPropertyOp13
 70
     1
102
RTVSPropertyOp14
 70
     1
102
RTVSPropertyOp15
 70
     1
102
RTVSPropertyOp16
 70
     1
102
RTVSPropertyOp17
 70
     1
102
RTVSPropertyOp18
 70
     1
102
RTVSPropertyOp19
 70
     1
102
RTVSPropertyOp20
 70
     1
102
RTVSPropertyOp21
 70
     1
102
RTVSPropertyOp22
 70
     1
102
RTVSPropertyOp23
 70
     1
102
RTVSPropertyOp24
 70
     1
102
RTVSPropertyOp25
 70
     1
102
RTVSPropertyOp26
 70
     1
102
RTVSPropertyOp27
 70
     1
102
RTVSPropertyOp28
 70
     1
102
RTVSPropertyOp29
 70
     1
102
RTVSPropertyOp30
 70
     1
102
RTVSPropertyOp31
 70
     1
102
RTVSPropertyOp32
 70
     1
102
RTVSPropertyOp33
 70
     1
102
RTVSPropertyOp34
 70
     1
102
RTVSPropertyOp35
 70
     1
102
RTVSPropertyOp36
 70
     1
102
RTVSPropertyOp37
 70
     1
102
RTVSPropertyOp38
 70
     1
102
RTVSPropertyOp39
 70
     1
102
RTVSPropertyOp40
 70
     1
102
RTVSPropertyOp41
 70
     1
102
RTVSPropertyOp42
 70
     1
102
RTVSPropertyOp43
 70
     1
102
RTVSPropertyOp44
 70
     1
102
RTVSPropertyOp45
 70
     1
102
RTVSPropertyOp46
 70
     1
102
RTVSPropertyOp47
 70
     1
102
RTVSPropertyOp48
 70
     1
102
RTVSPropertyOp49
 70
     1
102
RTVSPropertyOp50
 70
     1
102
RTVSPropertyOp51
 70
     0
102
RTVSPropertyOp52
 70
     0
102
RTVSPropertyOp53
 70
     1
102
RTVSPropertyOp54
 70
     1
102
RTVSPropertyOp55
 70
     1
102
RTVSPropertyOp56
 70
     1
102
RTVSPropertyOp57
 70
     1
102
RTVSPost2010Prop28
280
     0
102
RTVSPost2010PropOp28
 70
     1
102
RTVSPost2010Prop29
280
     1
102
RTVSPost2010PropOp29
 70
     1
102
RTVSPost2010Prop30
280
     1
102
RTVSPost2010PropOp30
 70
     1
102
RTVSPost2010Prop31
280
     0
102
RTVSPost2010PropOp31
 70
     1
102
RTVSPost2010Prop32
280
     0
102
RTVSPost2010PropOp32
 70
     1
102
RTVSPost2010Prop33
280
     0
102
RTVSPost2010PropOp33
 70
     1
102
RTVSPost2010Prop34
280
     0
102
RTVSPost2010PropOp34
 70
     1
102
RTVSPost2010Prop35
280
     0
102
RTVSPost2010PropOp35
 70
     1
102
RTVSPost2010Prop36
280
     0
102
RTVSPost2010PropOp36
 70
     1
102
RTVSPost2010Prop37
 90
       50
102
RTVSPost2010PropOp37
 70
     1
102
RTVSPost2010Prop38
140
0.0
102
RTVSPost2010PropOp38
 70
     1
102
RTVSPost2010Prop39
140
1.0
102
RTVSPost2010PropOp39
 70
     1
102
RTVSPost2010Prop40
 90
        0
102
RTVSPost2010PropOp40
 70
     1
102
RTVSPost2010Prop41ColorIndex
 90
      178
102
RTVSPost2010Prop41ColorRGB
 90
        0
102
RTVSPost2010PropOp41
 70
     1
102
RTVSPost2010Prop42
 90
       50
102
RTVSPost2010PropOp42
 70
     1
102
RTVSPost2010Prop43
 90
        3
102
RTVSPost2010PropOp43
 70
     1
102
RTVSPost2010Prop44ColorIndex
 90
        5
102
RTVSPost2010Prop44ColorRGB
 90
      255
102
RTVSPost2010PropOp44
 70
     1
102
RTVSPost2010Prop45
280
     0
102
RTVSPost2010PropOp45
 70
     1
102
RTVSPost2010Prop46
 90
       50
102
RTVSPost2010PropOp46
 70
     1
102
RTVSPost2010Prop47
 90
       50
102
RTVSPost2010PropOp47
 70
     1
102
RTVSPost2010Prop48
 90
       50
102
RTVSPost2010PropOp48
 70
     1
102
RTVSPost2010Prop49
280
     0
102
RTVSPost2010PropOp49
 70
     1
102
RTVSPost2010Prop50
 90
       50
102
RTVSPost2010PropOp50
 70
     1
102
RTVSPost2010Prop51ColorIndex
 90
      256
102
RTVSPost2010Prop51ColorRGB
 90
-16777216
102
RTVSPost2010PropOp51
 70
     0
102
RTVSPost2010Prop52
140
1.0
102
RTVSPost2010PropOp52
 70
     0
102
RTVSPost2010Prop53
 90
        2
102
RTVSPost2010PropOp53
 70
     1
102
RTVSPost2010Prop54
  1
strokes_ogs.tif
102
RTVSPost2010PropOp54
 70
     1
102
RTVSPost2010Prop55
280
     0
102
RTVSPost2010PropOp55
 70
     1
102
RTVSPost2010Prop56
140
1.0
102
RTVSPost2010PropOp56
 70
     1
102
RTVSPost2010Prop57
140
1.0
102
RTVSPost2010PropOp57
 70
     1
  0
XRECORD
  5
181
102
{ACAD_REACTORS
330
180
102
}
330
180
100
AcDbXrecord
280
     1
102
RTVSPropertyOp0
 70
     1
102
RTVSPropertyOp1
 70
     1
102
RTVSPropertyOp2
 70
     1
102
RTVSPropertyOp3
 70
     1
102
RTVSPropertyOp4
 70
     1
102
RTVSPropertyOp5
 70
     1
102
RTVSPropertyOp6
 70
     1
102
RTVSPropertyOp7
 70
     1
102
RTVSPropertyOp8
 70
     1
102
RTVSPropertyOp9
 70
     1
102
RTVSPropertyOp10
 70
     1
102
RTVSPropertyOp11
 70
     1
102
RTVSPropertyOp12
 70
     1
102
RTVSPropertyOp13
 70
     1
102
RTVSPropertyOp14
 70
     1
102
RTVSPropertyOp15
 70
     1
102
RTVSPropertyOp16
 70
     1
102
RTVSPropertyOp17
 70
     1
102
RTVSPropertyOp18
 70
     1
102
RTVSPropertyOp19
 70
     1
102
RTVSPropertyOp20
 70
     1
102
RTVSPropertyOp21
 70
     1
102
RTVSPropertyOp22
 70
     1
102
RTVSPropertyOp23
 70
     1
102
RTVSPropertyOp24
 70
     1
102
RTVSPropertyOp25
 70
     1
102
RTVSPropertyOp26
 70
     1
102
RTVSPropertyOp27
 70
     1
102
RTVSPropertyOp28
 70
     1
102
RTVSPropertyOp29
 70
     1
102
RTVSPropertyOp30
 70
     1
102
RTVSPropertyOp31
 70
     1
102
RTVSPropertyOp32
 70
     1
102
RTVSPropertyOp33
 70
     1
102
RTVSPropertyOp34
 70
     1
102
RTVSPropertyOp35
 70
     1
102
RTVSPropertyOp36
 70
     1
102
RTVSPropertyOp37
 70
     1
102
RTVSPropertyOp38
 70
     1
102
RTVSPropertyOp39
 70
     1
102
RTVSPropertyOp40
 70
     1
102
RTVSPropertyOp41
 70
     1
102
RTVSPropertyOp42
 70
     1
102
RTVSPropertyOp43
 70
     1
102
RTVSPropertyOp44
 70
     1
102
RTVSPropertyOp45
 70
     1
102
RTVSPropertyOp46
 70
     1
102
RTVSPropertyOp47
 70
     1
102
RTVSPropertyOp48
 70
     1
102
RTVSPropertyOp49
 70
     1
102
RTVSPropertyOp50
 70
     1
102
RTVSPropertyOp51
 70
     0
102
RTVSPropertyOp52
 70
     0
102
RTVSPropertyOp53
 70
     1
102
RTVSPropertyOp54
 70
     1
102
RTVSPropertyOp55
 70
     1
102
RTVSPropertyOp56
 70
     1
102
RTVSPropertyOp57
 70
     1
102
RTVSPost2010Prop28
280
     0
102
RTVSPost2010PropOp28
 70
     1
102
RTVSPost2010Prop29
280
     1
102
RTVSPost2010PropOp29
 70
     1
102
RTVSPost2010Prop30
280
     1
102
RTVSPost2010PropOp30
 70
     1
102
RTVSPost2010Prop31
280
     0
102
RTVSPost2010PropOp31
 70
     1
102
RTVSPost2010Prop32
280
     0
102
RTVSPost2010PropOp32
 70
     1
102
RTVSPost2010Prop33
280
     0
102
RTVSPost2010PropOp33
 70
     1
102
RTVSPost2010Prop34
280
     0
102
RTVSPost2010PropOp34
 70
     1
102
RTVSPost2010Prop35
280
     0
102
RTVSPost2010PropOp35
 70
     1
102
RTVSPost2010Prop36
280
     0
102
RTVSPost2010PropOp36
 70
     1
102
RTVSPost2010Prop37
 90
       50
102
RTVSPost2010PropOp37
 70
     1
102
RTVSPost2010Prop38
140
0.0
102
RTVSPost2010PropOp38
 70
     1
102
RTVSPost2010Prop39
140
1.0
102
RTVSPost2010PropOp39
 70
     1
102
RTVSPost2010Prop40
 90
        0
102
RTVSPost2010PropOp40
 70
     1
102
RTVSPost2010Prop41ColorIndex
 90
      178
102
RTVSPost2010Prop41ColorRGB
 90
        0
102
RTVSPost2010PropOp41
 70
     1
102
RTVSPost2010Prop42
 90
       50
102
RTVSPost2010PropOp42
 70
     1
102
RTVSPost2010Prop43
 90
        3
102
RTVSPost2010PropOp43
 70
     1
102
RTVSPost2010Prop44ColorIndex
 90
        5
102
RTVSPost2010Prop44ColorRGB
 90
      255
102
RTVSPost2010PropOp44
 70
     1
102
RTVSPost2010Prop45
280
     0
102
RTVSPost2010PropOp45
 70
     1
102
RTVSPost2010Prop46
 90
       50
102
RTVSPost2010PropOp46
 70
     1
102
RTVSPost2010Prop47
 90
       50
102
RTVSPost2010PropOp47
 70
     1
102
RTVSPost2010Prop48
 90
       50
102
RTVSPost2010PropOp48
 70
     1
102
RTVSPost2010Prop49
280
     0
102
RTVSPost2010PropOp49
 70
     1
102
RTVSPost2010Prop50
 90
       50
102
RTVSPost2010PropOp50
 70
     1
102
RTVSPost2010Prop51ColorIndex
 90
      256
102
RTVSPost2010Prop51ColorRGB
 90
-16777216
102
RTVSPost2010PropOp51
 70
     0
102
RTVSPost2010Prop52
140
1.0
102
RTVSPost2010PropOp52
 70
     0
102
RTVSPost2010Prop53
 90
        2
102
RTVSPost2010PropOp53
 70
     1
102
RTVSPost2010Prop54
  1
strokes_ogs.tif
102
RTVSPost2010PropOp54
 70
     1
102
RTVSPost2010Prop55
280
     0
102
RTVSPost2010PropOp55
 70
     1
102
RTVSPost2010Prop56
140
1.0
102
RTVSPost2010PropOp56
 70
     1
102
RTVSPost2010Prop57
140
1.0
102
RTVSPost2010PropOp57
 70
     1
  0
XRECORD
  5
195
102
{ACAD_REACTORS
330
194
102
}
330
194
100
AcDbXrecord
280
     1
102
RTVSPropertyOp0
 70
     0
102
RTVSPropertyOp1
 70
     0
102
RTVSPropertyOp2
 70
     0
102
RTVSPropertyOp3
 70
     0
102
RTVSPropertyOp4
 70
     0
102
RTVSPropertyOp5
 70
     0
102
RTVSPropertyOp6
 70
     0
102
RTVSPropertyOp7
 70
     0
102
RTVSPropertyOp8
 70
     0
102
RTVSPropertyOp9
 70
     0
102
RTVSPropertyOp10
 70
     0
102
RTVSPropertyOp11
 70
     0
102
RTVSPropertyOp12
 70
     0
102
RTVSPropertyOp13
 70
     0
102
RTVSPropertyOp14
 70
     2
102
RTVSPropertyOp15
 70
     0
102
RTVSPropertyOp16
 70
     0
102
RTVSPropertyOp17
 70
     0
102
RTVSPropertyOp18
 70
     0
102
RTVSPropertyOp19
 70
     0
102
RTVSPropertyOp20
 70
     0
102
RTVSPropertyOp21
 70
     0
102
RTVSPropertyOp22
 70
     0
102
RTVSPropertyOp23
 70
     0
102
RTVSPropertyOp24
 70
     0
102
RTVSPropertyOp25
 70
     0
102
RTVSPropertyOp26
 70
     0
102
RTVSPropertyOp27
 70
     0
102
RTVSPropertyOp28
 70
     0
102
RTVSPropertyOp29
 70
     0
102
RTVSPropertyOp30
 70
     0
102
RTVSPropertyOp31
 70
     0
102
RTVSPropertyOp32
 70
     0
102
RTVSPropertyOp33
 70
     0
102
RTVSPropertyOp34
 70
     0
102
RTVSPropertyOp35
 70
     0
102
RTVSPropertyOp36
 70
     0
102
RTVSPropertyOp37
 70
     0
102
RTVSPropertyOp38
 70
     0
102
RTVSPropertyOp39
 70
     0
102
RTVSPropertyOp40
 70
     0
102
RTVSPropertyOp41
 70
     0
102
RTVSPropertyOp42
 70
     0
102
RTVSPropertyOp43
 70
     0
102
RTVSPropertyOp44
 70
     0
102
RTVSPropertyOp45
 70
     0
102
RTVSPropertyOp46
 70
     0
102
RTVSPropertyOp47
 70
     0
102
RTVSPropertyOp48
 70
     0
102
RTVSPropertyOp49
 70
     0
102
RTVSPropertyOp50
 70
     0
102
RTVSPropertyOp51
 70
     0
102
RTVSPropertyOp52
 70
     0
102
RTVSPropertyOp53
 70
     0
102
RTVSPropertyOp54
 70
     0
102
RTVSPropertyOp55
 70
     0
102
RTVSPropertyOp56
 70
     0
102
RTVSPropertyOp57
 70
     0
102
RTVSPost2010Prop28
280
     0
102
RTVSPost2010PropOp28
 70
     0
102
RTVSPost2010Prop29
280
     1
102
RTVSPost2010PropOp29
 70
     0
102
RTVSPost2010Prop30
280
     1
102
RTVSPost2010PropOp30
 70
     0
102
RTVSPost2010Prop31
280
     0
102
RTVSPost2010PropOp31
 70
     0
102
RTVSPost2010Prop32
280
     0
102
RTVSPost2010PropOp32
 70
     0
102
RTVSPost2010Prop33
280
     0
102
RTVSPost2010PropOp33
 70
     0
102
RTVSPost2010Prop34
280
     0
102
RTVSPost2010PropOp34
 70
     0
102
RTVSPost2010Prop35
280
     0
102
RTVSPost2010PropOp35
 70
     0
102
RTVSPost2010Prop36
280
     0
102
RTVSPost2010PropOp36
 70
     0
102
RTVSPost2010Prop37
 90
       50
102
RTVSPost2010PropOp37
 70
     0
102
RTVSPost2010Prop38
140
0.0
102
RTVSPost2010PropOp38
 70
     0
102
RTVSPost2010Prop39
140
1.0
102
RTVSPost2010PropOp39
 70
     0
102
RTVSPost2010Prop40
 90
        0
102
RTVSPost2010PropOp40
 70
     0
102
RTVSPost2010Prop41ColorIndex
 90
      178
102
RTVSPost2010Prop41ColorRGB
 90
        0
102
RTVSPost2010PropOp41
 70
     0
102
RTVSPost2010Prop42
 90
       50
102
RTVSPost2010PropOp42
 70
     0
102
RTVSPost2010Prop43
 90
        3
102
RTVSPost2010PropOp43
 70
     0
102
RTVSPost2010Prop44ColorIndex
 90
        5
102
RTVSPost2010Prop44ColorRGB
 90
      255
102
RTVSPost2010PropOp44
 70
     0
102
RTVSPost2010Prop45
280
     0
102
RTVSPost2010PropOp45
 70
     0
102
RTVSPost2010Prop46
 90
       50
102
RTVSPost2010PropOp46
 70
     0
102
RTVSPost2010Prop47
 90
       50
102
RTVSPost2010PropOp47
 70
     0
102
RTVSPost2010Prop48
 90
       50
102
RTVSPost2010PropOp48
 70
     0
102
RTVSPost2010Prop49
280
     0
102
RTVSPost2010PropOp49
 70
     0
102
RTVSPost2010Prop50
 90
       50
102
RTVSPost2010PropOp50
 70
     0
102
RTVSPost2010Prop51ColorIndex
 90
      256
102
RTVSPost2010Prop51ColorRGB
 90
-16777216
102
RTVSPost2010PropOp51
 70
     0
102
RTVSPost2010Prop52
140
1.0
102
RTVSPost2010PropOp52
 70
     0
102
RTVSPost2010Prop53
 90
        2
102
RTVSPost2010PropOp53
 70
     0
102
RTVSPost2010Prop54
  1
strokes_ogs.tif
102
RTVSPost2010PropOp54
 70
     0
102
RTVSPost2010Prop55
280
     0
102
RTVSPost2010PropOp55
 70
     0
102
RTVSPost2010Prop56
140
1.0
102
RTVSPost2010PropOp56
 70
     0
102
RTVSPost2010Prop57
140
1.0
102
RTVSPost2010PropOp57
 70
     0
  0
XRECORD
  5
18F
102
{ACAD_REACTORS
330
18E
102
}
330
18E
100
AcDbXrecord
280
     1
102
RTVSPropertyOp0
 70
     1
102
RTVSPropertyOp1
 70
     1
102
RTVSPropertyOp2
 70
     1
102
RTVSPropertyOp3
 70
     1
102
RTVSPropertyOp4
 70
     1
102
RTVSPropertyOp5
 70
     1
102
RTVSPropertyOp6
 70
     1
102
RTVSPropertyOp7
 70
     1
102
RTVSPropertyOp8
 70
     1
102
RTVSPropertyOp9
 70
     1
102
RTVSPropertyOp10
 70
     1
102
RTVSPropertyOp11
 70
     1
102
RTVSPropertyOp12
 70
     1
102
RTVSPropertyOp13
 70
     1
102
RTVSPropertyOp14
 70
     1
102
RTVSPropertyOp15
 70
     1
102
RTVSPropertyOp16
 70
     1
102
RTVSPropertyOp17
 70
     1
102
RTVSPropertyOp18
 70
     1
102
RTVSPropertyOp19
 70
     1
102
RTVSPropertyOp20
 70
     1
102
RTVSPropertyOp21
 70
     1
102
RTVSPropertyOp22
 70
     1
102
RTVSPropertyOp23
 70
     1
102
RTVSPropertyOp24
 70
     1
102
RTVSPropertyOp25
 70
     1
102
RTVSPropertyOp26
 70
     1
102
RTVSPropertyOp27
 70
     1
102
RTVSPropertyOp28
 70
     1
102
RTVSPropertyOp29
 70
     1
102
RTVSPropertyOp30
 70
     1
102
RTVSPropertyOp31
 70
     1
102
RTVSPropertyOp32
 70
     1
102
RTVSPropertyOp33
 70
     1
102
RTVSPropertyOp34
 70
     1
102
RTVSPropertyOp35
 70
     1
102
RTVSPropertyOp36
 70
     1
102
RTVSPropertyOp37
 70
     1
102
RTVSPropertyOp38
 70
     1
102
RTVSPropertyOp39
 70
     1
102
RTVSPropertyOp40
 70
     1
102
RTVSPropertyOp41
 70
     1
102
RTVSPropertyOp42
 70
     1
102
RTVSPropertyOp43
 70
     1
102
RTVSPropertyOp44
 70
     1
102
RTVSPropertyOp45
 70
     1
102
RTVSPropertyOp46
 70
     1
102
RTVSPropertyOp47
 70
     1
102
RTVSPropertyOp48
 70
     1
102
RTVSPropertyOp49
 70
     1
102
RTVSPropertyOp50
 70
     1
102
RTVSPropertyOp51
 70
     0
102
RTVSPropertyOp52
 70
     0
102
RTVSPropertyOp53
 70
     1
102
RTVSPropertyOp54
 70
     1
102
RTVSPropertyOp55
 70
     1
102
RTVSPropertyOp56
 70
     1
102
RTVSPropertyOp57
 70
     1
102
RTVSPost2010Prop28
280
     0
102
RTVSPost2010PropOp28
 70
     1
102
RTVSPost2010Prop29
280
     1
102
RTVSPost2010PropOp29
 70
     1
102
RTVSPost2010Prop30
280
     1
102
RTVSPost2010PropOp30
 70
     1
102
RTVSPost2010Prop31
280
     0
102
RTVSPost2010PropOp31
 70
     1
102
RTVSPost2010Prop32
280
     0
102
RTVSPost2010PropOp32
 70
     1
102
RTVSPost2010Prop33
280
     0
102
RTVSPost2010PropOp33
 70
     1
102
RTVSPost2010Prop34
280
     0
102
RTVSPost2010PropOp34
 70
     1
102
RTVSPost2010Prop35
280
     0
102
RTVSPost2010PropOp35
 70
     1
102
RTVSPost2010Prop36
280
     0
102
RTVSPost2010PropOp36
 70
     1
102
RTVSPost2010Prop37
 90
       50
102
RTVSPost2010PropOp37
 70
     1
102
RTVSPost2010Prop38
140
0.0
102
RTVSPost2010PropOp38
 70
     1
102
RTVSPost2010Prop39
140
1.0
102
RTVSPost2010PropOp39
 70
     1
102
RTVSPost2010Prop40
 90
        0
102
RTVSPost2010PropOp40
 70
     1
102
RTVSPost2010Prop41ColorIndex
 90
      178
102
RTVSPost2010Prop41ColorRGB
 90
        0
102
RTVSPost2010PropOp41
 70
     1
102
RTVSPost2010Prop42
 90
       50
102
RTVSPost2010PropOp42
 70
     1
102
RTVSPost2010Prop43
 90
        3
102
RTVSPost2010PropOp43
 70
     1
102
RTVSPost2010Prop44ColorIndex
 90
        5
102
RTVSPost2010Prop44ColorRGB
 90
      255
102
RTVSPost2010PropOp44
 70
     1
102
RTVSPost2010Prop45
280
     0
102
RTVSPost2010PropOp45
 70
     1
102
RTVSPost2010Prop46
 90
       50
102
RTVSPost2010PropOp46
 70
     1
102
RTVSPost2010Prop47
 90
       50
102
RTVSPost2010PropOp47
 70
     1
102
RTVSPost2010Prop48
 90
       50
102
RTVSPost2010PropOp48
 70
     1
102
RTVSPost2010Prop49
280
     0
102
RTVSPost2010PropOp49
 70
     1
102
RTVSPost2010Prop50
 90
       50
102
RTVSPost2010PropOp50
 70
     1
102
RTVSPost2010Prop51ColorIndex
 90
      256
102
RTVSPost2010Prop51ColorRGB
 90
-16777216
102
RTVSPost2010PropOp51
 70
     0
102
RTVSPost2010Prop52
140
1.0
102
RTVSPost2010PropOp52
 70
     0
102
RTVSPost2010Prop53
 90
        2
102
RTVSPost2010PropOp53
 70
     1
102
RTVSPost2010Prop54
  1
strokes_ogs.tif
102
RTVSPost2010PropOp54
 70
     1
102
RTVSPost2010Prop55
280
     0
102
RTVSPost2010PropOp55
 70
     1
102
RTVSPost2010Prop56
140
1.0
102
RTVSPost2010PropOp56
 70
     1
102
RTVSPost2010Prop57
140
1.0
102
RTVSPost2010PropOp57
 70
     1
  0
XRECORD
  5
197
102
{ACAD_REACTORS
330
196
102
}
330
196
100
AcDbXrecord
280
     1
102
RTVSPropertyOp0
 70
     0
102
RTVSPropertyOp1
 70
     0
102
RTVSPropertyOp2
 70
     0
102
RTVSPropertyOp3
 70
     0
102
RTVSPropertyOp4
 70
     0
102
RTVSPropertyOp5
 70
     0
102
RTVSPropertyOp6
 70
     0
102
RTVSPropertyOp7
 70
     0
102
RTVSPropertyOp8
 70
     0
102
RTVSPropertyOp9
 70
     0
102
RTVSPropertyOp10
 70
     0
102
RTVSPropertyOp11
 70
     0
102
RTVSPropertyOp12
 70
     0
102
RTVSPropertyOp13
 70
     0
102
RTVSPropertyOp14
 70
     2
102
RTVSPropertyOp15
 70
     0
102
RTVSPropertyOp16
 70
     0
102
RTVSPropertyOp17
 70
     0
102
RTVSPropertyOp18
 70
     0
102
RTVSPropertyOp19
 70
     0
102
RTVSPropertyOp20
 70
     0
102
RTVSPropertyOp21
 70
     0
102
RTVSPropertyOp22
 70
     0
102
RTVSPropertyOp23
 70
     0
102
RTVSPropertyOp24
 70
     0
102
RTVSPropertyOp25
 70
     0
102
RTVSPropertyOp26
 70
     0
102
RTVSPropertyOp27
 70
     0
102
RTVSPropertyOp28
 70
     0
102
RTVSPropertyOp29
 70
     0
102
RTVSPropertyOp30
 70
     0
102
RTVSPropertyOp31
 70
     0
102
RTVSPropertyOp32
 70
     0
102
RTVSPropertyOp33
 70
     0
102
RTVSPropertyOp34
 70
     0
102
RTVSPropertyOp35
 70
     0
102
RTVSPropertyOp36
 70
     0
102
RTVSPropertyOp37
 70
     0
102
RTVSPropertyOp38
 70
     0
102
RTVSPropertyOp39
 70
     0
102
RTVSPropertyOp40
 70
     0
102
RTVSPropertyOp41
 70
     0
102
RTVSPropertyOp42
 70
     0
102
RTVSPropertyOp43
 70
     0
102
RTVSPropertyOp44
 70
     0
102
RTVSPropertyOp45
 70
     0
102
RTVSPropertyOp46
 70
     0
102
RTVSPropertyOp47
 70
     0
102
RTVSPropertyOp48
 70
     0
102
RTVSPropertyOp49
 70
     0
102
RTVSPropertyOp50
 70
     0
102
RTVSPropertyOp51
 70
     0
102
RTVSPropertyOp52
 70
     0
102
RTVSPropertyOp53
 70
     0
102
RTVSPropertyOp54
 70
     0
102
RTVSPropertyOp55
 70
     0
102
RTVSPropertyOp56
 70
     0
102
RTVSPropertyOp57
 70
     0
102
RTVSPost2010Prop28
280
     0
102
RTVSPost2010PropOp28
 70
     0
102
RTVSPost2010Prop29
280
     1
102
RTVSPost2010PropOp29
 70
     0
102
RTVSPost2010Prop30
280
     1
102
RTVSPost2010PropOp30
 70
     0
102
RTVSPost2010Prop31
280
     0
102
RTVSPost2010PropOp31
 70
     0
102
RTVSPost2010Prop32
280
     0
102
RTVSPost2010PropOp32
 70
     0
102
RTVSPost2010Prop33
280
     0
102
RTVSPost2010PropOp33
 70
     0
102
RTVSPost2010Prop34
280
     0
102
RTVSPost2010PropOp34
 70
     0
102
RTVSPost2010Prop35
280
     0
102
RTVSPost2010PropOp35
 70
     0
102
RTVSPost2010Prop36
280
     0
102
RTVSPost2010PropOp36
 70
     0
102
RTVSPost2010Prop37
 90
       50
102
RTVSPost2010PropOp37
 70
     0
102
RTVSPost2010Prop38
140
0.0
102
RTVSPost2010PropOp38
 70
     0
102
RTVSPost2010Prop39
140
1.0
102
RTVSPost2010PropOp39
 70
     0
102
RTVSPost2010Prop40
 90
        0
102
RTVSPost2010PropOp40
 70
     0
102
RTVSPost2010Prop41ColorIndex
 90
      178
102
RTVSPost2010Prop41ColorRGB
 90
        0
102
RTVSPost2010PropOp41
 70
     0
102
RTVSPost2010Prop42
 90
       50
102
RTVSPost2010PropOp42
 70
     0
102
RTVSPost2010Prop43
 90
        3
102
RTVSPost2010PropOp43
 70
     0
102
RTVSPost2010Prop44ColorIndex
 90
        5
102
RTVSPost2010Prop44ColorRGB
 90
      255
102
RTVSPost2010PropOp44
 70
     0
102
RTVSPost2010Prop45
280
     0
102
RTVSPost2010PropOp45
 70
     0
102
RTVSPost2010Prop46
 90
       50
102
RTVSPost2010PropOp46
 70
     0
102
RTVSPost2010Prop47
 90
       50
102
RTVSPost2010PropOp47
 70
     0
102
RTVSPost2010Prop48
 90
       50
102
RTVSPost2010PropOp48
 70
     0
102
RTVSPost2010Prop49
280
     0
102
RTVSPost2010PropOp49
 70
     0
102
RTVSPost2010Prop50
 90
       50
102
RTVSPost2010PropOp50
 70
     0
102
RTVSPost2010Prop51ColorIndex
 90
      256
102
RTVSPost2010Prop51ColorRGB
 90
-16777216
102
RTVSPost2010PropOp51
 70
     0
102
RTVSPost2010Prop52
140
1.0
102
RTVSPost2010PropOp52
 70
     0
102
RTVSPost2010Prop53
 90
        2
102
RTVSPost2010PropOp53
 70
     0
102
RTVSPost2010Prop54
  1
strokes_ogs.tif
102
RTVSPost2010PropOp54
 70
     0
102
RTVSPost2010Prop55
280
     0
102
RTVSPost2010PropOp55
 70
     0
102
RTVSPost2010Prop56
140
1.0
102
RTVSPost2010PropOp56
 70
     0
102
RTVSPost2010Prop57
140
1.0
102
RTVSPost2010PropOp57
 70
     0
  0
XRECORD
  5
185
102
{ACAD_REACTORS
330
184
102
}
330
184
100
AcDbXrecord
280
     1
102
RTVSPropertyOp0
 70
     1
102
RTVSPropertyOp1
 70
     1
102
RTVSPropertyOp2
 70
     1
102
RTVSPropertyOp3
 70
     1
102
RTVSPropertyOp4
 70
     1
102
RTVSPropertyOp5
 70
     1
102
RTVSPropertyOp6
 70
     1
102
RTVSPropertyOp7
 70
     1
102
RTVSPropertyOp8
 70
     1
102
RTVSPropertyOp9
 70
     1
102
RTVSPropertyOp10
 70
     1
102
RTVSPropertyOp11
 70
     1
102
RTVSPropertyOp12
 70
     1
102
RTVSPropertyOp13
 70
     1
102
RTVSPropertyOp14
 70
     1
102
RTVSPropertyOp15
 70
     1
102
RTVSPropertyOp16
 70
     1
102
RTVSPropertyOp17
 70
     1
102
RTVSPropertyOp18
 70
     1
102
RTVSPropertyOp19
 70
     1
102
RTVSPropertyOp20
 70
     1
102
RTVSPropertyOp21
 70
     1
102
RTVSPropertyOp22
 70
     1
102
RTVSPropertyOp23
 70
     1
102
RTVSPropertyOp24
 70
     1
102
RTVSPropertyOp25
 70
     1
102
RTVSPropertyOp26
 70
     1
102
RTVSPropertyOp27
 70
     1
102
RTVSPropertyOp28
 70
     1
102
RTVSPropertyOp29
 70
     1
102
RTVSPropertyOp30
 70
     1
102
RTVSPropertyOp31
 70
     1
102
RTVSPropertyOp32
 70
     1
102
RTVSPropertyOp33
 70
     1
102
RTVSPropertyOp34
 70
     1
102
RTVSPropertyOp35
 70
     1
102
RTVSPropertyOp36
 70
     1
102
RTVSPropertyOp37
 70
     1
102
RTVSPropertyOp38
 70
     1
102
RTVSPropertyOp39
 70
     1
102
RTVSPropertyOp40
 70
     1
102
RTVSPropertyOp41
 70
     1
102
RTVSPropertyOp42
 70
     1
102
RTVSPropertyOp43
 70
     1
102
RTVSPropertyOp44
 70
     1
102
RTVSPropertyOp45
 70
     1
102
RTVSPropertyOp46
 70
     1
102
RTVSPropertyOp47
 70
     1
102
RTVSPropertyOp48
 70
     1
102
RTVSPropertyOp49
 70
     1
102
RTVSPropertyOp50
 70
     1
102
RTVSPropertyOp51
 70
     0
102
RTVSPropertyOp52
 70
     0
102
RTVSPropertyOp53
 70
     1
102
RTVSPropertyOp54
 70
     1
102
RTVSPropertyOp55
 70
     1
102
RTVSPropertyOp56
 70
     1
102
RTVSPropertyOp57
 70
     1
102
RTVSPost2010Prop28
280
     0
102
RTVSPost2010PropOp28
 70
     1
102
RTVSPost2010Prop29
280
     1
102
RTVSPost2010PropOp29
 70
     1
102
RTVSPost2010Prop30
280
     1
102
RTVSPost2010PropOp30
 70
     1
102
RTVSPost2010Prop31
280
     0
102
RTVSPost2010PropOp31
 70
     1
102
RTVSPost2010Prop32
280
     0
102
RTVSPost2010PropOp32
 70
     1
102
RTVSPost2010Prop33
280
     0
102
RTVSPost2010PropOp33
 70
     1
102
RTVSPost2010Prop34
280
     0
102
RTVSPost2010PropOp34
 70
     1
102
RTVSPost2010Prop35
280
     0
102
RTVSPost2010PropOp35
 70
     1
102
RTVSPost2010Prop36
280
     0
102
RTVSPost2010PropOp36
 70
     1
102
RTVSPost2010Prop37
 90
       50
102
RTVSPost2010PropOp37
 70
     1
102
RTVSPost2010Prop38
140
0.0
102
RTVSPost2010PropOp38
 70
     1
102
RTVSPost2010Prop39
140
1.0
102
RTVSPost2010PropOp39
 70
     1
102
RTVSPost2010Prop40
 90
        0
102
RTVSPost2010PropOp40
 70
     1
102
RTVSPost2010Prop41ColorIndex
 90
      178
102
RTVSPost2010Prop41ColorRGB
 90
        0
102
RTVSPost2010PropOp41
 70
     1
102
RTVSPost2010Prop42
 90
       50
102
RTVSPost2010PropOp42
 70
     1
102
RTVSPost2010Prop43
 90
        3
102
RTVSPost2010PropOp43
 70
     1
102
RTVSPost2010Prop44ColorIndex
 90
        5
102
RTVSPost2010Prop44ColorRGB
 90
      255
102
RTVSPost2010PropOp44
 70
     1
102
RTVSPost2010Prop45
280
     0
102
RTVSPost2010PropOp45
 70
     1
102
RTVSPost2010Prop46
 90
       50
102
RTVSPost2010PropOp46
 70
     1
102
RTVSPost2010Prop47
 90
       50
102
RTVSPost2010PropOp47
 70
     1
102
RTVSPost2010Prop48
 90
       50
102
RTVSPost2010PropOp48
 70
     1
102
RTVSPost2010Prop49
280
     0
102
RTVSPost2010PropOp49
 70
     1
102
RTVSPost2010Prop50
 90
       50
102
RTVSPost2010PropOp50
 70
     1
102
RTVSPost2010Prop51ColorIndex
 90
      256
102
RTVSPost2010Prop51ColorRGB
 90
-16777216
102
RTVSPost2010PropOp51
 70
     0
102
RTVSPost2010Prop52
140
1.0
102
RTVSPost2010PropOp52
 70
     0
102
RTVSPost2010Prop53
 90
        2
102
RTVSPost2010PropOp53
 70
     1
102
RTVSPost2010Prop54
  1
strokes_ogs.tif
102
RTVSPost2010PropOp54
 70
     1
102
RTVSPost2010Prop55
280
     0
102
RTVSPost2010PropOp55
 70
     1
102
RTVSPost2010Prop56
140
1.0
102
RTVSPost2010PropOp56
 70
     1
102
RTVSPost2010Prop57
140
1.0
102
RTVSPost2010PropOp57
 70
     1
  0
XRECORD
  5
1A3
102
{ACAD_REACTORS
330
1A2
102
}
330
1A2
100
AcDbXrecord
280
     1
102
RTVSPropertyOp0
 70
     1
102
RTVSPropertyOp1
 70
     1
102
RTVSPropertyOp2
 70
     1
102
RTVSPropertyOp3
 70
     1
102
RTVSPropertyOp4
 70
     1
102
RTVSPropertyOp5
 70
     1
102
RTVSPropertyOp6
 70
     1
102
RTVSPropertyOp7
 70
     1
102
RTVSPropertyOp8
 70
     1
102
RTVSPropertyOp9
 70
     1
102
RTVSPropertyOp10
 70
     1
102
RTVSPropertyOp11
 70
     1
102
RTVSPropertyOp12
 70
     1
102
RTVSPropertyOp13
 70
     1
102
RTVSPropertyOp14
 70
     1
102
RTVSPropertyOp15
 70
     1
102
RTVSPropertyOp16
 70
     1
102
RTVSPropertyOp17
 70
     1
102
RTVSPropertyOp18
 70
     1
102
RTVSPropertyOp19
 70
     1
102
RTVSPropertyOp20
 70
     1
102
RTVSPropertyOp21
 70
     1
102
RTVSPropertyOp22
 70
     1
102
RTVSPropertyOp23
 70
     1
102
RTVSPropertyOp24
 70
     1
102
RTVSPropertyOp25
 70
     1
102
RTVSPropertyOp26
 70
     1
102
RTVSPropertyOp27
 70
     1
102
RTVSPropertyOp28
 70
     1
102
RTVSPropertyOp29
 70
     1
102
RTVSPropertyOp30
 70
     1
102
RTVSPropertyOp31
 70
     1
102
RTVSPropertyOp32
 70
     1
102
RTVSPropertyOp33
 70
     1
102
RTVSPropertyOp34
 70
     1
102
RTVSPropertyOp35
 70
     1
102
RTVSPropertyOp36
 70
     1
102
RTVSPropertyOp37
 70
     1
102
RTVSPropertyOp38
 70
     1
102
RTVSPropertyOp39
 70
     1
102
RTVSPropertyOp40
 70
     1
102
RTVSPropertyOp41
 70
     1
102
RTVSPropertyOp42
 70
     1
102
RTVSPropertyOp43
 70
     1
102
RTVSPropertyOp44
 70
     1
102
RTVSPropertyOp45
 70
     1
102
RTVSPropertyOp46
 70
     1
102
RTVSPropertyOp47
 70
     1
102
RTVSPropertyOp48
 70
     1
102
RTVSPropertyOp49
 70
     1
102
RTVSPropertyOp50
 70
     1
102
RTVSPropertyOp51
 70
     0
102
RTVSPropertyOp52
 70
     0
102
RTVSPropertyOp53
 70
     1
102
RTVSPropertyOp54
 70
     1
102
RTVSPropertyOp55
 70
     1
102
RTVSPropertyOp56
 70
     1
102
RTVSPropertyOp57
 70
     1
102
RTVSPost2010Prop28
280
     0
102
RTVSPost2010PropOp28
 70
     1
102
RTVSPost2010Prop29
280
     1
102
RTVSPost2010PropOp29
 70
     1
102
RTVSPost2010Prop30
280
     1
102
RTVSPost2010PropOp30
 70
     1
102
RTVSPost2010Prop31
280
     0
102
RTVSPost2010PropOp31
 70
     1
102
RTVSPost2010Prop32
280
     0
102
RTVSPost2010PropOp32
 70
     1
102
RTVSPost2010Prop33
280
     0
102
RTVSPost2010PropOp33
 70
     1
102
RTVSPost2010Prop34
280
     0
102
RTVSPost2010PropOp34
 70
     1
102
RTVSPost2010Prop35
280
     0
102
RTVSPost2010PropOp35
 70
     1
102
RTVSPost2010Prop36
280
     0
102
RTVSPost2010PropOp36
 70
     1
102
RTVSPost2010Prop37
 90
       50
102
RTVSPost2010PropOp37
 70
     1
102
RTVSPost2010Prop38
140
0.0
102
RTVSPost2010PropOp38
 70
     1
102
RTVSPost2010Prop39
140
1.0
102
RTVSPost2010PropOp39
 70
     1
102
RTVSPost2010Prop40
 90
        0
102
RTVSPost2010PropOp40
 70
     1
102
RTVSPost2010Prop41ColorIndex
 90
      178
102
RTVSPost2010Prop41ColorRGB
 90
        0
102
RTVSPost2010PropOp41
 70
     1
102
RTVSPost2010Prop42
 90
       50
102
RTVSPost2010PropOp42
 70
     1
102
RTVSPost2010Prop43
 90
        3
102
RTVSPost2010PropOp43
 70
     1
102
RTVSPost2010Prop44ColorIndex
 90
        5
102
RTVSPost2010Prop44ColorRGB
 90
      255
102
RTVSPost2010PropOp44
 70
     1
102
RTVSPost2010Prop45
280
     0
102
RTVSPost2010PropOp45
 70
     1
102
RTVSPost2010Prop46
 90
       50
102
RTVSPost2010PropOp46
 70
     1
102
RTVSPost2010Prop47
 90
       50
102
RTVSPost2010PropOp47
 70
     1
102
RTVSPost2010Prop48
 90
       50
102
RTVSPost2010PropOp48
 70
     1
102
RTVSPost2010Prop49
280
     0
102
RTVSPost2010PropOp49
 70
     1
102
RTVSPost2010Prop50
 90
       50
102
RTVSPost2010PropOp50
 70
     1
102
RTVSPost2010Prop51ColorIndex
 90
      256
102
RTVSPost2010Prop51ColorRGB
 90
-16777216
102
RTVSPost2010PropOp51
 70
     0
102
RTVSPost2010Prop52
140
1.0
102
RTVSPost2010PropOp52
 70
     0
102
RTVSPost2010Prop53
 90
        2
102
RTVSPost2010PropOp53
 70
     1
102
RTVSPost2010Prop54
  1
strokes_ogs.tif
102
RTVSPost2010PropOp54
 70
     1
102
RTVSPost2010Prop55
280
     0
102
RTVSPost2010PropOp55
 70
     1
102
RTVSPost2010Prop56
140
1.0
102
RTVSPost2010PropOp56
 70
     1
102
RTVSPost2010Prop57
140
1.0
102
RTVSPost2010PropOp57
 70
     1
  0
XRECORD
  5
1A1
102
{ACAD_REACTORS
330
1A0
102
}
330
1A0
100
AcDbXrecord
280
     1
102
RTVSPropertyOp0
 70
     1
102
RTVSPropertyOp1
 70
     1
102
RTVSPropertyOp2
 70
     1
102
RTVSPropertyOp3
 70
     1
102
RTVSPropertyOp4
 70
     1
102
RTVSPropertyOp5
 70
     1
102
RTVSPropertyOp6
 70
     1
102
RTVSPropertyOp7
 70
     1
102
RTVSPropertyOp8
 70
     1
102
RTVSPropertyOp9
 70
     1
102
RTVSPropertyOp10
 70
     1
102
RTVSPropertyOp11
 70
     1
102
RTVSPropertyOp12
 70
     1
102
RTVSPropertyOp13
 70
     1
102
RTVSPropertyOp14
 70
     1
102
RTVSPropertyOp15
 70
     1
102
RTVSPropertyOp16
 70
     1
102
RTVSPropertyOp17
 70
     1
102
RTVSPropertyOp18
 70
     1
102
RTVSPropertyOp19
 70
     1
102
RTVSPropertyOp20
 70
     1
102
RTVSPropertyOp21
 70
     1
102
RTVSPropertyOp22
 70
     1
102
RTVSPropertyOp23
 70
     1
102
RTVSPropertyOp24
 70
     1
102
RTVSPropertyOp25
 70
     1
102
RTVSPropertyOp26
 70
     1
102
RTVSPropertyOp27
 70
     1
102
RTVSPropertyOp28
 70
     1
102
RTVSPropertyOp29
 70
     1
102
RTVSPropertyOp30
 70
     1
102
RTVSPropertyOp31
 70
     1
102
RTVSPropertyOp32
 70
     1
102
RTVSPropertyOp33
 70
     1
102
RTVSPropertyOp34
 70
     1
102
RTVSPropertyOp35
 70
     1
102
RTVSPropertyOp36
 70
     1
102
RTVSPropertyOp37
 70
     1
102
RTVSPropertyOp38
 70
     1
102
RTVSPropertyOp39
 70
     1
102
RTVSPropertyOp40
 70
     1
102
RTVSPropertyOp41
 70
     1
102
RTVSPropertyOp42
 70
     1
102
RTVSPropertyOp43
 70
     1
102
RTVSPropertyOp44
 70
     1
102
RTVSPropertyOp45
 70
     1
102
RTVSPropertyOp46
 70
     1
102
RTVSPropertyOp47
 70
     1
102
RTVSPropertyOp48
 70
     1
102
RTVSPropertyOp49
 70
     1
102
RTVSPropertyOp50
 70
     1
102
RTVSPropertyOp51
 70
     0
102
RTVSPropertyOp52
 70
     0
102
RTVSPropertyOp53
 70
     1
102
RTVSPropertyOp54
 70
     1
102
RTVSPropertyOp55
 70
     1
102
RTVSPropertyOp56
 70
     1
102
RTVSPropertyOp57
 70
     1
102
RTVSPost2010Prop28
280
     0
102
RTVSPost2010PropOp28
 70
     1
102
RTVSPost2010Prop29
280
     1
102
RTVSPost2010PropOp29
 70
     1
102
RTVSPost2010Prop30
280
     1
102
RTVSPost2010PropOp30
 70
     1
102
RTVSPost2010Prop31
280
     0
102
RTVSPost2010PropOp31
 70
     1
102
RTVSPost2010Prop32
280
     0
102
RTVSPost2010PropOp32
 70
     1
102
RTVSPost2010Prop33
280
     0
102
RTVSPost2010PropOp33
 70
     1
102
RTVSPost2010Prop34
280
     0
102
RTVSPost2010PropOp34
 70
     1
102
RTVSPost2010Prop35
280
     0
102
RTVSPost2010PropOp35
 70
     1
102
RTVSPost2010Prop36
280
     0
102
RTVSPost2010PropOp36
 70
     1
102
RTVSPost2010Prop37
 90
       50
102
RTVSPost2010PropOp37
 70
     1
102
RTVSPost2010Prop38
140
0.0
102
RTVSPost2010PropOp38
 70
     1
102
RTVSPost2010Prop39
140
1.0
102
RTVSPost2010PropOp39
 70
     1
102
RTVSPost2010Prop40
 90
        0
102
RTVSPost2010PropOp40
 70
     1
102
RTVSPost2010Prop41ColorIndex
 90
      178
102
RTVSPost2010Prop41ColorRGB
 90
        0
102
RTVSPost2010PropOp41
 70
     1
102
RTVSPost2010Prop42
 90
       50
102
RTVSPost2010PropOp42
 70
     1
102
RTVSPost2010Prop43
 90
        3
102
RTVSPost2010PropOp43
 70
     1
102
RTVSPost2010Prop44ColorIndex
 90
        5
102
RTVSPost2010Prop44ColorRGB
 90
      255
102
RTVSPost2010PropOp44
 70
     1
102
RTVSPost2010Prop45
280
     0
102
RTVSPost2010PropOp45
 70
     1
102
RTVSPost2010Prop46
 90
       50
102
RTVSPost2010PropOp46
 70
     1
102
RTVSPost2010Prop47
 90
       50
102
RTVSPost2010PropOp47
 70
     1
102
RTVSPost2010Prop48
 90
       50
102
RTVSPost2010PropOp48
 70
     1
102
RTVSPost2010Prop49
280
     0
102
RTVSPost2010PropOp49
 70
     1
102
RTVSPost2010Prop50
 90
       50
102
RTVSPost2010PropOp50
 70
     1
102
RTVSPost2010Prop51ColorIndex
 90
      256
102
RTVSPost2010Prop51ColorRGB
 90
-16777216
102
RTVSPost2010PropOp51
 70
     0
102
RTVSPost2010Prop52
140
1.0
102
RTVSPost2010PropOp52
 70
     0
102
RTVSPost2010Prop53
 90
        2
102
RTVSPost2010PropOp53
 70
     1
102
RTVSPost2010Prop54
  1
strokes_ogs.tif
102
RTVSPost2010PropOp54
 70
     1
102
RTVSPost2010Prop55
280
     0
102
RTVSPost2010PropOp55
 70
     1
102
RTVSPost2010Prop56
140
1.0
102
RTVSPost2010PropOp56
 70
     1
102
RTVSPost2010Prop57
140
1.0
102
RTVSPost2010PropOp57
 70
     1
  0
XRECORD
  5
19B
102
{ACAD_REACTORS
330
19A
102
}
330
19A
100
AcDbXrecord
280
     1
102
RTVSPropertyOp0
 70
     1
102
RTVSPropertyOp1
 70
     1
102
RTVSPropertyOp2
 70
     1
102
RTVSPropertyOp3
 70
     1
102
RTVSPropertyOp4
 70
     1
102
RTVSPropertyOp5
 70
     1
102
RTVSPropertyOp6
 70
     1
102
RTVSPropertyOp7
 70
     1
102
RTVSPropertyOp8
 70
     1
102
RTVSPropertyOp9
 70
     1
102
RTVSPropertyOp10
 70
     1
102
RTVSPropertyOp11
 70
     1
102
RTVSPropertyOp12
 70
     1
102
RTVSPropertyOp13
 70
     1
102
RTVSPropertyOp14
 70
     1
102
RTVSPropertyOp15
 70
     1
102
RTVSPropertyOp16
 70
     1
102
RTVSPropertyOp17
 70
     1
102
RTVSPropertyOp18
 70
     1
102
RTVSPropertyOp19
 70
     1
102
RTVSPropertyOp20
 70
     1
102
RTVSPropertyOp21
 70
     1
102
RTVSPropertyOp22
 70
     1
102
RTVSPropertyOp23
 70
     1
102
RTVSPropertyOp24
 70
     1
102
RTVSPropertyOp25
 70
     1
102
RTVSPropertyOp26
 70
     1
102
RTVSPropertyOp27
 70
     1
102
RTVSPropertyOp28
 70
     1
102
RTVSPropertyOp29
 70
     1
102
RTVSPropertyOp30
 70
     1
102
RTVSPropertyOp31
 70
     1
102
RTVSPropertyOp32
 70
     1
102
RTVSPropertyOp33
 70
     1
102
RTVSPropertyOp34
 70
     1
102
RTVSPropertyOp35
 70
     1
102
RTVSPropertyOp36
 70
     1
102
RTVSPropertyOp37
 70
     1
102
RTVSPropertyOp38
 70
     1
102
RTVSPropertyOp39
 70
     1
102
RTVSPropertyOp40
 70
     1
102
RTVSPropertyOp41
 70
     1
102
RTVSPropertyOp42
 70
     1
102
RTVSPropertyOp43
 70
     1
102
RTVSPropertyOp44
 70
     1
102
RTVSPropertyOp45
 70
     1
102
RTVSPropertyOp46
 70
     1
102
RTVSPropertyOp47
 70
     1
102
RTVSPropertyOp48
 70
     1
102
RTVSPropertyOp49
 70
     1
102
RTVSPropertyOp50
 70
     1
102
RTVSPropertyOp51
 70
     0
102
RTVSPropertyOp52
 70
     0
102
RTVSPropertyOp53
 70
     1
102
RTVSPropertyOp54
 70
     1
102
RTVSPropertyOp55
 70
     1
102
RTVSPropertyOp56
 70
     1
102
RTVSPropertyOp57
 70
     1
102
RTVSPost2010Prop28
280
     0
102
RTVSPost2010PropOp28
 70
     1
102
RTVSPost2010Prop29
280
     1
102
RTVSPost2010PropOp29
 70
     1
102
RTVSPost2010Prop30
280
     1
102
RTVSPost2010PropOp30
 70
     1
102
RTVSPost2010Prop31
280
     0
102
RTVSPost2010PropOp31
 70
     1
102
RTVSPost2010Prop32
280
     0
102
RTVSPost2010PropOp32
 70
     1
102
RTVSPost2010Prop33
280
     0
102
RTVSPost2010PropOp33
 70
     1
102
RTVSPost2010Prop34
280
     0
102
RTVSPost2010PropOp34
 70
     1
102
RTVSPost2010Prop35
280
     0
102
RTVSPost2010PropOp35
 70
     1
102
RTVSPost2010Prop36
280
     0
102
RTVSPost2010PropOp36
 70
     1
102
RTVSPost2010Prop37
 90
       50
102
RTVSPost2010PropOp37
 70
     1
102
RTVSPost2010Prop38
140
0.0
102
RTVSPost2010PropOp38
 70
     1
102
RTVSPost2010Prop39
140
1.0
102
RTVSPost2010PropOp39
 70
     1
102
RTVSPost2010Prop40
 90
        0
102
RTVSPost2010PropOp40
 70
     1
102
RTVSPost2010Prop41ColorIndex
 90
      178
102
RTVSPost2010Prop41ColorRGB
 90
        0
102
RTVSPost2010PropOp41
 70
     1
102
RTVSPost2010Prop42
 90
       50
102
RTVSPost2010PropOp42
 70
     1
102
RTVSPost2010Prop43
 90
        3
102
RTVSPost2010PropOp43
 70
     1
102
RTVSPost2010Prop44ColorIndex
 90
        5
102
RTVSPost2010Prop44ColorRGB
 90
      255
102
RTVSPost2010PropOp44
 70
     1
102
RTVSPost2010Prop45
280
     0
102
RTVSPost2010PropOp45
 70
     1
102
RTVSPost2010Prop46
 90
       50
102
RTVSPost2010PropOp46
 70
     1
102
RTVSPost2010Prop47
 90
       50
102
RTVSPost2010PropOp47
 70
     1
102
RTVSPost2010Prop48
 90
       50
102
RTVSPost2010PropOp48
 70
     1
102
RTVSPost2010Prop49
280
     0
102
RTVSPost2010PropOp49
 70
     1
102
RTVSPost2010Prop50
 90
       50
102
RTVSPost2010PropOp50
 70
     1
102
RTVSPost2010Prop51ColorIndex
 90
      256
102
RTVSPost2010Prop51ColorRGB
 90
-16777216
102
RTVSPost2010PropOp51
 70
     0
102
RTVSPost2010Prop52
140
1.0
102
RTVSPost2010PropOp52
 70
     0
102
RTVSPost2010Prop53
 90
        2
102
RTVSPost2010PropOp53
 70
     1
102
RTVSPost2010Prop54
  1
strokes_ogs.tif
102
RTVSPost2010PropOp54
 70
     1
102
RTVSPost2010Prop55
280
     0
102
RTVSPost2010PropOp55
 70
     1
102
RTVSPost2010Prop56
140
1.0
102
RTVSPost2010PropOp56
 70
     1
102
RTVSPost2010Prop57
140
1.0
102
RTVSPost2010PropOp57
 70
     1
  0
XRECORD
  5
19D
102
{ACAD_REACTORS
330
19C
102
}
330
19C
100
AcDbXrecord
280
     1
102
RTVSPropertyOp0
 70
     1
102
RTVSPropertyOp1
 70
     1
102
RTVSPropertyOp2
 70
     1
102
RTVSPropertyOp3
 70
     1
102
RTVSPropertyOp4
 70
     1
102
RTVSPropertyOp5
 70
     1
102
RTVSPropertyOp6
 70
     1
102
RTVSPropertyOp7
 70
     1
102
RTVSPropertyOp8
 70
     1
102
RTVSPropertyOp9
 70
     1
102
RTVSPropertyOp10
 70
     1
102
RTVSPropertyOp11
 70
     1
102
RTVSPropertyOp12
 70
     1
102
RTVSPropertyOp13
 70
     1
102
RTVSPropertyOp14
 70
     1
102
RTVSPropertyOp15
 70
     1
102
RTVSPropertyOp16
 70
     1
102
RTVSPropertyOp17
 70
     1
102
RTVSPropertyOp18
 70
     1
102
RTVSPropertyOp19
 70
     1
102
RTVSPropertyOp20
 70
     1
102
RTVSPropertyOp21
 70
     1
102
RTVSPropertyOp22
 70
     1
102
RTVSPropertyOp23
 70
     1
102
RTVSPropertyOp24
 70
     1
102
RTVSPropertyOp25
 70
     1
102
RTVSPropertyOp26
 70
     1
102
RTVSPropertyOp27
 70
     1
102
RTVSPropertyOp28
 70
     1
102
RTVSPropertyOp29
 70
     1
102
RTVSPropertyOp30
 70
     1
102
RTVSPropertyOp31
 70
     1
102
RTVSPropertyOp32
 70
     1
102
RTVSPropertyOp33
 70
     1
102
RTVSPropertyOp34
 70
     1
102
RTVSPropertyOp35
 70
     1
102
RTVSPropertyOp36
 70
     1
102
RTVSPropertyOp37
 70
     1
102
RTVSPropertyOp38
 70
     1
102
RTVSPropertyOp39
 70
     1
102
RTVSPropertyOp40
 70
     1
102
RTVSPropertyOp41
 70
     1
102
RTVSPropertyOp42
 70
     1
102
RTVSPropertyOp43
 70
     1
102
RTVSPropertyOp44
 70
     1
102
RTVSPropertyOp45
 70
     1
102
RTVSPropertyOp46
 70
     1
102
RTVSPropertyOp47
 70
     1
102
RTVSPropertyOp48
 70
     1
102
RTVSPropertyOp49
 70
     1
102
RTVSPropertyOp50
 70
     1
102
RTVSPropertyOp51
 70
     0
102
RTVSPropertyOp52
 70
     0
102
RTVSPropertyOp53
 70
     1
102
RTVSPropertyOp54
 70
     1
102
RTVSPropertyOp55
 70
     1
102
RTVSPropertyOp56
 70
     1
102
RTVSPropertyOp57
 70
     1
102
RTVSPost2010Prop28
280
     0
102
RTVSPost2010PropOp28
 70
     1
102
RTVSPost2010Prop29
280
     1
102
RTVSPost2010PropOp29
 70
     1
102
RTVSPost2010Prop30
280
     1
102
RTVSPost2010PropOp30
 70
     1
102
RTVSPost2010Prop31
280
     0
102
RTVSPost2010PropOp31
 70
     1
102
RTVSPost2010Prop32
280
     0
102
RTVSPost2010PropOp32
 70
     1
102
RTVSPost2010Prop33
280
     0
102
RTVSPost2010PropOp33
 70
     1
102
RTVSPost2010Prop34
280
     0
102
RTVSPost2010PropOp34
 70
     1
102
RTVSPost2010Prop35
280
     0
102
RTVSPost2010PropOp35
 70
     1
102
RTVSPost2010Prop36
280
     0
102
RTVSPost2010PropOp36
 70
     1
102
RTVSPost2010Prop37
 90
       50
102
RTVSPost2010PropOp37
 70
     1
102
RTVSPost2010Prop38
140
0.0
102
RTVSPost2010PropOp38
 70
     1
102
RTVSPost2010Prop39
140
1.0
102
RTVSPost2010PropOp39
 70
     1
102
RTVSPost2010Prop40
 90
        0
102
RTVSPost2010PropOp40
 70
     1
102
RTVSPost2010Prop41ColorIndex
 90
      178
102
RTVSPost2010Prop41ColorRGB
 90
        0
102
RTVSPost2010PropOp41
 70
     1
102
RTVSPost2010Prop42
 90
       50
102
RTVSPost2010PropOp42
 70
     1
102
RTVSPost2010Prop43
 90
        3
102
RTVSPost2010PropOp43
 70
     1
102
RTVSPost2010Prop44ColorIndex
 90
        5
102
RTVSPost2010Prop44ColorRGB
 90
      255
102
RTVSPost2010PropOp44
 70
     1
102
RTVSPost2010Prop45
280
     0
102
RTVSPost2010PropOp45
 70
     1
102
RTVSPost2010Prop46
 90
       50
102
RTVSPost2010PropOp46
 70
     1
102
RTVSPost2010Prop47
 90
       50
102
RTVSPost2010PropOp47
 70
     1
102
RTVSPost2010Prop48
 90
       50
102
RTVSPost2010PropOp48
 70
     1
102
RTVSPost2010Prop49
280
     0
102
RTVSPost2010PropOp49
 70
     1
102
RTVSPost2010Prop50
 90
       50
102
RTVSPost2010PropOp50
 70
     1
102
RTVSPost2010Prop51ColorIndex
 90
      256
102
RTVSPost2010Prop51ColorRGB
 90
-16777216
102
RTVSPost2010PropOp51
 70
     0
102
RTVSPost2010Prop52
140
1.0
102
RTVSPost2010PropOp52
 70
     0
102
RTVSPost2010Prop53
 90
        2
102
RTVSPost2010PropOp53
 70
     1
102
RTVSPost2010Prop54
  1
strokes_ogs.tif
102
RTVSPost2010PropOp54
 70
     1
102
RTVSPost2010Prop55
280
     0
102
RTVSPost2010PropOp55
 70
     1
102
RTVSPost2010Prop56
140
1.0
102
RTVSPost2010PropOp56
 70
     1
102
RTVSPost2010Prop57
140
1.0
102
RTVSPost2010PropOp57
 70
     1
  0
XRECORD
  5
18D
102
{ACAD_REACTORS
330
18C
102
}
330
18C
100
AcDbXrecord
280
     1
102
RTVSPropertyOp0
 70
     1
102
RTVSPropertyOp1
 70
     1
102
RTVSPropertyOp2
 70
     1
102
RTVSPropertyOp3
 70
     1
102
RTVSPropertyOp4
 70
     1
102
RTVSPropertyOp5
 70
     1
102
RTVSPropertyOp6
 70
     1
102
RTVSPropertyOp7
 70
     1
102
RTVSPropertyOp8
 70
     1
102
RTVSPropertyOp9
 70
     1
102
RTVSPropertyOp10
 70
     1
102
RTVSPropertyOp11
 70
     1
102
RTVSPropertyOp12
 70
     1
102
RTVSPropertyOp13
 70
     1
102
RTVSPropertyOp14
 70
     1
102
RTVSPropertyOp15
 70
     1
102
RTVSPropertyOp16
 70
     1
102
RTVSPropertyOp17
 70
     1
102
RTVSPropertyOp18
 70
     1
102
RTVSPropertyOp19
 70
     1
102
RTVSPropertyOp20
 70
     1
102
RTVSPropertyOp21
 70
     1
102
RTVSPropertyOp22
 70
     1
102
RTVSPropertyOp23
 70
     1
102
RTVSPropertyOp24
 70
     1
102
RTVSPropertyOp25
 70
     1
102
RTVSPropertyOp26
 70
     1
102
RTVSPropertyOp27
 70
     1
102
RTVSPropertyOp28
 70
     1
102
RTVSPropertyOp29
 70
     1
102
RTVSPropertyOp30
 70
     1
102
RTVSPropertyOp31
 70
     1
102
RTVSPropertyOp32
 70
     1
102
RTVSPropertyOp33
 70
     1
102
RTVSPropertyOp34
 70
     1
102
RTVSPropertyOp35
 70
     1
102
RTVSPropertyOp36
 70
     1
102
RTVSPropertyOp37
 70
     1
102
RTVSPropertyOp38
 70
     1
102
RTVSPropertyOp39
 70
     1
102
RTVSPropertyOp40
 70
     1
102
RTVSPropertyOp41
 70
     1
102
RTVSPropertyOp42
 70
     1
102
RTVSPropertyOp43
 70
     1
102
RTVSPropertyOp44
 70
     1
102
RTVSPropertyOp45
 70
     1
102
RTVSPropertyOp46
 70
     1
102
RTVSPropertyOp47
 70
     1
102
RTVSPropertyOp48
 70
     1
102
RTVSPropertyOp49
 70
     1
102
RTVSPropertyOp50
 70
     1
102
RTVSPropertyOp51
 70
     0
102
RTVSPropertyOp52
 70
     0
102
RTVSPropertyOp53
 70
     1
102
RTVSPropertyOp54
 70
     1
102
RTVSPropertyOp55
 70
     1
102
RTVSPropertyOp56
 70
     1
102
RTVSPropertyOp57
 70
     1
102
RTVSPost2010Prop28
280
     0
102
RTVSPost2010PropOp28
 70
     1
102
RTVSPost2010Prop29
280
     1
102
RTVSPost2010PropOp29
 70
     1
102
RTVSPost2010Prop30
280
     1
102
RTVSPost2010PropOp30
 70
     1
102
RTVSPost2010Prop31
280
     0
102
RTVSPost2010PropOp31
 70
     1
102
RTVSPost2010Prop32
280
     0
102
RTVSPost2010PropOp32
 70
     1
102
RTVSPost2010Prop33
280
     0
102
RTVSPost2010PropOp33
 70
     1
102
RTVSPost2010Prop34
280
     0
102
RTVSPost2010PropOp34
 70
     1
102
RTVSPost2010Prop35
280
     0
102
RTVSPost2010PropOp35
 70
     1
102
RTVSPost2010Prop36
280
     0
102
RTVSPost2010PropOp36
 70
     1
102
RTVSPost2010Prop37
 90
       50
102
RTVSPost2010PropOp37
 70
     1
102
RTVSPost2010Prop38
140
0.0
102
RTVSPost2010PropOp38
 70
     1
102
RTVSPost2010Prop39
140
1.0
102
RTVSPost2010PropOp39
 70
     1
102
RTVSPost2010Prop40
 90
        0
102
RTVSPost2010PropOp40
 70
     1
102
RTVSPost2010Prop41ColorIndex
 90
      178
102
RTVSPost2010Prop41ColorRGB
 90
        0
102
RTVSPost2010PropOp41
 70
     1
102
RTVSPost2010Prop42
 90
       50
102
RTVSPost2010PropOp42
 70
     1
102
RTVSPost2010Prop43
 90
        3
102
RTVSPost2010PropOp43
 70
     1
102
RTVSPost2010Prop44ColorIndex
 90
        5
102
RTVSPost2010Prop44ColorRGB
 90
      255
102
RTVSPost2010PropOp44
 70
     1
102
RTVSPost2010Prop45
280
     0
102
RTVSPost2010PropOp45
 70
     1
102
RTVSPost2010Prop46
 90
       50
102
RTVSPost2010PropOp46
 70
     1
102
RTVSPost2010Prop47
 90
       50
102
RTVSPost2010PropOp47
 70
     1
102
RTVSPost2010Prop48
 90
       50
102
RTVSPost2010PropOp48
 70
     1
102
RTVSPost2010Prop49
280
     0
102
RTVSPost2010PropOp49
 70
     1
102
RTVSPost2010Prop50
 90
       50
102
RTVSPost2010PropOp50
 70
     1
102
RTVSPost2010Prop51ColorIndex
 90
      256
102
RTVSPost2010Prop51ColorRGB
 90
-16777216
102
RTVSPost2010PropOp51
 70
     0
102
RTVSPost2010Prop52
140
1.0
102
RTVSPost2010PropOp52
 70
     0
102
RTVSPost2010Prop53
 90
        2
102
RTVSPost2010PropOp53
 70
     1
102
RTVSPost2010Prop54
  1
strokes_ogs.tif
102
RTVSPost2010PropOp54
 70
     1
102
RTVSPost2010Prop55
280
     0
102
RTVSPost2010PropOp55
 70
     1
102
RTVSPost2010Prop56
140
1.0
102
RTVSPost2010PropOp56
 70
     1
102
RTVSPost2010Prop57
140
1.0
102
RTVSPost2010PropOp57
 70
     1
  0
XRECORD
  5
17F
102
{ACAD_REACTORS
330
17E
102
}
330
17E
100
AcDbXrecord
280
     1
102
RTVSPropertyOp0
 70
     1
102
RTVSPropertyOp1
 70
     1
102
RTVSPropertyOp2
 70
     1
102
RTVSPropertyOp3
 70
     1
102
RTVSPropertyOp4
 70
     1
102
RTVSPropertyOp5
 70
     1
102
RTVSPropertyOp6
 70
     1
102
RTVSPropertyOp7
 70
     1
102
RTVSPropertyOp8
 70
     1
102
RTVSPropertyOp9
 70
     1
102
RTVSPropertyOp10
 70
     1
102
RTVSPropertyOp11
 70
     1
102
RTVSPropertyOp12
 70
     1
102
RTVSPropertyOp13
 70
     1
102
RTVSPropertyOp14
 70
     1
102
RTVSPropertyOp15
 70
     1
102
RTVSPropertyOp16
 70
     1
102
RTVSPropertyOp17
 70
     1
102
RTVSPropertyOp18
 70
     1
102
RTVSPropertyOp19
 70
     1
102
RTVSPropertyOp20
 70
     1
102
RTVSPropertyOp21
 70
     1
102
RTVSPropertyOp22
 70
     1
102
RTVSPropertyOp23
 70
     1
102
RTVSPropertyOp24
 70
     1
102
RTVSPropertyOp25
 70
     1
102
RTVSPropertyOp26
 70
     1
102
RTVSPropertyOp27
 70
     1
102
RTVSPropertyOp28
 70
     1
102
RTVSPropertyOp29
 70
     1
102
RTVSPropertyOp30
 70
     1
102
RTVSPropertyOp31
 70
     1
102
RTVSPropertyOp32
 70
     1
102
RTVSPropertyOp33
 70
     1
102
RTVSPropertyOp34
 70
     1
102
RTVSPropertyOp35
 70
     1
102
RTVSPropertyOp36
 70
     1
102
RTVSPropertyOp37
 70
     1
102
RTVSPropertyOp38
 70
     1
102
RTVSPropertyOp39
 70
     1
102
RTVSPropertyOp40
 70
     1
102
RTVSPropertyOp41
 70
     1
102
RTVSPropertyOp42
 70
     1
102
RTVSPropertyOp43
 70
     1
102
RTVSPropertyOp44
 70
     1
102
RTVSPropertyOp45
 70
     1
102
RTVSPropertyOp46
 70
     1
102
RTVSPropertyOp47
 70
     1
102
RTVSPropertyOp48
 70
     1
102
RTVSPropertyOp49
 70
     1
102
RTVSPropertyOp50
 70
     1
102
RTVSPropertyOp51
 70
     0
102
RTVSPropertyOp52
 70
     0
102
RTVSPropertyOp53
 70
     1
102
RTVSPropertyOp54
 70
     1
102
RTVSPropertyOp55
 70
     1
102
RTVSPropertyOp56
 70
     1
102
RTVSPropertyOp57
 70
     1
102
RTVSPost2010Prop28
280
     0
102
RTVSPost2010PropOp28
 70
     1
102
RTVSPost2010Prop29
280
     1
102
RTVSPost2010PropOp29
 70
     1
102
RTVSPost2010Prop30
280
     1
102
RTVSPost2010PropOp30
 70
     1
102
RTVSPost2010Prop31
280
     0
102
RTVSPost2010PropOp31
 70
     1
102
RTVSPost2010Prop32
280
     0
102
RTVSPost2010PropOp32
 70
     1
102
RTVSPost2010Prop33
280
     0
102
RTVSPost2010PropOp33
 70
     1
102
RTVSPost2010Prop34
280
     0
102
RTVSPost2010PropOp34
 70
     1
102
RTVSPost2010Prop35
280
     0
102
RTVSPost2010PropOp35
 70
     1
102
RTVSPost2010Prop36
280
     0
102
RTVSPost2010PropOp36
 70
     1
102
RTVSPost2010Prop37
 90
       50
102
RTVSPost2010PropOp37
 70
     1
102
RTVSPost2010Prop38
140
0.0
102
RTVSPost2010PropOp38
 70
     1
102
RTVSPost2010Prop39
140
1.0
102
RTVSPost2010PropOp39
 70
     1
102
RTVSPost2010Prop40
 90
        0
102
RTVSPost2010PropOp40
 70
     1
102
RTVSPost2010Prop41ColorIndex
 90
      178
102
RTVSPost2010Prop41ColorRGB
 90
        0
102
RTVSPost2010PropOp41
 70
     1
102
RTVSPost2010Prop42
 90
       50
102
RTVSPost2010PropOp42
 70
     1
102
RTVSPost2010Prop43
 90
        3
102
RTVSPost2010PropOp43
 70
     1
102
RTVSPost2010Prop44ColorIndex
 90
        5
102
RTVSPost2010Prop44ColorRGB
 90
      255
102
RTVSPost2010PropOp44
 70
     1
102
RTVSPost2010Prop45
280
     0
102
RTVSPost2010PropOp45
 70
     1
102
RTVSPost2010Prop46
 90
       50
102
RTVSPost2010PropOp46
 70
     1
102
RTVSPost2010Prop47
 90
       50
102
RTVSPost2010PropOp47
 70
     1
102
RTVSPost2010Prop48
 90
       50
102
RTVSPost2010PropOp48
 70
     1
102
RTVSPost2010Prop49
280
     0
102
RTVSPost2010PropOp49
 70
     1
102
RTVSPost2010Prop50
 90
       50
102
RTVSPost2010PropOp50
 70
     1
102
RTVSPost2010Prop51ColorIndex
 90
      256
102
RTVSPost2010Prop51ColorRGB
 90
-16777216
102
RTVSPost2010PropOp51
 70
     0
102
RTVSPost2010Prop52
140
1.0
102
RTVSPost2010PropOp52
 70
     0
102
RTVSPost2010Prop53
 90
        2
102
RTVSPost2010PropOp53
 70
     1
102
RTVSPost2010Prop54
  1
strokes_ogs.tif
102
RTVSPost2010PropOp54
 70
     1
102
RTVSPost2010Prop55
280
     0
102
RTVSPost2010PropOp55
 70
     1
102
RTVSPost2010Prop56
140
1.0
102
RTVSPost2010PropOp56
 70
     1
102
RTVSPost2010Prop57
140
1.0
102
RTVSPost2010PropOp57
 70
     1
  0
XRECORD
  5
19F
102
{ACAD_REACTORS
330
19E
102
}
330
19E
100
AcDbXrecord
280
     1
102
RTVSPropertyOp0
 70
     1
102
RTVSPropertyOp1
 70
     1
102
RTVSPropertyOp2
 70
     1
102
RTVSPropertyOp3
 70
     1
102
RTVSPropertyOp4
 70
     1
102
RTVSPropertyOp5
 70
     1
102
RTVSPropertyOp6
 70
     1
102
RTVSPropertyOp7
 70
     1
102
RTVSPropertyOp8
 70
     1
102
RTVSPropertyOp9
 70
     1
102
RTVSPropertyOp10
 70
     1
102
RTVSPropertyOp11
 70
     1
102
RTVSPropertyOp12
 70
     1
102
RTVSPropertyOp13
 70
     1
102
RTVSPropertyOp14
 70
     1
102
RTVSPropertyOp15
 70
     1
102
RTVSPropertyOp16
 70
     1
102
RTVSPropertyOp17
 70
     1
102
RTVSPropertyOp18
 70
     1
102
RTVSPropertyOp19
 70
     1
102
RTVSPropertyOp20
 70
     1
102
RTVSPropertyOp21
 70
     1
102
RTVSPropertyOp22
 70
     1
102
RTVSPropertyOp23
 70
     1
102
RTVSPropertyOp24
 70
     1
102
RTVSPropertyOp25
 70
     1
102
RTVSPropertyOp26
 70
     1
102
RTVSPropertyOp27
 70
     1
102
RTVSPropertyOp28
 70
     1
102
RTVSPropertyOp29
 70
     1
102
RTVSPropertyOp30
 70
     1
102
RTVSPropertyOp31
 70
     1
102
RTVSPropertyOp32
 70
     1
102
RTVSPropertyOp33
 70
     1
102
RTVSPropertyOp34
 70
     1
102
RTVSPropertyOp35
 70
     1
102
RTVSPropertyOp36
 70
     1
102
RTVSPropertyOp37
 70
     1
102
RTVSPropertyOp38
 70
     1
102
RTVSPropertyOp39
 70
     1
102
RTVSPropertyOp40
 70
     1
102
RTVSPropertyOp41
 70
     1
102
RTVSPropertyOp42
 70
     1
102
RTVSPropertyOp43
 70
     1
102
RTVSPropertyOp44
 70
     1
102
RTVSPropertyOp45
 70
     1
102
RTVSPropertyOp46
 70
     1
102
RTVSPropertyOp47
 70
     1
102
RTVSPropertyOp48
 70
     1
102
RTVSPropertyOp49
 70
     1
102
RTVSPropertyOp50
 70
     1
102
RTVSPropertyOp51
 70
     0
102
RTVSPropertyOp52
 70
     0
102
RTVSPropertyOp53
 70
     1
102
RTVSPropertyOp54
 70
     1
102
RTVSPropertyOp55
 70
     1
102
RTVSPropertyOp56
 70
     1
102
RTVSPropertyOp57
 70
     1
102
RTVSPost2010Prop28
280
     0
102
RTVSPost2010PropOp28
 70
     1
102
RTVSPost2010Prop29
280
     1
102
RTVSPost2010PropOp29
 70
     1
102
RTVSPost2010Prop30
280
     1
102
RTVSPost2010PropOp30
 70
     1
102
RTVSPost2010Prop31
280
     0
102
RTVSPost2010PropOp31
 70
     1
102
RTVSPost2010Prop32
280
     0
102
RTVSPost2010PropOp32
 70
     1
102
RTVSPost2010Prop33
280
     0
102
RTVSPost2010PropOp33
 70
     1
102
RTVSPost2010Prop34
280
     0
102
RTVSPost2010PropOp34
 70
     1
102
RTVSPost2010Prop35
280
     0
102
RTVSPost2010PropOp35
 70
     1
102
RTVSPost2010Prop36
280
     0
102
RTVSPost2010PropOp36
 70
     1
102
RTVSPost2010Prop37
 90
       50
102
RTVSPost2010PropOp37
 70
     1
102
RTVSPost2010Prop38
140
0.0
102
RTVSPost2010PropOp38
 70
     1
102
RTVSPost2010Prop39
140
1.0
102
RTVSPost2010PropOp39
 70
     1
102
RTVSPost2010Prop40
 90
        0
102
RTVSPost2010PropOp40
 70
     1
102
RTVSPost2010Prop41ColorIndex
 90
      178
102
RTVSPost2010Prop41ColorRGB
 90
        0
102
RTVSPost2010PropOp41
 70
     1
102
RTVSPost2010Prop42
 90
       50
102
RTVSPost2010PropOp42
 70
     1
102
RTVSPost2010Prop43
 90
        3
102
RTVSPost2010PropOp43
 70
     1
102
RTVSPost2010Prop44ColorIndex
 90
        5
102
RTVSPost2010Prop44ColorRGB
 90
      255
102
RTVSPost2010PropOp44
 70
     1
102
RTVSPost2010Prop45
280
     0
102
RTVSPost2010PropOp45
 70
     1
102
RTVSPost2010Prop46
 90
       50
102
RTVSPost2010PropOp46
 70
     1
102
RTVSPost2010Prop47
 90
       50
102
RTVSPost2010PropOp47
 70
     1
102
RTVSPost2010Prop48
 90
       50
102
RTVSPost2010PropOp48
 70
     1
102
RTVSPost2010Prop49
280
     0
102
RTVSPost2010PropOp49
 70
     1
102
RTVSPost2010Prop50
 90
       50
102
RTVSPost2010PropOp50
 70
     1
102
RTVSPost2010Prop51ColorIndex
 90
      256
102
RTVSPost2010Prop51ColorRGB
 90
-16777216
102
RTVSPost2010PropOp51
 70
     0
102
RTVSPost2010Prop52
140
1.0
102
RTVSPost2010PropOp52
 70
     0
102
RTVSPost2010Prop53
 90
        2
102
RTVSPost2010PropOp53
 70
     1
102
RTVSPost2010Prop54
  1
strokes_ogs.tif
102
RTVSPost2010PropOp54
 70
     1
102
RTVSPost2010Prop55
280
     0
102
RTVSPost2010PropOp55
 70
     1
102
RTVSPost2010Prop56
140
1.0
102
RTVSPost2010PropOp56
 70
     1
102
RTVSPost2010Prop57
140
1.0
102
RTVSPost2010PropOp57
 70
     1
  0
ENDSEC
  0
EOF
