  0
SECTION
  2
HEADER
  9
$ACADVER
  1
AC1027
  9
$ACADMAINTVER
 70
   125
  9
$DWGCODEPAGE
  3
ANSI_1252
  9
$TITLE
  1
cad-block.com
  9
$AUTHOR
  1
A.CH
  9
$KEYWORDS
  1
dwg
  9
$LASTSAVEDBY
  1
FelipeSG
  9
$REQUIREDVERSIONS
160
                 0
  9
$INSBASE
 10
0.0
 20
0.0
 30
0.0
  9
$EXTMIN
 10
-3.056847126842114
 20
23.02380520580642
 30
0.0
  9
$EXTMAX
 10
377.292296762286
 20
161.5756906038825
 30
0.0
  9
$LIMMIN
 10
0.0
 20
0.0
  9
$LIMMAX
 10
420.0
 20
297.0
  9
$ORTHOMODE
 70
     0
  9
$REGENMODE
 70
     1
  9
$FILLMODE
 70
     1
  9
$QTEXTMODE
 70
     0
  9
$MIRRTEXT
 70
     0
  9
$LTSCALE
 40
1.0
  9
$ATTMODE
 70
     1
  9
$TEXTSIZE
 40
2.5
  9
$TRACEWID
 40
1.0
  9
$TEXTSTYLE
  7
Standard
  9
$CLAYER
  8
0
  9
$CELTYPE
  6
ByLayer
  9
$CECOLOR
 62
     1
  9
$CELTSCALE
 40
1.0
  9
$DISPSILH
 70
     0
  9
$DIMSCALE
 40
1.0
  9
$DIMASZ
 40
0.18
  9
$DIMEXO
 40
0.0625
  9
$DIMDLI
 40
0.38
  9
$DIMRND
 40
0.0
  9
$DIMDLE
 40
0.0
  9
$DIMEXE
 40
0.18
  9
$DIMTP
 40
0.0
  9
$DIMTM
 40
0.0
  9
$DIMTXT
 40
0.18
  9
$DIMCEN
 40
0.09
  9
$DIMTSZ
 40
0.0
  9
$DIMTOL
 70
     0
  9
$DIMLIM
 70
     0
  9
$DIMTIH
 70
     1
  9
$DIMTOH
 70
     1
  9
$DIMSE1
 70
     0
  9
$DIMSE2
 70
     0
  9
$DIMTAD
 70
     0
  9
$DIMZIN
 70
     0
  9
$DIMBLK
  1

  9
$DIMASO
 70
     1
  9
$DIMSHO
 70
     1
  9
$DIMPOST
  1

  9
$DIMAPOST
  1

  9
$DIMALT
 70
     0
  9
$DIMALTD
 70
     2
  9
$DIMALTF
 40
25.4
  9
$DIMLFAC
 40
1.0
  9
$DIMTOFL
 70
     0
  9
$DIMTVP
 40
0.0
  9
$DIMTIX
 70
     0
  9
$DIMSOXD
 70
     0
  9
$DIMSAH
 70
     0
  9
$DIMBLK1
  1

  9
$DIMBLK2
  1

  9
$DIMSTYLE
  2
Standard
  9
$DIMCLRD
 70
     0
  9
$DIMCLRE
 70
     0
  9
$DIMCLRT
 70
     0
  9
$DIMTFAC
 40
1.0
  9
$DIMGAP
 40
0.09
  9
$DIMJUST
 70
     0
  9
$DIMSD1
 70
     0
  9
$DIMSD2
 70
     0
  9
$DIMTOLJ
 70
     1
  9
$DIMTZIN
 70
     0
  9
$DIMALTZ
 70
     0
  9
$DIMALTTZ
 70
     0
  9
$DIMUPT
 70
     0
  9
$DIMDEC
 70
     4
  9
$DIMTDEC
 70
     4
  9
$DIMALTU
 70
     2
  9
$DIMALTTD
 70
     2
  9
$DIMTXSTY
  7
Standard
  9
$DIMAUNIT
 70
     0
  9
$DIMADEC
 70
     0
  9
$DIMALTRND
 40
0.0
  9
$DIMAZIN
 70
     0
  9
$DIMDSEP
 70
    46
  9
$DIMATFIT
 70
     3
  9
$DIMFRAC
 70
     0
  9
$DIMLDRBLK
  1

  9
$DIMLUNIT
 70
     2
  9
$DIMLWD
 70
    -2
  9
$DIMLWE
 70
    -2
  9
$DIMTMOVE
 70
     0
  9
$DIMFXL
 40
1.0
  9
$DIMFXLON
 70
     0
  9
$DIMJOGANG
 40
0.7853981633974483
  9
$DIMTFILL
 70
     0
  9
$DIMTFILLCLR
 70
     0
  9
$DIMARCSYM
 70
     0
  9
$DIMLTYPE
  6

  9
$DIMLTEX1
  6

  9
$DIMLTEX2
  6

  9
$DIMTXTDIRECTION
 70
     0
  9
$LUNITS
 70
     2
  9
$LUPREC
 70
     4
  9
$SKETCHINC
 40
1.0
  9
$FILLETRAD
 40
0.0
  9
$AUNITS
 70
     0
  9
$AUPREC
 70
     0
  9
$MENU
  1
.
  9
$ELEVATION
 40
0.0
  9
$PELEVATION
 40
0.0
  9
$THICKNESS
 40
0.0
  9
$LIMCHECK
 70
     0
  9
$CHAMFERA
 40
0.0
  9
$CHAMFERB
 40
0.0
  9
$CHAMFERC
 40
0.0
  9
$CHAMFERD
 40
0.0
  9
$SKPOLY
 70
     0
  9
$TDCREATE
 40
2457823.339525463
  9
$TDUCREATE
 40
2457823.297864791
  9
$TDUPDATE
 40
2458667.604814815
  9
$TDUUPDATE
 40
2458667.521481482
  9
$TDINDWG
 40
3.3610183796
  9
$TDUSRTIMER
 40
3.3610183449
  9
$USRTIMER
 70
     1
  9
$ANGBASE
 50
0.0
  9
$ANGDIR
 70
     0
  9
$PDMODE
 70
     0
  9
$PDSIZE
 40
0.0
  9
$PLINEWID
 40
4.0
  9
$SPLFRAME
 70
     0
  9
$SPLINETYPE
 70
     6
  9
$SPLINESEGS
 70
     8
  9
$HANDSEED
  5
101A28D
  9
$SURFTAB1
 70
     6
  9
$SURFTAB2
 70
     6
  9
$SURFTYPE
 70
     6
  9
$SURFU
 70
     6
  9
$SURFV
 70
     6
  9
$UCSBASE
  2

  9
$UCSNAME
  2

  9
$UCSORG
 10
0.0
 20
0.0
 30
0.0
  9
$UCSXDIR
 10
1.0
 20
0.0
 30
0.0
  9
$UCSYDIR
 10
0.0
 20
1.0
 30
0.0
  9
$UCSORTHOREF
  2

  9
$UCSORTHOVIEW
 70
     0
  9
$UCSORGTOP
 10
0.0
 20
0.0
 30
0.0
  9
$UCSORGBOTTOM
 10
0.0
 20
0.0
 30
0.0
  9
$UCSORGLEFT
 10
0.0
 20
0.0
 30
0.0
  9
$UCSORGRIGHT
 10
0.0
 20
0.0
 30
0.0
  9
$UCSORGFRONT
 10
0.0
 20
0.0
 30
0.0
  9
$UCSORGBACK
 10
0.0
 20
0.0
 30
0.0
  9
$PUCSBASE
  2

  9
$PUCSNAME
  2

  9
$PUCSORG
 10
0.0
 20
0.0
 30
0.0
  9
$PUCSXDIR
 10
1.0
 20
0.0
 30
0.0
  9
$PUCSYDIR
 10
0.0
 20
1.0
 30
0.0
  9
$PUCSORTHOREF
  2

  9
$PUCSORTHOVIEW
 70
     0
  9
$PUCSORGTOP
 10
0.0
 20
0.0
 30
0.0
  9
$PUCSORGBOTTOM
 10
0.0
 20
0.0
 30
0.0
  9
$PUCSORGLEFT
 10
0.0
 20
0.0
 30
0.0
  9
$PUCSORGRIGHT
 10
0.0
 20
0.0
 30
0.0
  9
$PUCSORGFRONT
 10
0.0
 20
0.0
 30
0.0
  9
$PUCSORGBACK
 10
0.0
 20
0.0
 30
0.0
  9
$USERI1
 70
     0
  9
$USERI2
 70
     0
  9
$USERI3
 70
     0
  9
$USERI4
 70
     0
  9
$USERI5
 70
     0
  9
$USERR1
 40
0.0
  9
$USERR2
 40
0.0
  9
$USERR3
 40
0.0
  9
$USERR4
 40
0.0
  9
$USERR5
 40
0.0
  9
$WORLDVIEW
 70
     1
  9
$SHADEDGE
 70
     3
  9
$SHADEDIF
 70
    70
  9
$TILEMODE
 70
     1
  9
$MAXACTVP
 70
    64
  9
$PINSBASE
 10
0.0
 20
0.0
 30
0.0
  9
$PLIMCHECK
 70
     0
  9
$PEXTMIN
 10
-0.2149150245589908
 20
4.815662141965702
 30
0.0
  9
$PEXTMAX
 10
256.7340192456226
 20
190.4619831654554
 30
0.0
  9
$PLIMMIN
 10
-20.0
 20
-7.5
  9
$PLIMMAX
 10
277.0
 20
202.5
  9
$UNITMODE
 70
     0
  9
$VISRETAIN
 70
     1
  9
$PLINEGEN
 70
     0
  9
$PSLTSCALE
 70
     1
  9
$TREEDEPTH
 70
  3020
  9
$CMLSTYLE
  2
Standard
  9
$CMLJUST
 70
     0
  9
$CMLSCALE
 40
20.0
  9
$PROXYGRAPHICS
 70
     1
  9
$MEASUREMENT
 70
     1
  9
$CELWEIGHT
370
    -1
  9
$ENDCAPS
280
     0
  9
$JOINSTYLE
280
     0
  9
$LWDISPLAY
290
     0
  9
$INSUNITS
 70
     4
  9
$HYPERLINKBASE
  1
https://cad-block.com/
  9
$STYLESHEET
  1

  9
$XEDIT
290
     1
  9
$CEPSNTYPE
380
     0
  9
$PSTYLEMODE
290
     1
  9
$FINGERPRINTGUID
  2
{E4005F8B-A735-4D9D-82B3-26CE0257F182}
  9
$VERSIONGUID
  2
{5A70C6AE-8387-3343-B273-927B7FD34C67}
  9
$EXTNAMES
290
     1
  9
$PSVPSCALE
 40
0.0
  9
$OLESTARTUP
290
     0
  9
$SORTENTS
280
   127
  9
$INDEXCTL
280
     0
  9
$HIDETEXT
280
     1
  9
$XCLIPFRAME
280
     2
  9
$HALOGAP
280
     0
  9
$OBSCOLOR
 70
   257
  9
$OBSLTYPE
280
     0
  9
$INTERSECTIONDISPLAY
280
     0
  9
$INTERSECTIONCOLOR
 70
   257
  9
$DIMASSOC
280
     2
  9
$PROJECTNAME
  1

  9
$CAMERADISPLAY
290
     0
  9
$LENSLENGTH
 40
50.0
  9
$CAMERAHEIGHT
 40
0.0
  9
$STEPSPERSEC
 40
2.0
  9
$STEPSIZE
 40
6.0
  9
$3DDWFPREC
 40
2.0
  9
$PSOLWIDTH
 40
5.0
  9
$PSOLHEIGHT
 40
80.0
  9
$LOFTANG1
 40
1.570796326794896
  9
$LOFTANG2
 40
1.570796326794896
  9
$LOFTMAG1
 40
0.0
  9
$LOFTMAG2
 40
0.0
  9
$LOFTPARAM
 70
     7
  9
$LOFTNORMALS
280
     1
  9
$LATITUDE
 40
37.795
  9
$LONGITUDE
 40
-122.394
  9
$NORTHDIRECTION
 40
0.0
  9
$TIMEZONE
 70
 -8000
  9
$LIGHTGLYPHDISPLAY
280
     1
  9
$TILEMODELIGHTSYNCH
280
     1
  9
$CMATERIAL
347
EC
  9
$SOLIDHIST
280
     0
  9
$SHOWHIST
280
     1
  9
$DWFFRAME
280
     2
  9
$DGNFRAME
280
     0
  9
$REALWORLDSCALE
290
     1
  9
$INTERFERECOLOR
 62
     1
  9
$INTERFEREOBJVS
345
F9
  9
$INTERFEREVPVS
346
F6
  9
$CSHADOW
280
     0
  9
$SHADOWPLANELOCATION
 40
0.0
  0
ENDSEC
  0
SECTION
  2
CLASSES
  0
CLASS
  1
ACDBDICTIONARYWDFLT
  2
AcDbDictionaryWithDefault
  3
ObjectDBX Classes
 90
        0
 91
        1
280
     0
281
     0
  0
CLASS
  1
DICTIONARYVAR
  2
AcDbDictionaryVar
  3
ObjectDBX Classes
 90
        0
 91
       12
280
     0
281
     0
  0
CLASS
  1
TABLESTYLE
  2
AcDbTableStyle
  3
ObjectDBX Classes
 90
     4095
 91
        1
280
     0
281
     0
  0
CLASS
  1
MATERIAL
  2
AcDbMaterial
  3
ObjectDBX Classes
 90
     1153
 91
        3
280
     0
281
     0
  0
CLASS
  1
VISUALSTYLE
  2
AcDbVisualStyle
  3
ObjectDBX Classes
 90
     4095
 91
       25
280
     0
281
     0
  0
CLASS
  1
SCALE
  2
AcDbScale
  3
ObjectDBX Classes
 90
     1153
 91
       18
280
     0
281
     0
  0
CLASS
  1
MLEADERSTYLE
  2
AcDbMLeaderStyle
  3
ACDB_MLEADERSTYLE_CLASS
 90
     4095
 91
        1
280
     0
281
     0
  0
CLASS
  1
CELLSTYLEMAP
  2
AcDbCellStyleMap
  3
ObjectDBX Classes
 90
     1152
 91
        2
280
     0
281
     0
  0
CLASS
  1
EXACXREFPANELOBJECT
  2
ExAcXREFPanelObject
  3
EXAC_ESW
 90
     1025
 91
        0
280
     0
281
     0
  0
CLASS
  1
NPOCOLLECTION
  2
AcDbImpNonPersistentObjectsCollection
  3
ObjectDBX Classes
 90
     1153
 91
        0
280
     0
281
     0
  0
CLASS
  1
LAYER_INDEX
  2
AcDbLayerIndex
  3
ObjectDBX Classes
 90
        0
 91
        0
280
     0
281
     0
  0
CLASS
  1
SPATIAL_INDEX
  2
AcDbSpatialIndex
  3
ObjectDBX Classes
 90
        0
 91
        0
280
     0
281
     0
  0
CLASS
  1
IDBUFFER
  2
AcDbIdBuffer
  3
ObjectDBX Classes
 90
        0
 91
        0
280
     0
281
     0
  0
CLASS
  1
ACDBSECTIONVIEWSTYLE
  2
AcDbSectionViewStyle
  3
ObjectDBX Classes
 90
     1025
 91
        2
280
     0
281
     0
  0
CLASS
  1
ACDBDETAILVIEWSTYLE
  2
AcDbDetailViewStyle
  3
ObjectDBX Classes
 90
     1025
 91
        2
280
     0
281
     0
  0
CLASS
  1
RAPIDRTRENDERSETTINGS
  2
AcDbRapidRTRenderSettings
  3
ObjectDBX Classes
 90
     1024
 91
        0
280
     0
281
     0
  0
CLASS
  1
SORTENTSTABLE
  2
AcDbSortentsTable
  3
ObjectDBX Classes
 90
        0
 91
        1
280
     0
281
     0
  0
CLASS
  1
IMAGEDEF
  2
AcDbRasterImageDef
  3
ISM
 90
        0
 91
        0
280
     0
281
     0
  0
CLASS
  1
RASTERVARIABLES
  2
AcDbRasterVariables
  3
ISM
 90
        0
 91
        1
280
     0
281
     0
  0
CLASS
  1
IMAGEDEF_REACTOR
  2
AcDbRasterImageDefReactor
  3
ISM
 90
        1
 91
        0
280
     0
281
     0
  0
CLASS
  1
IMAGE
  2
AcDbRasterImage
  3
ISM
 90
     2175
 91
        0
280
     0
281
     1
  0
CLASS
  1
DIMASSOC
  2
AcDbDimAssoc
  3
"AcDbDimAssoc|Product Desc:     AcDim ARX App For Dimension|Company:          Autodesk, Inc.|WEB Address:      www.autodesk.com"
 90
        0
 91
        0
280
     0
281
     0
  0
CLASS
  1
ACAD_EVALUATION_GRAPH
  2
AcDbEvalGraph
  3
ObjectDBX Classes
 90
     1153
 91
        0
280
     0
281
     0
  0
CLASS
  1
BLOCKBASEPOINTPARAMETER
  2
AcDbBlockBasepointParameter
  3
ObjectDBX Classes
 90
     1153
 91
        0
280
     0
281
     0
  0
CLASS
  1
BLOCKLINEARPARAMETER
  2
AcDbBlockLinearParameter
  3
ObjectDBX Classes
 90
     1153
 91
        0
280
     0
281
     0
  0
CLASS
  1
BLOCKLINEARGRIP
  2
AcDbBlockLinearGrip
  3
ObjectDBX Classes
 90
     1153
 91
        0
280
     0
281
     0
  0
CLASS
  1
BLOCKGRIPLOCATIONCOMPONENT
  2
AcDbBlockGripExpr
  3
ObjectDBX Classes
 90
     1153
 91
        0
280
     0
281
     0
  0
CLASS
  1
BLOCKSTRETCHACTION
  2
AcDbBlockStretchAction
  3
ObjectDBX Classes
 90
     1153
 91
        0
280
     0
281
     0
  0
CLASS
  1
BLOCKSCALEACTION
  2
AcDbBlockScaleAction
  3
ObjectDBX Classes
 90
     1153
 91
        0
280
     0
281
     0
  0
CLASS
  1
BLOCKFLIPPARAMETER
  2
AcDbBlockFlipParameter
  3
ObjectDBX Classes
 90
     1153
 91
        0
280
     0
281
     0
  0
CLASS
  1
BLOCKFLIPGRIP
  2
AcDbBlockFlipGrip
  3
ObjectDBX Classes
 90
     1153
 91
        0
280
     0
281
     0
  0
CLASS
  1
BLOCKFLIPACTION
  2
AcDbBlockFlipAction
  3
ObjectDBX Classes
 90
     1153
 91
        0
280
     0
281
     0
  0
CLASS
  1
BLOCKVISIBILITYPARAMETER
  2
AcDbBlockVisibilityParameter
  3
ObjectDBX Classes
 90
     1153
 91
        0
280
     0
281
     0
  0
CLASS
  1
BLOCKVISIBILITYGRIP
  2
AcDbBlockVisibilityGrip
  3
ObjectDBX Classes
 90
     1153
 91
        0
280
     0
281
     0
  0
CLASS
  1
ACDB_DYNAMICBLOCKPURGEPREVENTER_VERSION
  2
AcDbDynamicBlockPurgePreventer
  3
ObjectDBX Classes
 90
     1153
 91
        0
280
     0
281
     0
  0
CLASS
  1
ACDB_BLOCKREPRESENTATION_DATA
  2
AcDbBlockRepresentationData
  3
ObjectDBX Classes
 90
     1153
 91
        0
280
     0
281
     0
  0
CLASS
  1
ACDBASSOCACTION
  2
AcDbAssocAction
  3
ObjectDBX Classes
 90
     1025
 91
        0
280
     0
281
     0
  0
CLASS
  1
ACDBASSOCARRAYACTIONBODY
  2
AcDbAssocArrayActionBody
  3
ObjectDBX Classes
 90
     1025
 91
        0
280
     0
281
     0
  0
CLASS
  1
ACDBASSOCDEPENDENCY
  2
AcDbAssocDependency
  3
ObjectDBX Classes
 90
     1025
 91
        0
280
     0
281
     0
  0
CLASS
  1
ACDBASSOCVERTEXACTIONPARAM
  2
AcDbAssocVertexActionParam
  3
ObjectDBX Classes
 90
     1025
 91
        0
280
     0
281
     0
  0
CLASS
  1
ACDBASSOCARRAYPOLARPARAMETERS
  2
AcDbAssocArrayPolarParameters
  3
ObjectDBX Classes
 90
     1025
 91
        0
280
     0
281
     0
  0
CLASS
  1
ACDBASSOCNETWORK
  2
AcDbAssocNetwork
  3
ObjectDBX Classes
 90
     1025
 91
        0
280
     0
281
     0
  0
CLASS
  1
ACARRAYJIGENTITY
  2
AcArrayJigEntity
  3
ACAD_ARRAY
 90
      129
 91
        0
280
     0
281
     1
  0
CLASS
  1
ACDBASSOCARRAYRECTANGULARPARAMETERS
  2
AcDbAssocArrayRectangularParameters
  3
ObjectDBX Classes
 90
     1025
 91
        0
280
     0
281
     0
  0
CLASS
  1
ACAECUSTOBJ
  2
AcAeEditorObj
  3
AcAeEditorObj
 90
     1024
 91
        0
280
     0
281
     0
  0
CLASS
  1
DBCOLOR
  2
AcDbColor
  3
ObjectDBX Classes
 90
        0
 91
        1
280
     0
281
     0
  0
ENDSEC
  0
SECTION
  2
TABLES
  0
TABLE
  2
VPORT
  5
8
330
0
100
AcDbSymbolTable
 70
     1
1001
ACAD
1000
DbSaveVer
1071
       26
  0
VPORT
  5
EA
330
8
100
AcDbSymbolTableRecord
100
AcDbViewportTableRecord
  2
*Active
 70
     0
 10
0.0
 20
0.0
 11
1.0
 21
1.0
 12
266.9934351740654
 22
78.7033902678981
 13
0.0
 23
0.0
 14
10.0
 24
10.0
 15
10.0
 25
10.0
 16
0.0
 26
0.0
 36
1.0
 17
0.0
 27
0.0
 37
0.0
 40
136.3034084171687
 41
1.278273809523809
 42
50.0
 43
0.0
 44
0.0
 50
0.0
 51
0.0
 71
     0
 72
  1000
 73
     1
 74
     3
 75
     0
 76
     0
 77
     0
 78
     0
281
     0
 65
     1
110
0.0
120
0.0
130
0.0
111
1.0
121
0.0
131
0.0
112
0.0
122
1.0
132
0.0
 79
     0
146
0.0
348
F5
 60
     3
 61
     5
292
     1
282
     1
141
0.0
142
0.0
 63
   250
421
  3355443
1001
ACAD_NAV_VCDISPLAY
1070
     1
  0
ENDTAB
  0
TABLE
  2
LTYPE
  5
5
330
0
100
AcDbSymbolTable
 70
     2
  0
LTYPE
  5
14
330
5
100
AcDbSymbolTableRecord
100
AcDbLinetypeTableRecord
  2
ByBlock
 70
     0
  3

 72
    65
 73
     0
 40
0.0
  0
LTYPE
  5
15
330
5
100
AcDbSymbolTableRecord
100
AcDbLinetypeTableRecord
  2
ByLayer
 70
     0
  3

 72
    65
 73
     0
 40
0.0
  0
LTYPE
  5
16
330
5
100
AcDbSymbolTableRecord
100
AcDbLinetypeTableRecord
  2
Continuous
 70
     0
  3
Solid line
 72
    65
 73
     0
 40
0.0
  0
ENDTAB
  0
TABLE
  2
LAYER
  5
2
102
{ACAD_XDICTIONARY
360
1FF
102
}
330
0
100
AcDbSymbolTable
 70
     4
  0
LAYER
  5
10
102
{ACAD_XDICTIONARY
360
13C
102
}
330
2
100
AcDbSymbolTableRecord
100
AcDbLayerTableRecord
  2
0
 70
     0
 62
     7
  6
Continuous
370
    -3
390
F
347
EE
348
0
  0
LAYER
  5
259
330
2
100
AcDbSymbolTableRecord
100
AcDbLayerTableRecord
  2
cad-block.com
 70
     0
 62
   250
  6
Continuous
370
    -3
390
F
347
EE
348
0
1001
AcAecLayerStandard
1000

1000

1001
AcCmTransparency
1071
        0
  0
LAYER
  5
63F1
330
2
100
AcDbSymbolTableRecord
100
AcDbLayerTableRecord
  2
Defpoints
 70
     0
 62
     7
  6
Continuous
290
     0
370
    -3
390
F
347
EE
348
0
  0
LAYER
  5
19F2F
102
{ACAD_XDICTIONARY
360
19F30
102
}
330
2
100
AcDbSymbolTableRecord
100
AcDbLayerTableRecord
  2
text
 70
     0
 62
     7
  6
Continuous
370
    20
390
F
347
EE
348
0
  0
ENDTAB
  0
TABLE
  2
STYLE
  5
3
330
0
100
AcDbSymbolTable
 70
     2
  0
STYLE
  5
11
330
3
100
AcDbSymbolTableRecord
100
AcDbTextStyleTableRecord
  2
Standard
 70
     0
 40
0.0
 41
1.0
 50
0.0
 71
     0
 42
2.5
  3
Arial.ttf
  4

1001
ACAD
1000
Arial
1071
       34
  0
STYLE
  5
19F32
330
3
100
AcDbSymbolTableRecord
100
AcDbTextStyleTableRecord
  2
ISOCPEUR
 70
     0
 40
350.0
 41
1.0
 50
0.0
 71
     0
 42
350.0
  3
ISOCPEUR.TTF
  4

1001
ACAD
1000
ISOCPEUR
1071
       34
  0
ENDTAB
  0
TABLE
  2
VIEW
  5
6
330
0
100
AcDbSymbolTable
 70
     1
  0
ENDTAB
  0
TABLE
  2
UCS
  5
7
330
0
100
AcDbSymbolTable
 70
     0
  0
ENDTAB
  0
TABLE
  2
APPID
  5
9
330
0
100
AcDbSymbolTable
 70
    31
  0
APPID
  5
12
330
9
100
AcDbSymbolTableRecord
100
AcDbRegAppTableRecord
  2
ACAD
 70
     0
  0
APPID
  5
9E
330
9
100
AcDbSymbolTableRecord
100
AcDbRegAppTableRecord
  2
ACAD_PSEXT
 70
     0
  0
APPID
  5
133
330
9
100
AcDbSymbolTableRecord
100
AcDbRegAppTableRecord
  2
AcadAnnoPO
 70
     0
  0
APPID
  5
134
330
9
100
AcDbSymbolTableRecord
100
AcDbRegAppTableRecord
  2
AcadAnnotative
 70
     0
  0
APPID
  5
135
330
9
100
AcDbSymbolTableRecord
100
AcDbRegAppTableRecord
  2
ACAD_DSTYLE_DIMJAG
 70
     0
  0
APPID
  5
136
330
9
100
AcDbSymbolTableRecord
100
AcDbRegAppTableRecord
  2
ACAD_DSTYLE_DIMTALN
 70
     0
  0
APPID
  5
165
330
9
100
AcDbSymbolTableRecord
100
AcDbRegAppTableRecord
  2
ACAD_MLEADERVER
 70
     0
  0
APPID
  5
217
330
9
100
AcDbSymbolTableRecord
100
AcDbRegAppTableRecord
  2
ACAD_NAV_VCDISPLAY
 70
     0
  0
APPID
  5
25A
330
9
100
AcDbSymbolTableRecord
100
AcDbRegAppTableRecord
  2
AcAecLayerStandard
 70
     0
  0
APPID
  5
25B
330
9
100
AcDbSymbolTableRecord
100
AcDbRegAppTableRecord
  2
AcCmTransparency
 70
     0
  0
APPID
  5
323
330
9
100
AcDbSymbolTableRecord
100
AcDbRegAppTableRecord
  2
GENIUS_GENODEF_13
 70
     0
  0
APPID
  5
324
330
9
100
AcDbSymbolTableRecord
100
AcDbRegAppTableRecord
  2
GENIUS_GENOBJ-N-FIL_13
 70
     0
  0
APPID
  5
325
330
9
100
AcDbSymbolTableRecord
100
AcDbRegAppTableRecord
  2
GradientColor1ACI
 70
     0
  0
APPID
  5
326
330
9
100
AcDbSymbolTableRecord
100
AcDbRegAppTableRecord
  2
GradientColor2ACI
 70
     0
  0
APPID
  5
60FF
330
9
100
AcDbSymbolTableRecord
100
AcDbRegAppTableRecord
  2
ACAD_EXEMPT_FROM_CAD_STANDARDS
 70
     0
  0
APPID
  5
668C
330
9
100
AcDbSymbolTableRecord
100
AcDbRegAppTableRecord
  2
DCO15
 70
     0
  0
APPID
  5
8CDA
330
9
100
AcDbSymbolTableRecord
100
AcDbRegAppTableRecord
  2
ARQSYSTEM_ARQ3D
 70
     0
  0
APPID
  5
94AD
330
9
100
AcDbSymbolTableRecord
100
AcDbRegAppTableRecord
  2
AcDbDynamicBlockTrueName
 70
     0
  0
APPID
  5
94AE
330
9
100
AcDbSymbolTableRecord
100
AcDbRegAppTableRecord
  2
AcDbDynamicBlockGUID
 70
     0
  0
APPID
  5
94AF
330
9
100
AcDbSymbolTableRecord
100
AcDbRegAppTableRecord
  2
AcDbBlockRepETag
 70
     0
  0
APPID
  5
94B0
330
9
100
AcDbSymbolTableRecord
100
AcDbRegAppTableRecord
  2
AcDbBlockRepBTag
 70
     0
  0
APPID
  5
94B1
330
9
100
AcDbSymbolTableRecord
100
AcDbRegAppTableRecord
  2
ACAUTHENVIRON
 70
     0
  0
APPID
  5
94B2
330
9
100
AcDbSymbolTableRecord
100
AcDbRegAppTableRecord
  2
ACAD_BCONSTRUCTION
 70
     0
  0
APPID
  5
B2B0
330
9
100
AcDbSymbolTableRecord
100
AcDbRegAppTableRecord
  2
RAK
 70
     0
  0
APPID
  5
CC3D
330
9
100
AcDbSymbolTableRecord
100
AcDbRegAppTableRecord
  2
ACAD_DSTYLE_DIMBREAK
 70
     0
  0
APPID
  5
D235
330
9
100
AcDbSymbolTableRecord
100
AcDbRegAppTableRecord
  2
ACAD_DSTYLE_DIMRADIAL_EXTENSION
 70
     0
  0
APPID
  5
12771
330
9
100
AcDbSymbolTableRecord
100
AcDbRegAppTableRecord
  2
ADE
 70
     0
  0
APPID
  5
12772
330
9
100
AcDbSymbolTableRecord
100
AcDbRegAppTableRecord
  2
HATCHBACKGROUNDCOLOR
 70
     0
  0
APPID
  5
12B73
330
9
100
AcDbSymbolTableRecord
100
AcDbRegAppTableRecord
  2
PalladioXData
 70
     0
  0
APPID
  5
19BCB
330
9
100
AcDbSymbolTableRecord
100
AcDbRegAppTableRecord
  2
AcadAnnoAV
 70
     0
  0
APPID
  5
19F33
330
9
100
AcDbSymbolTableRecord
100
AcDbRegAppTableRecord
  2
ACAD_DSTYLE_DIMJOGGED_JOGANGLE_SYMBOL
 70
     0
  0
ENDTAB
  0
TABLE
  2
DIMSTYLE
  5
A
330
0
100
AcDbSymbolTable
 70
     3
100
AcDbDimStyleTable
 71
     1
340
27
  0
DIMSTYLE
105
27
330
A
100
AcDbSymbolTableRecord
100
AcDbDimStyleTableRecord
  2
cad-block.com
 70
     0
 41
2.5
 42
0.625
 43
3.75
 44
1.25
 73
     0
 74
     0
 77
     1
 78
     8
140
2.5
141
2.5
143
0.03937007874016
147
0.625
171
     3
172
     1
271
     2
272
     2
274
     3
278
    44
283
     0
284
     8
340
11
  0
DIMSTYLE
105
322
330
A
100
AcDbSymbolTableRecord
100
AcDbDimStyleTableRecord
  2
Standard
 70
     0
340
11
  0
ENDTAB
  0
TABLE
  2
BLOCK_RECORD
  5
1
330
0
100
AcDbSymbolTable
 70
     4
  0
BLOCK_RECORD
  5
1F
102
{ACAD_XDICTIONARY
360
1CE
102
}
330
1
100
AcDbSymbolTableRecord
100
AcDbBlockTableRecord
  2
*Model_Space
340
22
 70
     0
280
     1
281
     0
  0
BLOCK_RECORD
  5
D6
330
1
100
AcDbSymbolTableRecord
100
AcDbBlockTableRecord
  2
*Paper_Space
340
D7
 70
     0
280
     1
281
     0
  0
BLOCK_RECORD
  5
1A186
330
1
100
AcDbSymbolTableRecord
100
AcDbBlockTableRecord
  2
Gas-discharge
340
0
 70
     4
280
     1
281
     0
  0
BLOCK_RECORD
  5
1A1D0
330
1
100
AcDbSymbolTableRecord
100
AcDbBlockTableRecord
  2
Incandescent
340
0
 70
     4
280
     1
281
     0
  0
BLOCK_RECORD
  5
1A1E6
330
1
100
AcDbSymbolTableRecord
100
AcDbBlockTableRecord
  2
LED
340
0
 70
     4
280
     1
281
     0
  0
ENDTAB
  0
ENDSEC
  0
SECTION
  2
BLOCKS
  0
BLOCK
  5
20
330
1F
100
AcDbEntity
  8
0
100
AcDbBlockBegin
  2
*Model_Space
 70
     0
 10
0.0
 20
0.0
 30
0.0
  3
*Model_Space
  1

  0
ENDBLK
  5
21
330
1F
100
AcDbEntity
  8
0
100
AcDbBlockEnd
  0
BLOCK
  5
D8
330
D6
100
AcDbEntity
 67
     1
  8
0
100
AcDbBlockBegin
  2
*Paper_Space
 70
     0
 10
0.0
 20
0.0
 30
0.0
  3
*Paper_Space
  1

  0
ENDBLK
  5
D9
330
D6
100
AcDbEntity
 67
     1
  8
0
100
AcDbBlockEnd
  0
BLOCK
  5
1A187
330
1A186
100
AcDbEntity
  8
0
 62
     1
100
AcDbBlockBegin
  2
Gas-discharge
 70
     0
 10
0.0
 20
0.0
 30
0.0
  3
Gas-discharge
  1

  0
SPLINE
  5
1A189
330
1A186
100
AcDbEntity
  8
0
370
     9
100
AcDbSpline
210
0.0
220
0.0
230
1.0
 70
     8
 71
     3
 72
     8
 73
     4
 74
     0
 42
0.000000001
 43
0.0000000001
 40
0.0
 40
0.0
 40
0.0
 40
0.0
 40
1.0
 40
1.0
 40
1.0
 40
1.0
 10
4.177083333379414
 20
-55.74305555564933
 30
0.0
 10
4.37847222219716
 20
-55.55555555562023
 30
0.0
 10
5.47569444450346
 20
-54.88888888896326
 30
0.0
 10
6.663194444518012
 20
-54.7152777777228
 30
0.0
  0
SPLINE
  5
1A18A
330
1A186
100
AcDbEntity
  8
0
370
     9
100
AcDbSpline
210
0.0
220
0.0
230
1.0
 70
     8
 71
     3
 72
     8
 73
     4
 74
     0
 42
0.000000001
 43
0.0000000001
 40
0.0
 40
0.0
 40
0.0
 40
0.0
 40
1.0
 40
1.0
 40
1.0
 40
1.0
 10
-7.440972222211712
 20
-54.7152777777228
 30
0.0
 10
-6.107638888825022
 20
-54.83333333337213
 30
0.0
 10
-4.649305555540195
 20
-55.11805555564933
 30
0.0
 10
-4.357638888941437
 20
-55.43750000011641
 30
0.0
  0
ARC
  5
1A18B
330
1A186
100
AcDbEntity
  8
0
370
     9
100
AcDbCircle
 10
-2.498300925690273
 20
-104.6805592044256
 30
0.0
 40
28.94408023257093
100
AcDbArc
 50
55.57496403656925
 51
65.01813059206549
  0
ARC
  5
1A18C
330
1A186
100
AcDbEntity
  8
0
370
     9
100
AcDbCircle
 10
-12.47634162336908
 20
-16.45393274069647
 30
0.0
 40
74.64449104282301
100
AcDbArc
 50
274.7018826578671
 51
278.0977014418019
  0
SPLINE
  5
1A18D
330
1A186
100
AcDbEntity
  8
0
370
    18
100
AcDbSpline
210
0.0
220
0.0
230
1.0
 70
     8
 71
     3
 72
     8
 73
     4
 74
     0
 42
0.000000001
 43
0.0000000001
 40
0.0
 40
0.0
 40
0.0
 40
0.0
 40
1.0
 40
1.0
 40
1.0
 40
1.0
 10
-1.781250000021827
 20
-74.31250000008731
 30
0.0
 10
-4.61458333327755
 20
-73.66666666668606
 30
0.0
 10
-5.579861111073114
 20
-73.70138888902147
 30
0.0
 10
-5.281249999934516
 20
-72.84722222218988
 30
0.0
  0
SPLINE
  5
1A18E
330
1A186
100
AcDbEntity
  8
0
370
    18
100
AcDbSpline
210
0.0
220
0.0
230
1.0
 70
     8
 71
     3
 72
     8
 73
     4
 74
     0
 42
0.000000001
 43
0.0000000001
 40
0.0
 40
0.0
 40
0.0
 40
0.0
 40
1.0
 40
1.0
 40
1.0
 40
1.0
 10
-5.281249999934516
 20
-72.84722222218988
 30
0.0
 10
-4.30208333327755
 20
-70.08333333345944
 30
0.0
 10
-4.642361111145874
 20
-65.45138888890505
 30
0.0
 10
-4.496527777773735
 20
-62.73611111115314
 30
0.0
  0
SPLINE
  5
1A18F
330
1A186
100
AcDbEntity
  8
0
370
    18
100
AcDbSpline
210
0.0
220
0.0
230
1.0
 70
     8
 71
     3
 72
     8
 73
     4
 74
     0
 42
0.000000001
 43
0.0000000001
 40
0.0
 40
0.0
 40
0.0
 40
0.0
 40
1.0
 40
1.0
 40
1.0
 40
1.0
 10
4.496527777700976
 20
-72.36111111124046
 30
0.0
 10
4.440972222255368
 20
-73.5000000000582
 30
0.0
 10
4.385416666664241
 20
-74.9097222223645
 30
0.0
 10
4.552083333364862
 20
-76.09722222216078
 30
0.0
  0
SPLINE
  5
1A190
330
1A186
100
AcDbEntity
  8
0
370
    18
100
AcDbSpline
210
0.0
220
0.0
230
1.0
 70
     8
 71
     3
 72
     8
 73
     4
 74
     0
 42
0.000000001
 43
0.0000000001
 40
0.0
 40
0.0
 40
0.0
 40
0.0
 40
1.0
 40
1.0
 40
1.0
 40
1.0
 10
4.552083333364862
 20
-76.09722222216078
 30
0.0
 10
2.385416666693345
 20
-75.29166666674427
 30
0.0
 10
0.2118055556275067
 20
-74.76388888899236
 30
0.0
 10
-1.781250000021827
 20
-74.31250000008731
 30
0.0
  0
SPLINE
  5
1A191
330
1A186
100
AcDbEntity
  8
0
370
    18
100
AcDbSpline
210
0.0
220
0.0
230
1.0
 70
     8
 71
     3
 72
     8
 73
     4
 74
     0
 42
0.000000001
 43
0.0000000001
 40
0.0
 40
0.0
 40
0.0
 40
0.0
 40
1.0
 40
1.0
 40
1.0
 40
1.0
 10
-6.121527777759183
 20
-90.82638888896326
 30
0.0
 10
-4.642361111145874
 20
-91.33333333331393
 30
0.0
 10
-3.197916666649689
 20
-91.66666666671517
 30
0.0
 10
-2.58680555558385
 20
-91.76388888896326
 30
0.0
  0
SPLINE
  5
1A192
330
1A186
100
AcDbEntity
  8
0
370
    18
100
AcDbSpline
210
0.0
220
0.0
230
1.0
 70
     8
 71
     3
 72
     8
 73
     4
 74
     0
 42
0.000000001
 43
0.0000000001
 40
0.0
 40
0.0
 40
0.0
 40
0.0
 40
1.0
 40
1.0
 40
1.0
 40
1.0
 10
-3.725694444401597
 20
-101.8263888888759
 30
0.0
 10
-3.045138888883229
 20
-101.9305555555911
 30
0.0
 10
-0.6840277777882875
 20
-103.2847222223063
 30
0.0
 10
1.781250000021827
 20
-104.0833333334012
 30
0.0
  0
SPLINE
  5
1A193
330
1A186
100
AcDbEntity
  8
0
370
    18
100
AcDbSpline
210
0.0
220
0.0
230
1.0
 70
     8
 71
     3
 72
     8
 73
     4
 74
     0
 42
0.000000001
 43
0.0000000001
 40
0.0
 40
0.0
 40
0.0
 40
0.0
 40
1.0
 40
1.0
 40
1.0
 40
1.0
 10
-2.58680555558385
 20
-81.70138888890505
 30
0.0
 10
-2.19097222226992
 20
-81.77083333343034
 30
0.0
 10
-1.204861111073114
 20
-82.01388888890505
 30
0.0
 10
-0.072916666722449
 20
-82.32638888890505
 30
0.0
  0
SPLINE
  5
1A194
330
1A186
100
AcDbEntity
  8
0
370
     9
100
AcDbSpline
210
0.0
220
0.0
230
1.0
 70
     8
 71
     3
 72
     8
 73
     4
 74
     0
 42
0.000000001
 43
0.0000000001
 40
0.0
 40
0.0
 40
0.0
 40
0.0
 40
1.0
 40
1.0
 40
1.0
 40
1.0
 10
3.05208333335031
 20
-58.81944444452528
 30
0.0
 10
3.05208333335031
 20
-58.81944444452528
 30
0.0
 10
3.225694444518012
 20
-56.68750000011641
 30
0.0
 10
4.177083333379414
 20
-55.74305555564933
 30
0.0
  0
SPLINE
  5
1A195
330
1A186
100
AcDbEntity
  8
0
370
     9
100
AcDbSpline
210
0.0
220
0.0
230
1.0
 70
     8
 71
     3
 72
     8
 73
     4
 74
     0
 42
0.000000001
 43
0.0000000001
 40
0.0
 40
0.0
 40
0.0
 40
0.0
 40
1.0
 40
1.0
 40
1.0
 40
1.0
 10
9.961805555540195
 20
-54.74305555559112
 30
0.0
 10
9.961805555540195
 20
-54.74305555559112
 30
0.0
 10
12.42013888895599
 20
-56.25
 30
0.0
 10
12.42013888895599
 20
-57.75000000008731
 30
0.0
  0
SPLINE
  5
1A196
330
1A186
100
AcDbEntity
  8
0
370
     9
100
AcDbSpline
210
0.0
220
0.0
230
1.0
 70
     8
 71
     3
 72
     8
 73
     4
 74
     0
 42
0.000000001
 43
0.0000000001
 40
0.0
 40
0.0
 40
0.0
 40
0.0
 40
1.0
 40
1.0
 40
1.0
 40
1.0
 10
-12.05902777768642
 20
-57.75000000008731
 30
0.0
 10
-12.05902777768642
 20
-56.50000000008731
 30
0.0
 10
-10.89930555554019
 20
-54.83333333337213
 30
0.0
 10
-10.12152777777373
 20
-54.7152777777228
 30
0.0
  0
SPLINE
  5
1A197
330
1A186
100
AcDbEntity
  8
0
370
     9
100
AcDbSpline
210
0.0
220
0.0
230
1.0
 70
     8
 71
     3
 72
     8
 73
     4
 74
     0
 42
0.000000001
 43
0.0000000001
 40
0.0
 40
0.0
 40
0.0
 40
0.0
 40
1.0
 40
1.0
 40
1.0
 40
1.0
 10
-4.357638888941437
 20
-55.43750000011641
 30
0.0
 10
-3.461805555525643
 20
-56.32638888899236
 30
0.0
 10
-3.232638888912333
 20
-58.81944444452528
 30
0.0
 10
-3.232638888912333
 20
-58.81944444452528
 30
0.0
  0
SPLINE
  5
1A198
330
1A186
100
AcDbEntity
  8
0
370
     9
100
AcDbSpline
210
0.0
220
0.0
230
1.0
 70
     8
 71
     3
 72
     8
 73
     4
 74
     0
 42
0.000000001
 43
0.0000000001
 40
0.0
 40
0.0
 40
0.0
 40
0.0
 40
1.0
 40
1.0
 40
1.0
 40
1.0
 10
1.774305555627506
 20
-104.0833333334012
 30
0.0
 10
6.690972222240816
 20
-103.083333333343
 30
0.0
 10
10.22569444441615
 20
-101.7569444444962
 30
0.0
 10
11.36458333337941
 20
-100.2499999999418
 30
0.0
  0
SPLINE
  5
1A199
330
1A186
100
AcDbEntity
  8
0
370
     9
100
AcDbSpline
210
0.0
220
0.0
230
1.0
 70
     8
 71
     3
 72
     8
 73
     4
 74
     0
 42
0.000000001
 43
0.0000000001
 40
0.0
 40
0.0
 40
0.0
 40
0.0
 40
1.0
 40
1.0
 40
1.0
 40
1.0
 10
1.072916666635137
 20
-112.4583333334885
 30
0.0
 10
-1.767361111087666
 20
-113.166666666657
 30
0.0
 10
-3.850694444372493
 20
-113.8263888889923
 30
0.0
 10
-6.32986111111677
 20
-114.0625000001455
 30
0.0
  0
SPLINE
  5
1A19A
330
1A186
100
AcDbEntity
  8
0
370
     9
100
AcDbSpline
210
0.0
220
0.0
230
1.0
 70
     8
 71
     3
 72
     8
 73
     4
 74
     0
 42
0.000000001
 43
0.0000000001
 40
0.0
 40
0.0
 40
0.0
 40
0.0
 40
1.0
 40
1.0
 40
1.0
 40
1.0
 10
1.072916666635137
 20
-112.4583333334885
 30
0.0
 10
3.357638888883229
 20
-114.284722222219
 30
0.0
 10
7.940972222313575
 20
-113.7430555556784
 30
0.0
 10
10.36458333339396
 20
-110.5069444444962
 30
0.0
  0
SPLINE
  5
1A19B
330
1A186
100
AcDbEntity
  8
0
370
     9
100
AcDbSpline
210
0.0
220
0.0
230
1.0
 70
     8
 71
     3
 72
     8
 73
     4
 74
     0
 42
0.000000001
 43
0.0000000001
 40
0.0
 40
0.0
 40
0.0
 40
0.0
 40
1.0
 40
1.0
 40
1.0
 40
1.0
 10
10.36458333339396
 20
-110.5069444444962
 30
0.0
 10
10.47569444450346
 20
-110.3680555555911
 30
0.0
 10
10.80208333336486
 20
-109.9791666667442
 30
0.0
 10
10.68402777771553
 20
-109.3194444445544
 30
0.0
  0
SPLINE
  5
1A19C
330
1A186
100
AcDbEntity
  8
0
370
     9
100
AcDbSpline
210
0.0
220
0.0
230
1.0
 70
     8
 71
     3
 72
     8
 73
     4
 74
     0
 42
0.000000001
 43
0.0000000001
 40
0.0
 40
0.0
 40
0.0
 40
0.0
 40
1.0
 40
1.0
 40
1.0
 40
1.0
 10
10.68402777771553
 20
-109.3194444445544
 30
0.0
 10
8.232638888912333
 20
-110.451388888905
 30
0.0
 10
5.795138888970541
 20
-111.3680555556493
 30
0.0
 10
3.767361111131322
 20
-111.9097222221899
 30
0.0
  0
SPLINE
  5
1A19D
330
1A186
100
AcDbEntity
  8
0
370
     9
100
AcDbSpline
210
0.0
220
0.0
230
1.0
 70
     8
 71
     3
 72
     8
 73
     4
 74
     0
 42
0.000000001
 43
0.0000000001
 40
0.0
 40
0.0
 40
0.0
 40
0.0
 40
1.0
 40
1.0
 40
1.0
 40
1.0
 10
3.767361111131322
 20
-111.9097222221899
 30
0.0
 10
2.871527777715527
 20
-112.1388888890215
 30
0.0
 10
1.975694444445252
 20
-112.2569444445253
 30
0.0
 10
1.072916666635137
 20
-112.4583333334885
 30
0.0
  0
SPLINE
  5
1A19E
330
1A186
100
AcDbEntity
  8
0
370
     9
100
AcDbSpline
210
0.0
220
0.0
230
1.0
 70
     8
 71
     3
 72
     8
 73
     4
 74
     0
 42
0.000000001
 43
0.0000000001
 40
0.0
 40
0.0
 40
0.0
 40
0.0
 40
1.0
 40
1.0
 40
1.0
 40
1.0
 10
17.19791666666424
 20
-105.1527777778392
 30
0.0
 10
15.54513888888323
 20
-107.0208333333721
 30
0.0
 10
13.14236111113132
 20
-108.1875000000582
 30
0.0
 10
10.68402777771553
 20
-109.3194444445544
 30
0.0
  0
SPLINE
  5
1A19F
330
1A186
100
AcDbEntity
  8
0
370
     9
100
AcDbSpline
210
0.0
220
0.0
230
1.0
 70
     8
 71
     3
 72
     8
 73
     4
 74
     0
 42
0.000000001
 43
0.0000000001
 40
0.0
 40
0.0
 40
0.0
 40
0.0
 40
1.0
 40
1.0
 40
1.0
 40
1.0
 10
10.17013888897054
 20
-86.35416666671517
 30
0.0
 10
10.04513888892688
 20
-86.26388888893416
 30
0.0
 10
9.92708333327755
 20
-86.17361111115314
 30
0.0
 10
9.760416666722449
 20
-86.08333333337213
 30
0.0
  0
SPLINE
  5
1A1A0
330
1A186
100
AcDbEntity
  8
0
370
     9
100
AcDbSpline
210
0.0
220
0.0
230
1.0
 70
     8
 71
     3
 72
     8
 73
     4
 74
     0
 42
0.000000001
 43
0.0000000001
 40
0.0
 40
0.0
 40
0.0
 40
0.0
 40
1.0
 40
1.0
 40
1.0
 40
1.0
 10
9.760416666722449
 20
-86.08333333337213
 30
0.0
 10
7.184027777802839
 20
-84.5625000000291
 30
0.0
 10
2.670138888897781
 20
-83.08333333334303
 30
0.0
 10
-0.1979166666205856
 20
-82.29166666671517
 30
0.0
  0
SPLINE
  5
1A1A1
330
1A186
100
AcDbEntity
  8
0
370
     9
100
AcDbSpline
210
0.0
220
0.0
230
1.0
 70
     8
 71
     3
 72
     8
 73
     4
 74
     0
 42
0.000000001
 43
0.0000000001
 40
0.0
 40
0.0
 40
0.0
 40
0.0
 40
1.0
 40
1.0
 40
1.0
 40
1.0
 10
1.600694444532564
 20
-93.37500000008731
 30
0.0
 10
6.364583333379414
 20
-92.41666666683158
 30
0.0
 10
9.871527777831943
 20
-91.20138888887595
 30
0.0
 10
11.17013888888323
 20
-89.77083333331393
 30
0.0
  0
SPLINE
  5
1A1A2
330
1A186
100
AcDbEntity
  8
0
370
     9
100
AcDbSpline
210
0.0
220
0.0
230
1.0
 70
     8
 71
     3
 72
     8
 73
     4
 74
     0
 42
0.000000001
 43
0.0000000001
 40
0.0
 40
0.0
 40
0.0
 40
0.0
 40
1.0
 40
1.0
 40
1.0
 40
1.0
 10
8.920138888897781
 20
-99.4027777777228
 30
0.0
 10
5.274305555540195
 20
-100.7847222223063
 30
0.0
 10
0.6631944443870453
 20
-101.1458333334303
 30
0.0
 10
-3.892361111102218
 20
-101.8263888888759
 30
0.0
  0
SPLINE
  5
1A1A3
330
1A186
100
AcDbEntity
  8
0
370
     9
100
AcDbSpline
210
0.0
220
0.0
230
1.0
 70
     8
 71
     3
 72
     8
 73
     4
 74
     0
 42
0.000000001
 43
0.0000000001
 40
0.0
 40
0.0
 40
0.0
 40
0.0
 40
1.0
 40
1.0
 40
1.0
 40
1.0
 10
11.25347222226992
 20
-98.46527777786832
 30
0.0
 10
10.57291666667879
 20
-98.7847222223354
 30
0.0
 10
9.677083333335758
 20
-99.10416666680248
 30
0.0
 10
8.920138888897781
 20
-99.39583333340124
 30
0.0
  0
SPLINE
  5
1A1A4
330
1A186
100
AcDbEntity
  8
0
370
     9
100
AcDbSpline
210
0.0
220
0.0
230
1.0
 70
     8
 71
     3
 72
     8
 73
     4
 74
     0
 42
0.000000001
 43
0.0000000001
 40
0.0
 40
0.0
 40
0.0
 40
0.0
 40
1.0
 40
1.0
 40
1.0
 40
1.0
 10
8.920138888897781
 20
-99.39583333340124
 30
0.0
 10
9.704861111131322
 20
-99.77083333331393
 30
0.0
 10
10.54513888888323
 20
-100.0138888889341
 30
0.0
 10
11.26041666666424
 20
-100.4097222222481
 30
0.0
  0
SPLINE
  5
1A1A5
330
1A186
100
AcDbEntity
  8
0
370
     9
100
AcDbSpline
210
0.0
220
0.0
230
1.0
 70
     8
 71
     3
 72
     8
 73
     4
 74
     0
 42
0.000000001
 43
0.0000000001
 40
0.0
 40
0.0
 40
0.0
 40
0.0
 40
1.0
 40
1.0
 40
1.0
 40
1.0
 10
11.26041666666424
 20
-100.4097222222481
 30
0.0
 10
11.4131944444307
 20
-100.222222222219
 30
0.0
 10
11.64236111118953
 20
-99.36111111106583
 30
0.0
 10
11.25347222226992
 20
-98.46527777786832
 30
0.0
  0
SPLINE
  5
1A1A6
330
1A186
100
AcDbEntity
  8
0
370
     9
100
AcDbSpline
210
0.0
220
0.0
230
1.0
 70
     8
 71
     3
 72
     8
 73
     4
 74
     0
 42
0.000000001
 43
0.0000000001
 40
0.0
 40
0.0
 40
0.0
 40
0.0
 40
1.0
 40
1.0
 40
1.0
 40
1.0
 10
17.44791666667879
 20
-93.57638888890505
 30
0.0
 10
16.35763888898509
 20
-94.95833333334303
 30
0.0
 10
14.79513888883957
 20
-96.34722222224809
 30
0.0
 10
12.62152777777373
 20
-97.7222222223645
 30
0.0
  0
SPLINE
  5
1A1A7
330
1A186
100
AcDbEntity
  8
0
370
     9
100
AcDbSpline
210
0.0
220
0.0
230
1.0
 70
     8
 71
     3
 72
     8
 73
     4
 74
     0
 42
0.000000001
 43
0.0000000001
 40
0.0
 40
0.0
 40
0.0
 40
0.0
 40
1.0
 40
1.0
 40
1.0
 40
1.0
 10
12.62152777777373
 20
-97.7222222223645
 30
0.0
 10
12.16319444447435
 20
-97.98611111124046
 30
0.0
 10
11.64236111118953
 20
-98.23611111118225
 30
0.0
 10
11.09374999996362
 20
-98.49305555559112
 30
0.0
  0
SPLINE
  5
1A1A8
330
1A186
100
AcDbEntity
  8
0
370
     9
100
AcDbSpline
210
0.0
220
0.0
230
1.0
 70
     8
 71
     3
 72
     8
 73
     4
 74
     0
 42
0.000000001
 43
0.0000000001
 40
0.0
 40
0.0
 40
0.0
 40
0.0
 40
1.0
 40
1.0
 40
1.0
 40
1.0
 10
4.545138888970541
 20
-76.09027777783921
 30
0.0
 10
6.315972222255368
 20
-76.75694444449618
 30
0.0
 10
8.079861111145874
 20
-77.66666666677338
 30
0.0
 10
9.725694444459804
 20
-78.44444444446708
 30
0.0
  0
SPLINE
  5
1A1A9
330
1A186
100
AcDbEntity
  8
0
370
     9
100
AcDbSpline
210
0.0
220
0.0
230
1.0
 70
     8
 71
     3
 72
     8
 73
     4
 74
     0
 42
0.000000001
 43
0.0000000001
 40
0.0
 40
0.0
 40
0.0
 40
0.0
 40
1.0
 40
1.0
 40
1.0
 40
1.0
 10
7.440972222284472
 20
-88.1597222223354
 30
0.0
 10
4.788194444445252
 20
-89.41666666680248
 30
0.0
 10
1.510416666751552
 20
-89.8750000000291
 30
0.0
 10
-1.96180555558385
 20
-90.35416666665696
 30
0.0
  0
SPLINE
  5
1A1AA
330
1A186
100
AcDbEntity
  8
0
370
     9
100
AcDbSpline
210
0.0
220
0.0
230
1.0
 70
     8
 71
     3
 72
     8
 73
     4
 74
     0
 42
0.000000001
 43
0.0000000001
 40
0.0
 40
0.0
 40
0.0
 40
0.0
 40
1.0
 40
1.0
 40
1.0
 40
1.0
 10
11.23263888894143
 20
-89.70138888893416
 30
0.0
 10
11.44097222222626
 20
-89.4375000000582
 30
0.0
 10
12.32986111110222
 20
-87.80555555553291
 30
0.0
 10
10.36458333339396
 20
-86.42361111124046
 30
0.0
  0
SPLINE
  5
1A1AB
330
1A186
100
AcDbEntity
  8
0
370
     9
100
AcDbSpline
210
0.0
220
0.0
230
1.0
 70
     8
 71
     3
 72
     8
 73
     4
 74
     0
 42
0.000000001
 43
0.0000000001
 40
0.0
 40
0.0
 40
0.0
 40
0.0
 40
1.0
 40
1.0
 40
1.0
 40
1.0
 10
10.36458333339396
 20
-86.42361111124046
 30
0.0
 10
9.468749999978172
 20
-86.98611111118225
 30
0.0
 10
8.690972222211712
 20
-87.58333333331393
 30
0.0
 10
7.531250000065483
 20
-88.13194444461259
 30
0.0
  0
SPLINE
  5
1A1AC
330
1A186
100
AcDbEntity
  8
0
370
     9
100
AcDbSpline
210
0.0
220
0.0
230
1.0
 70
     8
 71
     3
 72
     8
 73
     4
 74
     0
 42
0.000000001
 43
0.0000000001
 40
0.0
 40
0.0
 40
0.0
 40
0.0
 40
1.0
 40
1.0
 40
1.0
 40
1.0
 10
7.531250000065483
 20
-88.13194444461259
 30
0.0
 10
8.767361111131322
 20
-88.66666666668606
 30
0.0
 10
10.10763888891233
 20
-89.1250000000582
 30
0.0
 10
11.23263888894143
 20
-89.70138888893416
 30
0.0
  0
SPLINE
  5
1A1AD
330
1A186
100
AcDbEntity
  8
0
370
    15
100
AcDbSpline
210
0.0
220
0.0
230
1.0
 70
     8
 71
     3
 72
     8
 73
     4
 74
     0
 42
0.000000001
 43
0.0000000001
 40
0.0
 40
0.0
 40
0.0
 40
0.0
 40
1.0
 40
1.0
 40
1.0
 40
1.0
 10
-1.781250000021827
 20
-74.31250000008731
 30
0.0
 10
-4.61458333327755
 20
-73.66666666668606
 30
0.0
 10
-5.579861111073114
 20
-73.70138888902147
 30
0.0
 10
-5.281249999934516
 20
-72.84722222218988
 30
0.0
  0
SPLINE
  5
1A1AE
330
1A186
100
AcDbEntity
  8
0
370
    15
100
AcDbSpline
210
0.0
220
0.0
230
1.0
 70
     8
 71
     3
 72
     8
 73
     4
 74
     0
 42
0.000000001
 43
0.0000000001
 40
0.0
 40
0.0
 40
0.0
 40
0.0
 40
1.0
 40
1.0
 40
1.0
 40
1.0
 10
-5.281249999934516
 20
-72.84722222218988
 30
0.0
 10
-4.30208333327755
 20
-70.08333333345944
 30
0.0
 10
-4.642361111145874
 20
-65.45138888890505
 30
0.0
 10
-4.496527777773735
 20
-62.73611111115314
 30
0.0
  0
SPLINE
  5
1A1AF
330
1A186
100
AcDbEntity
  8
0
370
    15
100
AcDbSpline
210
0.0
220
0.0
230
1.0
 70
     8
 71
     3
 72
     8
 73
     4
 74
     0
 42
0.000000001
 43
0.0000000001
 40
0.0
 40
0.0
 40
0.0
 40
0.0
 40
1.0
 40
1.0
 40
1.0
 40
1.0
 10
4.496527777700976
 20
-72.36111111124046
 30
0.0
 10
4.440972222255368
 20
-73.5000000000582
 30
0.0
 10
4.385416666664241
 20
-74.9097222223645
 30
0.0
 10
4.552083333364862
 20
-76.09722222216078
 30
0.0
  0
SPLINE
  5
1A1B0
330
1A186
100
AcDbEntity
  8
0
370
    15
100
AcDbSpline
210
0.0
220
0.0
230
1.0
 70
     8
 71
     3
 72
     8
 73
     4
 74
     0
 42
0.000000001
 43
0.0000000001
 40
0.0
 40
0.0
 40
0.0
 40
0.0
 40
1.0
 40
1.0
 40
1.0
 40
1.0
 10
4.552083333364862
 20
-76.09722222216078
 30
0.0
 10
2.385416666693345
 20
-75.29166666674427
 30
0.0
 10
0.2118055556275067
 20
-74.76388888899236
 30
0.0
 10
-1.781250000021827
 20
-74.31250000008731
 30
0.0
  0
LINE
  5
1A1B1
330
1A186
100
AcDbEntity
  8
0
370
    15
100
AcDbLine
 10
-4.496527777773735
 20
-62.73611111115314
 30
0.0
 11
-4.496527777773735
 21
-61.13888888896326
 31
0.0
  0
LINE
  5
1A1B2
330
1A186
100
AcDbEntity
  8
0
370
    15
100
AcDbLine
 10
-4.496527777773735
 20
-61.13888888896326
 30
0.0
 11
-3.225694444372493
 21
-58.82638888884685
 31
0.0
  0
LINE
  5
1A1B3
330
1A186
100
AcDbEntity
  8
0
370
    15
100
AcDbLine
 10
-3.225694444372493
 20
-58.82638888884685
 30
0.0
 11
3.059027777817391
 21
-58.82638888884685
 31
0.0
  0
LINE
  5
1A1B4
330
1A186
100
AcDbEntity
  8
0
370
    15
100
AcDbLine
 10
3.059027777817391
 20
-58.82638888884685
 30
0.0
 11
4.670138888941437
 21
-61.31944444452528
 31
0.0
  0
LINE
  5
1A1B5
330
1A186
100
AcDbEntity
  8
0
370
    15
100
AcDbLine
 10
4.670138888941437
 20
-61.31944444452528
 30
0.0
 11
4.670138888941437
 21
-69.57638888896326
 31
0.0
  0
ARC
  5
1A1B6
330
1A186
100
AcDbEntity
  8
0
370
    15
100
AcDbCircle
 10
60.3338034976673
 20
-74.4444650972332
 30
0.0
 40
55.87612838808936
100
AcDbArc
 50
175.0019034882884
 51
177.8632187201454
  0
LINE
  5
1A1B7
330
1A186
100
AcDbEntity
  8
0
370
     9
100
AcDbLine
 10
15.28125000000727
 20
-54.7152777777228
 30
0.0
 11
-15.302083333263
 21
-54.7152777777228
 31
0.0
  0
LINE
  5
1A1B8
330
1A186
100
AcDbEntity
  8
0
370
     9
100
AcDbLine
 10
-12.17708333333576
 20
-13.19444444452529
 30
0.0
 11
-12.13541666667879
 21
-19.31250000008731
 31
0.0
  0
LINE
  5
1A1B9
330
1A186
100
AcDbEntity
  8
0
370
     9
100
AcDbLine
 10
12.13541666660603
 20
-19.31250000008731
 30
0.0
 11
12.19791666666424
 21
-13.19444444452529
 31
0.0
  0
LINE
  5
1A1BA
330
1A186
100
AcDbEntity
  8
0
370
     9
100
AcDbLine
 10
-10.12152777777373
 20
-54.7152777777228
 30
0.0
 11
-7.440972222211712
 21
-54.7152777777228
 31
0.0
  0
LINE
  5
1A1BB
330
1A186
100
AcDbEntity
  8
0
370
     9
100
AcDbLine
 10
6.663194444518012
 20
-54.7152777777228
 30
0.0
 11
9.961805555540195
 21
-54.74305555559112
 31
0.0
  0
LINE
  5
1A1BC
330
1A186
100
AcDbEntity
  8
0
370
     9
100
AcDbLine
 10
15.30902777780284
 20
-34.8472222223063
 30
0.0
 11
-15.32986111113132
 21
-34.8472222223063
 31
0.0
  0
LINE
  5
1A1BD
330
1A186
100
AcDbEntity
  8
0
370
     9
100
AcDbLine
 10
17.17013888886867
 20
-42.79166666659875
 30
0.0
 11
-17.18402777773008
 21
-42.79166666659875
 31
0.0
  0
LINE
  5
1A1BE
330
1A186
100
AcDbEntity
  8
0
370
     9
100
AcDbLine
 10
17.17013888886867
 20
-45.86805555562023
 30
0.0
 11
-17.18402777773008
 21
-45.86805555562023
 31
0.0
  0
LINE
  5
1A1BF
330
1A186
100
AcDbEntity
  8
0
370
     9
100
AcDbLine
 10
11.46180555555474
 20
-7.673611111240461
 30
0.0
 11
-11.48263888888323
 21
-7.673611111240461
 31
0.0
  0
LINE
  5
1A1C0
330
1A186
100
AcDbEntity
  8
0
370
     9
100
AcDbLine
 10
7.753472222211712
 20
-3.138888888934161
 30
0.0
 11
-7.774305555612954
 21
-3.138888888934161
 31
0.0
  0
LINE
  5
1A1C1
330
1A186
100
AcDbEntity
  8
0
370
     9
100
AcDbLine
 10
12.32986111110222
 20
-26.25
 30
0.0
 11
-12.35763888882502
 21
-26.25
 31
0.0
  0
LWPOLYLINE
  5
1A1C2
330
1A186
100
AcDbEntity
  8
0
100
AcDbPolyline
 90
      271
 70
     0
 43
2.0
 10
17.20486111113132
 20
-105.1527777778392
 10
17.47229265801479
 20
-105.6369010351977
 10
17.70588373407008
 20
-106.1445654896556
 10
17.90485171971113
 20
-106.6734858920244
 10
18.06841399535869
 20
-107.2213769931204
 10
18.19578794142899
 20
-107.7859535437506
 10
18.28619093833595
 20
-108.3649302947356
 10
18.33884036650261
 20
-108.9560219968825
 10
18.35295360634063
 20
-109.5569434010076
 10
18.32774803826851
 20
-110.1654092579201
 10
18.26244104270472
 20
-110.7791343184385
 10
18.15625000006548
 20
-111.3958333333721
 10
18.26244104270472
 20
-110.7791343184385
 10
18.32774803826851
 20
-110.1654092579201
 10
18.35295360634063
 20
-109.5569434010076
 10
18.33884036650261
 20
-108.9560219968825
 10
18.28619093833595
 20
-108.3649302947356
 10
18.19578794142899
 20
-107.7859535437506
 10
18.06841399535869
 20
-107.2213769931204
 10
17.90485171971113
 20
-106.6734858920244
 10
17.70588373407008
 20
-106.1445654896556
 10
17.47229265801479
 20
-105.6369010351977
 10
17.20486111113132
 20
-105.1527777778392
 42
0.1383474597420306
 10
19.34375000008003
 20
-100.6875000000582
 42
0.2290949376403577
 10
17.34375000003638
 20
-93.70833333334303
 10
17.96058485247158
 20
-92.82649570043986
 10
18.44672309031921
 20
-91.94529893667095
 10
18.80639648441956
 20
-91.06668599451495
 10
19.04383680559931
 20
-90.19259982644371
 10
19.16327582469648
 20
-89.32498338493132
 10
19.16894531254001
 20
-88.46577962245419
 10
19.06507703997022
 20
-87.61693149148641
 10
18.85590277781375
 20
-86.78038194449982
 10
18.54565429690865
 20
-85.9580739339708
 10
18.13856336808385
 20
-85.15195041237348
 10
17.63886176217966
 20
-84.36395433217967
 10
17.05078125002273
 20
-83.59602864586804
 10
16.37855360245112
 20
-82.85011630591043
 10
15.62641059029374
 20
-82.12816026478094
 10
14.79858398439091
 20
-81.43210347495369
 10
13.8993055555693
 20
-80.76388888890505
 10
13.92587288172308
 20
-80.32971241339737
 10
13.92313893064511
 20
-79.88724017030335
 10
13.89244980801777
 20
-79.43678520745834
 10
13.835151619528
 20
-78.97866057268856
 10
13.75259047085592
 20
-78.51317931383391
 10
13.64611246768845
 20
-78.04065447872289
 10
13.51706371571026
 20
-77.56139911519085
 10
13.36679032059919
 20
-77.07572627106628
 10
13.19663838804445
 20
-76.58394899418681
 10
13.00795402372841
 20
-76.08638033238321
 10
12.80208333333576
 20
-75.58333333348855
 10
12.49282337842032
 20
-74.53036564000512
 10
12.28254914851959
 20
-73.3717129978595
 10
12.15661000502223
 20
-72.13047833718292
 10
12.10035530930554
 20
-70.82976458810435
 10
12.09913442275592
 20
-69.49267468075277
 10
12.13829670675295
 20
-68.14231154525714
 10
12.20319152268303
 20
-66.80177811174417
 10
12.27916823192345
 20
-65.49417731034509
 10
12.35157619586061
 20
-64.24261207118888
 10
12.4057647758741
 20
-63.07018532440224
 10
12.42708333335031
 20
-62.00000000011641
 10
12.42708333335031
 20
-57.75694444455439
 10
15.26736111107311
 20
-57.75694444455439
 10
15.26736111107311
 20
-54.7222222223354
 10
15.90477867517393
 20
-54.66625970459745
 10
16.42696333168032
 20
-54.51281409144257
 10
16.84540393608813
 20
-54.28354829296267
 10
17.17158934389544
 20
-54.00012521925418
 10
17.41700841060264
 20
-53.68420778040672
 10
17.59314999170328
 20
-53.35745888651217
 10
17.71150294270228
 20
-53.04154144766471
 10
17.78355611909091
 20
-52.75811837395622
 10
17.82079837637184
 20
-52.52885257547632
 10
17.83471857004087
 20
-52.37540696232144
 10
17.8368055555984
 20
-52.31944444458349
 10
17.8368055555984
 20
-45.17361111124046
 10
17.177083333263
 20
-45.17361111124046
 10
17.177083333263
 20
-43.49305555559112
 10
17.8368055555984
 20
-43.49305555559112
 10
17.8368055555984
 20
-35.25000000008731
 10
17.7803682486433
 20
-34.79513628024279
 10
17.62291040575064
 20
-34.31081475925112
 10
17.38221314387374
 20
-33.79925807672635
 10
17.07605757996816
 20
-33.26268887229162
 10
16.72222483098721
 20
-32.70332978556325
 10
16.33849601388647
 20
-32.12340345615757
 10
15.94265224562377
 20
-31.52513252369317
 10
15.55247464315016
 20
-30.91073962779092
 10
15.1857443234212
 20
-30.28244740806485
 10
14.86024240339475
 20
-29.64247850413585
 10
14.59375000002182
 20
-28.99305555562023
 10
14.34709439436801
 20
-28.38916019708449
 10
14.08262636698055
 20
-27.87917918865787
 10
13.80904864763579
 20
-27.45544285840879
 10
13.53506396610782
 20
-27.1102815344193
 10
13.26937505217529
 20
-26.8360255447601
 10
13.02068463561454
 20
-26.62500521750871
 10
12.79769544620194
 20
-26.46955088074037
 10
12.60911021371612
 20
-26.36199286252804
 10
12.46363166792889
 20
-26.29466149095151
 10
12.36996253862116
 20
-26.25988709408375
 10
12.3368055555693
 20
-26.25
 10
12.36458333336486
 20
-17.88888888899237
 10
17.44791666667879
 20
-17.88888888899237
 10
17.44791666667879
 20
-14.70138888893416
 10
12.37152777775918
 20
-14.70138888893416
 10
12.3993055556275
 20
-7.666666666627861
 10
11.46875000002183
 20
-7.666666666627861
 10
11.46875000002183
 20
-6.298611111124046
 10
11.38254184408197
 20
-5.725545746749958
 10
11.14616464231403
 20
-5.213743843426072
 10
10.79298929378865
 20
-4.761796685904755
 10
10.35638669757872
 20
-4.368295558933823
 10
9.869727752761718
 20
-4.031831747263368
 10
9.366383358405983
 20
-3.750996535641206
 10
8.879724413588974
 20
-3.524381208815157
 10
8.443121817379051
 20
-3.350577051537584
 10
8.089946468853668
 20
-3.228175348551758
 10
7.853569267085731
 20
-3.155767384612317
 10
7.767361111145874
 20
-3.13194444446708
 10
7.740064832933057
 20
-2.522277832051713
 10
7.662923177115317
 20
-1.996473524322937
 10
7.543056911920302
 20
-1.548387315554009
 10
7.387586805580212
 20
-1.171875000013642
 10
7.203633626322698
 20
-0.8607923719728205
 10
6.99831814237541
 20
-0.6089952257048026
 10
6.552083333335758
 20
-0.2586805555620231
 10
6.105848524296106
 20
-0.0717773437531832
 10
5.716579861091304
 20
0.0008680555538376
 10
5.4412434895562
 20
0.0084092881934339
 10
5.336805555525643
 20
0.0
 10
-5.336805555525643
 20
0.0
 10
-5.393415038788589
 20
0.0007774021173645
 10
-5.548634589667926
 20
-0.0075548877316578
 10
-5.780550859806226
 20
-0.0409936138453304
 10
-6.067250500843783
 20
-0.1155355205287378
 10
-6.386820164420896
 20
-0.2471773520778697
 10
-6.717346502177861
 20
-0.4519158527978107
 10
-7.036916165754973
 20
-0.7457477669890978
 10
-7.323615806792531
 20
-1.144669838949994
 10
-7.55553207693083
 20
-1.664678812983311
 10
-7.710751627810168
 20
-2.321771433387311
 10
-7.767361111073114
 20
-3.13194444446708
 10
-7.853731008394788
 20
-3.155767384612317
 10
-8.090551694601799
 20
-3.228175348551758
 10
-8.444389661051445
 20
-3.350577051537584
 10
-8.881811399101025
 20
-3.524381208815157
 10
-9.369383400114656
 20
-3.750996535641206
 10
-9.873672155447366
 20
-4.031831747263368
 10
-10.361244156461
 20
-4.368295558933823
 10
-10.79866589451057
 20
-4.761796685904755
 10
-11.15250386096022
 20
-5.213743843426072
 10
-11.38932454716723
 20
-5.725545746749958
 10
-11.47569444448891
 20
-6.298611111124046
 10
-11.47569444448891
 20
-7.666666666627861
 10
-12.39930555548198
 20
-7.666666666627861
 10
-12.39236111108766
 20
-14.70138888893416
 10
-17.52430555552564
 20
-14.70138888893416
 10
-17.52430555552564
 20
-17.88888888899237
 10
-12.39236111108766
 20
-17.88888888899237
 10
-12.3506944444307
 20
-26.25
 10
-12.38399751647421
 20
-26.25988709408375
 10
-12.47800056347159
 20
-26.29466149095151
 10
-12.62384433173338
 20
-26.36199286252804
 10
-12.81266956756099
 20
-26.46955088074037
 10
-13.03561701726494
 20
-26.62500521750871
 10
-13.28382742715121
 20
-26.8360255447601
 10
-13.54844154352577
 20
-27.1102815344193
 10
-13.82060011269232
 20
-27.45544285840879
 10
-14.0914438809591
 20
-27.87917918865787
 10
-14.35211359463437
 20
-28.38916019708449
 10
-14.59375000002182
 20
-28.99305555562023
 10
-14.86040414477429
 20
-29.64247850413585
 10
-15.18634954922845
 20
-30.28244740806485
 10
-15.55374248686803
 20
-30.91073962779092
 10
-15.94473923116538
 20
-31.52513252369317
 10
-16.34149605560424
 20
-32.12340345615757
 10
-16.72616923366376
 20
-32.70332978556325
 10
-17.0809150388186
 20
-33.26268887229162
 10
-17.38788974455019
 20
-33.79925807672635
 10
-17.62924962433771
 20
-34.31081475925112
 10
-17.78715095165807
 20
-34.79513628024279
 10
-17.84374999999272
 20
-35.25000000008731
 10
-17.84374999999272
 20
-43.49305555559112
 10
-17.17708333333576
 20
-43.49305555559112
 10
-17.17708333333576
 20
-45.17361111124046
 10
-17.84374999999272
 20
-45.17361111124046
 10
-17.84374999999272
 20
-52.31944444458349
 10
-17.8416786668231
 20
-52.37540696232144
 10
-17.82786803988756
 20
-52.52885257547632
 10
-17.79092317803815
 20
-52.75811837395622
 10
-17.7194491401292
 20
-53.04154144766471
 10
-17.60205098501728
 20
-53.35745888651217
 10
-17.42733377155218
 20
-53.68420778040672
 10
-17.18390255859049
 20
-54.00012521925418
 10
-16.86036240498879
 20
-54.28354829296267
 10
-16.44531836959686
 20
-54.51281409144257
 10
-15.92737551127356
 20
-54.66625970459745
 10
-15.29513888886867
 20
-54.7222222223354
 10
-15.29513888886867
 20
-57.75694444455439
 10
-12.30902777777373
 20
-57.75694444455439
 10
-12.28124999997817
 20
-61.73611111124046
 10
-12.28124999997817
 20
-65.49305555556202
 10
-12.29874415641688
 20
-66.30156941317181
 10
-12.34957790714588
 20
-67.10269534190274
 10
-12.43127817427648
 20
-67.89730987568646
 10
-12.54137187992455
 20
-68.68628954845917
 10
-12.67738594620596
 20
-69.47051089415481
 10
-12.83684729523202
 20
-70.25085044670959
 10
-13.0172828491186
 20
-71.02818474005516
 10
-13.21621952998157
 20
-71.80339030813001
 10
-13.43118425993452
 20
-72.57734368486353
 10
-13.65970396109333
 20
-73.35092140419646
 10
-13.8993055555693
 20
-74.1250000000582
 10
-14.02951452468642
 20
-74.61451382112727
 10
-14.11138746474989
 20
-75.08090549050621
 10
-14.14663717483336
 20
-75.52485656743556
 10
-14.13697645400816
 20
-75.94704861116269
 10
-14.08411810134794
 20
-76.34816318093271
 10
-13.98977491592404
 20
-76.7288818359907
 10
-13.8556596968101
 20
-77.08988613557949
 10
-13.68348524307521
 20
-77.43185763894416
 10
-13.47496435379298
 20
-77.75547790532982
 10
-13.23180982803933
 20
-78.06142849398156
 10
-12.95573446488106
 20
-78.35039096414448
 10
-12.6484510633918
 20
-78.62304687506366
 10
-12.31167242264519
 20
-78.88007778598193
 10
-11.94711134171484
 20
-79.12216525614439
 10
-11.14149305558385
 20
-79.56423611118225
 10
-10.24529859757876
 20
-79.95471191413571
 10
-9.272230360274988
 20
-80.29904513896326
 10
-8.23599073625246
 20
-80.60268825962339
 10
-7.150282118088853
 20
-80.87109375007003
 10
-6.028806898361835
 20
-81.10971408426394
 10
-4.885267469651353
 20
-81.3240017361636
 10
-2.58680555558385
 20
-81.70138888890505
 10
-4.885267469651353
 20
-81.3240017361636
 10
-6.028806898361835
 20
-81.10971408426394
 10
-7.150282118088853
 20
-80.87109375007003
 10
-8.23599073625246
 20
-80.60268825962339
 10
-9.272230360274988
 20
-80.29904513896326
 10
-10.24529859757876
 20
-79.95471191413571
 10
-11.14149305558385
 20
-79.56423611118225
 10
-11.94711134171484
 20
-79.12216525614439
 10
-12.31167242264519
 20
-78.88007778598193
 10
-12.6484510633918
 20
-78.62304687506366
 10
-12.95573446488106
 20
-78.35039096414448
 10
-13.23180982803933
 20
-78.06142849398156
 10
-13.47496435379298
 20
-77.75547790532982
 10
-13.68348524307521
 20
-77.43185763894416
 10
-13.8556596968101
 20
-77.08988613557949
 10
-13.98977491592404
 20
-76.7288818359907
 10
-14.08411810134794
 20
-76.34816318093271
 10
-14.13697645400816
 20
-75.94704861116269
 10
-14.14663717483336
 20
-75.52485656743556
 10
-14.11138746474989
 20
-75.08090549050621
 10
-14.02951452468642
 20
-74.61451382112727
 10
-13.8993055555693
 20
-74.1250000000582
 10
-13.65970396109333
 20
-73.35092140419646
 10
-13.43118425993452
 20
-72.57734368486353
 10
-13.21621952998157
 20
-71.80339030813001
 10
-13.0172828491186
 20
-71.02818474005516
 10
-12.83684729523202
 20
-70.25085044670959
 10
-12.67738594620596
 20
-69.47051089415481
 10
-12.54137187992455
 20
-68.68628954845917
 10
-12.43127817427648
 20
-67.89730987568646
 10
-12.34957790714588
 20
-67.10269534190274
 10
-12.29874415641688
 20
-66.30156941317181
 10
-12.28124999997817
 20
-65.49305555556202
  0
LWPOLYLINE
  5
1A1C3
330
1A186
100
AcDbEntity
  8
0
100
AcDbPolyline
 90
       46
 70
     0
 43
2.0
 10
-4.61458333327755
 20
-94.38194444446708
 10
-5.733922384968082
 20
-94.49792866684674
 10
-6.908483074521427
 20
-94.57187056516659
 10
-8.1301261582621
 20
-94.61889034979549
 10
-9.390712392514615
 20
-94.6541082310955
 10
-10.68210253359893
 20
-94.69264441943778
 10
-11.99615733784412
 20
-94.74961912518892
 10
-13.32473756157014
 20
-94.84015255871327
 10
-14.65970396109924
 20
-94.97936493037968
 10
-15.99291729275819
 20
-95.18237645055478
 10
-17.31623831287152
 20
-95.46430732960516
 10
-18.62152777775918
 20
-95.84027777789742
 10
-17.31623831287152
 20
-95.46430732960516
 10
-15.99291729275819
 20
-95.18237645055478
 10
-14.65970396109924
 20
-94.97936493037968
 10
-13.32473756157014
 20
-94.84015255871327
 10
-11.99615733784412
 20
-94.74961912518892
 10
-10.68210253359893
 20
-94.69264441943778
 10
-9.390712392514615
 20
-94.6541082310955
 10
-8.1301261582621
 20
-94.61889034979549
 10
-6.908483074521427
 20
-94.57187056516659
 10
-5.733922384968082
 20
-94.49792866684674
 10
-4.614583333288919
 20
-94.38194444450346
 42
0.0154037852071378
 10
1.461805555554747
 20
-93.40277777781011
 10
0.9619568620246354
 20
-93.23954420239942
 10
0.4764457592773397
 20
-93.06075214964948
 10
0.0092792595796709
 20
-92.8725373571001
 10
-0.4355356247924647
 20
-92.68103556229334
 10
-0.8539918815722558
 20
-92.49238250277358
 10
-1.24208249848607
 20
-92.31271391607833
 10
-1.595800463262548
 20
-92.14816553975197
 10
-1.911138763632607
 20
-92.00487311133656
 10
-2.184090387322612
 20
-91.88897236837192
 10
-2.41064832206348
 20
-91.80659904840013
 10
-2.58680555558385
 20
-91.76388888896326
 10
-2.41064832206348
 20
-91.80659904840013
 10
-2.184090387322612
 20
-91.88897236837192
 10
-1.911138763632607
 20
-92.00487311133656
 10
-1.595800463262548
 20
-92.14816553975197
 10
-1.24208249848607
 20
-92.31271391607833
 10
-0.8539918815722558
 20
-92.49238250277358
 10
-0.4355356247924647
 20
-92.68103556229334
 10
0.0092792595796709
 20
-92.8725373571001
 10
0.4764457592773397
 20
-93.06075214964948
 10
0.9619568620246354
 20
-93.23954420239942
 10
1.461805555554747
 20
-93.40277777781011
  0
LWPOLYLINE
  5
1A1C4
330
1A186
100
AcDbEntity
  8
0
100
AcDbPolyline
 90
      101
 70
     0
 43
2.0
 10
-4.61458333327755
 20
-105.0694444445253
 10
-5.746913870063963
 20
-105.1820373153805
 10
-6.955252420871147
 20
-105.241881626257
 10
-8.223664850959266
 20
-105.2695759246103
 10
-9.536217025599853
 20
-105.2857187578979
 10
-10.87697481005534
 20
-105.3109086735821
 10
-12.23000406959045
 20
-105.3657442191161
 10
-13.57937066946988
 20
-105.4708239419619
 10
-14.90914047496289
 20
-105.6467463895774
 10
-16.20337935132966
 20
-105.9141101094201
 10
-17.4461531638417
 20
-106.2935136489477
 10
-18.62152777775918
 20
-106.8055555556202
 10
-17.4461531638417
 20
-106.2935136489477
 10
-16.20337935132966
 20
-105.9141101094201
 10
-14.90914047496289
 20
-105.6467463895774
 10
-13.57937066946988
 20
-105.4708239419619
 10
-12.23000406959045
 20
-105.3657442191161
 10
-10.87697481005534
 20
-105.3109086735821
 10
-9.536217025599853
 20
-105.2857187578979
 10
-8.223664850959266
 20
-105.2695759246103
 10
-6.955252420871147
 20
-105.241881626257
 10
-5.746913870063963
 20
-105.1820373153805
 10
-4.614583333338941
 20
-105.0694444444866
 42
0.0169920524557994
 10
1.781250000021827
 20
-104.0833333334012
 10
1.112668524096989
 20
-103.8531127390297
 10
0.4563585232585865
 20
-103.6034831789675
 10
-0.1805738166740411
 20
-103.3425838968878
 10
-0.7910223098701863
 20
-103.0785541364685
 10
-1.36788077051051
 20
-102.8195331413872
 10
-1.904043012764304
 20
-102.5736601553194
 10
-2.392402850809958
 20
-102.349074421943
 10
-2.825854098821309
 20
-102.1539151849333
 10
-3.197290570974473
 20
-101.9963216879659
 10
-3.499606081443289
 20
-101.8844331747232
 10
-3.725694444401597
 20
-101.8263888888759
 10
-4.940299169345507
 20
-101.9942660071728
 10
-6.152242987700446
 20
-102.1304939894844
 10
-7.355765819329462
 20
-102.2351041405932
 10
-8.545107584088782
 20
-102.3081277652841
 10
-9.714508201841454
 20
-102.3495961683352
 10
-10.85820759244598
 20
-102.3595406545337
 10
-11.97044567575858
 20
-102.3379925286554
 10
-13.04546237164459
 20
-102.2849830954874
 10
-14.07749759996022
 20
-102.2005436598101
 10
-15.06079128056626
 20
-102.0847055264062
 10
-15.9895833333212
 20
-101.9375000000582
 10
-18.05913628473035
 20
-101.5320095486186
 10
-18.99825032552826
 20
-101.2559814453106
 10
-19.81163194444889
 20
-100.8758680555547
 10
-20.15665181477971
 20
-100.6338348388703
 10
-20.45281304253422
 20
-100.3502468533088
 10
-20.69430711533869
 20
-100.0199262831142
 10
-20.87532552082621
 20
-99.63769531253092
 10
-20.99005974662759
 20
-99.19837612580522
 10
-21.03270128037138
 20
-98.69679090717909
 10
-20.99744160968839
 20
-98.12776184089898
 10
-20.87847222221171
 20
-97.48611111121135
 10
-20.79741892059019
 20
-97.21972305710096
 10
-20.68459126384596
 20
-96.98964855171197
 10
-20.54230580595458
 20
-96.79156753493089
 10
-20.37287910088025
 20
-96.62115994665782
 10
-20.17862770259398
 20
-96.47410572677927
 10
-19.96186816506906
 20
-96.34608481519535
 10
-19.72491704226968
 20
-96.23277715179256
 10
-19.4700908881714
 20
-96.12986267647102
 10
-19.19970625673841
 20
-96.03302132911721
 10
-18.91607970194627
 20
-95.937933049629
 10
-18.62152777775918
 20
-95.84027777789742
 10
-18.91607970194627
 20
-95.937933049629
 10
-19.19970625673841
 20
-96.03302132911721
 10
-19.4700908881714
 20
-96.12986267647102
 10
-19.72491704226968
 20
-96.23277715179256
 10
-19.96186816506906
 20
-96.34608481519535
 10
-20.17862770259398
 20
-96.47410572677927
 10
-20.37287910088025
 20
-96.62115994665782
 10
-20.54230580595458
 20
-96.79156753493089
 10
-20.68459126384596
 20
-96.98964855171197
 10
-20.79741892059019
 20
-97.21972305710096
 10
-20.87847222221171
 20
-97.48611111121135
 10
-20.99744160968839
 20
-98.12776184089898
 10
-21.03270128037138
 20
-98.69679090717909
 10
-20.99005974662759
 20
-99.19837612580522
 10
-20.87532552082621
 20
-99.63769531253092
 10
-20.69430711533869
 20
-100.0199262831142
 10
-20.45281304253422
 20
-100.3502468533088
 10
-20.15665181477971
 20
-100.6338348388703
 10
-19.81163194444889
 20
-100.8758680555547
 10
-18.99825032552826
 20
-101.2559814453106
 10
-18.05913628473035
 20
-101.5320095486186
 10
-15.9895833333212
 20
-101.9375000000582
 10
-15.06079128056626
 20
-102.0847055264062
 10
-14.07749759996022
 20
-102.2005436598101
 10
-13.04546237164459
 20
-102.2849830954874
 10
-11.97044567575858
 20
-102.3379925286554
 10
-10.85820759244598
 20
-102.3595406545337
 10
-9.714508201841454
 20
-102.3495961683352
 10
-8.545107584088782
 20
-102.3081277652841
 10
-7.355765819329462
 20
-102.2351041405932
 10
-6.152242987700446
 20
-102.1304939894844
 10
-4.940299169345507
 20
-101.9942660071728
 10
-3.725694444401597
 20
-101.8263888888759
  0
LWPOLYLINE
  5
1A1C5
330
1A186
100
AcDbEntity
  8
0
100
AcDbPolyline
 90
      112
 70
     0
 43
2.0
 10
15.72569444444525
 20
-115.9861111112695
 10
15.01848808332852
 20
-116.6387167127095
 10
14.2429746848893
 20
-117.2506887053373
 10
13.40694914019195
 20
-117.8203053260677
 10
12.518206340294
 20
-118.3458448118154
 10
11.58454117625524
 20
-118.8255853994974
 10
10.61374853914003
 20
-119.2578053260263
 10
9.613623320008173
 20
-119.6407828283168
 10
8.591960409917192
 20
-119.9727961432836
 10
7.556554699929165
 20
-120.2521235078438
 10
6.515201081103896
 20
-120.4770431589122
 10
5.47569444450346
 20
-120.6458333334012
 10
4.315273082115709
 20
-120.7706820269482
 10
3.197833187296055
 20
-120.822308832187
 10
2.123656503092661
 20
-120.7936075632915
 10
1.093024772558237
 20
-120.6774720344401
 10
0.1062197387409469
 20
-120.4667960598112
 10
-0.8364768553042267
 20
-120.1544734535787
 10
-1.734783266531394
 20
-119.7333980299186
 10
-2.588417751887845
 20
-119.1964636030116
 10
-3.397098568323144
 20
-118.5365639870292
 10
-4.16054397278458
 20
-117.7465929961522
 10
-4.878472222226264
 20
-116.8194444445544
 10
-5.020115932034059
 20
-116.6040466650747
 10
-5.163825757547328
 20
-116.3727773604341
 10
-5.308224288298788
 20
-116.1287043994025
 10
-5.451934113818879
 20
-115.874895650752
 10
-5.593577823638042
 20
-115.614418983248
 10
-5.73177800728672
 20
-115.3503422656604
 10
-5.865157254297628
 20
-115.0857333667591
 10
-5.992338154198932
 20
-114.823660155314
 10
-6.111943296527897
 20
-114.5671905000927
 10
-6.222595270808142
 20
-114.3193922698651
 10
-6.322916666576929
 20
-114.0833333334012
 10
-7.72248048661595
 20
-114.1939957426234
 10
-9.10103879700955
 20
-114.2537565740826
 10
-10.44998278233151
 20
-114.2633671425801
 10
-11.76070362715336
 20
-114.2235787629124
 10
-13.02459251605114
 20
-114.1351427498853
 10
-14.23304063359637
 20
-113.9988104182976
 10
-15.37743916436284
 20
-113.8153330829505
 10
-16.44917929292432
 20
-113.5854620586428
 10
-17.43965220385462
 20
-113.3099486601759
 10
-18.3402490817275
 20
-112.989544202353
 10
-19.14236111111677
 20
-112.6249999999709
 10
-19.80312682610701
 20
-112.262501043499
 10
-20.32001575672439
 20
-111.8183279072059
 10
-20.69377921777459
 20
-111.3086025545271
 10
-20.92516852405197
 20
-110.7494469489006
 10
-21.01493499036451
 20
-110.1569830537596
 10
-20.96382993150883
 20
-109.5473328325442
 10
-20.77260466228608
 20
-108.9366182486901
 10
-20.44201049749972
 20
-108.3409612656328
 10
-19.97279875194863
 20
-107.7764838468124
 10
-19.36572074043397
 20
-107.2593079556622
 10
-18.62152777775918
 20
-106.8055555556202
 10
-19.36572074043397
 20
-107.2593079556622
 10
-19.97279875194863
 20
-107.7764838468124
 10
-20.44201049749972
 20
-108.3409612656328
 10
-20.77260466228608
 20
-108.9366182486901
 10
-20.96382993150883
 20
-109.5473328325442
 10
-21.01493499036451
 20
-110.1569830537596
 10
-20.92516852405197
 20
-110.7494469489006
 10
-20.69377921777459
 20
-111.3086025545271
 10
-20.32001575672439
 20
-111.8183279072059
 10
-19.80312682610701
 20
-112.262501043499
 10
-19.14236111111677
 20
-112.6249999999709
 10
-18.3402490817275
 20
-112.989544202353
 10
-17.43965220385462
 20
-113.3099486601759
 10
-16.44917929292432
 20
-113.5854620586428
 10
-15.37743916436284
 20
-113.8153330829505
 10
-14.23304063359637
 20
-113.9988104182976
 10
-13.02459251605114
 20
-114.1351427498853
 10
-11.76070362715336
 20
-114.2235787629124
 10
-10.44998278233151
 20
-114.2633671425801
 10
-9.10103879700955
 20
-114.2537565740826
 10
-7.72248048661595
 20
-114.1939957426234
 10
-6.322916666576929
 20
-114.0833333334012
 10
-6.222595270808142
 20
-114.3193922698651
 10
-6.111943296527897
 20
-114.5671905000927
 10
-5.992338154198932
 20
-114.823660155314
 10
-5.865157254297628
 20
-115.0857333667591
 10
-5.73177800728672
 20
-115.3503422656604
 10
-5.593577823638042
 20
-115.614418983248
 10
-5.451934113818879
 20
-115.874895650752
 10
-5.308224288298788
 20
-116.1287043994025
 10
-5.163825757547328
 20
-116.3727773604341
 10
-5.020115932034059
 20
-116.6040466650747
 10
-4.878472222226264
 20
-116.8194444445544
 10
-4.16054397278458
 20
-117.7465929961522
 10
-3.397098568323144
 20
-118.5365639870292
 10
-2.588417751887845
 20
-119.1964636030116
 10
-1.734783266531394
 20
-119.7333980299186
 10
-0.8364768553042267
 20
-120.1544734535787
 10
0.1062197387409469
 20
-120.4667960598112
 10
1.093024772558237
 20
-120.6774720344401
 10
2.123656503092661
 20
-120.7936075632915
 10
3.197833187296055
 20
-120.822308832187
 10
4.315273082115709
 20
-120.7706820269482
 10
5.47569444450346
 20
-120.6458333334012
 10
6.515201081103896
 20
-120.4770431589122
 10
7.556554699929165
 20
-120.2521235078438
 10
8.591960409917192
 20
-119.9727961432836
 10
9.613623320008173
 20
-119.6407828283168
 10
10.61374853914003
 20
-119.2578053260263
 10
11.58454117625524
 20
-118.8255853994974
 10
12.518206340294
 20
-118.3458448118154
 10
13.40694914019195
 20
-117.8203053260677
 10
14.2429746848893
 20
-117.2506887053373
 10
15.01848808332852
 20
-116.6387167127095
 10
15.72569444445662
 20
-115.9861111111718
 42
0.1466950300761634
 10
18.15625000003365
 20
-111.3958333334017
  0
LWPOLYLINE
  5
1A1C6
330
1A186
100
AcDbEntity
  8
0
100
AcDbPolyline
 90
      122
 70
     0
 43
2.0
 10
-2.58680555558385
 20
-81.70138888890505
 10
-2.464549941596487
 20
-81.72455442861746
 10
-2.31502786128658
 20
-81.75585921200081
 10
-2.140242820796629
 20
-81.7948336673021
 10
-1.94219832626004
 20
-81.84100822277514
 10
-1.722897883812493
 20
-81.89391330666921
 10
-1.484344999594213
 20
-81.95307934723359
 10
-1.228543179743155
 20
-82.01803677272209
 10
-0.9574959303904506
 20
-82.08831601138172
 10
-0.6732067576808732
 20
-82.16344749146628
 10
-0.3776791677455549
 20
-82.24296164122279
 10
-0.072916666722449
 20
-82.32638888890505
 10
-0.9695274021532895
 20
-82.55972430924884
 10
-1.921078032405603
 20
-82.7788160531486
 10
-2.928100738795365
 20
-82.9838832540895
 10
-3.99112770263855
 20
-83.17514504555902
 10
-5.110691105251135
 20
-83.35282056103778
 10
-6.287323127953641
 20
-83.51712893401327
 10
-7.52155595205977
 20
-83.66828929797065
 10
-8.813921758890046
 20
-83.80652078639514
 10
-10.16495272975817
 20
-83.93204253276962
 10
-11.57518104598466
 20
-84.04507367058158
 10
-13.04513888888323
 20
-84.14583333331393
 10
-13.29263450620601
 20
-84.15805785122984
 10
-13.56367132062587
 20
-84.16511707989229
 10
-13.855619730341
 20
-84.16804407714835
 10
-14.16585013354506
 20
-84.16787190085187
 10
-14.49173292843852
 20
-84.16563360884993
 10
-14.83063851321503
 20
-84.16236225899638
 10
-15.17993728607507
 20
-84.15909090914283
 10
-15.53699964521001
 20
-84.15685261713633
 10
-15.89919598882261
 20
-84.15668044082849
 10
-16.26389671510423
 20
-84.1596074380709
 10
-16.62847222225537
 20
-84.16666666671517
 10
-17.17110933718459
 20
-84.17449808001947
 10
-17.68203470656544
 20
-84.18317472247508
 10
-18.16190573084668
 20
-84.20456110697841
 10
-18.61137981047932
 20
-84.25052174642814
 10
-19.0311143459121
 20
-84.33292115372296
 10
-19.42176673759604
 20
-84.46362384175699
 10
-19.78399438598217
 20
-84.6544943234312
 10
-20.11845469151694
 20
-84.917397111642
 10
-20.42580505465139
 20
-85.26419671928579
 10
-20.7067028758388
 20
-85.70675765926125
 10
-20.96180555552564
 20
-86.25694444446708
 10
-21.09943181816334
 20
-86.67160760502611
 10
-21.19401400365859
 20
-87.11040675355889
 10
-21.23969811752431
 20
-87.56442002680159
 10
-21.23063016526885
 20
-88.02472556149496
 10
-21.16095615240738
 20
-88.4824014943797
 10
-21.02482208444826
 20
-88.92852596219654
 10
-20.81637396690667
 20
-89.35417710168167
 10
-20.52975780528868
 20
-89.75043304957807
 10
-20.15911960511175
 20
-90.10837194262421
 10
-19.69860537188424
 20
-90.41907191755854
 10
-19.14236111111677
 20
-90.67361111112404
 10
-18.29705369813382
 20
-90.93230340598665
 10
-17.35786323982438
 20
-91.11883817517309
 10
-16.3335237707497
 20
-91.24094770017791
 10
-15.23276932546878
 20
-91.30636426249338
 10
-14.06433393854286
 20
-91.32282014361635
 10
-12.83695164452865
 20
-91.29804762503908
 10
-11.55935647798969
 20
-91.23977898825842
 10
-10.24028247348269
 20
-91.15574651476435
 10
-8.888463665568906
 20
-91.053682486056
 10
-7.512634088807317
 20
-90.94131918362336
 10
-6.121527777759183
 20
-90.82638888896326
 10
-7.512634088807317
 20
-90.94131918362336
 10
-8.888463665568906
 20
-91.053682486056
 10
-10.24028247348269
 20
-91.15574651476435
 10
-11.55935647798969
 20
-91.23977898825842
 10
-12.83695164452865
 20
-91.29804762503908
 10
-14.06433393854286
 20
-91.32282014361635
 10
-15.23276932546878
 20
-91.30636426249338
 10
-16.3335237707497
 20
-91.24094770017791
 10
-17.35786323982438
 20
-91.11883817517309
 10
-18.29705369813382
 20
-90.93230340598665
 10
-19.14236111111677
 20
-90.67361111112404
 10
-19.69860537188424
 20
-90.41907191755854
 10
-20.15911960511175
 20
-90.10837194262421
 10
-20.52975780528868
 20
-89.75043304957807
 10
-20.81637396690667
 20
-89.35417710168167
 10
-21.02482208444826
 20
-88.92852596219654
 10
-21.16095615240738
 20
-88.4824014943797
 10
-21.23063016526885
 20
-88.02472556149496
 10
-21.23969811752431
 20
-87.56442002680159
 10
-21.19401400365859
 20
-87.11040675355889
 10
-21.09943181816334
 20
-86.67160760502611
 10
-20.96180555552564
 20
-86.25694444446708
 10
-20.7067028758388
 20
-85.70675765926125
 10
-20.42580505465139
 20
-85.26419671928579
 10
-20.11845469151694
 20
-84.917397111642
 10
-19.78399438598217
 20
-84.6544943234312
 10
-19.42176673759604
 20
-84.46362384175699
 10
-19.0311143459121
 20
-84.33292115372296
 10
-18.61137981047932
 20
-84.25052174642814
 10
-18.16190573084668
 20
-84.20456110697841
 10
-17.68203470656544
 20
-84.18317472247508
 10
-17.17110933718459
 20
-84.17449808001947
 10
-16.62847222225537
 20
-84.16666666671517
 10
-16.26389671510423
 20
-84.1596074380709
 10
-15.89919598882261
 20
-84.15668044082849
 10
-15.53699964521001
 20
-84.15685261713633
 10
-15.17993728607507
 20
-84.15909090914283
 10
-14.83063851321503
 20
-84.16236225899638
 10
-14.49173292843852
 20
-84.16563360884993
 10
-14.16585013354506
 20
-84.16787190085187
 10
-13.855619730341
 20
-84.16804407714835
 10
-13.56367132062587
 20
-84.16511707989229
 10
-13.29263450620601
 20
-84.15805785122984
 10
-13.04513888888323
 20
-84.14583333331393
 10
-11.57518104598466
 20
-84.04507367058158
 10
-10.16495272975817
 20
-83.93204253276962
 10
-8.813921758890046
 20
-83.80652078639514
 10
-7.52155595205977
 20
-83.66828929797065
 10
-6.287323127953641
 20
-83.51712893401327
 10
-5.110691105251135
 20
-83.35282056103778
 10
-3.99112770263855
 20
-83.17514504555902
 10
-2.928100738795365
 20
-82.9838832540895
 10
-1.921078032405603
 20
-82.7788160531486
 10
-0.9695274021532895
 20
-82.55972430924884
 10
-0.072916666722449
 20
-82.32638888890505
  0
LWPOLYLINE
  5
1A1C7
330
1A186
100
AcDbEntity
  8
0
100
AcDbPolyline
 90
       12
 70
     0
 43
2.0
 10
-6.121527777759183
 20
-90.82638888896326
 10
-5.719579576752948
 20
-90.96029509981008
 10
-5.322953188915562
 20
-91.08531075218706
 10
-4.935248664335176
 20
-91.20115410304379
 10
-4.560066053099944
 20
-91.30754340932526
 10
-4.201005405300293
 20
-91.40419692798559
 10
-3.861666771024374
 20
-91.49083291596753
 10
-3.545650200358068
 20
-91.56716963022518
 10
-3.256555743394073
 20
-91.63292532770356
 10
-2.997983450215997
 20
-91.6878182653545
 10
-2.773533370916538
 20
-91.73156670012531
 10
-2.58680555558385
 20
-91.76388888896326
  0
LWPOLYLINE
  5
1A1C8
330
1A186
100
AcDbEntity
  8
0
370
    18
100
AcDbPolyline
 90
       39
 70
     0
 43
1.0
 10
17.34375000003638
 20
-93.70833333334303
 10
17.96058485247158
 20
-92.82649570043986
 10
18.44672309031921
 20
-91.94529893667095
 10
18.80639648441956
 20
-91.06668599451495
 10
19.04383680559931
 20
-90.19259982644371
 10
19.16327582469648
 20
-89.32498338493132
 10
19.16894531254001
 20
-88.46577962245419
 10
19.06507703997022
 20
-87.61693149148641
 10
18.85590277781375
 20
-86.78038194449982
 10
18.54565429690865
 20
-85.9580739339708
 10
18.13856336808385
 20
-85.15195041237348
 10
17.63886176217966
 20
-84.36395433217967
 10
17.05078125002273
 20
-83.59602864586804
 10
16.37855360245112
 20
-82.85011630591043
 10
15.62641059029374
 20
-82.12816026478094
 10
14.79858398439091
 20
-81.43210347495369
 10
13.8993055555693
 20
-80.76388888890505
 10
13.92587288172308
 20
-80.32971241339737
 10
13.92313893064511
 20
-79.88724017030335
 10
13.89244980801777
 20
-79.43678520745834
 10
13.835151619528
 20
-78.97866057268856
 10
13.75259047085592
 20
-78.51317931383391
 10
13.64611246768845
 20
-78.04065447872289
 10
13.51706371571026
 20
-77.56139911519085
 10
13.36679032059919
 20
-77.07572627106628
 10
13.19663838804445
 20
-76.58394899418681
 10
13.00795402372841
 20
-76.08638033238321
 10
12.80208333333576
 20
-75.58333333348855
 10
12.49282337842032
 20
-74.53036564000512
 10
12.28254914851959
 20
-73.3717129978595
 10
12.15661000502223
 20
-72.13047833718292
 10
12.10035530930554
 20
-70.82976458810435
 10
12.09913442275592
 20
-69.49267468075277
 10
12.13829670675295
 20
-68.14231154525714
 10
12.20319152268303
 20
-66.80177811174417
 10
12.27916823192345
 20
-65.49417731034509
 10
12.35157619586061
 20
-64.24261207118888
 10
12.4057647758741
 20
-63.07018532440224
 10
12.42708333335031
 20
-62.00000000011641
  0
LWPOLYLINE
  5
1A1C9
330
1A186
100
AcDbEntity
  8
0
370
    18
100
AcDbPolyline
 90
       12
 70
     0
 43
1.0
 10
15.26736111107311
 20
-54.7222222223354
 10
15.90477867517393
 20
-54.66625970459745
 10
16.42696333168032
 20
-54.51281409144257
 10
16.84540393608813
 20
-54.28354829296267
 10
17.17158934389544
 20
-54.00012521925418
 10
17.41700841060264
 20
-53.68420778040672
 10
17.59314999170328
 20
-53.35745888651217
 10
17.71150294270228
 20
-53.04154144766471
 10
17.78355611909091
 20
-52.75811837395622
 10
17.82079837637184
 20
-52.52885257547632
 10
17.83471857004087
 20
-52.37540696232144
 10
17.8368055555984
 20
-52.31944444458349
  0
LWPOLYLINE
  5
1A1CA
330
1A186
100
AcDbEntity
  8
0
370
    18
100
AcDbPolyline
 90
       23
 70
     0
 43
1.0
 10
17.8368055555984
 20
-35.25000000008731
 10
17.7803682486433
 20
-34.79513628024279
 10
17.62291040575064
 20
-34.31081475925112
 10
17.38221314387374
 20
-33.79925807672635
 10
17.07605757996816
 20
-33.26268887229162
 10
16.72222483098721
 20
-32.70332978556325
 10
16.33849601388647
 20
-32.12340345615757
 10
15.94265224562377
 20
-31.52513252369317
 10
15.55247464315016
 20
-30.91073962779092
 10
15.1857443234212
 20
-30.28244740806485
 10
14.86024240339475
 20
-29.64247850413585
 10
14.59375000002182
 20
-28.99305555562023
 10
14.34709439436801
 20
-28.38916019708449
 10
14.08262636698055
 20
-27.87917918865787
 10
13.80904864763579
 20
-27.45544285840879
 10
13.53506396610782
 20
-27.1102815344193
 10
13.26937505217529
 20
-26.8360255447601
 10
13.02068463561454
 20
-26.62500521750871
 10
12.79769544620194
 20
-26.46955088074037
 10
12.60911021371612
 20
-26.36199286252804
 10
12.46363166792889
 20
-26.29466149095151
 10
12.36996253862116
 20
-26.25988709408375
 10
12.3368055555693
 20
-26.25
  0
LWPOLYLINE
  5
1A1CB
330
1A186
100
AcDbEntity
  8
0
370
    18
100
AcDbPolyline
 90
       23
 70
     0
 43
1.0
 10
11.46875000002183
 20
-6.298611111124046
 10
11.38254184408197
 20
-5.725545746749958
 10
11.14616464231403
 20
-5.213743843426072
 10
10.79298929378865
 20
-4.761796685904755
 10
10.35638669757872
 20
-4.368295558933823
 10
9.869727752761718
 20
-4.031831747263368
 10
9.366383358405983
 20
-3.750996535641206
 10
8.879724413588974
 20
-3.524381208815157
 10
8.443121817379051
 20
-3.350577051537584
 10
8.089946468853668
 20
-3.228175348551758
 10
7.853569267085731
 20
-3.155767384612317
 10
7.767361111145874
 20
-3.13194444446708
 10
7.740064832933057
 20
-2.522277832051713
 10
7.662923177115317
 20
-1.996473524322937
 10
7.543056911920302
 20
-1.548387315554009
 10
7.387586805580212
 20
-1.171875000013642
 10
7.203633626322698
 20
-0.8607923719728205
 10
6.99831814237541
 20
-0.6089952257048026
 10
6.552083333335758
 20
-0.2586805555620231
 10
6.105848524296106
 20
-0.0717773437531832
 10
5.716579861091304
 20
0.0008680555538376
 10
5.4412434895562
 20
0.0084092881934339
 10
5.336805555525643
 20
0.0
  0
LWPOLYLINE
  5
1A1CC
330
1A186
100
AcDbEntity
  8
0
370
    18
100
AcDbPolyline
 90
       23
 70
     0
 43
1.0
 10
-5.336805555525643
 20
0.0
 10
-5.393415038788589
 20
0.0007774021173645
 10
-5.548634589667926
 20
-0.0075548877316578
 10
-5.780550859806226
 20
-0.0409936138453304
 10
-6.067250500843783
 20
-0.1155355205287378
 10
-6.386820164420896
 20
-0.2471773520778697
 10
-6.717346502177861
 20
-0.4519158527978107
 10
-7.036916165754973
 20
-0.7457477669890978
 10
-7.323615806792531
 20
-1.144669838949994
 10
-7.55553207693083
 20
-1.664678812983311
 10
-7.710751627810168
 20
-2.321771433387311
 10
-7.767361111073114
 20
-3.13194444446708
 10
-7.853731008394788
 20
-3.155767384612317
 10
-8.090551694601799
 20
-3.228175348551758
 10
-8.444389661051445
 20
-3.350577051537584
 10
-8.881811399101025
 20
-3.524381208815157
 10
-9.369383400114656
 20
-3.750996535641206
 10
-9.873672155447366
 20
-4.031831747263368
 10
-10.361244156461
 20
-4.368295558933823
 10
-10.79866589451057
 20
-4.761796685904755
 10
-11.15250386096022
 20
-5.213743843426072
 10
-11.38932454716723
 20
-5.725545746749958
 10
-11.47569444448891
 20
-6.298611111124046
  0
LWPOLYLINE
  5
1A1CD
330
1A186
100
AcDbEntity
  8
0
370
    18
100
AcDbPolyline
 90
       23
 70
     0
 43
1.0
 10
-12.3506944444307
 20
-26.25
 10
-12.38399751647421
 20
-26.25988709408375
 10
-12.47800056347159
 20
-26.29466149095151
 10
-12.62384433173338
 20
-26.36199286252804
 10
-12.81266956756099
 20
-26.46955088074037
 10
-13.03561701726494
 20
-26.62500521750871
 10
-13.28382742715121
 20
-26.8360255447601
 10
-13.54844154352577
 20
-27.1102815344193
 10
-13.82060011269232
 20
-27.45544285840879
 10
-14.0914438809591
 20
-27.87917918865787
 10
-14.35211359463437
 20
-28.38916019708449
 10
-14.59375000002182
 20
-28.99305555562023
 10
-14.86040414477429
 20
-29.64247850413585
 10
-15.18634954922845
 20
-30.28244740806485
 10
-15.55374248686803
 20
-30.91073962779092
 10
-15.94473923116538
 20
-31.52513252369317
 10
-16.34149605560424
 20
-32.12340345615757
 10
-16.72616923366376
 20
-32.70332978556325
 10
-17.0809150388186
 20
-33.26268887229162
 10
-17.38788974455019
 20
-33.79925807672635
 10
-17.62924962433771
 20
-34.31081475925112
 10
-17.78715095165807
 20
-34.79513628024279
 10
-17.84374999999272
 20
-35.25000000008731
  0
LWPOLYLINE
  5
1A1CE
330
1A186
100
AcDbEntity
  8
0
370
    18
100
AcDbPolyline
 90
       12
 70
     0
 43
1.0
 10
-17.84374999999272
 20
-52.31944444458349
 10
-17.8416786668231
 20
-52.37540696232144
 10
-17.82786803988756
 20
-52.52885257547632
 10
-17.79092317803815
 20
-52.75811837395622
 10
-17.7194491401292
 20
-53.04154144766471
 10
-17.60205098501728
 20
-53.35745888651217
 10
-17.42733377155218
 20
-53.68420778040672
 10
-17.18390255859049
 20
-54.00012521925418
 10
-16.86036240498879
 20
-54.28354829296267
 10
-16.44531836959686
 20
-54.51281409144257
 10
-15.92737551127356
 20
-54.66625970459745
 10
-15.29513888886867
 20
-54.7222222223354
  0
ENDBLK
  5
1A188
330
1A186
100
AcDbEntity
  8
0
 62
     1
100
AcDbBlockEnd
  0
BLOCK
  5
1A1D1
330
1A1D0
100
AcDbEntity
  8
0
 62
     1
100
AcDbBlockBegin
  2
Incandescent
 70
     0
 10
0.0
 20
0.0
 30
0.0
  3
Incandescent
  1

  0
SPLINE
  5
1A1D3
330
1A1D0
100
AcDbEntity
  8
0
 62
     7
370
    20
100
AcDbSpline
210
0.0
220
0.0
230
1.0
 70
    24
 71
     3
 72
     8
 73
     4
 74
     0
 42
0.000000001
 43
0.0000000001
 40
10.0
 40
10.0
 40
10.0
 40
10.0
 40
11.0
 40
11.0
 40
11.0
 40
11.0
 10
-8.80213139315856
 20
-23.0485501178191
 30
0.0
 10
-8.80213139315856
 20
-23.0485501178191
 30
0.0
 10
8.426584427154466
 20
-23.0485501178191
 30
0.0
 10
8.426584427154466
 20
-23.0485501178191
 30
0.0
  0
SPLINE
  5
1A1D4
330
1A1D0
100
AcDbEntity
  8
0
 62
     7
370
    20
100
AcDbSpline
210
0.0
220
0.0
230
1.0
 70
     8
 71
     3
 72
    11
 73
     7
 74
     0
 42
0.000000001
 43
0.0000000001
 40
0.0
 40
0.0
 40
0.0
 40
0.0
 40
1.0
 40
1.0
 40
1.0
 40
2.0
 40
2.0
 40
2.0
 40
2.0
 10
-14.07622807284724
 20
-83.06972370180574
 30
0.0
 10
-10.13823588534478
 20
-85.80639386782195
 30
0.0
 10
-5.352481490815534
 20
-87.41597003969445
 30
0.0
 10
-0.1897268521429396
 20
-87.41597003969445
 30
0.0
 10
5.223059036529775
 20
-87.41597003969445
 30
0.0
 10
10.22563740566738
 20
-85.65207770571305
 30
0.0
 10
14.26715815762236
 20
-82.66732965883647
 30
0.0
  0
LINE
  5
1A1D5
330
1A1D0
100
AcDbEntity
  8
0
 62
     7
370
    20
100
AcDbLine
 10
3.097793877875574
 20
-60.51807535645366
 30
0.0
 11
3.097793877875574
 21
-70.85725798645398
 31
0.0
  0
LINE
  5
1A1D6
330
1A1D0
100
AcDbEntity
  8
0
 62
     7
370
    20
100
AcDbLine
 10
3.097793877875574
 20
-70.85725798645398
 30
0.0
 11
10.14750332787571
 21
-84.6402341864541
 31
0.0
  0
LINE
  5
1A1D7
330
1A1D0
100
AcDbEntity
  8
0
 62
     7
370
    20
100
AcDbLine
 10
-2.611901792122353
 20
-60.51807535645366
 30
0.0
 11
-2.611901792122353
 21
-70.85725798645398
 31
0.0
  0
LINE
  5
1A1D8
330
1A1D0
100
AcDbEntity
  8
0
 62
     7
370
    20
100
AcDbLine
 10
-2.611901792122353
 20
-70.85725798645398
 30
0.0
 11
-9.66356739212415
 21
-84.6402341864541
 31
0.0
  0
LINE
  5
1A1D9
330
1A1D0
100
AcDbEntity
  8
0
 62
     7
370
    20
100
AcDbLine
 10
-4.494954152125956
 20
-60.51807535645366
 30
0.0
 11
4.117452657874309
 21
-60.51807535645366
 31
0.0
  0
LINE
  5
1A1DA
330
1A1D0
100
AcDbEntity
  8
0
 62
     7
370
    20
100
AcDbLine
 10
4.117452657874309
 20
-60.51807535645366
 30
0.0
 11
4.117452657874309
 21
-23.0485501178191
 31
0.0
  0
LINE
  5
1A1DB
330
1A1D0
100
AcDbEntity
  8
0
 62
     7
370
    20
100
AcDbLine
 10
-4.494954152125956
 20
-23.0485501178191
 30
0.0
 11
-4.494954152125956
 21
-60.51807535645366
 31
0.0
  0
LWPOLYLINE
  5
1A1DC
330
1A1D0
100
AcDbEntity
  8
0
100
AcDbPolyline
 90
       49
 70
     0
 43
1.8
 10
4.803124999973533
 20
0.0
 10
4.897119140600807
 20
0.0075683593740905
 10
5.144921874982628
 20
0.0007812499984539
 10
5.495263671866723
 20
-0.0645996093771828
 10
5.896875000003092
 20
-0.232812500005366
 10
6.298486328137187
 20
-0.548095703134095
 10
6.483270263690883
 20
-0.774713134776448
 10
6.648828125021282
 20
-1.054687500013642
 10
6.788751220728954
 20
-1.393548583998835
 10
6.896630859403103
 20
-1.796826171892007
 10
6.966058349639752
 20
-2.270050048846314
 10
6.990625000030377
 20
-2.818750000021736
 10
6.966058349639752
 20
-2.270050048846314
 10
6.896630859403103
 20
-1.796826171892007
 10
6.788751220728954
 20
-1.393548583998835
 10
6.648828125021282
 20
-1.054687500013642
 10
6.483270263690883
 20
-0.774713134776448
 10
6.298486328137187
 20
-0.548095703134095
 10
5.896875000003092
 20
-0.232812500005366
 10
5.495263671866723
 20
-0.0645996093771828
 10
5.144921874982628
 20
0.0007812499984539
 10
4.897119140600807
 20
0.0075683593740905
 10
4.803124999973533
 20
0.0
 10
-4.803124999973533
 20
0.0
 10
-4.854073534909275
 20
0.000699661904946
 10
-4.993771130700679
 20
-0.0067993989591741
 10
-5.202495773826285
 20
-0.0368942524619342
 10
-5.460525450760087
 20
-0.1039819684751819
 10
-5.748138147978352
 20
-0.2224596168707649
 10
-6.04561185195962
 20
-0.406724267518257
 10
-6.333224549180158
 20
-0.6711729902895059
 10
-6.59125422611396
 20
-1.030202855056359
 10
-6.799978869237293
 20
-1.498210931686116
 10
-6.939676465028696
 20
-2.089594290048353
 10
-6.990624999966712
 20
-2.818750000021736
 10
-7.028138827436123
 20
-2.829154968283091
 10
-7.134290307210449
 20
-2.861853027366123
 10
-7.29949443534906
 20
-2.919068908715871
 10
-7.514166207902235
 20
-3.003027343777375
 10
-8.053572670487483
 20
-3.260070800818084
 10
-8.675829663409331
 20
-3.650781250048567
 10
-9.304257155104096
 20
-4.192956543031414
 10
-9.862175114021738
 20
-4.904394531329216
 10
-10.09073050882534
 20
-5.329148864832404
 10
-10.27290350860085
 20
-5.802893066504566
 10
-10.39910910940307
 20
-6.327851867781646
 10
-10.45976230728229
 20
-6.906250000117779
 10
-10.95804522702565
 20
-6.906250000117779
 10
-10.92919187707139
 20
-23.38882206227026
  0
LWPOLYLINE
  5
1A1DD
330
1A1D0
100
AcDbEntity
  8
0
100
AcDbPolyline
 90
       14
 70
     0
 43
1.8
 10
10.75417711151431
 20
-23.46724446044391
 10
10.72619211153551
 20
-6.906250000117779
 10
10.50124895674798
 20
-6.906250000117779
 10
10.4322630869251
 20
-6.327851867781646
 10
10.29890188900026
 20
-5.802893066504566
 10
10.11066212964351
 20
-5.329148864832404
 10
9.87704057551582
 20
-4.904394531329216
 10
9.311639149614165
 20
-4.192956543031414
 10
8.678671744617076
 20
-3.650781250048567
 10
8.054112493839511
 20
-3.260070800818084
 10
7.513935530603248
 20
-3.003027343777375
 10
7.134114988227793
 20
-2.861853027366123
 10
7.028080291524929
 20
-2.829154968283091
 10
6.990625000030377
 20
-2.818750000021736
  0
LINE
  5
1A1DE
330
1A1D0
100
AcDbEntity
  8
0
370
     9
100
AcDbLine
 10
6.97812499999145
 20
-2.8250000000412
 30
0.0
 11
-6.996875000052114
 21
-2.8250000000412
 31
0.0
  0
LINE
  5
1A1DF
330
1A1D0
100
AcDbEntity
  8
0
100
AcDbLine
 10
-10.45976230728229
 20
-6.906250000117779
 30
0.0
 11
10.50124895674798
 21
-6.906250000117779
 31
0.0
  0
LWPOLYLINE
  5
1A1E0
330
1A1D0
100
AcDbEntity
  8
0
100
AcDbPolyline
 90
       12
 70
     0
 43
0.9000000000000001
 10
-4.803124999973533
 20
0.0
 10
-4.854073534909275
 20
0.000699661904946
 10
-4.993771130700679
 20
-0.0067993989591741
 10
-5.202495773826285
 20
-0.0368942524619342
 10
-5.460525450760087
 20
-0.1039819684751819
 10
-5.748138147978352
 20
-0.2224596168707649
 10
-6.04561185195962
 20
-0.406724267518257
 10
-6.333224549180158
 20
-0.6711729902895059
 10
-6.59125422611396
 20
-1.030202855056359
 10
-6.799978869237293
 20
-1.498210931686116
 10
-6.939676465028696
 20
-2.089594290048353
 10
-6.990624999966712
 20
-2.818750000021736
  0
LWPOLYLINE
  5
1A1E1
330
1A1D0
100
AcDbEntity
  8
0
100
AcDbPolyline
 90
      108
 70
     1
 43
1.8
 10
13.59519917324633
 20
-28.64495270571069
 10
13.5962611031141
 20
-28.62889857231039
 10
13.59865858236389
 20
-28.58210248133446
 10
13.60273032692703
 20
-28.40448228201239
 10
13.59795468274114
 20
-28.12848781844877
 10
13.57487192562757
 20
-27.77051480135242
 10
13.52402233139173
 20
-27.34695894142987
 10
13.43594617584813
 20
-26.87421594938542
 10
13.30118373481127
 20
-26.36868153592786
 10
13.11027528408658
 20
-25.84675141176604
 10
12.85376109949311
 20
-25.32482128760193
 10
12.52218145683855
 20
-24.81928687414665
 10
12.10607663193968
 20
-24.3465438821022
 10
11.8633711123357
 20
-24.12759282870638
 10
11.5959869006042
 20
-23.92298802217965
 10
11.30274153121263
 20
-23.73477892635719
 10
10.98245253864434
 20
-23.5650150050833
 10
10.63393745737357
 20
-23.4157457221886
 10
10.63393745737357
 20
-23.4157457221886
 10
10.63393745737357
 20
-23.4157457221886
 10
10.63393745737357
 20
-23.4157457221886
 10
10.63393745737357
 20
-23.4157457221886
 10
10.63393745737357
 20
-23.4157457221886
 10
10.63393745737357
 20
-23.4157457221886
 10
10.63393745737357
 20
-23.4157457221886
 10
10.63393745737357
 20
-23.4157457221886
 10
10.63393745737357
 20
-23.4157457221886
 10
10.63393745737357
 20
-23.4157457221886
 10
10.98245253864434
 20
-23.5650150050833
 10
11.30274153121263
 20
-23.73477892635719
 10
11.5959869006042
 20
-23.92298802217965
 10
11.8633711123357
 20
-24.12759282870638
 10
12.10607663193968
 20
-24.3465438821022
 10
12.52218145683855
 20
-24.81928687414665
 10
12.85376109949311
 20
-25.32482128760193
 10
13.11027528408658
 20
-25.84675141176604
 10
13.30118373481127
 20
-26.36868153592786
 10
13.43594617584813
 20
-26.87421594938542
 10
13.52402233139173
 20
-27.34695894142987
 10
13.57487192562757
 20
-27.77051480135242
 10
13.59795468274114
 20
-28.12848781844877
 10
13.60273032692703
 20
-28.40448228201239
 10
13.59865858236389
 20
-28.58210248133446
 10
13.5962611031141
 20
-28.62889857231039
 10
13.59519917324633
 20
-28.64495270571069
 10
13.59175246150471
 20
-28.68012741869734
 10
13.58277935085198
 20
-28.78502110013414
 10
13.5703303781429
 20
-28.9586880637421
 10
13.55645608023223
 20
-29.20018262323765
 10
13.54320699397931
 20
-29.50855909234178
 10
13.53263365623888
 20
-29.88287178477549
 10
13.52678660386573
 20
-30.32217501425748
 10
13.52771637371688
 20
-30.82552309450648
 10
13.53747350264939
 20
-31.39197033923892
 10
13.55810852751801
 20
-32.02057106217808
 10
13.59167198517752
 20
-32.71037957704038
 10
13.64021441248496
 20
-33.46045019754683
 10
13.70578634629964
 20
-34.26983723741841
 10
13.79043832347179
 20
-35.13759501037157
 10
13.89622088086525
 20
-36.06277783012501
 10
14.02518455532799
 20
-37.04444001039974
 10
14.17937988371932
 20
-38.08163586491446
 10
14.36085740289627
 20
-39.17341970738789
 10
14.57166764971361
 20
-40.31884585154102
 10
14.8138611610284
 20
-41.5169686110903
 10
15.08948847369538
 20
-42.76684229975899
 10
15.40060012457161
 20
-44.06752123126352
 10
15.74924665051412
 20
-45.41805971932262
 10
16.13747858837769
 20
-46.81751207765728
 10
16.56734647501707
 20
-48.26493261998848
 10
17.04090084729159
 20
-49.7593756600304
 10
17.56019224205147
 20
-51.29989551150629
 10
18.12727119616283
 20
-52.88554648813487
 10
18.74418824647136
 20
-54.51538290363487
 10
19.41299392983865
 20
-56.18845907172499
 10
20.13573878311945
 20
-57.90382930612622
 10
20.91447334316854
 20
-59.66054792055501
 10
20.13573878311945
 20
-57.90382930612622
 10
19.41299392983865
 20
-56.18845907172499
 10
18.74418824647136
 20
-54.51538290363487
 10
18.12727119616283
 20
-52.88554648813487
 10
17.56019224205147
 20
-51.29989551150629
 10
17.04090084729159
 20
-49.7593756600304
 10
16.56734647501707
 20
-48.26493261998848
 10
16.13747858837769
 20
-46.81751207765728
 10
15.74924665051412
 20
-45.41805971932262
 10
15.40060012457161
 20
-44.06752123126352
 10
15.08948847369538
 20
-42.76684229975899
 10
14.8138611610284
 20
-41.5169686110903
 10
14.57166764971361
 20
-40.31884585154102
 10
14.36085740289627
 20
-39.17341970738789
 10
14.17937988371932
 20
-38.08163586491446
 10
14.02518455532799
 20
-37.04444001039974
 10
13.89622088086525
 20
-36.06277783012501
 10
13.79043832347179
 20
-35.13759501037157
 10
13.70578634629964
 20
-34.26983723741841
 10
13.64021441248496
 20
-33.46045019754683
 10
13.59167198517752
 20
-32.71037957704038
 10
13.55810852751801
 20
-32.02057106217808
 10
13.53747350264939
 20
-31.39197033923892
 10
13.52771637371688
 20
-30.82552309450648
 10
13.52678660386573
 20
-30.32217501425748
 10
13.53263365623888
 20
-29.88287178477549
 10
13.54320699397931
 20
-29.50855909234178
 10
13.55645608023223
 20
-29.20018262323765
 10
13.5703303781429
 20
-28.9586880637421
 10
13.58277935085198
 20
-28.78502110013414
 10
13.59175246150471
 20
-28.68012741869734
  0
LWPOLYLINE
  5
1A1E2
330
1A1D0
100
AcDbEntity
  8
0
100
AcDbPolyline
 90
      103
 70
     0
 43
1.8
 10
-21.29588041659645
 20
-59.66054792055501
 10
-21.31030392074081
 20
-59.68580306164767
 10
-21.35234690090328
 20
-59.75941911122163
 10
-21.42016805868934
 20
-59.87817200870722
 10
-21.51192609568852
 20
-60.0388376935416
 10
-21.62577971350629
 20
-60.23819210515966
 10
-21.75988761373901
 20
-60.47301118299174
 10
-21.91240849798532
 20
-60.74007086647952
 10
-22.0815010678416
 20
-61.03614709505336
 10
-22.26532402491102
 20
-61.35801580815041
 10
-22.46203607078996
 20
-61.702452945201
 10
-22.88676223536868
 20
-62.44613624891599
 10
-23.34094917436914
 20
-63.24140452167284
 10
-23.80986650058048
 20
-64.06246527895291
 10
-24.27878382679182
 20
-64.8835260362307
 10
-24.73297076579456
 20
-65.67879430898983
 10
-25.15769693037328
 20
-66.42247761270482
 10
-25.35440897625222
 20
-66.76691474975541
 10
-25.53823193331937
 20
-67.08878346285018
 10
-25.70732450317791
 20
-67.38485969142629
 10
-25.85984538742423
 20
-67.65191937491408
 10
-25.99395328765695
 20
-67.88673845274615
 10
-26.10780690547472
 20
-68.08609286436421
 10
-26.1995649424739
 20
-68.2467585491986
 10
-26.26738610025768
 20
-68.36551144668419
 10
-26.30942908042243
 20
-68.43912749625587
 10
-26.32385258456679
 20
-68.4643826373508
 10
-26.30942908042243
 20
-68.43912749625587
 10
-26.26738610025768
 20
-68.36551144668419
 10
-26.1995649424739
 20
-68.2467585491986
 10
-26.10780690547472
 20
-68.08609286436421
 10
-25.99395328765695
 20
-67.88673845274615
 10
-25.85984538742423
 20
-67.65191937491408
 10
-25.70732450317791
 20
-67.38485969142629
 10
-25.53823193331937
 20
-67.08878346285018
 10
-25.35440897625222
 20
-66.76691474975541
 10
-25.15769693037328
 20
-66.42247761270482
 10
-24.73297076579456
 20
-65.67879430898983
 10
-24.27878382679182
 20
-64.8835260362307
 10
-23.80986650058048
 20
-64.06246527895291
 10
-23.34094917436914
 20
-63.24140452167284
 10
-22.88676223536868
 20
-62.44613624891599
 10
-22.46203607078996
 20
-61.702452945201
 10
-22.26532402491102
 20
-61.35801580815041
 10
-22.0815010678416
 20
-61.03614709505336
 10
-21.91240849798532
 20
-60.74007086647952
 10
-21.75988761373901
 20
-60.47301118299174
 10
-21.62577971350629
 20
-60.23819210515966
 10
-21.51192609568852
 20
-60.0388376935416
 10
-21.42016805868934
 20
-59.87817200870722
 10
-21.35234690090328
 20
-59.75941911122163
 10
-21.31030392074081
 20
-59.68580306164767
 10
-21.29588041659645
 20
-59.66054792055501
 10
-20.51678532259302
 20
-57.90382930612622
 10
-19.79369138088259
 20
-56.18845907172499
 10
-19.12454805460811
 20
-54.51538290363487
 10
-18.50730480691254
 20
-52.88554648813487
 10
-17.93991110094111
 20
-51.29989551150629
 10
-17.42031639983679
 20
-49.7593756600304
 10
-16.9464701667448
 20
-48.26493261998848
 10
-16.5163218648081
 20
-46.81751207765728
 10
-16.12782095717193
 20
-45.41805971932262
 10
-15.77891690697924
 20
-44.06752123126352
 10
-15.46755917737073
 20
-42.76684229975899
 10
-15.19169723149616
 20
-41.5169686110903
 10
-14.94928053249623
 20
-40.31884585154102
 10
-14.73825854351616
 20
-39.17341970738789
 10
-14.55658072769893
 20
-38.08163586491446
 10
-14.40219654818747
 20
-37.04444001039974
 10
-14.27305546812931
 20
-36.06277783012501
 10
-14.16710695066513
 20
-35.13759501037157
 10
-14.08230045894015
 20
-34.26983723741841
 10
-14.01658545609734
 20
-33.46045019754683
 10
-13.96791140528194
 20
-32.71037957704038
 10
-13.93422776963916
 20
-32.02057106217808
 10
-13.91348401230971
 20
-31.39197033923892
 10
-13.90362959643653
 20
-30.82552309450648
 10
-13.90261398516713
 20
-30.32217501425748
 10
-13.90838664164675
 20
-29.88287178477549
 10
-13.9188970290138
 20
-29.50855909234178
 10
-13.93209461041806
 20
-29.20018262323765
 10
-13.94592884900021
 20
-28.9586880637421
 10
-13.95834920790321
 20
-28.78502110013414
 10
-13.96730515027229
 20
-28.68012741869734
 10
-13.97074613925269
 20
-28.64495270571069
 10
-13.97180806911819
 20
-28.62889857231039
 10
-13.97420554837026
 20
-28.58210248133446
 10
-13.9782772929334
 20
-28.40448228201239
 10
-13.97350164874751
 20
-28.12848781844877
 10
-13.95041889163394
 20
-27.77051480135242
 10
-13.8995692973981
 20
-27.34695894142987
 10
-13.8114931418545
 20
-26.87421594938542
 10
-13.67673070081537
 20
-26.36868153592786
 10
-13.48582225009295
 20
-25.84675141176604
 10
-13.22930806549948
 20
-25.32482128760193
 10
-12.89772842284492
 20
-24.81928687414665
 10
-12.48162359794605
 20
-24.3465438821022
 10
-12.23891807834206
 20
-24.12759282870638
 10
-11.97153386660829
 20
-23.92298802217965
 10
-11.678288497219
 20
-23.73477892635719
 10
-11.3579995046507
 20
-23.5650150050833
 10
-11.00948442337994
 20
-23.4157457221886
 10
-10.92919187707139
 20
-23.38882206227026
  0
LWPOLYLINE
  5
1A1E3
330
1A1D0
100
AcDbEntity
  8
0
100
AcDbPolyline
 90
      213
 70
     0
 43
1.8
 10
25.94830561856042
 20
-68.4643826373508
 10
25.93386530380485
 20
-68.43912749625587
 10
25.89177332249847
 20
-68.36551144668419
 10
25.82387311907723
 20
-68.2467585491986
 10
25.73200813797712
 20
-68.08609286436421
 10
25.61802182363408
 20
-67.88673845274615
 10
25.48375762048863
 20
-67.65191937491408
 10
25.33105897297673
 20
-67.38485969142629
 10
25.1617693255298
 20
-67.08878346285018
 10
24.97773212259062
 20
-66.76691474975541
 10
24.78079080859288
 20
-66.42247761270482
 10
24.35556962517467
 20
-65.67879430898983
 10
23.90085333076513
 20
-64.8835260362307
 10
23.43138948086334
 20
-64.06246527895291
 10
22.96192563096156
 20
-63.24140452167284
 10
22.5072093365543
 20
-62.44613624891599
 10
22.08198815313608
 20
-61.702452945201
 10
21.88504683913834
 20
-61.35801580815041
 10
21.70100963619916
 20
-61.03614709505336
 10
21.53171998875223
 20
-60.74007086647952
 10
21.37902134124033
 20
-60.47301118299174
 10
21.24475713809261
 20
-60.23819210515966
 10
21.13077082375184
 20
-60.0388376935416
 10
21.03890584265173
 20
-59.87817200870722
 10
20.9710056392305
 20
-59.75941911122163
 10
20.92891365792411
 20
-59.68580306164767
 10
20.91447334316854
 20
-59.66054792055501
 10
20.92891365792411
 20
-59.68580306164767
 10
20.9710056392305
 20
-59.75941911122163
 10
21.03890584265173
 20
-59.87817200870722
 10
21.13077082375184
 20
-60.0388376935416
 10
21.24475713809261
 20
-60.23819210515966
 10
21.37902134124033
 20
-60.47301118299174
 10
21.53171998875223
 20
-60.74007086647952
 10
21.70100963619916
 20
-61.03614709505336
 10
21.88504683913834
 20
-61.35801580815041
 10
22.08198815313608
 20
-61.702452945201
 10
22.5072093365543
 20
-62.44613624891599
 10
22.96192563096156
 20
-63.24140452167284
 10
23.43138948086334
 20
-64.06246527895291
 10
23.90085333076513
 20
-64.8835260362307
 10
24.35556962517467
 20
-65.67879430898983
 10
24.78079080859288
 20
-66.42247761270482
 10
24.97773212259062
 20
-66.76691474975541
 10
25.1617693255298
 20
-67.08878346285018
 10
25.33105897297673
 20
-67.38485969142629
 10
25.48375762048863
 20
-67.65191937491408
 10
25.61802182363408
 20
-67.88673845274615
 10
25.73200813797712
 20
-68.08609286436421
 10
25.82387311907723
 20
-68.2467585491986
 10
25.89177332249847
 20
-68.36551144668419
 10
25.93386530380485
 20
-68.43912749625587
 10
25.94830561856042
 20
-68.4643826373508
 10
26.58636439654856
 20
-69.43161416003249
 10
27.18950002459223
 20
-70.42307013067784
 10
27.75685122714094
 20
-71.4378864123546
 10
28.28755672863735
 20
-72.47519886812824
 10
28.78075525352869
 20
-73.53414336106425
 10
29.23558552626446
 20
-74.61385575422809
 10
29.65118627128731
 20
-75.71347191068753
 10
30.02669621304221
 20
-76.83212769350575
 10
30.36125407598092
 20
-77.96895896575051
 10
30.65399858454384
 20
-79.12310159048729
 10
30.90406846318274
 20
-80.29369143077929
 10
31.11060243634029
 20
-81.47986434969652
 10
31.27273922846371
 20
-82.68075621029993
 10
31.38961756400022
 20
-83.89550287565725
 10
31.46037616739477
 20
-85.12324020883625
 10
31.48415376309231
 20
-86.36310407290011
 10
31.47380841926179
 20
-87.1805046624263
 10
31.44293825842396
 20
-87.99280922256457
 10
31.39179208656287
 20
-88.79976890262014
 10
31.32061870966027
 20
-89.60113485190277
 10
31.22966693370017
 20
-90.39665821971993
 10
31.11918556466662
 20
-91.18609015537685
 10
30.9894234085391
 20
-91.96918180818784
 10
30.84062927130617
 20
-92.74568432745354
 10
30.67305195894505
 20
-93.515348862486
 10
30.48694027743977
 20
-94.27792656259271
 10
30.28254303277663
 20
-95.03316857707886
 10
30.06010903093738
 20
-95.78082605525878
 10
29.81988707790606
 20
-96.52065014643312
 10
29.56212597965987
 20
-97.25239199991392
 10
29.28707454218738
 20
-97.97580276501093
 10
28.99498157147263
 20
-98.69063359102483
 10
28.68609587349283
 20
-99.39663562726991
 10
28.36066625423655
 20
-100.0935600230536
 10
28.01894151968327
 20
-100.7811579276813
 10
27.66117047581702
 20
-101.4591804904626
 10
27.28760192861955
 20
-102.127378860705
 10
26.89848468407945
 20
-102.785504187716
 10
26.49406754817164
 20
-103.4333076208054
 10
26.07459932688471
 20
-104.0705403092806
 10
25.6403288262004
 20
-104.6969534024447
 10
25.19150485210048
 20
-105.3122980496141
 10
24.72837621056897
 20
-105.9163254000896
 10
24.25119170758535
 20
-106.5087866031831
 10
23.76020014914047
 20
-107.0894328081999
 10
23.25565034121155
 20
-107.6580151644498
 10
22.7377910897826
 20
-108.2142848212402
 10
22.20687120083539
 20
-108.7579929278786
 10
21.66313948035622
 20
-109.2888906336725
 10
21.10684473432457
 20
-109.8067290879339
 10
20.53823576872446
 20
-110.3112594399658
 10
19.9575613895422
 20
-110.802232839078
 10
19.36507040275501
 20
-111.2794004345778
 10
18.76101161435144
 20
-111.7425133757729
 10
18.145633830311
 20
-112.1913228119729
 10
17.51918585661542
 20
-112.6255798924853
 10
16.88191649925329
 20
-113.0450357666154
 10
16.23407456420182
 20
-113.4494415836775
 10
15.5759088574473
 20
-113.8385484929722
 10
14.9076681849715
 20
-114.2121076438116
 10
14.22960135275843
 20
-114.5698701855031
 10
13.54195716678987
 20
-114.9115872673542
 10
12.84498443304983
 20
-115.2370100386724
 10
12.1389319575178
 20
-115.545889648763
 10
11.42404854618235
 20
-115.8379772469425
 10
10.70058300502523
 20
-116.113023982507
 10
9.968784140025945
 20
-116.3707810047754
 10
9.228900757170777
 20
-116.6109994630506
 10
8.481181662441485
 20
-116.8334305066401
 10
7.725875661819827
 20
-117.0378252848536
 10
6.963231561289831
 20
-117.2239349469964
 10
6.193498166835524
 20
-117.3915106423783
 10
5.416924284438664
 20
-117.5403035203089
 10
4.633758720083278
 20
-117.6700647300913
 10
3.844250279753396
 20
-117.7805454210397
 10
3.048647769426224
 20
-117.8714967424548
 10
2.247199995092614
 20
-117.9426698436509
 10
1.440155762729773
 20
-117.9938158739332
 10
0.6277638783240036
 20
-118.0246859826115
 10
-0.1897268521429396
 20
-118.035031318991
 10
-1.007127441669126
 20
-118.0246859826115
 10
-1.819432001807399
 20
-117.9938158739332
 10
-2.626391681862969
 20
-117.9426698436509
 10
-3.427757631145595
 20
-117.8714967424548
 10
-4.223280998962763
 20
-117.7805454210397
 10
-5.012712934619685
 20
-117.6700647300913
 10
-5.795804587430666
 20
-117.5403035203089
 10
-6.572307106696371
 20
-117.3915106423783
 10
-7.341971641728832
 20
-117.2239349469964
 10
-8.104549341835536
 20
-117.0378252848536
 10
-8.859791356321693
 20
-116.8334305066401
 10
-9.60744883450161
 20
-116.6109994630506
 10
-10.34727292567595
 20
-116.3707810047754
 10
-11.07901477915675
 20
-116.113023982507
 10
-11.80242554425376
 20
-115.8379772469425
 10
-12.51725637026766
 20
-115.545889648763
 10
-13.22325840651501
 20
-115.2370100386724
 10
-13.92018280229649
 20
-114.9115872673542
 10
-14.6077807069264
 20
-114.5698701855031
 10
-15.28580326970768
 20
-114.2121076438116
 10
-15.95400163995009
 20
-113.8385484929722
 10
-16.61212696696111
 20
-113.4494415836775
 10
-17.2599304000505
 20
-113.0450357666154
 10
-17.89716308852348
 20
-112.6255798924853
 10
-18.5235761816898
 20
-112.1913228119729
 10
-19.13892082885695
 20
-111.7425133757729
 10
-19.74294817933241
 20
-111.2794004345778
 10
-20.33540938242595
 20
-110.802232839078
 10
-20.91605558744504
 20
-110.3112594399658
 10
-21.48463794369491
 20
-109.8067290879339
 10
-22.0409076004853
 20
-109.2888906336725
 10
-22.5846157071237
 20
-108.7579929278786
 10
-23.11551341291761
 20
-108.2142848212402
 10
-23.63335186717904
 20
-107.6580151644498
 10
-24.13788221920868
 20
-107.0894328081999
 10
-24.62885561832309
 20
-106.5087866031831
 10
-25.10602321382294
 20
-105.9163254000896
 10
-25.56913615501799
 20
-105.3122980496141
 10
-26.01794559121799
 20
-104.6969534024447
 10
-26.45220267173045
 20
-104.0705403092806
 10
-26.87165854586283
 20
-103.4333076208054
 10
-27.27606436292262
 20
-102.785504187716
 10
-27.66517127221732
 20
-102.127378860705
 10
-28.03873042305668
 20
-101.4591804904626
 10
-28.39649296474818
 20
-100.7811579276813
 10
-28.73821004659703
 20
-100.0935600230536
 10
-29.06363281791528
 20
-99.39663562726991
 10
-29.37251242801039
 20
-98.69063359102483
 10
-29.66460002618532
 20
-97.97580276501093
 10
-29.93964676175437
 20
-97.25239199991392
 10
-30.19740378402275
 20
-96.52065014643312
 10
-30.43762224229795
 20
-95.78082605525878
 10
-30.66005328588517
 20
-95.03316857707886
 10
-30.86444806409872
 20
-94.27792656259271
 10
-31.05055772624382
 20
-93.515348862486
 10
-31.21813342162341
 20
-92.74568432745354
 10
-31.36692629955405
 20
-91.96918180818784
 10
-31.4966875093387
 20
-91.18609015537685
 10
-31.60716820028483
 20
-90.39665821971993
 10
-31.69811952170221
 20
-89.60113485190277
 10
-31.76929262289832
 20
-88.79976890262014
 10
-31.82043865318064
 20
-87.99280922256457
 10
-31.85130876185667
 20
-87.1805046624263
 10
-31.86165409823843
 20
-86.36310407290011
 10
-31.83785456528994
 20
-85.12324020883397
 10
-31.76703396531366
 20
-83.89550287565498
 10
-31.65005929663494
 20
-82.68075621029765
 10
-31.48779755755868
 20
-81.47986434969425
 10
-31.2811157464057
 20
-80.29369143077701
 10
-31.03088086148546
 20
-79.12310159048502
 10
-30.73795990112103
 20
-77.96895896574824
 10
-30.4032198636196
 20
-76.83212769350348
 10
-30.02752774729743
 20
-75.71347191068525
 10
-29.61175055047533
 20
-74.61385575422582
 10
-29.1567552714605
 20
-73.53414336106197
 10
-28.66340890857145
 20
-72.47519886812597
 10
-28.1325784601222
 20
-71.43788641235232
 10
-27.56513092442901
 20
-70.42307013067556
 10
-26.96193329980588
 20
-69.43161416003022
 10
-26.32385258456679
 20
-68.46438263734853
  0
LINE
  5
1A1E4
330
1A1D0
100
AcDbEntity
  8
0
100
AcDbLine
 10
-10.92978753565148
 20
-23.0485501178191
 30
0.0
 11
10.7534695959589
 21
-23.0485501178191
 31
0.0
  0
ENDBLK
  5
1A1D2
330
1A1D0
100
AcDbEntity
  8
0
 62
     1
100
AcDbBlockEnd
  0
BLOCK
  5
1A1E7
330
1A1E6
100
AcDbEntity
  8
0
 62
     1
100
AcDbBlockBegin
  2
LED
 70
     0
 10
0.0
 20
0.0
 30
0.0
  3
LED
  1

  0
SPLINE
  5
1A1E9
330
1A1E6
100
AcDbEntity
  8
0
 62
     7
370
    20
100
AcDbSpline
210
0.0
220
0.0
230
1.0
 70
    24
 71
     3
 72
     8
 73
     4
 74
     0
 42
0.000000001
 43
0.0000000001
 40
10.0
 40
10.0
 40
10.0
 40
10.0
 40
11.0
 40
11.0
 40
11.0
 40
11.0
 10
-9.780145992399411
 20
-25.60950013091087
 30
0.0
 10
-9.780145992399411
 20
-25.60950013091087
 30
0.0
 10
9.362871585726679
 20
-25.60950013091087
 30
0.0
 10
9.362871585726679
 20
-25.60950013091087
 30
0.0
  0
LWPOLYLINE
  5
1A1EA
330
1A1E6
100
AcDbEntity
  8
0
100
AcDbPolyline
 90
       49
 70
     0
 43
2.0
 10
5.336805555525643
 20
0.0
 10
5.4412434895562
 20
0.0084092881934339
 10
5.716579861091304
 20
0.0008680555538376
 10
6.105848524296106
 20
-0.0717773437531832
 10
6.552083333335758
 20
-0.2586805555620231
 10
6.99831814237541
 20
-0.6089952257048026
 10
7.203633626322698
 20
-0.8607923719728205
 10
7.387586805580212
 20
-1.171875000013642
 10
7.543056911920302
 20
-1.548387315554009
 10
7.662923177115317
 20
-1.996473524322937
 10
7.740064832933057
 20
-2.522277832051713
 10
7.767361111145874
 20
-3.13194444446708
 10
7.740064832933057
 20
-2.522277832051713
 10
7.662923177115317
 20
-1.996473524322937
 10
7.543056911920302
 20
-1.548387315554009
 10
7.387586805580212
 20
-1.171875000013642
 10
7.203633626322698
 20
-0.8607923719728205
 10
6.99831814237541
 20
-0.6089952257048026
 10
6.552083333335758
 20
-0.2586805555620231
 10
6.105848524296106
 20
-0.0717773437531832
 10
5.716579861091304
 20
0.0008680555538376
 10
5.4412434895562
 20
0.0084092881934339
 10
5.336805555525643
 20
0.0
 10
-5.336805555525643
 20
0.0
 10
-5.393415038788589
 20
0.0007774021173645
 10
-5.548634589667926
 20
-0.0075548877316578
 10
-5.780550859806226
 20
-0.0409936138453304
 10
-6.067250500843783
 20
-0.1155355205287378
 10
-6.386820164420896
 20
-0.2471773520778697
 10
-6.717346502177861
 20
-0.4519158527978107
 10
-7.036916165754973
 20
-0.7457477669890978
 10
-7.323615806792531
 20
-1.144669838949994
 10
-7.55553207693083
 20
-1.664678812983311
 10
-7.710751627810168
 20
-2.321771433387311
 10
-7.767361111073114
 20
-3.13194444446708
 10
-7.809043141594429
 20
-3.143505520313283
 10
-7.926989230234084
 20
-3.17983669707246
 10
-8.110549372609057
 20
-3.24340989857319
 10
-8.349073564336322
 20
-3.336697048641781
 10
-8.948414078320183
 20
-3.622300889796861
 10
-9.639810737121479
 20
-4.056423611164063
 10
-10.33806350567147
 20
-4.65884060336748
 10
-10.95797234891279
 20
-5.4493272570312
 10
-11.21192278758371
 20
-5.921276516480702
 10
-11.41433723177897
 20
-6.447658962781588
 10
-11.55456567711326
 20
-7.03094651975789
 10
-11.62195811920355
 20
-7.673611111240461
 10
-12.17560580780628
 20
-7.673611111240461
 10
-12.14354653007831
 20
-25.98758006918842
  0
LWPOLYLINE
  5
1A1EB
330
1A1E6
100
AcDbEntity
  8
0
100
AcDbPolyline
 90
       14
 70
     0
 43
2.0
 10
11.94908567945958
 20
-26.0747160671599
 10
11.9179912350387
 20
-7.673611111240461
 10
11.66805439638665
 20
-7.673611111240461
 10
11.59140342991577
 20
-7.03094651975789
 10
11.44322432111039
 20
-6.447658962781588
 10
11.23406903293698
 20
-5.921276516480702
 10
10.97448952835066
 20
-5.4493272570312
 10
10.34626572179377
 20
-4.65884060336748
 10
9.64296860513059
 20
-4.056423611164063
 10
8.949013882042891
 20
-3.622300889796861
 10
8.348817256226084
 20
-3.336697048641781
 10
7.926794431364214
 20
-3.17983669707246
 10
7.808978101693355
 20
-3.143505520313283
 10
7.767361111145874
 20
-3.13194444446708
  0
LINE
  5
1A1EC
330
1A1E6
100
AcDbEntity
  8
0
370
     9
100
AcDbLine
 10
7.753472222211712
 20
-3.138888888934161
 30
0.0
 11
-7.774305555612954
 21
-3.138888888934161
 31
0.0
  0
LINE
  5
1A1ED
330
1A1E6
100
AcDbEntity
  8
0
100
AcDbLine
 10
-11.62195811920355
 20
-7.673611111240461
 30
0.0
 11
11.66805439638665
 21
-7.673611111240461
 31
0.0
  0
LWPOLYLINE
  5
1A1EE
330
1A1E6
100
AcDbEntity
  8
0
100
AcDbPolyline
 90
       12
 70
     0
 43
1.0
 10
-5.336805555525643
 20
0.0
 10
-5.393415038788589
 20
0.0007774021173645
 10
-5.548634589667926
 20
-0.0075548877316578
 10
-5.780550859806226
 20
-0.0409936138453304
 10
-6.067250500843783
 20
-0.1155355205287378
 10
-6.386820164420896
 20
-0.2471773520778697
 10
-6.717346502177861
 20
-0.4519158527978107
 10
-7.036916165754973
 20
-0.7457477669890978
 10
-7.323615806792531
 20
-1.144669838949994
 10
-7.55553207693083
 20
-1.664678812983311
 10
-7.710751627810168
 20
-2.321771433387311
 10
-7.767361111073114
 20
-3.13194444446708
  0
LWPOLYLINE
  5
1A1EF
330
1A1E6
100
AcDbEntity
  8
0
100
AcDbPolyline
 90
       82
 70
     0
 43
1.8
 10
-0.0979544109395647
 20
-111.141010573458
 10
-0.2105905724761214
 20
-111.1424359828675
 10
-1.027991162002308
 20
-111.132090646488
 10
-1.840295722140581
 20
-111.1012205378097
 10
-2.647255402196151
 20
-111.0500745075273
 10
-3.448621351478777
 20
-110.9789014063312
 10
-4.244144719295945
 20
-110.8879500849161
 10
-5.033576654952867
 20
-110.7774693939677
 10
-5.816668307763848
 20
-110.6477081841854
 10
-6.593170827029553
 20
-110.4989153062547
 10
-7.362835362062014
 20
-110.3313396108728
 10
-8.125413062168718
 20
-110.14522994873
 10
-8.880655076654875
 20
-109.9408351705165
 10
-9.628312554834792
 20
-109.718404126927
 10
-10.36813664600913
 20
-109.4781856686518
 10
-11.09987849948993
 20
-109.2204286463834
 10
-11.82328926458694
 20
-108.9453819108166
 10
-12.53812009060084
 20
-108.6532943126394
 10
-13.24412212684819
 20
-108.3444147025466
 10
-13.94104652262967
 20
-108.0189919312283
 10
-14.62864442725958
 20
-107.6772748493795
 10
-15.30666699004086
 20
-107.319512307688
 10
-15.97486536028327
 20
-106.9459531568486
 10
-16.63299068729429
 20
-106.5568462475539
 10
-17.28079412038369
 20
-106.1524404304919
 10
-17.91802680885666
 20
-105.7329845563617
 10
-18.54443990202298
 20
-105.2987274758493
 10
-19.15978454919013
 20
-104.8499180396493
 10
-19.76381189966559
 20
-104.3868050984542
 10
-20.35627310275913
 20
-103.9096375029544
 10
-20.93691930777823
 20
-103.41866410384
 10
-21.50550166402809
 20
-102.9141337518103
 10
-22.06177132081848
 20
-102.3962952975489
 10
-22.60547942745688
 20
-101.865397591755
 10
-23.13637713325079
 20
-101.3216894851166
 10
-23.65421558751223
 20
-100.7654198283262
 10
-24.15874593954186
 20
-100.1968374720763
 10
-24.64971933865627
 20
-99.61619126705954
 10
-25.12688693415612
 20
-99.02373006396601
 10
-25.58999987535117
 20
-98.41970271349055
 10
-26.03880931155118
 20
-97.80435806632112
 10
-26.47306639206363
 20
-97.1779449731548
 10
-26.89252226619601
 20
-96.54071228468183
 10
-27.29692808325581
 20
-95.89290885159243
 10
-27.6860349925505
 20
-95.23478352458141
 10
-28.05959414338986
 20
-94.566585154339
 10
-28.41735668508136
 20
-93.88856259155772
 10
-28.75907376693021
 20
-93.20096468693009
 10
-29.08449653824846
 20
-92.50404029114633
 10
-29.39337614834358
 20
-91.79803825490125
 10
-29.68546374651851
 20
-91.08320742888736
 10
-29.96051048208756
 20
-90.35979666379034
 10
-30.21826750435594
 20
-89.62805481030954
 10
-30.45848596263113
 20
-88.88823071913293
 10
-30.68091700621835
 20
-88.14057324095529
 10
-30.88531178443191
 20
-87.38533122646913
 10
-31.071421446577
 20
-86.62275352636243
 10
-31.23899714195659
 20
-85.85308899132996
 10
-31.38779001988723
 20
-85.07658647206426
 10
-31.51755122967188
 20
-84.29349481925328
 10
-31.62803192061801
 20
-83.50406288359408
 10
-31.71898324203539
 20
-82.70853951577919
 10
-31.7901563432315
 20
-81.90717356649656
 10
-31.84130237351383
 20
-81.10021388644099
 10
-31.87217248218985
 20
-80.28790932630272
 10
-31.88251781857161
 20
-79.47050873677653
 10
-31.85871828562313
 20
-78.23064487271039
 10
-31.78789768564684
 20
-77.0029075395314
 10
-31.67092301696812
 20
-75.78816087417408
 10
-31.50866127789186
 20
-74.58726901357067
 10
-31.30197946673888
 20
-73.40109609465343
 10
-31.05174458181864
 20
-72.23050625436144
 10
-30.75882362145421
 20
-71.07636362962466
 10
-30.42408358395278
 20
-69.9395323573799
 10
-30.04839146763061
 20
-68.82087657456168
 10
-29.63261427080852
 20
-67.72126041810224
 10
-29.17761899179368
 20
-66.6415480249384
 10
-22.06212139966055
 20
-55.01784785989457
 10
-14.60452688132818
 20
-35.28082400272524
 10
-14.13784212233395
 20
-29.71362986531858
 10
-14.05258877907044
 20
-27.10895422654175
 10
-12.14420471544599
 20
-25.61158949023593
  0
LINE
  5
1A1F0
330
1A1E6
100
AcDbEntity
  8
0
100
AcDbLine
 10
-12.1442083729471
 20
-25.60950013091087
 30
0.0
 11
11.9482995510657
 21
-25.60950013091087
 31
0.0
  0
LINE
  5
1A1F1
330
1A1E6
100
AcDbEntity
  8
0
100
AcDbLine
 10
-11.62195811920355
 20
-11.01085861705087
 30
0.0
 11
11.66805439638665
 21
-9.586571831000583
 31
0.0
  0
LINE
  5
1A1F2
330
1A1E6
100
AcDbEntity
  8
0
100
AcDbLine
 10
-11.62195811920355
 20
-13.2632056532293
 30
0.0
 11
11.66805439638665
 21
-11.83891886717902
 31
0.0
  0
LINE
  5
1A1F3
330
1A1E6
100
AcDbEntity
  8
0
100
AcDbLine
 10
-11.48473039588907
 20
-15.50716061006142
 30
0.0
 11
11.80528211970113
 21
-14.08287382401113
 31
0.0
  0
LINE
  5
1A1F4
330
1A1E6
100
AcDbEntity
  8
0
100
AcDbLine
 10
-11.34750267257232
 20
-17.7511155668958
 30
0.0
 11
11.94250984301788
 21
-16.32682878084551
 31
0.0
  0
LINE
  5
1A1F5
330
1A1E6
100
AcDbEntity
  8
0
100
AcDbLine
 10
-11.21027494925556
 20
-19.99507052372791
 30
0.0
 11
12.07973756633464
 21
-18.57078373767763
 31
0.0
  0
LINE
  5
1A1F6
330
1A1E6
100
AcDbEntity
  8
0
100
AcDbLine
 10
-11.21027494925556
 20
-22.24741755990635
 30
0.0
 11
12.07973756633464
 21
-20.82313077385606
 31
0.0
  0
LINE
  5
1A1F7
330
1A1E6
100
AcDbEntity
  8
0
100
AcDbLine
 10
-11.21027494925556
 20
-24.49976459608479
 30
0.0
 11
12.07973756633464
 21
-23.0754778100345
 31
0.0
  0
LWPOLYLINE
  5
1A1F8
330
1A1E6
100
AcDbEntity
  8
0
100
AcDbPolyline
 90
       82
 70
     0
 43
1.8
 10
-0.0979544109395647
 20
-111.141010573458
 10
0.0146817505969921
 20
-111.1424359828675
 10
0.8320823401231791
 20
-111.132090646488
 10
1.644386900261451
 20
-111.1012205378097
 10
2.451346580317022
 20
-111.0500745075273
 10
3.252712529599648
 20
-110.9789014063312
 10
4.048235897416816
 20
-110.8879500849161
 10
4.837667833073737
 20
-110.7774693939677
 10
5.620759485884718
 20
-110.6477081841854
 10
6.397262005150423
 20
-110.4989153062547
 10
7.166926540182885
 20
-110.3313396108728
 10
7.929504240289588
 20
-110.14522994873
 10
8.684746254775745
 20
-109.9408351705165
 10
9.432403732955663
 20
-109.718404126927
 10
10.17222782413
 20
-109.4781856686518
 10
10.9039696776108
 20
-109.2204286463834
 10
11.62738044270781
 20
-108.9453819108166
 10
12.34221126872171
 20
-108.6532943126394
 10
13.04821330496906
 20
-108.3444147025466
 10
13.74513770075054
 20
-108.0189919312283
 10
14.43273560538045
 20
-107.6772748493795
 10
15.11075816816173
 20
-107.319512307688
 10
15.77895653840414
 20
-106.9459531568486
 10
16.43708186541516
 20
-106.5568462475539
 10
17.08488529850456
 20
-106.1524404304919
 10
17.72211798697753
 20
-105.7329845563617
 10
18.34853108014385
 20
-105.2987274758493
 10
18.963875727311
 20
-104.8499180396493
 10
19.56790307778646
 20
-104.3868050984542
 10
20.16036428088
 20
-103.9096375029544
 10
20.7410104858991
 20
-103.41866410384
 10
21.30959284214896
 20
-102.9141337518103
 10
21.86586249893935
 20
-102.3962952975489
 10
22.40957060557775
 20
-101.865397591755
 10
22.94046831137166
 20
-101.3216894851166
 10
23.4583067656331
 20
-100.7654198283262
 10
23.96283711766273
 20
-100.1968374720763
 10
24.45381051677714
 20
-99.61619126705954
 10
24.93097811227699
 20
-99.02373006396601
 10
25.39409105347204
 20
-98.41970271349055
 10
25.84290048967205
 20
-97.80435806632112
 10
26.2771575701845
 20
-97.1779449731548
 10
26.69661344431688
 20
-96.54071228468183
 10
27.10101926137668
 20
-95.89290885159243
 10
27.49012617067137
 20
-95.23478352458141
 10
27.86368532151073
 20
-94.566585154339
 10
28.22144786320223
 20
-93.88856259155772
 10
28.56316494505108
 20
-93.20096468693009
 10
28.88858771636933
 20
-92.50404029114633
 10
29.19746732646445
 20
-91.79803825490125
 10
29.48955492463938
 20
-91.08320742888736
 10
29.76460166020843
 20
-90.35979666379034
 10
30.02235868247681
 20
-89.62805481030954
 10
30.262577140752
 20
-88.88823071913293
 10
30.48500818433922
 20
-88.14057324095529
 10
30.68940296255278
 20
-87.38533122646913
 10
30.87551262469788
 20
-86.62275352636243
 10
31.04308832007746
 20
-85.85308899132996
 10
31.1918811980081
 20
-85.07658647206426
 10
31.32164240779275
 20
-84.29349481925328
 10
31.43212309873888
 20
-83.50406288359408
 10
31.52307442015626
 20
-82.70853951577919
 10
31.59424752135237
 20
-81.90717356649656
 10
31.6453935516347
 20
-81.10021388644099
 10
31.67626366031072
 20
-80.28790932630272
 10
31.68660899669248
 20
-79.47050873677653
 10
31.662809463744
 20
-78.23064487271039
 10
31.59198886376771
 20
-77.0029075395314
 10
31.47501419508899
 20
-75.78816087417408
 10
31.31275245601273
 20
-74.58726901357067
 10
31.10607064485976
 20
-73.40109609465343
 10
30.85583575993951
 20
-72.23050625436144
 10
30.56291479957508
 20
-71.07636362962466
 10
30.22817476207365
 20
-69.9395323573799
 10
29.85248264575148
 20
-68.82087657456168
 10
29.43670544892939
 20
-67.72126041810224
 10
28.98171016991455
 20
-66.6415480249384
 10
21.86621257778142
 20
-55.01784785989457
 10
14.40861805944905
 20
-35.28082400272524
 10
13.94193330045482
 20
-29.71362986531858
 10
13.85667995719132
 20
-27.10895422654175
 10
11.94829589356686
 20
-25.61158949023593
  0
ENDBLK
  5
1A1E8
330
1A1E6
100
AcDbEntity
  8
0
 62
     1
100
AcDbBlockEnd
  0
ENDSEC
  0
SECTION
  2
ENTITIES
  0
LWPOLYLINE
  5
101A253
330
1F
100
AcDbEntity
  8
0
 48
0.0
100
AcDbPolyline
 90
       12
 70
     0
 43
1.0
 10
260.9717743675725
 20
139.8983783607339
 10
260.9151648843095
 20
139.8991557628513
 10
260.7599453334302
 20
139.8908234730023
 10
260.5280290632919
 20
139.8573847468886
 10
260.2413294222543
 20
139.7828428402052
 10
259.9217597586772
 20
139.651201008656
 10
259.5912334209203
 20
139.4464625079361
 10
259.2716637573432
 20
139.1526305937448
 10
258.9849641163056
 20
138.7537085217839
 10
258.7530478461673
 20
138.2336995477506
 10
258.597828295288
 20
137.5766069273466
 10
258.541218812025
 20
136.7664339162668
  0
LWPOLYLINE
  5
101A25D
330
1F
100
AcDbEntity
  8
0
 48
0.0
370
    -3
100
AcDbPolyline
 90
      224
 70
     0
 10
271.6453854786238
 20
139.8983783607339
 40
2.0
 41
2.0
 10
271.7498234126543
 20
139.9067876489274
 40
2.0
 41
2.0
 10
272.0251597841894
 20
139.8992464162878
 40
2.0
 41
2.0
 10
272.4144284473942
 20
139.8266010169807
 40
2.0
 41
2.0
 10
272.8606632564339
 20
139.6396978051719
 40
2.0
 41
2.0
 10
273.3068980654735
 20
139.2893831350291
 40
2.0
 41
2.0
 10
273.5122135494208
 20
139.0375859887611
 40
2.0
 41
2.0
 10
273.6961667286784
 20
138.7265033607203
 40
2.0
 41
2.0
 10
273.8516368350184
 20
138.3499910451799
 40
2.0
 41
2.0
 10
273.9715031002134
 20
137.901904836411
 40
2.0
 41
2.0
 10
274.0486447560312
 20
137.3761005286822
 40
2.0
 41
2.0
 10
274.075941034244
 20
136.7664339162668
 40
2.0
 41
2.0
 10
274.0486447560312
 20
137.3761005286822
 40
2.0
 41
2.0
 10
273.9715031002134
 20
137.901904836411
 40
2.0
 41
2.0
 10
273.8516368350184
 20
138.3499910451799
 40
2.0
 41
2.0
 10
273.6961667286784
 20
138.7265033607203
 40
2.0
 41
2.0
 10
273.5122135494208
 20
139.0375859887611
 40
2.0
 41
2.0
 10
273.3068980654735
 20
139.2893831350291
 40
2.0
 41
2.0
 10
272.8606632564339
 20
139.6396978051719
 40
2.0
 41
2.0
 10
272.4144284473942
 20
139.8266010169807
 40
2.0
 41
2.0
 10
272.0251597841894
 20
139.8992464162878
 40
2.0
 41
2.0
 10
271.7498234126543
 20
139.9067876489274
 40
2.0
 41
2.0
 10
271.6453854786238
 20
139.8983783607339
 40
2.0
 41
2.0
 10
260.9717743675725
 20
139.8983783607339
 40
2.0
 41
2.0
 10
260.9151648843095
 20
139.8991557628513
 40
2.0
 41
2.0
 10
260.7599453334302
 20
139.8908234730023
 40
2.0
 41
2.0
 10
260.5280290632919
 20
139.8573847468886
 40
2.0
 41
2.0
 10
260.2413294222543
 20
139.7828428402052
 40
2.0
 41
2.0
 10
259.9217597586772
 20
139.651201008656
 40
2.0
 41
2.0
 10
259.5912334209203
 20
139.4464625079361
 40
2.0
 41
2.0
 10
259.2716637573432
 20
139.1526305937448
 40
2.0
 41
2.0
 10
258.9849641163056
 20
138.7537085217839
 40
2.0
 41
2.0
 10
258.7530478461673
 20
138.2336995477506
 40
2.0
 41
2.0
 10
258.597828295288
 20
137.5766069273466
 40
2.0
 41
2.0
 10
258.541218812025
 20
136.7664339162668
 40
2.0
 41
2.0
 10
258.4995367815037
 20
136.7548728404206
 40
2.0
 41
2.0
 10
258.3815906928641
 20
136.7185416636615
 40
2.0
 41
2.0
 10
258.1980305504891
 20
136.6549684621607
 40
2.0
 41
2.0
 10
257.9595063587618
 20
136.5616813120921
 40
2.0
 41
2.0
 10
257.3601658447779
 20
136.2760774709371
 40
2.0
 41
2.0
 10
256.6687691859767
 20
135.8419547495699
 40
2.0
 41
2.0
 10
255.9705164174267
 20
135.2395377573664
 40
2.0
 41
2.0
 10
255.3506075741854
 20
134.4490511037027
 40
2.0
 41
2.0
 10
255.0966571355144
 20
133.9771018442532
 40
2.0
 41
2.0
 10
254.8942426913192
 20
133.4507193979523
 40
2.0
 41
2.0
 10
254.7540142459849
 20
132.867431840976
 40
2.0
 41
2.0
 10
254.6866218038946
 20
132.2247672494935
 40
2.0
 41
2.0
 10
254.1329741152919
 20
132.2247672494935
 40
2.0
 41
2.0
 10
254.1643752076522
 20
114.286788870498
 40
1.8
 41
1.8
 10
252.2559911440277
 20
112.7894241341922
 40
1.8
 41
1.8
 10
252.1707378007642
 20
110.1847484954153
 40
1.8
 41
1.8
 10
251.70405304177
 20
104.6175543580087
 40
1.8
 41
1.8
 10
244.2464585234376
 20
84.88053050083937
 40
1.8
 41
1.8
 10
237.1309609313045
 20
73.25683033579554
 40
1.8
 41
1.8
 10
236.6759656522896
 20
72.1771179426317
 40
1.8
 41
1.8
 10
236.2601884554675
 20
71.07750178617227
 40
1.8
 41
1.8
 10
235.8844963391454
 20
69.95884600335404
 40
1.8
 41
1.8
 10
235.5497563016439
 20
68.82201473110928
 40
1.8
 41
1.8
 10
235.2568353412795
 20
67.6678721063725
 40
1.8
 41
1.8
 10
235.0066004563593
 20
66.49728226608051
 40
1.8
 41
1.8
 10
234.7999186452063
 20
65.31110934716327
 40
1.8
 41
1.8
 10
234.63765690613
 20
64.11021748655986
 40
1.8
 41
1.8
 10
234.5206822374513
 20
62.89547082120254
 40
1.8
 41
1.8
 10
234.449861637475
 20
61.66773348802355
 40
1.8
 41
1.8
 10
234.4260621045265
 20
60.42786962395741
 40
1.8
 41
1.8
 10
234.4364074409083
 20
59.61046903443122
 40
1.8
 41
1.8
 10
234.4672775495843
 20
58.79816447429295
 40
1.8
 41
1.8
 10
234.5184235798666
 20
57.99120479423738
 40
1.8
 41
1.8
 10
234.5895966810628
 20
57.18983884495475
 40
1.8
 41
1.8
 10
234.6805480024801
 20
56.39431547713986
 40
1.8
 41
1.8
 10
234.7910286934263
 20
55.60488354148066
 40
1.8
 41
1.8
 10
234.9207899032109
 20
54.82179188866968
 40
1.8
 41
1.8
 10
235.0695827811415
 20
54.04528936940398
 40
1.8
 41
1.8
 10
235.2371584765212
 20
53.27562483437151
 40
1.8
 41
1.8
 10
235.4232681386662
 20
52.51304713426481
 40
1.8
 41
1.8
 10
235.6276629168798
 20
51.75780511977865
 40
1.8
 41
1.8
 10
235.850093960467
 20
51.01014764160101
 40
1.8
 41
1.8
 10
236.0903124187422
 20
50.2703235504244
 40
1.8
 41
1.8
 10
236.3480694410106
 20
49.5385816969436
 40
1.8
 41
1.8
 10
236.6231161765796
 20
48.81517093184658
 40
1.8
 41
1.8
 10
236.9152037747546
 20
48.10034010583269
 40
1.8
 41
1.8
 10
237.2240833848497
 20
47.3943380695876
 40
1.8
 41
1.8
 10
237.5495061561679
 20
46.69741367380384
 40
1.8
 41
1.8
 10
237.8912232380168
 20
46.00981576917621
 40
1.8
 41
1.8
 10
238.2489857797083
 20
45.33179320639493
 40
1.8
 41
1.8
 10
238.6225449305476
 20
44.66359483615252
 40
1.8
 41
1.8
 10
239.0116518398423
 20
44.0054695091415
 40
1.8
 41
1.8
 10
239.4160576569021
 20
43.35766607605211
 40
1.8
 41
1.8
 10
239.8355135310345
 20
42.72043338757913
 40
1.8
 41
1.8
 10
240.2697706115469
 20
42.09402029441281
 40
1.8
 41
1.8
 10
240.718580047747
 20
41.47867564724339
 40
1.8
 41
1.8
 10
241.181692988942
 20
40.87464829676792
 40
1.8
 41
1.8
 10
241.6588605844419
 20
40.28218709367439
 40
1.8
 41
1.8
 10
242.1498339835563
 20
39.70154088865758
 40
1.8
 41
1.8
 10
242.6543643355859
 20
39.13295853240772
 40
1.8
 41
1.8
 10
243.1722027898473
 20
38.57668887561732
 40
1.8
 41
1.8
 10
243.7031004956413
 20
38.03298076897892
 40
1.8
 41
1.8
 10
244.2468086022797
 20
37.50208306318501
 40
1.8
 41
1.8
 10
244.80307825907
 20
36.98424460892358
 40
1.8
 41
1.8
 10
245.3716606153199
 20
36.47971425689394
 40
1.8
 41
1.8
 10
245.952306820339
 20
35.98874085777953
 40
1.8
 41
1.8
 10
246.5447680234325
 20
35.51157326227968
 40
1.8
 41
1.8
 10
247.148795373908
 20
35.04846032108464
 40
1.8
 41
1.8
 10
247.7641400210751
 20
34.59965088488463
 40
1.8
 41
1.8
 10
248.3905531142415
 20
34.16539380437217
 40
1.8
 41
1.8
 10
249.0277858027145
 20
33.74593793024207
 40
1.8
 41
1.8
 10
249.6755892358038
 20
33.34153211318
 40
1.8
 41
1.8
 10
250.3337145628149
 20
32.9524252038853
 40
1.8
 41
1.8
 10
251.0019129330573
 20
32.57886605304594
 40
1.8
 41
1.8
 10
251.6799354958386
 20
32.22110351135444
 40
1.8
 41
1.8
 10
252.3675334004685
 20
31.87938642950559
 40
1.8
 41
1.8
 10
253.0644577962499
 20
31.55396365818734
 40
1.8
 41
1.8
 10
253.7704598324973
 20
31.2450840480945
 40
1.8
 41
1.8
 10
254.4852906585112
 20
30.9529964499173
 40
1.8
 41
1.8
 10
255.2087014236082
 20
30.67794971435052
 40
1.8
 41
1.8
 10
255.940443277089
 20
30.42019269208214
 40
1.8
 41
1.8
 10
256.6802673682634
 20
30.17997423380695
 40
1.8
 41
1.8
 10
257.4279248464433
 20
29.95754319021745
 40
1.8
 41
1.8
 10
258.1831668609294
 20
29.7531484120039
 40
1.8
 41
1.8
 10
258.9457445610361
 20
29.56703874986107
 40
1.8
 41
1.8
 10
259.7154090960686
 20
29.39946305447922
 40
1.8
 41
1.8
 10
260.4919116153343
 20
29.25067017654857
 40
1.8
 41
1.8
 10
261.2750032681453
 20
29.1209089667662
 40
1.8
 41
1.8
 10
262.0644352038022
 20
29.01042827581779
 40
1.8
 41
1.8
 10
262.8599585716194
 20
28.91947695440268
 40
1.8
 41
1.8
 10
263.661324520902
 20
28.84830385320658
 40
1.8
 41
1.8
 10
264.4682842009576
 20
28.79715782292425
 40
1.8
 41
1.8
 10
265.2805887610958
 20
28.76628771424595
 40
1.8
 41
1.8
 10
266.097989350622
 20
28.75594237786646
 40
1.8
 41
1.8
 10
266.2106255121586
 20
28.75736778727588
 40
1.8
 41
1.8
 10
266.3232616736951
 20
28.75594237786646
 40
1.8
 41
1.8
 10
267.1406622632213
 20
28.76628771424595
 40
1.8
 41
1.8
 10
267.9529668233596
 20
28.79715782292425
 40
1.8
 41
1.8
 10
268.7599265034152
 20
28.84830385320658
 40
1.8
 41
1.8
 10
269.5612924526978
 20
28.91947695440268
 40
1.8
 41
1.8
 10
270.356815820515
 20
29.01042827581779
 40
1.8
 41
1.8
 10
271.1462477561719
 20
29.1209089667662
 40
1.8
 41
1.8
 10
271.9293394089829
 20
29.25067017654857
 40
1.8
 41
1.8
 10
272.7058419282486
 20
29.39946305447922
 40
1.8
 41
1.8
 10
273.475506463281
 20
29.56703874986107
 40
1.8
 41
1.8
 10
274.2380841633877
 20
29.7531484120039
 40
1.8
 41
1.8
 10
274.9933261778739
 20
29.95754319021745
 40
1.8
 41
1.8
 10
275.7409836560538
 20
30.17997423380695
 40
1.8
 41
1.8
 10
276.4808077472281
 20
30.42019269208214
 40
1.8
 41
1.8
 10
277.212549600709
 20
30.67794971435052
 40
1.8
 41
1.8
 10
277.9359603658059
 20
30.9529964499173
 40
1.8
 41
1.8
 10
278.6507911918199
 20
31.2450840480945
 40
1.8
 41
1.8
 10
279.3567932280672
 20
31.55396365818734
 40
1.8
 41
1.8
 10
280.0537176238487
 20
31.87938642950559
 40
1.8
 41
1.8
 10
280.7413155284786
 20
32.22110351135444
 40
1.8
 41
1.8
 10
281.4193380912599
 20
32.57886605304594
 40
1.8
 41
1.8
 10
282.0875364615023
 20
32.9524252038853
 40
1.8
 41
1.8
 10
282.7456617885133
 20
33.34153211318
 40
1.8
 41
1.8
 10
283.3934652216027
 20
33.74593793024207
 40
1.8
 41
1.8
 10
284.0306979100757
 20
34.16539380437217
 40
1.8
 41
1.8
 10
284.657111003242
 20
34.59965088488463
 40
1.8
 41
1.8
 10
285.2724556504091
 20
35.04846032108464
 40
1.8
 41
1.8
 10
285.8764830008846
 20
35.51157326227968
 40
1.8
 41
1.8
 10
286.4689442039781
 20
35.98874085777953
 40
1.8
 41
1.8
 10
287.0495904089972
 20
36.47971425689394
 40
1.8
 41
1.8
 10
287.6181727652471
 20
36.98424460892358
 40
1.8
 41
1.8
 10
288.1744424220375
 20
37.50208306318501
 40
1.8
 41
1.8
 10
288.7181505286759
 20
38.03298076897892
 40
1.8
 41
1.8
 10
289.2490482344698
 20
38.57668887561732
 40
1.8
 41
1.8
 10
289.7668866887313
 20
39.13295853240772
 40
1.8
 41
1.8
 10
290.2714170407609
 20
39.70154088865758
 40
1.8
 41
1.8
 10
290.7623904398753
 20
40.28218709367439
 40
1.8
 41
1.8
 10
291.2395580353751
 20
40.87464829676792
 40
1.8
 41
1.8
 10
291.7026709765702
 20
41.47867564724339
 40
1.8
 41
1.8
 10
292.1514804127702
 20
42.09402029441281
 40
1.8
 41
1.8
 10
292.5857374932826
 20
42.72043338757913
 40
1.8
 41
1.8
 10
293.005193367415
 20
43.35766607605211
 40
1.8
 41
1.8
 10
293.4095991844748
 20
44.0054695091415
 40
1.8
 41
1.8
 10
293.7987060937695
 20
44.66359483615252
 40
1.8
 41
1.8
 10
294.1722652446089
 20
45.33179320639493
 40
1.8
 41
1.8
 10
294.5300277863004
 20
46.00981576917621
 40
1.8
 41
1.8
 10
294.8717448681492
 20
46.69741367380384
 40
1.8
 41
1.8
 10
295.1971676394675
 20
47.3943380695876
 40
1.8
 41
1.8
 10
295.5060472495626
 20
48.10034010583269
 40
1.8
 41
1.8
 10
295.7981348477375
 20
48.81517093184658
 40
1.8
 41
1.8
 10
296.0731815833065
 20
49.5385816969436
 40
1.8
 41
1.8
 10
296.3309386055749
 20
50.2703235504244
 40
1.8
 41
1.8
 10
296.5711570638502
 20
51.01014764160101
 40
1.8
 41
1.8
 10
296.7935881074374
 20
51.75780511977865
 40
1.8
 41
1.8
 10
296.9979828856509
 20
52.51304713426481
 40
1.8
 41
1.8
 10
297.184092547796
 20
53.27562483437151
 40
1.8
 41
1.8
 10
297.3516682431756
 20
54.04528936940398
 40
1.8
 41
1.8
 10
297.5004611211062
 20
54.82179188866968
 40
1.8
 41
1.8
 10
297.6302223308909
 20
55.60488354148066
 40
1.8
 41
1.8
 10
297.740703021837
 20
56.39431547713986
 40
1.8
 41
1.8
 10
297.8316543432544
 20
57.18983884495475
 40
1.8
 41
1.8
 10
297.9028274444505
 20
57.99120479423738
 40
1.8
 41
1.8
 10
297.9539734747328
 20
58.79816447429295
 40
1.8
 41
1.8
 10
297.9848435834089
 20
59.61046903443122
 40
1.8
 41
1.8
 10
297.9951889197906
 20
60.42786962395741
 40
1.8
 41
1.8
 10
297.9713893868421
 20
61.66773348802355
 40
1.8
 41
1.8
 10
297.9005687868658
 20
62.89547082120254
 40
1.8
 41
1.8
 10
297.7835941181871
 20
64.11021748655986
 40
1.8
 41
1.8
 10
297.6213323791109
 20
65.31110934716327
 40
1.8
 41
1.8
 10
297.4146505679579
 20
66.49728226608051
 40
1.8
 41
1.8
 10
297.1644156830377
 20
67.6678721063725
 40
1.8
 41
1.8
 10
296.8714947226732
 20
68.82201473110928
 40
1.8
 41
1.8
 10
296.5367546851718
 20
69.95884600335404
 40
1.8
 41
1.8
 10
296.1610625688496
 20
71.07750178617227
 40
1.8
 41
1.8
 10
295.7452853720275
 20
72.1771179426317
 40
1.8
 41
1.8
 10
295.2902900930127
 20
73.25683033579554
 40
1.8
 41
1.8
 10
288.1747925008795
 20
84.88053050083937
 40
1.8
 41
1.8
 10
280.7171979825472
 20
104.6175543580087
 40
1.8
 41
1.8
 10
280.250513223553
 20
110.1847484954153
 40
1.8
 41
1.8
 10
280.1652598802895
 20
112.7894241341922
 40
1.8
 41
1.8
 10
278.256875816665
 20
114.286788870498
 40
2.0
 41
2.0
 10
278.2265711581368
 20
132.2247672494935
 40
2.0
 41
2.0
 10
277.9766343194848
 20
132.2247672494935
 40
2.0
 41
2.0
 10
277.8999833530139
 20
132.867431840976
 40
2.0
 41
2.0
 10
277.7518042442085
 20
133.4507193979523
 40
2.0
 41
2.0
 10
277.5426489560351
 20
133.9771018442532
 40
2.0
 41
2.0
 10
277.2830694514488
 20
134.4490511037027
 40
2.0
 41
2.0
 10
276.6548456448919
 20
135.2395377573664
 40
2.0
 41
2.0
 10
275.9515485282287
 20
135.8419547495699
 40
2.0
 41
2.0
 10
275.257593805141
 20
136.2760774709371
 40
2.0
 41
2.0
 10
274.6573971793242
 20
136.5616813120921
 40
2.0
 41
2.0
 10
274.2353743544624
 20
136.7185416636615
 40
2.0
 41
2.0
 10
274.1175580247915
 20
136.7548728404206
 40
2.0
 41
2.0
 10
274.075941034244
 20
136.7664339162668
 40
0.0
 41
0.0
  0
VIEWPORT
  5
266
102
{ACAD_XDICTIONARY
360
267
102
}
330
D6
100
AcDbEntity
 67
     1
  8
0
100
AcDbViewport
 10
149.9628505219287
 20
101.5269571587379
 30
0.0
 40
513.6240038105259
 41
195.5035934681602
 68
     1
 69
     1
 12
149.9628505219287
 22
101.5269571587379
 13
0.0
 23
0.0
 14
10.0
 24
10.0
 15
10.0
 25
10.0
 16
0.0
 26
0.0
 36
1.0
 17
0.0
 27
0.0
 37
0.0
 42
50.0
 43
0.0
 44
0.0
 45
195.5035934681602
 50
0.0
 51
0.0
 72
  1000
 90
   819232
  1

281
     0
 71
     1
 74
     0
110
0.0
120
0.0
130
0.0
111
1.0
121
0.0
131
0.0
112
0.0
122
1.0
132
0.0
 79
     0
146
0.0
170
     0
 61
     5
348
F5
292
     1
282
     1
141
0.0
142
0.0
 63
   250
421
  3355443
  0
VIEWPORT
  5
26A
102
{ACAD_XDICTIONARY
360
26B
102
}
330
D6
100
AcDbEntity
 67
     1
  8
cad-block.com
100
AcDbViewport
 10
128.2595521105318
 20
97.63882265371055
 30
0.0
 40
256.9489342701816
 41
185.6463210234897
 68
     2
 69
     2
 12
57.12835781091108
 22
108.6649481548985
 13
0.0
 23
0.0
 14
10.0
 24
10.0
 15
10.0
 25
10.0
 16
0.0
 26
0.0
 36
1.0
 17
0.0
 27
0.0
 37
0.0
 42
50.0
 43
0.0
 44
0.0
 45
220.1229482443986
 50
0.0
 51
0.0
 72
  1000
 90
   819296
  1

281
     0
 71
     1
 74
     0
110
0.0
120
0.0
130
0.0
111
1.0
121
0.0
131
0.0
112
0.0
122
1.0
132
0.0
 79
     0
146
0.0
170
     0
 61
     5
348
F5
292
     1
282
     1
141
0.0
142
0.0
 63
   250
421
  3355443
  0
ENDSEC
  0
SECTION
  2
OBJECTS
  0
DICTIONARY
  5
C
330
0
100
AcDbDictionary
281
     1
  3
ACAD_CIP_PREVIOUS_PRODUCT_INFO
350
216
  3
ACAD_COLOR
350
6B
  3
ACAD_DETAILVIEWSTYLE
350
21B
  3
ACAD_GROUP
350
D
  3
ACAD_IMAGE_DICT
350
6107
  3
ACAD_IMAGE_VARS
350
6109
  3
ACAD_LAYOUT
350
1A
  3
ACAD_MATERIAL
350
6A
  3
ACAD_MLEADERSTYLE
350
12D
  3
ACAD_MLINESTYLE
350
17
  3
ACAD_PLOTSETTINGS
350
19
  3
ACAD_PLOTSTYLENAME
350
E
  3
ACAD_SCALELIST
350
10C
  3
ACAD_SECTIONVIEWSTYLE
350
219
  3
ACAD_TABLESTYLE
350
7E
  3
ACAD_VISUALSTYLE
350
EF
  3
ACDB_RECOMPOSE_DATA
350
101A28C
  3
AcDbVariableDictionary
350
5E
  3
AEC_PROPERTY_SET_DEFS
350
6A8E
  3
ASE_INDEX_DICTIONARY
350
668B
  0
DICTIONARY
  5
1FF
330
2
100
AcDbDictionary
280
     1
281
     1
  3
ACAD_LAYERSTATES
360
200
  0
DICTIONARY
  5
13C
330
10
100
AcDbDictionary
280
     1
281
     1
  0
DICTIONARY
  5
19F30
330
19F2F
100
AcDbDictionary
280
     1
281
     1
  0
DICTIONARY
  5
1CE
330
1F
100
AcDbDictionary
280
     1
281
     1
  3
ACAD_SORTENTS
360
610F
  0
DICTIONARY
  5
267
330
266
100
AcDbDictionary
280
     1
281
     1
  3
ASDK_XREC_ANNOTATION_SCALE_INFO
360
268
  0
DICTIONARY
  5
26B
330
26A
100
AcDbDictionary
280
     1
281
     1
  3
ASDK_XREC_ANNOTATION_SCALE_INFO
360
26C
  0
XRECORD
  5
216
102
{ACAD_REACTORS
330
C
102
}
330
C
100
AcDbXrecord
280
     1
300
ACDMAC
300
2017
300
ACDMAC_F_S
  0
DICTIONARY
  5
6B
102
{ACAD_REACTORS
330
C
102
}
330
C
100
AcDbDictionary
281
     1
  3
PANTONE(R) a & i-paper$PANTONE 11-4800 TPX
350
12C91
  0
DICTIONARY
  5
21B
102
{ACAD_REACTORS
330
C
102
}
330
C
100
AcDbDictionary
281
     1
  3
Imperial24
350
328
  3
Metric50
350
21C
  0
DICTIONARY
  5
D
102
{ACAD_REACTORS
330
C
102
}
330
C
100
AcDbDictionary
281
     1
  0
DICTIONARY
  5
6107
102
{ACAD_REACTORS
330
C
102
}
330
C
100
AcDbDictionary
281
     1
  0
RASTERVARIABLES
  5
6109
102
{ACAD_REACTORS
330
C
102
}
330
C
100
AcDbRasterVariables
 90
        0
 70
     1
 71
     1
 72
     1
  0
DICTIONARY
  5
1A
102
{ACAD_REACTORS
330
C
102
}
330
C
100
AcDbDictionary
281
     1
  3
cad-block.com
350
D7
  3
Model
350
22
  0
DICTIONARY
  5
6A
102
{ACAD_REACTORS
330
C
102
}
330
C
100
AcDbDictionary
281
     1
  3
ByBlock
350
ED
  3
ByLayer
350
EC
  3
Global
350
EE
  0
DICTIONARY
  5
12D
102
{ACAD_REACTORS
330
C
102
}
330
C
100
AcDbDictionary
281
     1
  3
Standard
350
12E
  0
DICTIONARY
  5
17
102
{ACAD_REACTORS
330
C
102
}
330
C
100
AcDbDictionary
281
     1
  3
Standard
350
18
  0
DICTIONARY
  5
19
102
{ACAD_REACTORS
330
C
102
}
330
C
100
AcDbDictionary
281
     1
  0
ACDBDICTIONARYWDFLT
  5
E
102
{ACAD_REACTORS
330
C
102
}
330
C
100
AcDbDictionary
281
     1
  3
Normal
350
F
100
AcDbDictionaryWithDefault
340
F
  0
DICTIONARY
  5
10C
102
{ACAD_REACTORS
330
C
102
}
330
C
100
AcDbDictionary
281
     1
  3
*A1
350
19BCC
  3
A0
350
10D
  3
A1
350
1BE
  3
A2
350
1BF
  3
A3
350
1C0
  3
A4
350
1C1
  3
A5
350
1C2
  3
A6
350
1C3
  3
A7
350
1C4
  3
A8
350
1C5
  3
A9
350
1C6
  3
B0
350
1C7
  3
B1
350
1C8
  3
B2
350
1C9
  3
B3
350
1CA
  3
B4
350
1CB
  3
B5
350
1CC
  3
B6
350
1CD
  0
DICTIONARY
  5
219
102
{ACAD_REACTORS
330
C
102
}
330
C
100
AcDbDictionary
281
     1
  3
Imperial24
350
327
  3
Metric50
350
21A
  0
DICTIONARY
  5
7E
102
{ACAD_REACTORS
330
C
102
}
330
C
100
AcDbDictionary
281
     1
  3
Standard
350
7F
  0
DICTIONARY
  5
EF
102
{ACAD_REACTORS
330
C
102
}
330
C
100
AcDbDictionary
281
     1
  3
2dWireframe
350
F5
  3
3dWireframe
350
6216
  3
Basic
350
F4
  3
Brighten
350
FB
  3
ColorChange
350
FF
  3
Conceptual
350
F8
  3
Dim
350
FA
  3
EdgeColorOff
350
1E6
  3
Facepattern
350
FE
  3
Flat
350
F0
  3
FlatWithEdges
350
F1
  3
Gouraud
350
F2
  3
GouraudWithEdges
350
F3
  3
Hidden
350
F7
  3
JitterOff
350
1E4
  3
Linepattern
350
FD
  3
OverhangOff
350
1E5
  3
Realistic
350
F9
  3
Shaded
350
1F3
  3
Shaded with edges
350
1F2
  3
Shades of Gray
350
1EF
  3
Sketchy
350
1F0
  3
Thicken
350
FC
  3
Wireframe
350
F6
  3
X-Ray
350
1F1
  0
XRECORD
  5
101A28C
102
{ACAD_REACTORS
330
C
102
}
330
C
100
AcDbXrecord
280
     1
 90
        1
330
7F
330
21A
330
21C
330
327
330
328
  0
DICTIONARY
  5
5E
102
{ACAD_REACTORS
330
C
102
}
330
C
100
AcDbDictionary
281
     1
  3
CANNOSCALE
350
146
  3
CMLEADERSTYLE
350
145
  3
CTABLESTYLE
350
84
  3
CVIEWDETAILSTYLE
350
227
  3
CVIEWSECTIONSTYLE
350
228
  3
DIMASSOC
350
5F
  3
HIDETEXT
350
63
  3
HPCOLOR
350
73A7
  3
HPTRANSPARENCY
350
73A6
  3
LAYEREVAL
350
1AE
  3
LAYERNOTIFY
350
1AF
  0
DICTIONARY
  5
6A8E
102
{ACAD_REACTORS
330
C
102
}
330
C
100
AcDbDictionary
281
     1
  0
DICTIONARY
  5
668B
102
{ACAD_REACTORS
330
C
102
}
330
C
100
AcDbDictionary
281
     1
  3
ASEBlockHierarchyIndexRecord
350
668D
1001
DCO15
1040
1910025089.111
  0
DICTIONARY
  5
200
102
{ACAD_REACTORS
330
1FF
102
}
330
1FF
100
AcDbDictionary
281
     1
  3
kj
350
101A270
  0
SORTENTSTABLE
  5
610F
102
{ACAD_REACTORS
330
1CE
102
}
330
1CE
100
AcDbSortentsTable
330
1F
331
101A253
  5
101A253
331
101A25D
  5
101A25D
  0
XRECORD
  5
268
102
{ACAD_REACTORS
330
267
102
}
330
267
100
AcDbXrecord
280
     1
 90
        1
340
10D
  0
XRECORD
  5
26C
102
{ACAD_REACTORS
330
26B
102
}
330
26B
100
AcDbXrecord
280
     1
 90
        1
340
10D
  0
DBCOLOR
  5
12C91
102
{ACAD_REACTORS
330
6B
102
}
330
6B
100
AcDbColor
 62
   254
420
 15330024
430
PANTONE(R) a & i-paper$PANTONE 11-4800 TPX
1001
ACAD
1000
DBColXD
1070
   254
1071
-1024857368
1000
PANTONE(R) a & i-paper$PANTONE 11-4800 TPX
1000
DBColXD
1070
   254
1071
-1024857368
1000
PANTONE(R) a & i-paper$PANTONE 11-4800 TPX
1000
DBColXD
1070
   254
1071
-1024857368
1000
PANTONE(R) a & i-paper$PANTONE 11-4800 TPX
1000
DBColXD
1070
   254
1071
-1024857368
1000
PANTONE(R) a & i-paper$PANTONE 11-4800 TPX
1000
DBColXD
1070
   254
1071
-1024857368
1000
PANTONE(R) a & i-paper$PANTONE 11-4800 TPX
1000
DBColXD
1070
   254
1071
-1024857368
1000
PANTONE(R) a & i-paper$PANTONE 11-4800 TPX
1000
DBColXD
1070
   254
1071
-1024857368
1000
PANTONE(R) a & i-paper$PANTONE 11-4800 TPX
1000
DBColXD
1070
   254
1071
-1024857368
1000
PANTONE(R) a & i-paper$PANTONE 11-4800 TPX
1000
DBColXD
1070
   254
1071
-1024857368
1000
PANTONE(R) a & i-paper$PANTONE 11-4800 TPX
1000
DBColXD
1070
   254
1071
-1024857368
1000
PANTONE(R) a & i-paper$PANTONE 11-4800 TPX
1000
DBColXD
1070
   254
1071
-1024857368
1000
PANTONE(R) a & i-paper$PANTONE 11-4800 TPX
  0
ACDBDETAILVIEWSTYLE
  5
328
102
{ACAD_XDICTIONARY
360
101A28A
102
}
102
{ACAD_REACTORS
330
21B
102
}
330
21B
100
AcDbModelDocViewStyle
 70
     0
  3
Imperial24
290
     0
100
AcDbDetailViewStyle
 70
     0
 71
     0
 90
        3
 71
     1
340
11
 62
   256
 40
0.24
340
0
 62
   256
 40
0.24
300

 40
0.36
280
     3
 71
     2
340
16
 90
       25
 62
   256
 71
     3
340
11
 62
   256
 40
0.24
 90
        1
 40
0.75
 90
        1
300
%<\AcVar ViewType \f "%tc1">% %<\AcVar ViewDetailId>%\PSCALE %<\AcVar ViewScale \f "%sn">%
 71
     4
340
16
 90
       25
 62
   256
340
16
 90
       25
 62
   256
280
     0
  0
ACDBDETAILVIEWSTYLE
  5
21C
102
{ACAD_XDICTIONARY
360
101A286
102
}
102
{ACAD_REACTORS
330
21B
102
}
330
21B
100
AcDbModelDocViewStyle
 70
     0
  3
Metric50
290
     0
100
AcDbDetailViewStyle
 70
     0
 71
     0
 90
        3
 71
     1
340
11
 62
   256
 40
5.0
340
0
 62
   256
 40
5.0
300

 40
0.0
280
     1
 71
     2
340
16
 90
       25
 62
   256
 71
     3
340
11
 62
   256
 40
5.0
 90
        0
 40
15.0
 90
        1
300
%<\AcVar ViewDetailId>% (%<\AcVar ViewScale \f "%sn">%)
 71
     4
340
16
 90
       25
 62
   256
340
16
 90
       25
 62
   256
280
     0
  0
LAYOUT
  5
D7
102
{ACAD_XDICTIONARY
360
2E4
102
}
102
{ACAD_REACTORS
330
1A
102
}
330
1A
100
AcDbPlotSettings
  1

  2
None
  4
ISO_A4_(210.00_x_297.00_MM)
  6

 40
7.5
 41
20.0
 42
7.5
 43
20.0
 44
210.0
 45
297.0
 46
0.0
 47
0.0
 48
0.0
 49
0.0
140
0.0
141
0.0
142
1.0
143
1.0
 70
   688
 72
     1
 73
     1
 74
     5
  7
cad-block.ctb
 75
    16
147
1.0
 76
     0
 77
     2
 78
   300
148
0.0
149
0.0
100
AcDbLayout
  1
cad-block.com
 70
     1
 71
     1
 10
-20.0
 20
-7.5
 11
277.0
 21
202.5
 12
0.0
 22
0.0
 32
0.0
 14
-0.2149150245589908
 24
4.815662141965702
 34
0.0
 15
256.7340192456226
 25
190.4619831654554
 35
0.0
146
0.0
 13
0.0
 23
0.0
 33
0.0
 16
1.0
 26
0.0
 36
0.0
 17
0.0
 27
1.0
 37
0.0
 76
     0
330
D6
331
266
1001
ACAD_PSEXT
1000
None
1000
None
1000
Not applicable
1000
The layout will not be plotted unless a new plotter configuration name is selected.
1070
     0
  0
LAYOUT
  5
22
102
{ACAD_XDICTIONARY
360
205
102
}
102
{ACAD_REACTORS
330
1A
102
}
330
1A
100
AcDbPlotSettings
  1

  2
none_device
  4
ISO_A4_(210.00_x_297.00_MM)
  6

 40
7.5
 41
20.0
 42
7.5
 43
20.0
 44
210.0
 45
297.0
 46
11.54999923706054
 47
-13.65000009536743
 48
0.0
 49
0.0
140
0.0
141
0.0
142
1.0
143
8.704084754739808
 70
 11952
 72
     1
 73
     0
 74
     0
  7

 75
     0
147
0.1148885871608098
 76
     0
 77
     2
 78
   300
148
0.0
149
0.0
100
AcDbLayout
  1
Model
 70
     1
 71
     0
 10
0.0
 20
0.0
 11
12.0
 21
9.0
 12
0.0
 22
0.0
 32
0.0
 14
0.0
 24
0.0
 34
0.0
 15
0.0
 25
0.0
 35
0.0
146
0.0
 13
0.0
 23
0.0
 33
0.0
 16
1.0
 26
0.0
 36
0.0
 17
0.0
 27
1.0
 37
0.0
 76
     0
330
1F
331
EA
1001
ACAD_PSEXT
1000
None
1000
None
1000
Not applicable
1000
The layout will not be plotted unless a new plotter configuration name is selected.
1070
     0
  0
MATERIAL
  5
ED
102
{ACAD_XDICTIONARY
360
1F9
102
}
102
{ACAD_REACTORS
330
6A
102
}
330
6A
100
AcDbMaterial
  1
ByBlock
 94
       63
  0
MATERIAL
  5
EC
102
{ACAD_XDICTIONARY
360
1F7
102
}
102
{ACAD_REACTORS
330
6A
102
}
330
6A
100
AcDbMaterial
  1
ByLayer
 94
       63
  0
MATERIAL
  5
EE
102
{ACAD_XDICTIONARY
360
173
102
}
102
{ACAD_REACTORS
330
6A
102
}
330
6A
100
AcDbMaterial
  1
Global
 43
0.0007999999797903
 43
0.0
 43
0.0
 43
0.0
 43
0.0
 43
0.0007999999797903
 43
0.0
 43
0.0
 43
0.0
 43
0.0
 43
1.0
 43
0.0
 43
0.0
 43
0.0
 43
0.0
 43
1.0
 49
0.0007999999797903
 49
0.0
 49
0.0
 49
0.0
 49
0.0
 49
0.0007999999797903
 49
0.0
 49
0.0
 49
0.0
 49
0.0
 49
1.0
 49
0.0
 49
0.0
 49
0.0
 49
0.0
 49
1.0
142
0.0007999999797903
142
0.0
142
0.0
142
0.0
142
0.0
142
0.0007999999797903
142
0.0
142
0.0
142
0.0
142
0.0
142
1.0
142
0.0
142
0.0
142
0.0
142
0.0
142
1.0
144
0.0007999999797903
144
0.0
144
0.0
144
0.0
144
0.0
144
0.0007999999797903
144
0.0
144
0.0
144
0.0
144
0.0
144
1.0
144
0.0
144
0.0
144
0.0
144
0.0
144
1.0
 94
       63
1001
ACAD
1070
    -1
1070
     3
1070
     0
1000

1071
        0
1070
     0
  0
MLEADERSTYLE
  5
12E
102
{ACAD_REACTORS
330
12D
102
}
330
12D
100
AcDbMLeaderStyle
179
     2
170
     2
171
     1
172
     0
 90
        2
 40
0.0
 41
0.0
173
     1
 91
-1056964608
340
14
 92
       -2
290
     1
 42
2.0
291
     1
 43
8.0
  3
Standard
 44
4.0
300

342
11
174
     1
178
     1
175
     1
176
     0
 93
-1056964608
 45
4.0
292
     0
297
     0
 46
4.0
 94
-1056964608
 47
1.0
 49
1.0
140
1.0
293
     1
141
0.0
294
     1
177
     0
142
1.0
295
     0
296
     0
143
3.75
271
     0
272
     9
273
     9
298
     0
  0
MLINESTYLE
  5
18
102
{ACAD_REACTORS
330
17
102
}
330
17
100
AcDbMlineStyle
  2
STANDARD
 70
     0
  3

 62
   256
 51
90.0
 52
90.0
 71
     2
 49
0.5
 62
   256
  6
BYLAYER
 49
-0.5
 62
   256
  6
BYLAYER
  0
ACDBPLACEHOLDER
  5
F
102
{ACAD_REACTORS
330
E
102
}
330
E
  0
SCALE
  5
19BCC
102
{ACAD_REACTORS
330
10C
102
}
330
10C
100
AcDbScale
 70
     0
300
1:1000
140
1.0
141
1.0
290
     0
  0
SCALE
  5
10D
102
{ACAD_REACTORS
330
10C
102
}
330
10C
100
AcDbScale
 70
     0
300
1:1
140
1.0
141
1.0
290
     1
  0
SCALE
  5
1BE
102
{ACAD_REACTORS
330
10C
102
}
330
10C
100
AcDbScale
 70
     0
300
1:2
140
1.0
141
2.0
290
     0
  0
SCALE
  5
1BF
102
{ACAD_REACTORS
330
10C
102
}
330
10C
100
AcDbScale
 70
     0
300
1:4
140
1.0
141
4.0
290
     0
  0
SCALE
  5
1C0
102
{ACAD_REACTORS
330
10C
102
}
330
10C
100
AcDbScale
 70
     0
300
1:5
140
1.0
141
5.0
290
     0
  0
SCALE
  5
1C1
102
{ACAD_REACTORS
330
10C
102
}
330
10C
100
AcDbScale
 70
     0
300
1:8
140
1.0
141
8.0
290
     0
  0
SCALE
  5
1C2
102
{ACAD_REACTORS
330
10C
102
}
330
10C
100
AcDbScale
 70
     0
300
1:10
140
1.0
141
10.0
290
     0
  0
SCALE
  5
1C3
102
{ACAD_REACTORS
330
10C
102
}
330
10C
100
AcDbScale
 70
     0
300
1:16
140
1.0
141
16.0
290
     0
  0
SCALE
  5
1C4
102
{ACAD_REACTORS
330
10C
102
}
330
10C
100
AcDbScale
 70
     0
300
1:20
140
1.0
141
20.0
290
     0
  0
SCALE
  5
1C5
102
{ACAD_REACTORS
330
10C
102
}
330
10C
100
AcDbScale
 70
     0
300
1:30
140
1.0
141
30.0
290
     0
  0
SCALE
  5
1C6
102
{ACAD_REACTORS
330
10C
102
}
330
10C
100
AcDbScale
 70
     0
300
1:40
140
1.0
141
40.0
290
     0
  0
SCALE
  5
1C7
102
{ACAD_REACTORS
330
10C
102
}
330
10C
100
AcDbScale
 70
     0
300
1:50
140
1.0
141
50.0
290
     0
  0
SCALE
  5
1C8
102
{ACAD_REACTORS
330
10C
102
}
330
10C
100
AcDbScale
 70
     0
300
1:100
140
1.0
141
100.0
290
     0
  0
SCALE
  5
1C9
102
{ACAD_REACTORS
330
10C
102
}
330
10C
100
AcDbScale
 70
     0
300
2:1
140
2.0
141
1.0
290
     0
  0
SCALE
  5
1CA
102
{ACAD_REACTORS
330
10C
102
}
330
10C
100
AcDbScale
 70
     0
300
4:1
140
4.0
141
1.0
290
     0
  0
SCALE
  5
1CB
102
{ACAD_REACTORS
330
10C
102
}
330
10C
100
AcDbScale
 70
     0
300
8:1
140
8.0
141
1.0
290
     0
  0
SCALE
  5
1CC
102
{ACAD_REACTORS
330
10C
102
}
330
10C
100
AcDbScale
 70
     0
300
10:1
140
10.0
141
1.0
290
     0
  0
SCALE
  5
1CD
102
{ACAD_REACTORS
330
10C
102
}
330
10C
100
AcDbScale
 70
     0
300
100:1
140
100.0
141
1.0
290
     0
  0
ACDBSECTIONVIEWSTYLE
  5
327
102
{ACAD_XDICTIONARY
360
101A288
102
}
102
{ACAD_REACTORS
330
219
102
}
330
219
100
AcDbModelDocViewStyle
 70
     0
  3
Imperial24
290
     0
100
AcDbSectionViewStyle
 70
     0
 71
     0
 90
       78
 71
     1
340
11
 62
   256
 40
0.24
340
0
340
0
 62
   256
 40
0.24
300
I, O, Q, S, X, Z
 40
0.48
 90
        3
 40
0.18
 90
        1
 71
     2
340
16
 90
       25
 62
   256
340
16
 90
       50
 62
   256
 40
0.24
 40
0.0
 40
0.24
 71
     3
340
11
 62
   256
 40
0.24
 90
        1
 40
0.75
 90
        1
300
%<\AcVar ViewType \f "%tc1">% %<\AcVar ViewSectionStartId>%-%<\AcVar ViewSectionEndId>%\PSCALE %<\AcVar ViewScale \f "%sn">%
 71
     4
 62
   256
 62
   257
300
ANSI31
 40
1.0
 90
        0
290
     0
290
     0
 90
        6
 40
0.0
 40
1.570796326794896
 40
0.2617993877991494
 40
1.308996938995747
 40
-0.2617993877991494
 40
1.832595714594046
  0
ACDBSECTIONVIEWSTYLE
  5
21A
102
{ACAD_XDICTIONARY
360
101A284
102
}
102
{ACAD_REACTORS
330
219
102
}
330
219
100
AcDbModelDocViewStyle
 70
     0
  3
Metric50
290
     0
100
AcDbSectionViewStyle
 70
     0
 71
     0
 90
      102
 71
     1
340
11
 62
   256
 40
5.0
340
0
340
0
 62
   256
 40
5.0
300
I, O, Q, S, X, Z
 40
10.0
 90
        0
 40
2.5
 90
        0
 71
     2
340
16
 90
       25
 62
   256
340
16
 90
       50
 62
   256
 40
5.0
 40
2.5
 40
5.0
 71
     3
340
11
 62
   256
 40
5.0
 90
        0
 40
15.0
 90
        1
300
%<\AcVar ViewSectionStartId>%-%<\AcVar ViewSectionEndId>% (%<\AcVar ViewScale \f "%sn">%)
 71
     4
 62
   256
 62
   257
300
ANSI31
 40
1.0
 90
        0
290
     0
290
     0
 90
        6
 40
0.0
 40
1.570796326794896
 40
0.2617993877991494
 40
1.308996938995747
 40
-0.2617993877991494
 40
1.832595714594046
  0
TABLESTYLE
  5
7F
102
{ACAD_XDICTIONARY
360
162
102
}
102
{ACAD_REACTORS
330
7E
102
}
330
7E
100
AcDbTableStyle
280
     0
  3
Standard
 70
     0
 71
     0
 40
1.5
 41
1.5
280
     0
281
     0
  7
Standard
140
4.5
170
     2
 62
     0
 63
     7
283
     0
 90
      512
 91
        0
  1

274
    -2
284
     1
 64
     0
275
    -2
285
     1
 65
     0
276
    -2
286
     1
 66
     0
277
    -2
287
     1
 67
     0
278
    -2
288
     1
 68
     0
279
    -2
289
     1
 69
     0
  7
Standard
140
6.0
170
     5
 62
     0
 63
     7
283
     0
 90
      512
 91
        0
  1

274
    -2
284
     1
 64
     0
275
    -2
285
     1
 65
     0
276
    -2
286
     1
 66
     0
277
    -2
287
     1
 67
     0
278
    -2
288
     1
 68
     0
279
    -2
289
     1
 69
     0
  7
Standard
140
4.5
170
     5
 62
     0
 63
     7
283
     0
 90
      512
 91
        0
  1

274
    -2
284
     1
 64
     0
275
    -2
285
     1
 65
     0
276
    -2
286
     1
 66
     0
277
    -2
287
     1
 67
     0
278
    -2
288
     1
 68
     0
279
    -2
289
     1
 69
     0
  0
VISUALSTYLE
  5
F5
102
{ACAD_REACTORS
330
EF
102
}
330
EF
100
AcDbVisualStyle
  2
2dWireframe
 70
     4
177
     3
291
     0
 70
    58
 90
        0
176
     1
 90
        2
176
     1
 90
        1
176
     1
 90
        0
176
     1
 40
0.6
176
     1
 40
30.0
176
     1
 62
     7
420
 16777215
176
     1
 90
        1
176
     1
 90
        4
176
     1
 62
     7
176
     1
 62
   257
176
     1
 90
        1
176
     1
 90
        1
176
     1
 40
1.0
176
     1
 90
        0
176
     1
 62
   257
176
     1
 40
1.0
176
     1
 90
        1
176
     1
 90
        6
176
     1
 90
        2
176
     1
 62
     7
176
     1
 90
        5
176
     1
 90
        0
176
     1
 90
        0
176
     1
290
     0
176
     1
 90
        1
176
     1
 40
0.0
176
     1
 90
        0
176
     1
290
     1
176
     1
290
     1
176
     1
290
     0
176
     1
290
     0
176
     1
290
     0
176
     1
290
     0
176
     1
290
     0
176
     1
290
     0
176
     1
290
     0
176
     1
 90
       50
176
     1
 40
0.0
176
     1
 40
1.0
176
     1
 90
        0
176
     1
 62
    18
420
        0
176
     1
 90
       50
176
     1
 90
        3
176
     1
 62
     5
420
      255
176
     1
290
     0
176
     1
 90
       50
176
     1
 90
       50
176
     1
 90
       50
176
     1
290
     0
176
     1
 90
       50
176
     1
 62
   256
176
     0
 40
1.0
176
     0
 90
        2
176
     1
  1
strokes_ogs.tif
176
     1
290
     0
176
     1
 40
1.0
176
     1
 40
1.0
176
     1
  0
VISUALSTYLE
  5
6216
102
{ACAD_REACTORS
330
EF
102
}
330
EF
100
AcDbVisualStyle
  2
3dWireframe
 70
     5
177
     3
291
     0
 70
    58
 90
        0
176
     1
 90
        2
176
     1
 90
        1
176
     1
 90
        0
176
     1
 40
0.6
176
     1
 40
30.0
176
     1
 62
     7
420
 16777215
176
     1
 90
        1
176
     1
 90
        4
176
     1
 62
     7
176
     1
 62
   257
176
     1
 90
        1
176
     1
 90
        1
176
     1
 40
1.0
176
     1
 90
        0
176
     1
 62
   257
176
     1
 40
1.0
176
     1
 90
        1
176
     1
 90
        6
176
     1
 90
        2
176
     1
 62
     7
176
     1
 90
        5
176
     1
 90
        0
176
     1
 90
        0
176
     1
290
     0
176
     1
 90
        1
176
     1
 40
0.0
176
     1
 90
        0
176
     1
290
     0
176
     1
290
     1
176
     1
290
     1
176
     1
290
     0
176
     1
290
     0
176
     1
290
     0
176
     1
290
     0
176
     1
290
     0
176
     1
290
     0
176
     1
 90
       50
176
     1
 40
0.0
176
     1
 40
1.0
176
     1
 90
        0
176
     1
 62
    18
420
        0
176
     1
 90
       50
176
     1
 90
        3
176
     1
 62
     5
420
      255
176
     1
290
     0
176
     1
 90
       50
176
     1
 90
       50
176
     1
 90
       50
176
     1
290
     0
176
     1
 90
       50
176
     1
 62
   256
176
     0
 40
1.0
176
     0
 90
        2
176
     1
  1
strokes_ogs.tif
176
     1
290
     0
176
     1
 40
1.0
176
     1
 40
1.0
176
     1
  0
VISUALSTYLE
  5
F4
102
{ACAD_REACTORS
330
EF
102
}
330
EF
100
AcDbVisualStyle
  2
Basic
 70
     7
177
     3
291
     1
 70
    58
 90
        1
176
     1
 90
        0
176
     1
 90
        1
176
     1
 90
        0
176
     1
 40
0.6
176
     1
 40
30.0
176
     1
 62
     7
420
 16777215
176
     1
 90
        0
176
     1
 90
        4
176
     1
 62
     7
176
     1
 62
   257
176
     1
 90
        1
176
     1
 90
        1
176
     1
 40
1.0
176
     1
 90
        8
176
     1
 62
     7
176
     1
 40
1.0
176
     1
 90
        1
176
     1
 90
        6
176
     1
 90
        2
176
     1
 62
     7
176
     1
 90
        5
176
     1
 90
        0
176
     1
 90
        0
176
     1
290
     0
176
     1
 90
        1
176
     1
 40
0.0
176
     1
 90
        0
176
     1
290
     0
176
     1
290
     1
176
     1
290
     1
176
     1
290
     0
176
     1
290
     0
176
     1
290
     0
176
     1
290
     0
176
     1
290
     0
176
     1
290
     0
176
     1
 90
       50
176
     1
 40
0.0
176
     1
 40
1.0
176
     1
 90
        0
176
     1
 62
    18
420
        0
176
     1
 90
       50
176
     1
 90
        3
176
     1
 62
     5
420
      255
176
     1
290
     0
176
     1
 90
       50
176
     1
 90
       50
176
     1
 90
       50
176
     1
290
     0
176
     1
 90
       50
176
     1
 62
   256
176
     0
 40
1.0
176
     0
 90
        2
176
     1
  1
strokes_ogs.tif
176
     1
290
     0
176
     1
 40
1.0
176
     1
 40
1.0
176
     1
  0
VISUALSTYLE
  5
FB
102
{ACAD_REACTORS
330
EF
102
}
330
EF
100
AcDbVisualStyle
  2
Brighten
 70
    12
177
     3
291
     1
 70
    58
 90
        2
176
     1
 90
        2
176
     1
 90
        1
176
     1
 90
        0
176
     1
 40
0.6
176
     1
 40
30.0
176
     1
 62
     7
420
 16777215
176
     1
 90
        1
176
     1
 90
        4
176
     1
 62
     7
176
     1
 62
   257
176
     1
 90
        1
176
     1
 90
        1
176
     1
 40
1.0
176
     1
 90
        8
176
     1
 62
     7
176
     1
 40
1.0
176
     1
 90
        1
176
     1
 90
        6
176
     1
 90
        2
176
     1
 62
     7
176
     1
 90
        5
176
     1
 90
        0
176
     1
 90
        0
176
     1
290
     0
176
     1
 90
        1
176
     1
 40
50.0
176
     1
 90
        0
176
     1
290
     0
176
     1
290
     1
176
     1
290
     1
176
     1
290
     0
176
     1
290
     0
176
     1
290
     0
176
     1
290
     0
176
     1
290
     0
176
     1
290
     0
176
     1
 90
       50
176
     1
 40
0.0
176
     1
 40
1.0
176
     1
 90
        0
176
     1
 62
    18
420
        0
176
     1
 90
       50
176
     1
 90
        3
176
     1
 62
     5
420
      255
176
     1
290
     0
176
     1
 90
       50
176
     1
 90
       50
176
     1
 90
       50
176
     1
290
     0
176
     1
 90
       50
176
     1
 62
   256
176
     0
 40
1.0
176
     0
 90
        2
176
     1
  1
strokes_ogs.tif
176
     1
290
     0
176
     1
 40
1.0
176
     1
 40
1.0
176
     1
  0
VISUALSTYLE
  5
FF
102
{ACAD_REACTORS
330
EF
102
}
330
EF
100
AcDbVisualStyle
  2
ColorChange
 70
    16
177
     3
291
     1
 70
    58
 90
        2
176
     1
 90
        2
176
     1
 90
        3
176
     1
 90
        0
176
     1
 40
0.6
176
     1
 40
30.0
176
     1
 62
     8
420
  8421504
176
     1
 90
        1
176
     1
 90
        4
176
     1
 62
     7
176
     1
 62
   257
176
     1
 90
        1
176
     1
 90
        1
176
     1
 40
1.0
176
     1
 90
        8
176
     1
 62
     8
420
  8421504
176
     1
 40
1.0
176
     1
 90
        1
176
     1
 90
        6
176
     1
 90
        2
176
     1
 62
     7
176
     1
 90
        5
176
     1
 90
        0
176
     1
 90
        0
176
     1
290
     0
176
     1
 90
        1
176
     1
 40
0.0
176
     1
 90
        0
176
     1
290
     0
176
     1
290
     1
176
     1
290
     1
176
     1
290
     0
176
     1
290
     0
176
     1
290
     0
176
     1
290
     0
176
     1
290
     0
176
     1
290
     0
176
     1
 90
       50
176
     1
 40
0.0
176
     1
 40
1.0
176
     1
 90
        0
176
     1
 62
    18
420
        0
176
     1
 90
       50
176
     1
 90
        3
176
     1
 62
     5
420
      255
176
     1
290
     0
176
     1
 90
       50
176
     1
 90
       50
176
     1
 90
       50
176
     1
290
     0
176
     1
 90
       50
176
     1
 62
   256
176
     0
 40
1.0
176
     0
 90
        2
176
     1
  1
strokes_ogs.tif
176
     1
290
     0
176
     1
 40
1.0
176
     1
 40
1.0
176
     1
  0
VISUALSTYLE
  5
F8
102
{ACAD_REACTORS
330
EF
102
}
330
EF
100
AcDbVisualStyle
  2
Conceptual
 70
     9
177
     3
291
     0
 70
    58
 90
        3
176
     1
 90
        2
176
     1
 90
        1
176
     1
 90
        0
176
     1
 40
0.6
176
     1
 40
30.0
176
     1
 62
     7
420
 16777215
176
     1
 90
        2
176
     1
 90
        2
176
     1
 62
     7
176
     1
 62
   257
176
     1
 90
        1
176
     1
 90
        1
176
     1
 40
40.0
176
     1
 90
        8
176
     1
 62
     7
176
     1
 40
1.0
176
     1
 90
        1
176
     1
 90
        6
176
     1
 90
        2
176
     1
 62
     7
176
     1
 90
        3
176
     1
 90
        0
176
     1
 90
        0
176
     1
290
     0
176
     1
 90
        1
176
     1
 40
0.0
176
     1
 90
        0
176
     1
290
     0
176
     1
290
     1
176
     1
290
     1
176
     1
290
     0
176
     1
290
     0
176
     1
290
     0
176
     1
290
     0
176
     1
290
     0
176
     1
290
     0
176
     1
 90
       50
176
     1
 40
0.0
176
     1
 40
1.0
176
     1
 90
        0
176
     1
 62
    18
420
        0
176
     1
 90
       50
176
     1
 90
        3
176
     1
 62
     5
420
      255
176
     1
290
     0
176
     1
 90
       50
176
     1
 90
       50
176
     1
 90
       50
176
     1
290
     0
176
     1
 90
       50
176
     1
 62
   256
176
     0
 40
1.0
176
     0
 90
        2
176
     1
  1
strokes_ogs.tif
176
     1
290
     0
176
     1
 40
1.0
176
     1
 40
1.0
176
     1
  0
VISUALSTYLE
  5
FA
102
{ACAD_REACTORS
330
EF
102
}
330
EF
100
AcDbVisualStyle
  2
Dim
 70
    11
177
     3
291
     1
 70
    58
 90
        2
176
     1
 90
        2
176
     1
 90
        1
176
     1
 90
        0
176
     1
 40
0.6
176
     1
 40
30.0
176
     1
 62
     7
420
 16777215
176
     1
 90
        1
176
     1
 90
        4
176
     1
 62
     7
176
     1
 62
   257
176
     1
 90
        1
176
     1
 90
        1
176
     1
 40
1.0
176
     1
 90
        8
176
     1
 62
     7
176
     1
 40
1.0
176
     1
 90
        1
176
     1
 90
        6
176
     1
 90
        2
176
     1
 62
     7
176
     1
 90
        5
176
     1
 90
        0
176
     1
 90
        0
176
     1
290
     0
176
     1
 90
        1
176
     1
 40
-50.0
176
     1
 90
        0
176
     1
290
     0
176
     1
290
     1
176
     1
290
     1
176
     1
290
     0
176
     1
290
     0
176
     1
290
     0
176
     1
290
     0
176
     1
290
     0
176
     1
290
     0
176
     1
 90
       50
176
     1
 40
0.0
176
     1
 40
1.0
176
     1
 90
        0
176
     1
 62
    18
420
        0
176
     1
 90
       50
176
     1
 90
        3
176
     1
 62
     5
420
      255
176
     1
290
     0
176
     1
 90
       50
176
     1
 90
       50
176
     1
 90
       50
176
     1
290
     0
176
     1
 90
       50
176
     1
 62
   256
176
     0
 40
1.0
176
     0
 90
        2
176
     1
  1
strokes_ogs.tif
176
     1
290
     0
176
     1
 40
1.0
176
     1
 40
1.0
176
     1
  0
VISUALSTYLE
  5
1E6
102
{ACAD_REACTORS
330
EF
102
}
330
EF
100
AcDbVisualStyle
  2
EdgeColorOff
 70
    22
177
     3
291
     1
 70
    58
 90
        2
176
     0
 90
        2
176
     0
 90
        0
176
     0
 90
        0
176
     0
 40
0.6
176
     0
 40
30.0
176
     0
 62
     7
420
 16777215
176
     0
 90
        1
176
     0
 90
        4
176
     0
 62
     7
176
     0
 62
   257
176
     0
 90
        1
176
     0
 90
        1
176
     0
 40
1.0
176
     0
 90
        8
176
     2
 62
     7
176
     0
 40
1.0
176
     0
 90
        1
176
     0
 90
        6
176
     0
 90
        2
176
     0
 62
     7
176
     0
 90
        5
176
     0
 90
        0
176
     0
 90
        0
176
     0
290
     0
176
     0
 90
        1
176
     0
 40
0.0
176
     0
 90
        0
176
     0
290
     0
176
     1
290
     1
176
     1
290
     1
176
     1
290
     0
176
     1
290
     0
176
     1
290
     0
176
     1
290
     0
176
     1
290
     0
176
     1
290
     0
176
     1
 90
       50
176
     1
 40
0.0
176
     1
 40
1.0
176
     1
 90
        0
176
     1
 62
    18
420
        0
176
     1
 90
       50
176
     1
 90
        3
176
     1
 62
     5
420
      255
176
     1
290
     0
176
     1
 90
       50
176
     1
 90
       50
176
     1
 90
       50
176
     1
290
     0
176
     1
 90
       50
176
     1
 62
   256
176
     0
 40
1.0
176
     0
 90
        2
176
     1
  1
strokes_ogs.tif
176
     1
290
     0
176
     1
 40
1.0
176
     1
 40
1.0
176
     1
  0
VISUALSTYLE
  5
FE
102
{ACAD_REACTORS
330
EF
102
}
330
EF
100
AcDbVisualStyle
  2
Facepattern
 70
    15
177
     3
291
     1
 70
    58
 90
        2
176
     1
 90
        2
176
     1
 90
        1
176
     1
 90
        0
176
     1
 40
0.6
176
     1
 40
30.0
176
     1
 62
     7
420
 16777215
176
     1
 90
        1
176
     1
 90
        4
176
     1
 62
     7
176
     1
 62
   257
176
     1
 90
        1
176
     1
 90
        1
176
     1
 40
1.0
176
     1
 90
        8
176
     1
 62
     7
176
     1
 40
1.0
176
     1
 90
        1
176
     1
 90
        6
176
     1
 90
        2
176
     1
 62
     7
176
     1
 90
        5
176
     1
 90
        0
176
     1
 90
        0
176
     1
290
     0
176
     1
 90
        1
176
     1
 40
0.0
176
     1
 90
        0
176
     1
290
     0
176
     1
290
     1
176
     1
290
     1
176
     1
290
     0
176
     1
290
     0
176
     1
290
     0
176
     1
290
     0
176
     1
290
     0
176
     1
290
     0
176
     1
 90
       50
176
     1
 40
0.0
176
     1
 40
1.0
176
     1
 90
        0
176
     1
 62
    18
420
        0
176
     1
 90
       50
176
     1
 90
        3
176
     1
 62
     5
420
      255
176
     1
290
     0
176
     1
 90
       50
176
     1
 90
       50
176
     1
 90
       50
176
     1
290
     0
176
     1
 90
       50
176
     1
 62
   256
176
     0
 40
1.0
176
     0
 90
        2
176
     1
  1
strokes_ogs.tif
176
     1
290
     0
176
     1
 40
1.0
176
     1
 40
1.0
176
     1
  0
VISUALSTYLE
  5
F0
102
{ACAD_REACTORS
330
EF
102
}
330
EF
100
AcDbVisualStyle
  2
Flat
 70
     0
177
     3
291
     1
 70
    58
 90
        2
176
     1
 90
        1
176
     1
 90
        1
176
     1
 90
        2
176
     1
 40
0.6
176
     1
 40
30.0
176
     1
 62
     7
420
 16777215
176
     1
 90
        0
176
     1
 90
        0
176
     1
 62
     7
176
     1
 62
   257
176
     1
 90
        1
176
     1
 90
        1
176
     1
 40
1.0
176
     1
 90
        8
176
     1
 62
     7
176
     1
 40
1.0
176
     1
 90
        1
176
     1
 90
        6
176
     1
 90
        2
176
     1
 62
     7
176
     1
 90
        5
176
     1
 90
        0
176
     1
 90
        0
176
     1
290
     0
176
     1
 90
       13
176
     1
 40
0.0
176
     1
 90
        0
176
     1
290
     0
176
     1
290
     1
176
     1
290
     1
176
     1
290
     0
176
     1
290
     0
176
     1
290
     0
176
     1
290
     0
176
     1
290
     0
176
     1
290
     0
176
     1
 90
       50
176
     1
 40
0.0
176
     1
 40
1.0
176
     1
 90
        0
176
     1
 62
    18
420
        0
176
     1
 90
       50
176
     1
 90
        3
176
     1
 62
     5
420
      255
176
     1
290
     0
176
     1
 90
       50
176
     1
 90
       50
176
     1
 90
       50
176
     1
290
     0
176
     1
 90
       50
176
     1
 62
   256
176
     0
 40
1.0
176
     0
 90
        2
176
     1
  1
strokes_ogs.tif
176
     1
290
     0
176
     1
 40
1.0
176
     1
 40
1.0
176
     1
  0
VISUALSTYLE
  5
F1
102
{ACAD_REACTORS
330
EF
102
}
330
EF
100
AcDbVisualStyle
  2
FlatWithEdges
 70
     1
177
     3
291
     1
 70
    58
 90
        2
176
     1
 90
        1
176
     1
 90
        1
176
     1
 90
        2
176
     1
 40
0.6
176
     1
 40
30.0
176
     1
 62
     7
420
 16777215
176
     1
 90
        1
176
     1
 90
        0
176
     1
 62
     7
176
     1
 62
   257
176
     1
 90
        1
176
     1
 90
        1
176
     1
 40
1.0
176
     1
 90
        0
176
     1
 62
   257
176
     1
 40
1.0
176
     1
 90
        1
176
     1
 90
        6
176
     1
 90
        2
176
     1
 62
     7
176
     1
 90
        5
176
     1
 90
        0
176
     1
 90
        0
176
     1
290
     0
176
     1
 90
       13
176
     1
 40
0.0
176
     1
 90
        0
176
     1
290
     0
176
     1
290
     1
176
     1
290
     1
176
     1
290
     0
176
     1
290
     0
176
     1
290
     0
176
     1
290
     0
176
     1
290
     0
176
     1
290
     0
176
     1
 90
       50
176
     1
 40
0.0
176
     1
 40
1.0
176
     1
 90
        0
176
     1
 62
    18
420
        0
176
     1
 90
       50
176
     1
 90
        3
176
     1
 62
     5
420
      255
176
     1
290
     0
176
     1
 90
       50
176
     1
 90
       50
176
     1
 90
       50
176
     1
290
     0
176
     1
 90
       50
176
     1
 62
   256
176
     0
 40
1.0
176
     0
 90
        2
176
     1
  1
strokes_ogs.tif
176
     1
290
     0
176
     1
 40
1.0
176
     1
 40
1.0
176
     1
  0
VISUALSTYLE
  5
F2
102
{ACAD_REACTORS
330
EF
102
}
330
EF
100
AcDbVisualStyle
  2
Gouraud
 70
     2
177
     3
291
     1
 70
    58
 90
        2
176
     1
 90
        2
176
     1
 90
        1
176
     1
 90
        2
176
     1
 40
0.6
176
     1
 40
30.0
176
     1
 62
     7
420
 16777215
176
     1
 90
        0
176
     1
 90
        0
176
     1
 62
     7
176
     1
 62
   257
176
     1
 90
        1
176
     1
 90
        1
176
     1
 40
1.0
176
     1
 90
        0
176
     1
 62
     7
176
     1
 40
1.0
176
     1
 90
        1
176
     1
 90
        6
176
     1
 90
        2
176
     1
 62
     7
176
     1
 90
        5
176
     1
 90
        0
176
     1
 90
        0
176
     1
290
     0
176
     1
 90
       13
176
     1
 40
0.0
176
     1
 90
        0
176
     1
290
     0
176
     1
290
     1
176
     1
290
     1
176
     1
290
     0
176
     1
290
     0
176
     1
290
     0
176
     1
290
     0
176
     1
290
     0
176
     1
290
     0
176
     1
 90
       50
176
     1
 40
0.0
176
     1
 40
1.0
176
     1
 90
        0
176
     1
 62
    18
420
        0
176
     1
 90
       50
176
     1
 90
        3
176
     1
 62
     5
420
      255
176
     1
290
     0
176
     1
 90
       50
176
     1
 90
       50
176
     1
 90
       50
176
     1
290
     0
176
     1
 90
       50
176
     1
 62
   256
176
     0
 40
1.0
176
     0
 90
        2
176
     1
  1
strokes_ogs.tif
176
     1
290
     0
176
     1
 40
1.0
176
     1
 40
1.0
176
     1
  0
VISUALSTYLE
  5
F3
102
{ACAD_REACTORS
330
EF
102
}
330
EF
100
AcDbVisualStyle
  2
GouraudWithEdges
 70
     3
177
     3
291
     1
 70
    58
 90
        2
176
     1
 90
        2
176
     1
 90
        1
176
     1
 90
        2
176
     1
 40
0.6
176
     1
 40
30.0
176
     1
 62
     7
420
 16777215
176
     1
 90
        1
176
     1
 90
        0
176
     1
 62
     7
176
     1
 62
   257
176
     1
 90
        1
176
     1
 90
        1
176
     1
 40
1.0
176
     1
 90
        0
176
     1
 62
   257
176
     1
 40
1.0
176
     1
 90
        1
176
     1
 90
        6
176
     1
 90
        2
176
     1
 62
     7
176
     1
 90
        5
176
     1
 90
        0
176
     1
 90
        0
176
     1
290
     0
176
     1
 90
       13
176
     1
 40
0.0
176
     1
 90
        0
176
     1
290
     0
176
     1
290
     1
176
     1
290
     1
176
     1
290
     0
176
     1
290
     0
176
     1
290
     0
176
     1
290
     0
176
     1
290
     0
176
     1
290
     0
176
     1
 90
       50
176
     1
 40
0.0
176
     1
 40
1.0
176
     1
 90
        0
176
     1
 62
    18
420
        0
176
     1
 90
       50
176
     1
 90
        3
176
     1
 62
     5
420
      255
176
     1
290
     0
176
     1
 90
       50
176
     1
 90
       50
176
     1
 90
       50
176
     1
290
     0
176
     1
 90
       50
176
     1
 62
   256
176
     0
 40
1.0
176
     0
 90
        2
176
     1
  1
strokes_ogs.tif
176
     1
290
     0
176
     1
 40
1.0
176
     1
 40
1.0
176
     1
  0
VISUALSTYLE
  5
F7
102
{ACAD_REACTORS
330
EF
102
}
330
EF
100
AcDbVisualStyle
  2
Hidden
 70
     6
177
     3
291
     0
 70
    58
 90
        1
176
     1
 90
        2
176
     1
 90
        2
176
     1
 90
        0
176
     1
 40
0.6
176
     1
 40
30.0
176
     1
 62
     7
420
 16777215
176
     1
 90
        2
176
     1
 90
        2
176
     1
 62
     7
176
     1
 62
   257
176
     1
 90
        2
176
     1
 90
        1
176
     1
 40
40.0
176
     1
 90
        0
176
     1
 62
   257
176
     1
 40
1.0
176
     1
 90
        1
176
     1
 90
        6
176
     1
 90
        2
176
     1
 62
     7
176
     1
 90
        3
176
     1
 90
        0
176
     1
 90
        0
176
     1
290
     0
176
     1
 90
        1
176
     1
 40
0.0
176
     1
 90
        0
176
     1
290
     0
176
     1
290
     1
176
     1
290
     1
176
     1
290
     0
176
     1
290
     0
176
     1
290
     0
176
     1
290
     0
176
     1
290
     0
176
     1
290
     0
176
     1
 90
       50
176
     1
 40
0.0
176
     1
 40
1.0
176
     1
 90
        0
176
     1
 62
    18
420
        0
176
     1
 90
       50
176
     1
 90
        3
176
     1
 62
     5
420
      255
176
     1
290
     0
176
     1
 90
       50
176
     1
 90
       50
176
     1
 90
       50
176
     1
290
     0
176
     1
 90
       50
176
     1
 62
   256
176
     0
 40
1.0
176
     0
 90
        2
176
     1
  1
strokes_ogs.tif
176
     1
290
     0
176
     1
 40
1.0
176
     1
 40
1.0
176
     1
  0
VISUALSTYLE
  5
1E4
102
{ACAD_REACTORS
330
EF
102
}
330
EF
100
AcDbVisualStyle
  2
JitterOff
 70
    20
177
     3
291
     1
 70
    58
 90
        2
176
     0
 90
        2
176
     0
 90
        0
176
     0
 90
        0
176
     0
 40
0.6
176
     0
 40
30.0
176
     0
 62
     7
420
 16777215
176
     0
 90
        1
176
     0
 90
        4
176
     0
 62
     7
176
     0
 62
   257
176
     0
 90
        1
176
     0
 90
        1
176
     0
 40
1.0
176
     0
 90
       10
176
     2
 62
     7
176
     0
 40
1.0
176
     0
 90
        1
176
     0
 90
        6
176
     0
 90
        2
176
     0
 62
     7
176
     0
 90
        5
176
     0
 90
        0
176
     0
 90
        0
176
     0
290
     0
176
     0
 90
        1
176
     0
 40
0.0
176
     0
 90
        0
176
     0
290
     0
176
     1
290
     1
176
     1
290
     1
176
     1
290
     0
176
     1
290
     0
176
     1
290
     0
176
     1
290
     0
176
     1
290
     0
176
     1
290
     0
176
     1
 90
       50
176
     1
 40
0.0
176
     1
 40
1.0
176
     1
 90
        0
176
     1
 62
    18
420
        0
176
     1
 90
       50
176
     1
 90
        3
176
     1
 62
     5
420
      255
176
     1
290
     0
176
     1
 90
       50
176
     1
 90
       50
176
     1
 90
       50
176
     1
290
     0
176
     1
 90
       50
176
     1
 62
   256
176
     0
 40
1.0
176
     0
 90
        2
176
     1
  1
strokes_ogs.tif
176
     1
290
     0
176
     1
 40
1.0
176
     1
 40
1.0
176
     1
  0
VISUALSTYLE
  5
FD
102
{ACAD_REACTORS
330
EF
102
}
330
EF
100
AcDbVisualStyle
  2
Linepattern
 70
    14
177
     3
291
     1
 70
    58
 90
        2
176
     1
 90
        2
176
     1
 90
        1
176
     1
 90
        0
176
     1
 40
0.6
176
     1
 40
30.0
176
     1
 62
     7
420
 16777215
176
     1
 90
        1
176
     1
 90
        4
176
     1
 62
     7
176
     1
 62
   257
176
     1
 90
        7
176
     1
 90
        7
176
     1
 40
1.0
176
     1
 90
        8
176
     1
 62
     7
176
     1
 40
1.0
176
     1
 90
        1
176
     1
 90
        6
176
     1
 90
        2
176
     1
 62
     7
176
     1
 90
        5
176
     1
 90
        0
176
     1
 90
        0
176
     1
290
     0
176
     1
 90
        1
176
     1
 40
0.0
176
     1
 90
        0
176
     1
290
     0
176
     1
290
     1
176
     1
290
     1
176
     1
290
     0
176
     1
290
     0
176
     1
290
     0
176
     1
290
     0
176
     1
290
     0
176
     1
290
     0
176
     1
 90
       50
176
     1
 40
0.0
176
     1
 40
1.0
176
     1
 90
        0
176
     1
 62
    18
420
        0
176
     1
 90
       50
176
     1
 90
        3
176
     1
 62
     5
420
      255
176
     1
290
     0
176
     1
 90
       50
176
     1
 90
       50
176
     1
 90
       50
176
     1
290
     0
176
     1
 90
       50
176
     1
 62
   256
176
     0
 40
1.0
176
     0
 90
        2
176
     1
  1
strokes_ogs.tif
176
     1
290
     0
176
     1
 40
1.0
176
     1
 40
1.0
176
     1
  0
VISUALSTYLE
  5
1E5
102
{ACAD_REACTORS
330
EF
102
}
330
EF
100
AcDbVisualStyle
  2
OverhangOff
 70
    21
177
     3
291
     1
 70
    58
 90
        2
176
     0
 90
        2
176
     0
 90
        0
176
     0
 90
        0
176
     0
 40
0.6
176
     0
 40
30.0
176
     0
 62
     7
420
 16777215
176
     0
 90
        1
176
     0
 90
        4
176
     0
 62
     7
176
     0
 62
   257
176
     0
 90
        1
176
     0
 90
        1
176
     0
 40
1.0
176
     0
 90
        9
176
     2
 62
     7
176
     0
 40
1.0
176
     0
 90
        1
176
     0
 90
        6
176
     0
 90
        2
176
     0
 62
     7
176
     0
 90
        5
176
     0
 90
        0
176
     0
 90
        0
176
     0
290
     0
176
     0
 90
        1
176
     0
 40
0.0
176
     0
 90
        0
176
     0
290
     0
176
     1
290
     1
176
     1
290
     1
176
     1
290
     0
176
     1
290
     0
176
     1
290
     0
176
     1
290
     0
176
     1
290
     0
176
     1
290
     0
176
     1
 90
       50
176
     1
 40
0.0
176
     1
 40
1.0
176
     1
 90
        0
176
     1
 62
    18
420
        0
176
     1
 90
       50
176
     1
 90
        3
176
     1
 62
     5
420
      255
176
     1
290
     0
176
     1
 90
       50
176
     1
 90
       50
176
     1
 90
       50
176
     1
290
     0
176
     1
 90
       50
176
     1
 62
   256
176
     0
 40
1.0
176
     0
 90
        2
176
     1
  1
strokes_ogs.tif
176
     1
290
     0
176
     1
 40
1.0
176
     1
 40
1.0
176
     1
  0
VISUALSTYLE
  5
F9
102
{ACAD_REACTORS
330
EF
102
}
330
EF
100
AcDbVisualStyle
  2
Realistic
 70
     8
177
     3
291
     0
 70
    58
 90
        2
176
     1
 90
        2
176
     1
 90
        0
176
     1
 90
        2
176
     1
 40
0.6
176
     1
 40
30.0
176
     1
 62
     7
420
 16777215
176
     1
 90
        0
176
     1
 90
        0
176
     1
 62
     7
176
     1
 62
   257
176
     1
 90
        1
176
     1
 90
        1
176
     1
 40
1.0
176
     1
 90
        8
176
     1
 62
   257
176
     1
 40
1.0
176
     1
 90
        1
176
     1
 90
        6
176
     1
 90
        2
176
     1
 62
     7
176
     1
 90
        3
176
     1
 90
        0
176
     1
 90
        0
176
     1
290
     0
176
     1
 90
       13
176
     1
 40
0.0
176
     1
 90
        0
176
     1
290
     0
176
     1
290
     1
176
     1
290
     1
176
     1
290
     0
176
     1
290
     0
176
     1
290
     0
176
     1
290
     0
176
     1
290
     0
176
     1
290
     0
176
     1
 90
       50
176
     1
 40
0.0
176
     1
 40
1.0
176
     1
 90
        0
176
     1
 62
    18
420
        0
176
     1
 90
       50
176
     1
 90
        3
176
     1
 62
     5
420
      255
176
     1
290
     0
176
     1
 90
       50
176
     1
 90
       50
176
     1
 90
       50
176
     1
290
     0
176
     1
 90
       50
176
     1
 62
   256
176
     0
 40
1.0
176
     0
 90
        2
176
     1
  1
strokes_ogs.tif
176
     1
290
     0
176
     1
 40
1.0
176
     1
 40
1.0
176
     1
  0
VISUALSTYLE
  5
1F3
102
{ACAD_REACTORS
330
EF
102
}
330
EF
100
AcDbVisualStyle
  2
Shaded
 70
    27
177
     3
291
     0
 70
    58
 90
        2
176
     1
 90
        2
176
     1
 90
        1
176
     1
 90
        2
176
     1
 40
0.6
176
     1
 40
30.0
176
     1
 62
     7
420
 16777215
176
     1
 90
        0
176
     1
 90
        4
176
     1
 62
     7
176
     1
 62
   257
176
     1
 90
        1
176
     1
 90
        1
176
     1
 40
1.0
176
     1
 90
        8
176
     1
 62
   257
176
     1
 40
1.0
176
     1
 90
        1
176
     1
 90
        6
176
     1
 90
        2
176
     1
 62
     8
420
  7895160
176
     1
 90
        3
176
     1
 90
        0
176
     1
 90
        0
176
     1
290
     0
176
     1
 90
        5
176
     1
 40
0.0
176
     1
 90
        0
176
     1
290
     0
176
     1
290
     1
176
     1
290
     1
176
     1
290
     0
176
     1
290
     0
176
     1
290
     0
176
     1
290
     0
176
     1
290
     0
176
     1
290
     0
176
     1
 90
       50
176
     1
 40
0.0
176
     1
 40
1.0
176
     1
 90
        0
176
     1
 62
    18
420
        0
176
     1
 90
       50
176
     1
 90
        3
176
     1
 62
     5
420
      255
176
     1
290
     0
176
     1
 90
       50
176
     1
 90
       50
176
     1
 90
       50
176
     1
290
     0
176
     1
 90
       50
176
     1
 62
   256
176
     0
 40
1.0
176
     0
 90
        2
176
     1
  1
strokes_ogs.tif
176
     1
290
     0
176
     1
 40
1.0
176
     1
 40
1.0
176
     1
  0
VISUALSTYLE
  5
1F2
102
{ACAD_REACTORS
330
EF
102
}
330
EF
100
AcDbVisualStyle
  2
Shaded with edges
 70
    26
177
     3
291
     0
 70
    58
 90
        2
176
     1
 90
        2
176
     1
 90
        1
176
     1
 90
        2
176
     1
 40
0.6
176
     1
 40
30.0
176
     1
 62
     7
420
 16777215
176
     1
 90
        1
176
     1
 90
        2
176
     1
 62
     7
176
     1
 62
   257
176
     1
 90
        2
176
     1
 90
        1
176
     1
 40
1.0
176
     1
 90
        8
176
     1
 62
   257
176
     1
 40
1.0
176
     1
 90
        1
176
     1
 90
        6
176
     1
 90
        2
176
     1
 62
     7
176
     1
 90
        3
176
     1
 90
        0
176
     1
 90
        0
176
     1
290
     0
176
     1
 90
        5
176
     1
 40
0.0
176
     1
 90
        0
176
     1
290
     0
176
     1
290
     1
176
     1
290
     1
176
     1
290
     0
176
     1
290
     0
176
     1
290
     0
176
     1
290
     0
176
     1
290
     0
176
     1
290
     0
176
     1
 90
       50
176
     1
 40
0.0
176
     1
 40
1.0
176
     1
 90
        0
176
     1
 62
    18
420
        0
176
     1
 90
       50
176
     1
 90
        3
176
     1
 62
     5
420
      255
176
     1
290
     0
176
     1
 90
       50
176
     1
 90
       50
176
     1
 90
       50
176
     1
290
     0
176
     1
 90
       50
176
     1
 62
   256
176
     0
 40
1.0
176
     0
 90
        2
176
     1
  1
strokes_ogs.tif
176
     1
290
     0
176
     1
 40
1.0
176
     1
 40
1.0
176
     1
  0
VISUALSTYLE
  5
1EF
102
{ACAD_REACTORS
330
EF
102
}
330
EF
100
AcDbVisualStyle
  2
Shades of Gray
 70
    23
177
     3
291
     0
 70
    58
 90
        2
176
     1
 90
        2
176
     1
 90
        3
176
     1
 90
        0
176
     1
 40
0.6
176
     1
 40
30.0
176
     1
 62
     7
420
 16777215
176
     1
 90
        2
176
     1
 90
        2
176
     1
 62
     7
176
     1
 62
     7
176
     1
 90
        1
176
     1
 90
        1
176
     1
 40
40.0
176
     1
 90
        8
176
     1
 62
     7
176
     1
 40
1.0
176
     1
 90
        1
176
     1
 90
        6
176
     1
 90
        2
176
     1
 62
     7
176
     1
 90
        3
176
     1
 90
        0
176
     1
 90
        0
176
     1
290
     0
176
     1
 90
        1
176
     1
 40
0.0
176
     1
 90
        0
176
     1
290
     0
176
     1
290
     1
176
     1
290
     1
176
     1
290
     0
176
     1
290
     0
176
     1
290
     0
176
     1
290
     0
176
     1
290
     0
176
     1
290
     0
176
     1
 90
       50
176
     1
 40
0.0
176
     1
 40
1.0
176
     1
 90
        0
176
     1
 62
    18
420
        0
176
     1
 90
       50
176
     1
 90
        3
176
     1
 62
     5
420
      255
176
     1
290
     0
176
     1
 90
       50
176
     1
 90
       50
176
     1
 90
       50
176
     1
290
     0
176
     1
 90
       50
176
     1
 62
   256
176
     0
 40
1.0
176
     0
 90
        2
176
     1
  1
strokes_ogs.tif
176
     1
290
     0
176
     1
 40
1.0
176
     1
 40
1.0
176
     1
  0
VISUALSTYLE
  5
1F0
102
{ACAD_REACTORS
330
EF
102
}
330
EF
100
AcDbVisualStyle
  2
Sketchy
 70
    24
177
     3
291
     0
 70
    58
 90
        1
176
     1
 90
        2
176
     1
 90
        2
176
     1
 90
        0
176
     1
 40
0.6
176
     1
 40
30.0
176
     1
 62
     7
420
 16777215
176
     1
 90
        2
176
     1
 90
        2
176
     1
 62
     7
176
     1
 62
     7
176
     1
 90
        1
176
     1
 90
        1
176
     1
 40
40.0
176
     1
 90
       11
176
     1
 62
     7
176
     1
 40
1.0
176
     1
 90
        1
176
     1
 90
        6
176
     1
 90
        2
176
     1
 62
     7
176
     1
 90
        6
176
     1
 90
        0
176
     1
 90
        0
176
     1
290
     0
176
     1
 90
        1
176
     1
 40
0.0
176
     1
 90
        0
176
     1
290
     0
176
     1
290
     1
176
     1
290
     1
176
     1
290
     0
176
     1
290
     0
176
     1
290
     0
176
     1
290
     0
176
     1
290
     0
176
     1
290
     0
176
     1
 90
       50
176
     1
 40
0.0
176
     1
 40
1.0
176
     1
 90
        0
176
     1
 62
    18
420
        0
176
     1
 90
       50
176
     1
 90
        3
176
     1
 62
     5
420
      255
176
     1
290
     0
176
     1
 90
       50
176
     1
 90
       50
176
     1
 90
       50
176
     1
290
     0
176
     1
 90
       50
176
     1
 62
   256
176
     0
 40
1.0
176
     0
 90
        2
176
     1
  1
strokes_ogs.tif
176
     1
290
     0
176
     1
 40
1.0
176
     1
 40
1.0
176
     1
  0
VISUALSTYLE
  5
FC
102
{ACAD_REACTORS
330
EF
102
}
330
EF
100
AcDbVisualStyle
  2
Thicken
 70
    13
177
     3
291
     1
 70
    58
 90
        2
176
     1
 90
        2
176
     1
 90
        1
176
     1
 90
        0
176
     1
 40
0.6
176
     1
 40
30.0
176
     1
 62
     7
420
 16777215
176
     1
 90
        1
176
     1
 90
        4
176
     1
 62
     7
176
     1
 62
   257
176
     1
 90
        1
176
     1
 90
        1
176
     1
 40
1.0
176
     1
 90
       12
176
     1
 62
     7
176
     1
 40
1.0
176
     1
 90
        1
176
     1
 90
        6
176
     1
 90
        2
176
     1
 62
     7
176
     1
 90
        5
176
     1
 90
        0
176
     1
 90
        0
176
     1
290
     0
176
     1
 90
        1
176
     1
 40
0.0
176
     1
 90
        0
176
     1
290
     0
176
     1
290
     1
176
     1
290
     1
176
     1
290
     0
176
     1
290
     0
176
     1
290
     0
176
     1
290
     0
176
     1
290
     0
176
     1
290
     0
176
     1
 90
       50
176
     1
 40
0.0
176
     1
 40
1.0
176
     1
 90
        0
176
     1
 62
    18
420
        0
176
     1
 90
       50
176
     1
 90
        3
176
     1
 62
     5
420
      255
176
     1
290
     0
176
     1
 90
       50
176
     1
 90
       50
176
     1
 90
       50
176
     1
290
     0
176
     1
 90
       50
176
     1
 62
   256
176
     0
 40
1.0
176
     0
 90
        2
176
     1
  1
strokes_ogs.tif
176
     1
290
     0
176
     1
 40
1.0
176
     1
 40
1.0
176
     1
  0
VISUALSTYLE
  5
F6
102
{ACAD_REACTORS
330
EF
102
}
330
EF
100
AcDbVisualStyle
  2
Wireframe
 70
     5
177
     3
291
     0
 70
    58
 90
        0
176
     1
 90
        2
176
     1
 90
        0
176
     1
 90
        0
176
     1
 40
0.6
176
     1
 40
30.0
176
     1
 62
     7
420
 16777215
176
     1
 90
        1
176
     1
 90
        4
176
     1
 62
     7
176
     1
 62
   257
176
     1
 90
        1
176
     1
 90
        1
176
     1
 40
1.0
176
     1
 90
        0
176
     1
 62
   257
176
     1
 40
1.0
176
     1
 90
        1
176
     1
 90
        6
176
     1
 90
        2
176
     1
 62
     7
176
     1
 90
        3
176
     1
 90
        0
176
     1
 90
        0
176
     1
290
     0
176
     1
 90
        1
176
     1
 40
0.0
176
     1
 90
        0
176
     1
290
     0
176
     1
290
     1
176
     1
290
     1
176
     1
290
     0
176
     1
290
     0
176
     1
290
     0
176
     1
290
     0
176
     1
290
     0
176
     1
290
     0
176
     1
 90
       50
176
     1
 40
0.0
176
     1
 40
1.0
176
     1
 90
        0
176
     1
 62
    18
420
        0
176
     1
 90
       50
176
     1
 90
        3
176
     1
 62
     5
420
      255
176
     1
290
     0
176
     1
 90
       50
176
     1
 90
       50
176
     1
 90
       50
176
     1
290
     0
176
     1
 90
       50
176
     1
 62
   256
176
     0
 40
1.0
176
     0
 90
        2
176
     1
  1
strokes_ogs.tif
176
     1
290
     0
176
     1
 40
1.0
176
     1
 40
1.0
176
     1
  0
VISUALSTYLE
  5
1F1
102
{ACAD_REACTORS
330
EF
102
}
330
EF
100
AcDbVisualStyle
  2
X-Ray
 70
    25
177
     3
291
     0
 70
    58
 90
        2
176
     1
 90
        2
176
     1
 90
        1
176
     1
 90
        1
176
     1
 40
0.5
176
     1
 40
30.0
176
     1
 62
     7
420
 16777215
176
     1
 90
        1
176
     1
 90
        0
176
     1
 62
     7
176
     1
 62
   257
176
     1
 90
        1
176
     1
 90
        1
176
     1
 40
1.0
176
     1
 90
        8
176
     1
 62
     7
176
     1
 40
1.0
176
     1
 90
        1
176
     1
 90
        6
176
     1
 90
        2
176
     1
 62
     7
176
     1
 90
        3
176
     1
 90
        0
176
     1
 90
        0
176
     1
290
     0
176
     1
 90
       13
176
     1
 40
0.0
176
     1
 90
        0
176
     1
290
     0
176
     1
290
     1
176
     1
290
     1
176
     1
290
     0
176
     1
290
     0
176
     1
290
     0
176
     1
290
     0
176
     1
290
     0
176
     1
290
     0
176
     1
 90
       50
176
     1
 40
0.0
176
     1
 40
1.0
176
     1
 90
        0
176
     1
 62
    18
420
        0
176
     1
 90
       50
176
     1
 90
        3
176
     1
 62
     5
420
      255
176
     1
290
     0
176
     1
 90
       50
176
     1
 90
       50
176
     1
 90
       50
176
     1
290
     0
176
     1
 90
       50
176
     1
 62
   256
176
     0
 40
1.0
176
     0
 90
        2
176
     1
  1
strokes_ogs.tif
176
     1
290
     0
176
     1
 40
1.0
176
     1
 40
1.0
176
     1
  0
DICTIONARYVAR
  5
146
102
{ACAD_REACTORS
330
5E
102
}
330
5E
100
DictionaryVariables
280
     0
  1
1:1
  0
DICTIONARYVAR
  5
145
102
{ACAD_REACTORS
330
5E
102
}
330
5E
100
DictionaryVariables
280
     0
  1
STANDARD
  0
DICTIONARYVAR
  5
84
102
{ACAD_REACTORS
330
5E
102
}
330
5E
100
DictionaryVariables
280
     0
  1
STANDARD
  0
DICTIONARYVAR
  5
227
102
{ACAD_REACTORS
330
5E
102
}
330
5E
100
DictionaryVariables
280
     0
  1
Metric50
  0
DICTIONARYVAR
  5
228
102
{ACAD_REACTORS
330
5E
102
}
330
5E
100
DictionaryVariables
280
     0
  1
Metric50
  0
DICTIONARYVAR
  5
5F
102
{ACAD_REACTORS
330
5E
102
}
330
5E
100
DictionaryVariables
280
     0
  1
2
  0
DICTIONARYVAR
  5
63
102
{ACAD_REACTORS
330
5E
102
}
330
5E
100
DictionaryVariables
280
     0
  1
1
  0
DICTIONARYVAR
  5
73A7
102
{ACAD_REACTORS
330
5E
102
}
330
5E
100
DictionaryVariables
280
     0
  1
1
  0
DICTIONARYVAR
  5
73A6
102
{ACAD_REACTORS
330
5E
102
}
330
5E
100
DictionaryVariables
280
     0
  1
ByLayer
  0
DICTIONARYVAR
  5
1AE
102
{ACAD_REACTORS
330
5E
102
}
330
5E
100
DictionaryVariables
280
     0
  1
0
  0
DICTIONARYVAR
  5
1AF
102
{ACAD_REACTORS
330
5E
102
}
330
5E
100
DictionaryVariables
280
     0
  1
0
  0
XRECORD
  5
668D
102
{ACAD_REACTORS
330
668B
102
}
330
668B
100
AcDbXrecord
280
     1
  0
XRECORD
  5
101A270
102
{ACAD_XDICTIONARY
360
101A271
102
}
102
{ACAD_REACTORS
330
200
102
}
330
200
100
AcDbXrecord
280
     1
 91
     2047
301

290
     0
302
0
330
19F2F
 90
        8
 62
     7
370
    20
331
16
  1
Color_7
440
        0
330
63F1
 90
        0
 62
     7
370
    -3
331
16
  1
Color_7
440
        0
330
259
 90
        8
 62
   250
370
    -3
331
16
  1
Color_250
440
        0
330
10
 90
        8
 62
     7
370
    -3
331
16
  1
Color_7
440
        0
  0
DICTIONARY
  5
101A28A
330
328
100
AcDbDictionary
280
     1
281
     1
  3
ACAD_XREC_ROUNDTRIP
360
101A28B
  0
DICTIONARY
  5
101A286
330
21C
100
AcDbDictionary
280
     1
281
     1
  3
ACAD_XREC_ROUNDTRIP
360
101A287
  0
DICTIONARY
  5
2E4
330
D7
100
AcDbDictionary
280
     1
281
     1
  0
DICTIONARY
  5
205
330
22
100
AcDbDictionary
280
     1
281
     1
  0
DICTIONARY
  5
1F9
330
ED
100
AcDbDictionary
280
     1
281
     1
  3
FBXASSET
360
1FA
  0
DICTIONARY
  5
1F7
330
EC
100
AcDbDictionary
280
     1
281
     1
  3
FBXASSET
360
1F8
  0
DICTIONARY
  5
173
330
EE
100
AcDbDictionary
280
     1
281
     1
  3
BUMPTILE
360
175
  3
DIFFUSETILE
360
174
  3
FBXASSET
360
1FB
  3
OPACITYTILE
360
176
  3
REFLECTIONTILE
360
177
  0
DICTIONARY
  5
101A288
330
327
100
AcDbDictionary
280
     1
281
     1
  3
ACAD_XREC_ROUNDTRIP
360
101A289
  0
DICTIONARY
  5
101A284
330
21A
100
AcDbDictionary
280
     1
281
     1
  3
ACAD_XREC_ROUNDTRIP
360
101A285
  0
DICTIONARY
  5
162
330
7F
100
AcDbDictionary
280
     1
281
     1
  3
ACAD_ROUNDTRIP_2008_TABLESTYLE_CELLSTYLEMAP
360
101A283
  0
DICTIONARY
  5
101A271
330
101A270
100
AcDbDictionary
280
     1
281
     1
  3
AcadLayerStateAnnoScale
360
101A272
  0
XRECORD
  5
101A28B
102
{ACAD_REACTORS
330
101A28A
102
}
330
101A28A
100
AcDbXrecord
280
     1
102
DISPLAYNAME
  1
Imperial24
102
FLAGS
 90
        0
  0
XRECORD
  5
101A287
102
{ACAD_REACTORS
330
101A286
102
}
330
101A286
100
AcDbXrecord
280
     1
102
DISPLAYNAME
  1
Metric50
102
FLAGS
 90
        0
  0
XRECORD
  5
1FA
102
{ACAD_REACTORS
330
1F9
102
}
330
1F9
100
AcDbXrecord
280
     1
 70
     1
 90
429727718
  1
D62C5603-E3A1-4AEA-B7FB-FE5D8D0755AF
310
504B03040A0000080000CC70623B3DEE336E79000000790000001B0000006175746F6465736B2D64657369676E2D7061636B6167652E786D6C3C3F786D6C2076657273696F6E3D22312E302220656E636F64696E673D227574662D3822203F3E3C666F726D6174733E3C666F726D61743E687474703A2F2F736368656D612E
310
6175746F6465736B2E636F6D2F64657369676E2D7061636B6167652F323030393C2F666F726D61743E3C2F666F726D6174733E504B0304140006080800CC70623BD486FD9CA0000000F4000000130000005B436F6E74656E745F54797065735D2E786D6C7D8EC10E82300C865F65E91D8A1E8C310C0EEA1BF002731658846E
310
D98AC1B77784ABF1D8FE5FBFBF75BBCE937A534CCEB38643598122B6FEE978D0B0485F9C41B54DDD7D022595594E1A469170414C76A4D9A4D207E29CF43ECE46F218070CC6BECC4078ACAA135ACF422C856C0E68EA1BF5669944DDD7BCDE7B1F8E415D77AECB980613C2E4AC91FC167A2B244592486606FC29C8FD7F045B9A
310
EF7053A7E60B504B0304140006080800CC70623B853B8169EB0000007C01000008000000636F72652E786D6C8D90416EC3201045AF62CDB6C206821CC7C244919D9CA01740401C94182C03558F5F9C3852BBEB6A467FFE9B197D7EFC9E1EC5975982F5AE035262288C535E5B377690E21535501C055FBC8FBF6C503839990E
310
5619041F179FE64D52DE45E362569DD7661365082642A11EB9E920A89B99642953CC8E702F67A9EE7234257977194EC9EAE275C4EABCCF5EAD5940D4AC6F0E35A568B8F43562CD7046CD199FD07E60174276A7BE677B5EADB0E0D14EEFFB6A31321A0D82627C4084204C3F096B71DD52F6819B16635EADF63F509AF53FA164
310
5DDCD1EDDD17164090FCC8732078B56691CB33A85CD7DCC40F504B0304140006080800CC70623B55019EA25F0000007C00000007000000636E782E786D6C4DCB3B0E80201045D1AD90E915ED2CF8AC45050C11660C8261F98AB1B07AC9C97D42D718D865D3E909258CFD00CCE24AC6E326A164D74DC0B4128928FF32603847
310
2BA13128B1252AC747C6BAB984FC68F0B87FE8960A5C09FE86CFB69FBA01504B0304140006080800CC70623BDBABAAF470010000D40300000C0000006662782F636F72652E786D6CC553D16E823014FD95A6AF4B694182CC941A83FA05FB810A9511A125A5257EFE2E82712ECEB8A7F100CD39F7F69E734AF9FADC366850B6
310
AF8DCE7018308C942E4C59EB2AC3DE1D498AD15A706B8CFB56869196ADCAF00863C12B6B7C374385D14E6907A836A59A41D9F7CA615434B0C8705F7CAA5606D23BA8E84F41278B93AC54100640439DE0BDB320004D43C63716C7C399D30917DCFBBA9CD9BA8469F5B156168B24CED3F7248AC8769F27244EB73B92EED8862C
310
B7F13E0C179B3C8F979C8ECD82BBBABDAA2BAC924E9558448CBD9330242CFA08E3154B5651FCC6D215639C8EE5774DBE2B5F6CF2B5768B68963BB5F5588420E442FC700B1139D4CB01F450C1E918227C2E09DF070D8140C84E1E9AAB8F1340832A9CB13130A5F1376A908D57309505ECF2A0DF179C4E9D30F5B239B87E3823
310
7A79C6F31DE1A8A5AEC08474B03C7837EAE4938639B44E5932B833D2C6B6B279CDC613877FA26EE21F4A2A4C63EC7F29A2F301D1F9F7A0E37D145F504B0304140006080800CC70623B9C113CC27E0000009D0000000B0000006662782F636E782E786D6C4DCCDF0A83201C86E15B91DFB94BFB330DD428C8FB886521330DA7
310
6397BF1A1DECE883878F57749FCDA1B7892F1BBC047A23808C7F84D9FA55424E0BE6803A256208E9EF06C84F9B91703228B1C690F78B66B34CD9A5439DF5CF0BFBF65E35BCA1B8D6A5C6F540381E886698B5741C695F9503EBA150A2F8958E3DC3EA0B504B0304140006080800CC70623B7DF2F77C2A010000120200003100
310
00006662782F41393633353835312D344632462D344230382D423046372D3739314545314133324237412F636F72652E786D6C8D51DB8EC22014FC15C2939B0D2DB4B45643319AE817EC0F6041255A68B86CFCFC856D4D76DF7CE190393373060EDB3DC707F856CE6B6B7A480A0C81328395DA5C7B18C3057510EC3873D686
310
3F34088C18550F330C39BB3A1BA7051AAC09CA84841A2BD5020AEF55806078A44B0FFD7053A328440C89E1EFC52486BBB8AA8214A99D789CF9E05200300FC927E4FB4D5B375D43103D5527440FB843077C5AA3F5861C8F645F5787F59E95B390B318B55CE45AA638FAA2957BD7248B390B7A7CC51F9C124149C82B8C378810
310
84AB2F42B7B8DD56F413775B8C5999E9FF4471926F8AA236A1AE96B8B3CC434E5839373893369E1FAF30EA395917409EB7F26AF8801C171837A4A6AC9C89E9F9C9B1A58BA30FD6A5EF5DDDCF894B9AD9B6A59C957943A9FCAE2FD5BC4DFE03504B0304140006080800CC70623BAD7543B64E01000033030000300000006662
310
782F41393633353835312D344632462D344230382D423046372D3739314545314133324237412F636E782E786D6CD593CD6EC32010845F0571AD6CE3D48AD20813A9873E410FBD12D82434182C7EAAE6EDBB2424CD25871E7B41D6EC30B3FA84F9E67BB2E40B4234DE8DB46F1925E094D7C6ED479AD3AE5951B2113C789FEE
310
6C943839C1488B4C05DF079FE72A69D8C96C13AAD6B8631503449F83828872B949AC57D26200B826A308D316B4064D6E46FCDA41C05550DC9E483A00797BFD207EFB092A45DE9514C1BBD22178396BD39D891265658C238DEA00936C654E5E433CB65A26D9F6EDB5EBC14EBF49A45CB856E66048291F6939A9A81BB5C89177
310
38143CA680F4AA299D66A042CEB3354A2684DC9D8D178FE0D9B8B41CAAD720F880EE7EF93C0C18769E099ECC04D5A102C8049A8A05632F4DDF376CF1DE0F6BB65C2F8627B65A33C6BB62177CEBBDAD973006829F89F22E814B54F4BC2BE347F8AA8F681390B50FA73F804400B5F542E796F19FF974E7F78DB802FE05E20750
310
4B0304140006080800CC70623BE75B7789680500003C100000340000006662782F41393633353835312D344632462D344230382D423046372D3739314545314133324237412F6F626A656374732E786D6CAD575B8F9B3818FD2B887D06C22499CB8AA1CA655245D5B455A356FB305264C061D8018C6C3393D95FBFC7600890
310
A4CD5EF210B0B1BFEBF98E3F7B1FF6596ABC522E1296DF9BAE3D320D9A872C4AF2F8DE2CE5CEBA358D0FBEC719939D65A691938CDE9B6ADAF4BD98B3B2D05311DD91329583D9D5FC0F438434A7A611A644887B5384CF34233629258BA878B12322891DEFF6B66BD70BFB62634E8AE781D082709A4B588AF91C528CDA28B73F
310
1C998EEF39EABBEFA97FBD6A7C7E9553F9D3D79FE442923C3C523610337627CB87ABE99D359D4CC6D6E4FACAB5E6ABF9D2726FC6A3C5F56271377BB88362213924694B38DD99FE47C48627A1E7D49F5A8BB5E1A74C0A599ED3B0F21F1E56366B89112D681E218F0915D0D6F17AD41FBA2A369DCF6335D62ABBD39779D5DDD1
310
11D4D8DE3CBB96B2E04FB8202E41051754A1AA8E8F76B4C6DFE810B580B1547F4B84911149794252234D024EF8BBE963A95AE27B3D310A9D5C215C7960FAEE415ED75694C6AFB17BCACA5D99A60A9AA65F217B0BFC53292ACB92BF283FAD0D3621576592CB5BED907C2FA8E9DF794E35E97BEA31BED21FEB401ABB94C44839
310
DCACBF0E1C5DA8DA5B2F4DFFD32AD86F543D9E565E7056502E157C00AD2671CD534549AB752FCA9CDA00677A313F04E51B22FF19E57B300579E3C97EB29F682D92935CEC18CF901B7B54FD8C51F362B56FC72FE0B3C1EAE335EDCCBF5AEC39ADB17DC238973F804BA5E6F6BFE7AF1FB32E523BE9F3BD571418E3631DCA4D48
310
5250CF639223210A9446CA30052EDF057BD35F8329C1ECD84552BF0DC8D18BE7BCE23BFE6BD960AB4A7DE79923A103BEBD80F911CBAA2C60DB19B01CF164A5583B772EE6D3FFA56666CBCDA74DC97724A48F9A58967497E489C4D979006FD7A05E227A1EBDD0F737C623387A9C844D3709995625106D157315F8B8392CD4E0
310
A0B9A720C4BE9829CEF37EA1E13111214D53925356365ADA634861B52519DD27A00AEB808EAF0628E6F435519D446F45CF2C9CF5214F0A15B2F6D06B79DA3EE3CBF7F56780D2F4E7EF73A0F5E5B02A38D07DC852C6B7C1FBB6664213E0C39E3EBA7FF4E1AD23EA2829407C85E586727488B751B2DB9502BC7B228A3FD68B6E
310
A65A22397E690AA8D158D7E404EC8CDA235CC3B7D1898680131CEC2CDF2638C65196279577750F15884AEE19F94199155B92B13297978469D4F8D358DF0AEF7631E28DC8F0D9F437D5D39A83B2231A1D52D543813A824EF8D44BCFF2FA6A31BD1E8DAD87F1CCB526B3879935BF59CDADD5C37479BB1CDD4CA7B3556B516589
310
EF352754B706114D9C885EC9131DE6EFEB43D99AFE2391C2F958179413D7CFEF6B1B6DB1E7600F00DE6E5C67454A339A4BA2E0FBA85ED26F045D454F463DBFCE484C2F90F2E5E3666003662ED8F755951A7D1BECD5B30B550B2785C8E7320B7292A4838DDA71BBC863ED7613CAF659337A3354231D4FF4A182A54904C2898C
310
98B28C4AD0CE056CCF332A80986E571EE9DBC305BB5FEB7E509220A58D25CF042D712A806AC0AD0C657FDEF80D2D9CEAA2EE4D1C76F60BFE74219A06527D6F82DF6412526107381E55E353090704D085B52408A8913C4ED159D79BDA71BB4BC506F4831350EB6F975CD22D69BF7AC49B91A2C0A9DDA3D5CA36AD20FC478E37
310
E61844E2352865EBCB61A275A65283CAAA9DD27703B4102F5AF51EF5F573B75CBB5AD38BC845F7A49F82A0966A49C2E3EA5EA0ECD326CD965F1DB402C6FA8B51A4658C5C5E2EC9E214602E55810345408596591009A82E7E7FFACA19EEA299B14A0081A705CB3296EBC14CDF658DCD336EA6D1136881AAEB87B81AB9EE53D5
310
F5EB8BC8362082DA24122F98680A4E7930C01A0079749CEA14382A0783E5EBA5A10F8C098456A03D6A4AEB6BB881E2513747552A5DB22C7EDAF83BD5528081A365F7FF06504B0304140006080000CC70623B000000000000000000000000350000006662782F41393633353835312D344632462D344230382D423046372D37
310
39314545314133324237412F76657274696365732E62696E504B0304140006080800CC70623BF270F1330600000004000000360000006662782F41393633353835312D344632462D344230382D423046372D3739314545314133324237412F747269616E676C65732E62696E636660600000504B0304140006080000CC7062
310
3B000000000000000000000000370000006662782F41393633353835312D344632462D344230382D423046372D3739314545314133324237412F617474726962757465732E62696E504B0304140006080800CC70623B08DA0BD19000000041010000360000006662782F41393633353835312D344632462D344230382D4230
310
46372D3739314545314133324237412F6469726563746F72792E786D6C858F410AC3201045AF22B36F53E9A60B35CBEEBAE80D244E44489C6234F4F835464A48035D0DF398FF9F8AF63D0E6CC63039F212F8F9020C7D47C6792B21C5FE7403D62A1188E2E60C98D7234A5830286103A55745067B9D86B8A3CF9C7F90C11DE6
310
07FB144396D7B6A82D282E9A152AD114D5EF2CB866EEE831B8EEA07A7BB5A8D7D61A2BAAEB7FD5F70921FF497D00504B0304140006080800CC70623BEDD1DC58FD000000A00100003B0000006662782F41393633353835312D344632462D344230382D423046372D3739314545314133324237412F7265736F75726365732F
310
636F72652E786D6C8D504B6E833010BD0A9A6D65B00922041947112427E8052C33A156828DFCA97AFC9A40A576D7CDCCE87D344F8F9FBFE667F689CE6B6B3A6039850C8DB2A336530731DC4903D95970676DF82583CCC8193B5861107C72362E3BA4AC096842428D1D7107A5F7182053CF7474E0D507CE32973124857FE48B
310
540F3961CEF244279DE03EB81420DB9EAC1384436FA353E879B1B182C7A8C75DA3C7F453DF353A1075D537A7BA6464B8F535A99AE14A9A2BBD90E350DD183B5CFABE3AF262350B1EF4FC9351399401471025A527C218A1E53BAB5A5AB765F5469B96525EACF23FA6B88CFF34456DC2A1DCE36E360F82A5202F42F062ED2BAD
310
579969AFDD8A6F504B010214000A0000080000CC70623B3DEE336E79000000790000001B00000000000000000000000000000000006175746F6465736B2D64657369676E2D7061636B6167652E786D6C504B01021400140006080800CC70623BD486FD9CA0000000F40000001300000000000000000000000000B20000005B
310
436F6E74656E745F54797065735D2E786D6C504B01021400140006080800CC70623B853B8169EB0000007C010000080000000000000000000000000083010000636F72652E786D6C504B01021400140006080800CC70623B55019EA25F0000007C000000070000000000000000000000000094020000636E782E786D6C504B
310
01021400140006080800CC70623BDBABAAF470010000D40300000C00000000000000000000000000180300006662782F636F72652E786D6C504B01021400140006080800CC70623B9C113CC27E0000009D0000000B00000000000000000000000000B20400006662782F636E782E786D6C504B01021400140006080800CC70
310
623B7DF2F77C2A010000120200003100000000000000000000000000590500006662782F41393633353835312D344632462D344230382D423046372D3739314545314133324237412F636F72652E786D6C504B01021400140006080800CC70623BAD7543B64E010000330300003000000000000000000000000000D2060000
310
6662782F41393633353835312D344632462D344230382D423046372D3739314545314133324237412F636E782E786D6C504B01021400140006080800CC70623BE75B7789680500003C10000034000000000000000000000000006E0800006662782F41393633353835312D344632462D344230382D423046372D3739314545
310
314133324237412F6F626A656374732E786D6C504B01021400140006080000CC70623B0000000000000000000000003500000000000000000000000000280E00006662782F41393633353835312D344632462D344230382D423046372D3739314545314133324237412F76657274696365732E62696E504B01021400140006
310
080800CC70623BF270F133060000000400000036000000000000000000000000007B0E00006662782F41393633353835312D344632462D344230382D423046372D3739314545314133324237412F747269616E676C65732E62696E504B01021400140006080000CC70623B0000000000000000000000003700000000000000
310
000000000000D50E00006662782F41393633353835312D344632462D344230382D423046372D3739314545314133324237412F617474726962757465732E62696E504B01021400140006080800CC70623B08DA0BD1900000004101000036000000000000000000000000002A0F00006662782F41393633353835312D344632
310
462D344230382D423046372D3739314545314133324237412F6469726563746F72792E786D6C504B01021400140006080800CC70623BEDD1DC58FD000000A00100003B000000000000000000000000000E1000006662782F41393633353835312D344632462D344230382D423046372D3739314545314133324237412F7265
310
736F75726365732F636F72652E786D6C504B0506000000000E000E0080040000641100000000
  0
XRECORD
  5
1F8
102
{ACAD_REACTORS
330
1F7
102
}
330
1F7
100
AcDbXrecord
280
     1
 70
     1
 90
429727718
  1
30362254-06B7-45E0-A893-8CFA70E3D6BC
310
504B03040A0000080000CC70623B3DEE336E79000000790000001B0000006175746F6465736B2D64657369676E2D7061636B6167652E786D6C3C3F786D6C2076657273696F6E3D22312E302220656E636F64696E673D227574662D3822203F3E3C666F726D6174733E3C666F726D61743E687474703A2F2F736368656D612E
310
6175746F6465736B2E636F6D2F64657369676E2D7061636B6167652F323030393C2F666F726D61743E3C2F666F726D6174733E504B0304140006080800CC70623BD486FD9CA0000000F4000000130000005B436F6E74656E745F54797065735D2E786D6C7D8EC10E82300C865F65E91D8A1E8C310C0EEA1BF002731658846E
310
D98AC1B77784ABF1D8FE5FBFBF75BBCE937A534CCEB38643598122B6FEE978D0B0485F9C41B54DDD7D022595594E1A469170414C76A4D9A4D207E29CF43ECE46F218070CC6BECC4078ACAA135ACF422C856C0E68EA1BF5669944DDD7BCDE7B1F8E415D77AECB980613C2E4AC91FC167A2B244592486606FC29C8FD7F045B9A
310
EF7053A7E60B504B0304140006080800CC70623B1EC5D7A3EB0000007C01000008000000636F72652E786D6C8D90416EC3201045AF82665B6103C6756C6122AB4D4ED00B204C5C94182C03558F5F9C3852BBEB6A467FFE9B197D71FC9E6FE8CBACC17AD7032D0820E3B41FAD9B7A48F1820F808E52ACDEC75F36404ECDA687
310
4D0629A6D5A76597B477D1B89855E747B38B2A041301E95B6E7A08FAD3CCAA50296647B8168BD2573599823EBB0CA76447F43862C7BCCF5EAC59410E4DDD9C7973C2755553CCCFA4C603E3040F1565ED3B1FDE4E432BCA0D9622DAF9795FAF464533826484B498524CD807E51D79ED187F21878E10516EF63F505AC67F42C9
310
BA58B1FDDD071640D2FCC87D2045B96591CB3DA85CB7DCE40F504B0304140006080800CC70623B55019EA25F0000007C00000007000000636E782E786D6C4DCB3B0E80201045D1AD90E915ED2CF8AC45050C11660C8261F98AB1B07AC9C97D42D718D865D3E909258CFD00CCE24AC6E326A164D74DC0B4128928FF32603847
310
2BA13128B1252AC747C6BAB984FC68F0B87FE8960A5C09FE86CFB69FBA01504B0304140006080800CC70623B8C9102E971010000D40300000C0000006662782F636F72652E786D6CC5535B6E833010BC8AE5DF0A6C08340F1947A84D4ED00B38C6A128602363A31CBFCB234A53A551FA553EC09AD9F5CE8C31DB9E9B1AF5CA
310
7695D1198E428A91D2D214952E33ECDD315861B4E5CC1AE3BE9561A445A3323CC098B3D21ADFCE9034DA29ED00D5A6503328BA4E398C640D8B0C77F253352214DE4145770A5B214FA2546114020D759C75CE8200340D19DE981F0F6746269C33EFAB6266AB02A655C74A59CCF365BADC27CB5D902ED22848F6340DF238A141
310
BE88E2F57B92BFEDF23523433367AE6A2EEAA455C2A902F398D2751045018D3FA264435F3771F242571B4A1919CA6F9A7C5B3CD9E42BED16F12C776AEB308F40C848FC700B1139D4891EF410CEC810227CC6846F8386402064270EF5C5C709A05E49676C024C61FC95EA45ED154CA5211D1FF4FB8291A913A68E9B83EBBB33
310
E2A7673CDE118E5AE8124C0807CB8377834E366998436B950D7A7746DAD846D4CFD978E0F04FD455FC5D49D2D4C6FE9722321F10997F0F32DC47FE05504B0304140006080800CC70623BFFEA85907E0000009D0000000B0000006662782F636E782E786D6C4DCCD10A83201886E15B91FFDC95D95A811AB6F23E625948A6C3
310
E9D8E5AF46073BFAE0E1E365ED67B3E8ADC3CB78C7815C7240DA3DFC64DCC221C519D7805AC182F7F1EF06C88D9BE6703008B6049F9E274D7A1E938DBB5AE3D6131B2589BA0D3D965551E0B2EA732C9B9A624AAEB41E3A557677029960D9AFB4EF11165F504B0304140006080800CC70623B4FEEA4082C0100001202000031
310
0000006662782F39464131463745442D413632322D343644302D413938332D3331353338454246344243312F636F72652E786D6C8D515B6EC32010BC0AE2AB55850DD871ED0813254D72825EC00192A2C460F1A872FC42ED48ED5F7E00CDCECCCEB26C731F6FE05B39AFADE921293004CA082BB5B9F43086336A21D870E6AC
310
0D7F68109861543DCC30E4ECE26C9C164858139409093556AA051CBC570102714B8F1E7AF1A5C6A11862480C7F2DA6415C878B2A4891CA89C7990F2E050073937C42DE1DB7E4F87ED8A36D4329AA9B3D46DBAEAD504556557BD81DEBDD0761E52CE42C462D17B996298E3E6BE59E35C962CE821E1FF18553435012728A7187
310
0841987E927A8D9B35ADDF70BBC6989599FE4F1427F9A4286A132ABAC49D651EF234CD5CE04CDA78BA3DC2A8FB645D00B9DF8B57E215725C60BCA2A463E54C4CE327C7A65E1C7DB02E7DEFCBF594B864C5CA6CDBD49C957943E9FA5D5FBAF336F90F504B0304140006080800CC70623BAD7543B64E01000033030000300000
310
006662782F39464131463745442D413632322D343644302D413938332D3331353338454246344243312F636E782E786D6CD593CD6EC32010845F0571AD6CE3D48AD20813A9873E410FBD12D82434182C7EAAE6EDBB2424CD25871E7B41D6EC30B3FA84F9E67BB2E40B4234DE8DB46F1925E094D7C6ED479AD3AE5951B2113C
310
789FEE6C943839C1488B4C05DF079FE72A69D8C96C13AAD6B8631503449F83828872B949AC57D26200B826A308D316B4064D6E46FCDA41C05550DC9E483A00797BFD207EFB092A45DE9514C1BBD22178396BD39D891265658C238DEA00936C654E5E433CB65A26D9F6EDB5EBC14EBF49A45CB856E66048291F6939A9A81BB5
310
C8917738143CA680F4AA299D66A042CEB3354A2684DC9D8D178FE0D9B8B41CAAD720F880EE7EF93C0C18769E099ECC04D5A102C8049A8A05632F4DDF376CF1DE0F6BB65C2F8627B65A33C6BB62177CEBBDAD973006829F89F22E814B54F4BC2BE347F8AA8F681390B50FA73F804400B5F542E796F19FF974E7F78DB802FE05
310
E207504B0304140006080800CC70623B16AB87BA640500003C100000340000006662782F39464131463745442D413632322D343644302D413938332D3331353338454246344243312F6F626A656374732E786D6CAD575B6FA33818FD2B887DE6924B3BED8A326A92B68A663B534DD4D13E548A0C38942D60649B369D5FBFC7
310
600890A493BDE42160637FD7F31D7FF63E6FB3D478A55C242CBF3247B66B1A340F5994E4F19559CA8D75611A9F7D8F33263BCB4C232719BD32D5B4E97B316765A1A722BA21652A07B3B7B33F0D11D29C9A46981221AE4C113ED38CD8A4942CA2E2C58E882476BCD9DA23BB5ED8171B73523C0F841684D35CC252CCE79062D4
310
468DFA43D7747CCF51DF7D4FFDEB5593E3AB9CCA9FBEFE241792E4E19EB28198C968BAB8199F5D5A67D3E9C49A9E8F47D6EC76B6B0469F26EEFC7C3EBFBCBEB98462213924694B38DD98FE1D62C393D073EA4FADC5DAF04326852CCF6958F90F0F2B9BB5C48816348F90C7840A68EB78EDF68723159BCEE7891A6B95DDE9D3
310
BCEAEEE8086A6C6F9E5D4B59F0175C10A7A0820BAA5055C7473B5AE3CFDD452D602CD5DF12616444529E90D448938013FE6EFA58AA96F85E4F8C42275708571E98FE6827AF6B2B4AE3D7D83D64E5A64C53054DD3AF90BD06FEA9149565C94FCA0F6B834DC85599E4F2423B24DF0B6AFA979E534DFA9E7A4CC6FA631D486393
310
921829879BF5D781A373557BCB85E97FB90DB62B558F8795179C15944B051F40AB495CF35451D26A4727654E6D8033BD98EF82F21D91FF8AF2DD9982BCF1643BDD4EB516C9492E368C67C88DED563FC36D5EACF66DFF057C3658BDBFA69DF9578B3DA735B64F18C7F20770A9D45CFCF7FCF563D6456A277DBEF78A02637CA2
310
43B90A490AEAB94F72244481D24819A6C0E59B606BFA4B3025981DBB48EAB701D97BF19C577CC77F2D1B6C55A9EF3C732474C0B727303F625995056C3B02963D9EAC146BE78EC5FCEC7FA999EBC5EACBAAE41B12D27B4D2C0BBA49F244E2ECDC81B76B502F113D8F5EE8FB1BE3111CDD4FC2AA9B844CAB1288B68AB90A7CDC
310
1C166AB0D3DC5310625FCC14E779BFD0709F8890A629C9292B1B2DED31A4B0DA928CEE135085754027E3018A397D4D5427D15BD1330B677DC8934285AC3DF45A9EB68FF8F2B8FC0A509AFEECFD0FF2DE25CC6047F7214B195F07EFEB9A094D800F7BFAE8FED187B78EA8A3A400F115961BCAD1215E47C966530AF0EE8128FE
310
58CEBB996A8964FFA529A046635D9353B0336A8F700DDF46271A024E70B0B37C9DE01847591E54DED53D54202AB947E4076556AC49C6CA5C9E1226B7F1A7B1BE15DEED62C41B91E1B3E9AFAAA735036547343A925075041DF0A9979E893B391F8FCFA6967B3EFB644DCF6E5CEBFAE272625DCC6FAF3FB93793C5F90CE1EF57
310
407342756B10D1C489E8953CD1617E5CEECAD6F4EF8914CE5D5D504E5C3F1F9736DA62CFC11E00BCDDB8CC8A9466349744C1F75EBDA4DF09BA8A9E8C7A7E9991989E20E5DBDD6A6003664ED8F7A04A8DBE0DF6EAD9B9AA858342E47399053949D2C146EDB85DE4B176BB0965FBAC19BD19AA918E27FA50C1D22402E144464C
310
59462568E704B6E71915404CB72B8FF4EDE184DDAF753F284990D2C6926782963815403548A70C657FDEF80D2D9CEAA2AE4C1C76F60BFE74219A06527D6582DF6412526107381E55E353090704D085B52408D0933C4ED159D79BDA71BB4BC506F4831350EB6F979CD22D69BF7AC49B91A2C0A9DDA3D5CA36AD20FC478E37E6
310
1844E2352865EBCB6EA275A652E3836BE04EFB400BF1A2556F515F1FBB35B2AB35BD889C744FFA1004B5544B121E57F70215746DD2F5E2C1412B602CBF19455AC6C8E5E9922C4E01E65215385004546899059180EAFCF7A707CE7017CD8CDB0410789AB32C63B91E5CEBBBACB17AC6CD347A022D5075FD106377347AAABA7E
310
7D11590744509B44E205134DC1290F06580320F78E537D3D73540E06CB970B431F185308AD40BBD794D6D77003C5A36E8EAA54BA64597CD8F83BD552A080A365F7FF06504B0304140006080000CC70623B000000000000000000000000350000006662782F39464131463745442D413632322D343644302D413938332D3331
310
353338454246344243312F76657274696365732E62696E504B0304140006080800CC70623BF270F1330600000004000000360000006662782F39464131463745442D413632322D343644302D413938332D3331353338454246344243312F747269616E676C65732E62696E636660600000504B0304140006080000CC70623B
310
000000000000000000000000370000006662782F39464131463745442D413632322D343644302D413938332D3331353338454246344243312F617474726962757465732E62696E504B0304140006080800CC70623B08DA0BD19000000041010000360000006662782F39464131463745442D413632322D343644302D413938
310
332D3331353338454246344243312F6469726563746F72792E786D6C858F410AC3201045AF22B36F53E9A60B35CBEEBAE80D244E44489C6234F4F835464A48035D0DF398FF9F8AF63D0E6CC63039F212F8F9020C7D47C6792B21C5FE7403D62A1188E2E60C98D7234A5830286103A55745067B9D86B8A3CF9C7F90C11DE607
310
FB144396D7B6A82D282E9A152AD114D5EF2CB866EEE831B8EEA07A7BB5A8D7D61A2BAAEB7FD5F70921FF497D00504B0304140006080800CC70623B0D6EF93BFE000000A00100003B0000006662782F39464131463745442D413632322D343644302D413938332D3331353338454246344243312F7265736F75726365732F63
310
6F72652E786D6C8D50596E833010BD0A9ADFCA60B334011947A8694ED00B586642AC041B79A97AFC9A40A5F6AF3F33A3B7689E1E3F7DCD8FEC139DD7D6F4C0720A191A65476DA61E62B892236427C19DB5E1970C322367EC618541F0C9D9B8EC90B226A009093576C41D94DE63804C3DD2D18357379C652E63480A7FCF17A9
310
EE72C29CE5894E3AC17D702940B63D59270887DE46A7D0F36263058F518FBB468FE9A7BE6A7420864373B8D4873369AA8691FA421B3294352543C5CAF65C0F6FEF43CB8BD52C78D0F34F46E550061C419494B6843142CB0F5677F4B52BEB177AEC28E5C52AFF638ACBF84F53D42654E51E77B379102C05791282176B5F693D
310
CB4C7BED567C03504B010214000A0000080000CC70623B3DEE336E79000000790000001B00000000000000000000000000000000006175746F6465736B2D64657369676E2D7061636B6167652E786D6C504B01021400140006080800CC70623BD486FD9CA0000000F40000001300000000000000000000000000B20000005B
310
436F6E74656E745F54797065735D2E786D6C504B01021400140006080800CC70623B1EC5D7A3EB0000007C010000080000000000000000000000000083010000636F72652E786D6C504B01021400140006080800CC70623B55019EA25F0000007C000000070000000000000000000000000094020000636E782E786D6C504B
310
01021400140006080800CC70623B8C9102E971010000D40300000C00000000000000000000000000180300006662782F636F72652E786D6C504B01021400140006080800CC70623BFFEA85907E0000009D0000000B00000000000000000000000000B30400006662782F636E782E786D6C504B01021400140006080800CC70
310
623B4FEEA4082C0100001202000031000000000000000000000000005A0500006662782F39464131463745442D413632322D343644302D413938332D3331353338454246344243312F636F72652E786D6C504B01021400140006080800CC70623BAD7543B64E010000330300003000000000000000000000000000D5060000
310
6662782F39464131463745442D413632322D343644302D413938332D3331353338454246344243312F636E782E786D6C504B01021400140006080800CC70623B16AB87BA640500003C1000003400000000000000000000000000710800006662782F39464131463745442D413632322D343644302D413938332D3331353338
310
454246344243312F6F626A656374732E786D6C504B01021400140006080000CC70623B0000000000000000000000003500000000000000000000000000270E00006662782F39464131463745442D413632322D343644302D413938332D3331353338454246344243312F76657274696365732E62696E504B01021400140006
310
080800CC70623BF270F133060000000400000036000000000000000000000000007A0E00006662782F39464131463745442D413632322D343644302D413938332D3331353338454246344243312F747269616E676C65732E62696E504B01021400140006080000CC70623B0000000000000000000000003700000000000000
310
000000000000D40E00006662782F39464131463745442D413632322D343644302D413938332D3331353338454246344243312F617474726962757465732E62696E504B01021400140006080800CC70623B08DA0BD190000000410100003600000000000000000000000000290F00006662782F39464131463745442D413632
310
322D343644302D413938332D3331353338454246344243312F6469726563746F72792E786D6C504B01021400140006080800CC70623B0D6EF93BFE000000A00100003B000000000000000000000000000D1000006662782F39464131463745442D413632322D343644302D413938332D3331353338454246344243312F7265
310
736F75726365732F636F72652E786D6C504B0506000000000E000E0080040000641100000000
  0
XRECORD
  5
175
102
{ACAD_REACTORS
330
173
102
}
330
173
100
AcDbXrecord
280
     1
270
     1
271
     1
  0
XRECORD
  5
174
102
{ACAD_REACTORS
330
173
102
}
330
173
100
AcDbXrecord
280
     1
270
     1
271
     1
  0
XRECORD
  5
1FB
102
{ACAD_REACTORS
330
173
102
}
330
173
100
AcDbXrecord
280
     1
 70
     0
 90
1673772943
  1
ECE7A1D2-D628-4531-984C-D00F80459256
310
504B03040A0000080000CC70623B3DEE336E79000000790000001B0000006175746F6465736B2D64657369676E2D7061636B6167652E786D6C3C3F786D6C2076657273696F6E3D22312E302220656E636F64696E673D227574662D3822203F3E3C666F726D6174733E3C666F726D61743E687474703A2F2F736368656D612E
310
6175746F6465736B2E636F6D2F64657369676E2D7061636B6167652F323030393C2F666F726D61743E3C2F666F726D6174733E504B0304140006080800CC70623BD486FD9CA0000000F4000000130000005B436F6E74656E745F54797065735D2E786D6C7D8EC10E82300C865F65E91D8A1E8C310C0EEA1BF002731658846E
310
D98AC1B77784ABF1D8FE5FBFBF75BBCE937A534CCEB38643598122B6FEE978D0B0485F9C41B54DDD7D022595594E1A469170414C76A4D9A4D207E29CF43ECE46F218070CC6BECC4078ACAA135ACF422C856C0E68EA1BF5669944DDD7BCDE7B1F8E415D77AECB980613C2E4AC91FC167A2B244592486606FC29C8FD7F045B9A
310
EF7053A7E60B504B0304140006080800CC70623BD9DDAED0EC0000007C01000008000000636F72652E786D6C8D90416EC3201045AF82665B61836D9CD8C2444DD39CA01740405C94182C03558F5F9C3852BBEB6A467FFE9B197D7EF89E6EE8CB2CC17A37002D0820E394D7D68D03A478C17B4007C117EFE32F1B20272733C0
310
2A83E0E3E2D3BC49CABB685CCCAAF3DA6CA20CC14440EA969B0182FA34932C648AD911AEC52CD5558EA6A0CF2EC329598D1E47ACCEFBECC59A050463A7EA5833865FEBDD0E37353BE3EE8DBDE3F6786A48D375FBF6CC78B9C282473B3DEFABC5C86834888A900E538A49F5419B9EB47DD5BC907D4F082F57FB1F28CDFA9F50
310
B22ED6D5F6EE030B20687EE43E10BC5CB3C8E51E54AE6B6EE207504B0304140006080800CC70623B55019EA25F0000007C00000007000000636E782E786D6C4DCB3B0E80201045D1AD90E915ED2CF8AC45050C11660C8261F98AB1B07AC9C97D42D718D865D3E909258CFD00CCE24AC6E326A164D74DC0B4128928FF326038
310
472BA13128B1252AC747C6BAB984FC68F0B87FE8960A5C09FE86CFB69FBA01504B0304140006080800CC70623BA24EB22D72010000D40300000C0000006662782F636F72652E786D6CC5535B6E833010BC8AE5DF0A6C5E49888CA3A6694ED00B38E05014B091B1518EDFE511A5A9D228FD2A1F60CDEC7A67C6986DCE4D8D7A
310
69BA4AAB0C073EC548AA5C17952A33ECECD15B61B4E1CC686DBF9561A44423333CC098B3D268D7CE50AE9595CA02AA74216750749DB418E5352C32DCE59FB211BE70162ABA93DF8AFC244AE9073ED050C759670D0840D390E18DF9F1706664C23973AE2A66B62A605A75ACA4C13C4976E1364A12EF355A2EBD384AF65EFA96
310
BC7B8BED2EA6719AAE16FB8491A199335B351775B991C2CA02F390D2D40B028F861F41BCA68B7518BFD0D59A524686F29B26D7164F36B94AD9289CE54E6D1DE6010819891F6E21228B3AD1831EC219194284CF98F06DD01008846CC5A1BEF83801D4CBDC6A1303536877A57A513B0953A94FC707FDBE6064EA84A9E3E6E0FA
310
EE8CF0E9198F7784A316AA0413C2C2F2E0ECA0934D1AE6D05A69BCDE9E91D2A611F573361E38FC1375157F5752AE6B6DFE4B11990F88CCBF0719EE23FF02504B0304140006080800CC70623B408A7D3B7C0000009D0000000B0000006662782F636E782E786D6C4DCCD10A83201886E15B91FFDC552A92A0064DBC8F581632
310
D3703A76F9ABD1C18E3E78F878E5F0D9027ABBFCF2292AE86E2D20171F69F6715550CB827B40839639A5F2770314A7CD293819B45C73AAFB45B35BA61ACAA1C1C7E7855C58C15BC331339661262CC762340413D68D77DA5B42298546CBE6573AF60CEB2F504B0304140006080800CC70623B449FB9BD290100001202000031
310
0000006662782F36394639363044362D344446342D343946362D394244322D3234314243333846323333332F636F72652E786D6C8D515B6EC32010BC0AE22B55850D98B871848994463E412FE002495162B07854397EA176A4F62F3F2C9A9D991D587EB84F37F0AD7D30CEF6905418026DA553C65E7A98E219ED203808EE9D
310
8B7F6810D871D23D2C3014FCE25D9A57483A1BB58D19B54EE9151C43D0110279CB971E06F9A5A7B11A53CC8C70ADE6515EC78BAE4895DB992778883E0700CB907242D17643D7E2538BD869608875438BBAE38922CAC8F1BDD90DB4691A5E2F42C153326A951B95E398B3D1FE599322163C9AE9115F7A3D46ADA0A018778810
310
84E907617BDCEE297BC5BB3DC6BC2EF47FA234AB2745C9D8D8D035EE220B50105E2F0DC1954B9FB747187D9F9D8FA0CCDB042D5FA0C015C65B42DF78BD10F3F3B363CB56C7109DCFDFBBB97E662ED92EB62D13BC2E1BCAE5777DB9966D8A1F504B0304140006080800CC70623BAD7543B64E01000033030000300000006662
310
782F36394639363044362D344446342D343946362D394244322D3234314243333846323333332F636E782E786D6CD593CD6EC32010845F0571AD6CE3D48AD20813A9873E410FBD12D82434182C7EAAE6EDBB2424CD25871E7B41D6EC30B3FA84F9E67BB2E40B4234DE8DB46F1925E094D7C6ED479AD3AE5951B2113C789FEE
310
6C943839C1488B4C05DF079FE72A69D8C96C13AAD6B8631503449F83828872B949AC57D26200B826A308D316B4064D6E46FCDA41C05550DC9E483A00797BFD207EFB092A45DE9514C1BBD22178396BD39D891265658C238DEA00936C654E5E433CB65A26D9F6EDB5EBC14EBF49A45CB856E66048291F6939A9A81BB5C89177
310
38143CA680F4AA299D66A042CEB3354A2684DC9D8D178FE0D9B8B41CAAD720F880EE7EF93C0C18769E099ECC04D5A102C8049A8A05632F4DDF376CF1DE0F6BB65C2F8627B65A33C6BB62177CEBBDAD973006829F89F22E814B54F4BC2BE347F8AA8F681390B50FA73F804400B5F542E796F19FF974E7F78DB802FE05E20750
310
4B0304140006080800CC70623B8D05915C650500003B100000340000006662782F36394639363044362D344446342D343946362D394244322D3234314243333846323333332F6F626A656374732E786D6CAD575B6FA33814FE2B887D06429276DA1565D4266D158D3A339A6846FB502932E050B66023DB74D2FDF5FB190C01
310
9276B2973C046C8ECFF53B17071F77456EBD502133CEAE6CDF9DD81665314F32965ED995DA3A17B6F5310C04E7AA47665B8C14F4CAD6DB7618A48257A5D94AE89654B91AEDDEDDFC61C998326A5B714EA4BCB265FC440BE2924AF184CA6737218AB8E976E7FA6E4338649B0A523E8D98964450A6A029F619B8588D52FE7039
310
B1BD30F0F4F730D0FF866AF6369557DB33949F31A9088B0F848DD8CCFCF9F2767A76E99CCDE733677E3EF59D9BBB9BA5E37F984D16E78BC5E5F5ED25044B25C0C96822E8D60EEFE11B91C581D77CEA34368A1F5329E68CD1B8B61F16D63A1B8E092D294B10C78C4A48EB593D192E7DED9BDEE7995E1B91FDEDD3ACEA9FE831
310
6A756F9F7D4D79F4274C90A7A04248AA51D5F8C718DAE06FB2F75AC4796EBE65D22A88A22223B995679120E2D50E41AA49C260C046A35368846B0BECD0DFF3EBEB8AD4F835768F69B9ADF25C43D30E6B646F807FAA64AD59F61715C7A54127C4AACA98BA3006A9D792DAE165E0D59B61A01FB3A9F9D838D2DAE62445C86166
310
F37564E842E7DE6A69879FEEA2DD5AE7E371E1A5E025154AC307D06A03D73EB5978C58FFA4C8E9033066E0F3BD53BEC1F39F91BE7B55103791EDE6BBB991A2046172CB4581D8B893FA674DDA17A77B3B7C413D1B511FD2743BFF8A38F03A658705E3ADF8015C3A3417FF3D7E439FF591DA0B5F18BC20C1B8981957AE6392A3
310
F43C640C01D1A0B4728E2DD4F26DB4B3C3152A252A3B4E913CEC1C72F012782FF88EFF8637AA552DBEF76408E8A8DE9E50F9E1CB3A2DA0DB1B6039A893B56063DC5B3E3FFB5F72E67AB9FEB4AEC496C4F4C1149625DD662C53E89D7BF0F6151A046260D1337DFDC94502430F83B0EE07A130A224BCAD7DAE1D9FB6CD422FF6
310
920702629C4BB9AE79C12F243C6432A6794E18E5552BA56B431AAB5D91317302B2B071E86C3A42B1A02F999E24061403B5D0EB639195DA655DD3EBEAB4FB862DDF579F014AD0E73C22F99E28DA57FB98E75C6CA2D74D53086D600F4786E0FE3144B771A8A7B900F03594DB8A633CBC49B2EDB69228BB479CF863B5E807AAAB
310
23872F6DFEB4129B949CA33823F58830E86D65621E10047D9DB34D862E8EAC3C2ABC2F7B2C40D67CDFE01F5545B92105AF983AC54D93D69E56FB8E797F88913F898A9FEC705D3F9D1B54EC8426FB500D40A03BD0119B06E1B95DDC7EB8F6975367793EBD70E66733DFB9BC982F9CE564727731999F5D4ECFCE3B8D6A4DC2A0
310
6D50FD148437D110834A64C6CDDF57FBACB5C307A2A477DFE4939736CFEF2B175371E0E10CF0DD1D5C15654E0BCA14D1E87DD02FF93782A162C0A3D95F1524A52770F972BF1EE9809D13CE7DD599467F8ECE9ADD85CE85A34CD45355448C64F9E8A031DC2D596ACC6E5DD93D9B82DE2EF5CAF81363A8E47996A0DE24564A79
310
4115AACE09C55E14540231FDA13C319787134EBF34E3A022514E5B4D9E0826E25C02D5805B15ABE1BEF51B26383D445DD9E875EE33FE4C22DA16427D65A3BCA92CA6D28DD01DF5DC53330704308475351050232CCD31583787BA75774AFB06E5070DD0C8EF484E19968C5D83BA5B90B244D31E54D55A372320FE4786B7EA58
310
44E135AA5467CB7EA333A61683CC6A8C3257034C10CF46F40EF9F5BE59BE5BD30C3C72D235E95D10345C1D45445A5F0BB47E46A5EBE5570F9380B5FA629579952296A773720405982B9DE04011506178964401AA8BDF1FBF0A8EAB6861DD6580C0E38217056766716DAEB2D6FA0917D3E4116581EADB879C4E7CFFB11EFACD
310
3D641311495D92C8676CB409A72D18610D803CE8A626049E8EC1887CB5B44CC39883690DDA8399B4B9855B481E7D71D4A9D22F96E5BB73BF5793020C02137BF837504B0304140006080000CC70623B000000000000000000000000350000006662782F36394639363044362D344446342D343946362D394244322D32343142
310
43333846323333332F76657274696365732E62696E504B0304140006080800CC70623BF270F1330600000004000000360000006662782F36394639363044362D344446342D343946362D394244322D3234314243333846323333332F747269616E676C65732E62696E636660600000504B0304140006080000CC70623B0000
310
00000000000000000000370000006662782F36394639363044362D344446342D343946362D394244322D3234314243333846323333332F617474726962757465732E62696E504B0304140006080800CC70623B08DA0BD19000000041010000360000006662782F36394639363044362D344446342D343946362D394244322D
310
3234314243333846323333332F6469726563746F72792E786D6C858F410AC3201045AF22B36F53E9A60B35CBEEBAE80D244E44489C6234F4F835464A48035D0DF398FF9F8AF63D0E6CC63039F212F8F9020C7D47C6792B21C5FE7403D62A1188E2E60C98D7234A5830286103A55745067B9D86B8A3CF9C7F90C11DE607FB14
310
4396D7B6A82D282E9A152AD114D5EF2CB866EEE831B8EEA07A7BB5A8D7D61A2BAAEB7FD5F70921FF497D00504B0304140006080800CC70623BCA768048FE000000A00100003B0000006662782F36394639363044362D344446342D343946362D394244322D3234314243333846323333332F7265736F75726365732F636F72
310
652E786D6C8D50596E833010BD0A9ADFCA60D600328E9AA639412F609909B1126CE4A5EAF16B0295DABFFECC8CDEA2797AECF8353F924FB44E193D409E5248504B332A3D0D10FC95B4901C39B3C6F85F3248B49871801506CE266BC2B243D2688FDA47549B11775038871E12F988C7004EDE7016A9083E2ADC3D5D84BC8B09
310
D33C8D74D471E6BC8D0192EDC93A815B742658898E651BCB59086ADC356A8C3FD555A1055ED7E7E254D615792D0F075295F585746FF53B694EE78A565DD736979A65AB9933AFE69F8CD2A2F038022F28ED489E135A7CE4554F9BBEA85E68DB53CAB255FEC71496F19FA6A0B42F8B3DEE6673C0F318E4497096AD7DC5F52C33
310
EEB55BFE0D504B010214000A0000080000CC70623B3DEE336E79000000790000001B00000000000000000000000000000000006175746F6465736B2D64657369676E2D7061636B6167652E786D6C504B01021400140006080800CC70623BD486FD9CA0000000F40000001300000000000000000000000000B20000005B436F
310
6E74656E745F54797065735D2E786D6C504B01021400140006080800CC70623BD9DDAED0EC0000007C010000080000000000000000000000000083010000636F72652E786D6C504B01021400140006080800CC70623B55019EA25F0000007C000000070000000000000000000000000095020000636E782E786D6C504B0102
310
1400140006080800CC70623BA24EB22D72010000D40300000C00000000000000000000000000190300006662782F636F72652E786D6C504B01021400140006080800CC70623B408A7D3B7C0000009D0000000B00000000000000000000000000B50400006662782F636E782E786D6C504B01021400140006080800CC70623B
310
449FB9BD290100001202000031000000000000000000000000005A0500006662782F36394639363044362D344446342D343946362D394244322D3234314243333846323333332F636F72652E786D6C504B01021400140006080800CC70623BAD7543B64E010000330300003000000000000000000000000000D20600006662
310
782F36394639363044362D344446342D343946362D394244322D3234314243333846323333332F636E782E786D6C504B01021400140006080800CC70623B8D05915C650500003B10000034000000000000000000000000006E0800006662782F36394639363044362D344446342D343946362D394244322D32343142433338
310
46323333332F6F626A656374732E786D6C504B01021400140006080000CC70623B0000000000000000000000003500000000000000000000000000250E00006662782F36394639363044362D344446342D343946362D394244322D3234314243333846323333332F76657274696365732E62696E504B010214001400060808
310
00CC70623BF270F13306000000040000003600000000000000000000000000780E00006662782F36394639363044362D344446342D343946362D394244322D3234314243333846323333332F747269616E676C65732E62696E504B01021400140006080000CC70623B00000000000000000000000037000000000000000000
310
00000000D20E00006662782F36394639363044362D344446342D343946362D394244322D3234314243333846323333332F617474726962757465732E62696E504B01021400140006080800CC70623B08DA0BD190000000410100003600000000000000000000000000270F00006662782F36394639363044362D344446342D
310
343946362D394244322D3234314243333846323333332F6469726563746F72792E786D6C504B01021400140006080800CC70623BCA768048FE000000A00100003B000000000000000000000000000B1000006662782F36394639363044362D344446342D343946362D394244322D3234314243333846323333332F7265736F
310
75726365732F636F72652E786D6C504B0506000000000E000E0080040000621100000000
  0
XRECORD
  5
176
102
{ACAD_REACTORS
330
173
102
}
330
173
100
AcDbXrecord
280
     1
270
     1
271
     1
  0
XRECORD
  5
177
102
{ACAD_REACTORS
330
173
102
}
330
173
100
AcDbXrecord
280
     1
270
     1
271
     1
  0
XRECORD
  5
101A289
102
{ACAD_REACTORS
330
101A288
102
}
330
101A288
100
AcDbXrecord
280
     1
102
DISPLAYNAME
  1
Imperial24
102
FLAGS
 90
        0
  0
XRECORD
  5
101A285
102
{ACAD_REACTORS
330
101A284
102
}
330
101A284
100
AcDbXrecord
280
     1
102
DISPLAYNAME
  1
Metric50
102
FLAGS
 90
        0
  0
CELLSTYLEMAP
  5
101A283
102
{ACAD_REACTORS
330
162
102
}
330
162
100
AcDbCellStyleMap
 90
        3
300
CELLSTYLE
  1
TABLEFORMAT_BEGIN
 90
        5
170
     1
 91
        0
 92
    32768
 62
   257
 93
        1
300
CONTENTFORMAT
  1
CONTENTFORMAT_BEGIN
 90
        0
 91
        0
 92
      512
 93
        0
300

 40
0.0
140
1.0
 94
        5
 62
     0
340
11
144
6.0
309
CONTENTFORMAT_END
171
     1
301
MARGIN
  1
CELLMARGIN_BEGIN
 40
1.5
 40
1.5
 40
1.5
 40
1.5
 40
4.5
 40
4.5
309
CELLMARGIN_END
 94
        6
 95
        1
302
GRIDFORMAT
  1
GRIDFORMAT_BEGIN
 90
        0
 91
        1
 62
     0
 92
       -2
340
14
 93
        0
 40
1.125
309
GRIDFORMAT_END
 95
        2
302
GRIDFORMAT
  1
GRIDFORMAT_BEGIN
 90
        0
 91
        1
 62
     0
 92
       -2
340
14
 93
        0
 40
1.125
309
GRIDFORMAT_END
 95
        4
302
GRIDFORMAT
  1
GRIDFORMAT_BEGIN
 90
        0
 91
        1
 62
     0
 92
       -2
340
14
 93
        0
 40
1.125
309
GRIDFORMAT_END
 95
        8
302
GRIDFORMAT
  1
GRIDFORMAT_BEGIN
 90
        0
 91
        1
 62
     0
 92
       -2
340
14
 93
        0
 40
1.125
309
GRIDFORMAT_END
 95
       16
302
GRIDFORMAT
  1
GRIDFORMAT_BEGIN
 90
        0
 91
        1
 62
     0
 92
       -2
340
14
 93
        0
 40
1.125
309
GRIDFORMAT_END
 95
       32
302
GRIDFORMAT
  1
GRIDFORMAT_BEGIN
 90
        0
 91
        1
 62
     0
 92
       -2
340
14
 93
        0
 40
1.125
309
GRIDFORMAT_END
309
TABLEFORMAT_END
  1
CELLSTYLE_BEGIN
 90
        1
 91
        1
300
_TITLE
309
CELLSTYLE_END
300
CELLSTYLE
  1
TABLEFORMAT_BEGIN
 90
        5
170
     1
 91
        0
 92
        0
 62
   257
 93
        1
300
CONTENTFORMAT
  1
CONTENTFORMAT_BEGIN
 90
        0
 91
        0
 92
      512
 93
        0
300

 40
0.0
140
1.0
 94
        5
 62
     0
340
11
144
4.5
309
CONTENTFORMAT_END
171
     1
301
MARGIN
  1
CELLMARGIN_BEGIN
 40
1.5
 40
1.5
 40
1.5
 40
1.5
 40
4.5
 40
4.5
309
CELLMARGIN_END
 94
        6
 95
        1
302
GRIDFORMAT
  1
GRIDFORMAT_BEGIN
 90
        0
 91
        1
 62
     0
 92
       -2
340
14
 93
        0
 40
1.125
309
GRIDFORMAT_END
 95
        2
302
GRIDFORMAT
  1
GRIDFORMAT_BEGIN
 90
        0
 91
        1
 62
     0
 92
       -2
340
14
 93
        0
 40
1.125
309
GRIDFORMAT_END
 95
        4
302
GRIDFORMAT
  1
GRIDFORMAT_BEGIN
 90
        0
 91
        1
 62
     0
 92
       -2
340
14
 93
        0
 40
1.125
309
GRIDFORMAT_END
 95
        8
302
GRIDFORMAT
  1
GRIDFORMAT_BEGIN
 90
        0
 91
        1
 62
     0
 92
       -2
340
14
 93
        0
 40
1.125
309
GRIDFORMAT_END
 95
       16
302
GRIDFORMAT
  1
GRIDFORMAT_BEGIN
 90
        0
 91
        1
 62
     0
 92
       -2
340
14
 93
        0
 40
1.125
309
GRIDFORMAT_END
 95
       32
302
GRIDFORMAT
  1
GRIDFORMAT_BEGIN
 90
        0
 91
        1
 62
     0
 92
       -2
340
14
 93
        0
 40
1.125
309
GRIDFORMAT_END
309
TABLEFORMAT_END
  1
CELLSTYLE_BEGIN
 90
        2
 91
        1
300
_HEADER
309
CELLSTYLE_END
300
CELLSTYLE
  1
TABLEFORMAT_BEGIN
 90
        5
170
     1
 91
        0
 92
        0
 62
   257
 93
        1
300
CONTENTFORMAT
  1
CONTENTFORMAT_BEGIN
 90
        0
 91
        0
 92
      512
 93
        0
300

 40
0.0
140
1.0
 94
        2
 62
     0
340
11
144
4.5
309
CONTENTFORMAT_END
171
     1
301
MARGIN
  1
CELLMARGIN_BEGIN
 40
1.5
 40
1.5
 40
1.5
 40
1.5
 40
4.5
 40
4.5
309
CELLMARGIN_END
 94
        6
 95
        1
302
GRIDFORMAT
  1
GRIDFORMAT_BEGIN
 90
        0
 91
        1
 62
     0
 92
       -2
340
14
 93
        0
 40
1.125
309
GRIDFORMAT_END
 95
        2
302
GRIDFORMAT
  1
GRIDFORMAT_BEGIN
 90
        0
 91
        1
 62
     0
 92
       -2
340
14
 93
        0
 40
1.125
309
GRIDFORMAT_END
 95
        4
302
GRIDFORMAT
  1
GRIDFORMAT_BEGIN
 90
        0
 91
        1
 62
     0
 92
       -2
340
14
 93
        0
 40
1.125
309
GRIDFORMAT_END
 95
        8
302
GRIDFORMAT
  1
GRIDFORMAT_BEGIN
 90
        0
 91
        1
 62
     0
 92
       -2
340
14
 93
        0
 40
1.125
309
GRIDFORMAT_END
 95
       16
302
GRIDFORMAT
  1
GRIDFORMAT_BEGIN
 90
        0
 91
        1
 62
     0
 92
       -2
340
14
 93
        0
 40
1.125
309
GRIDFORMAT_END
 95
       32
302
GRIDFORMAT
  1
GRIDFORMAT_BEGIN
 90
        0
 91
        1
 62
     0
 92
       -2
340
14
 93
        0
 40
1.125
309
GRIDFORMAT_END
309
TABLEFORMAT_END
  1
CELLSTYLE_BEGIN
 90
        3
 91
        2
300
_DATA
309
CELLSTYLE_END
  0
XRECORD
  5
101A272
102
{ACAD_REACTORS
330
101A271
102
}
330
101A271
100
AcDbXrecord
280
     1
330
10D
  0
ENDSEC
  0
SECTION
  2
ACDSDATA
 70
     2
 71
     8
  0
ACDSSCHEMA
 90
        0
  1
AcDb_Thumbnail_Schema
  2
AcDbDs::ID
280
    10
 91
        8
  2
Thumbnail_Data
280
    15
 91
        0
101
ACDSRECORD
 95
        0
 90
        1
  2
AcDbDs::TreatedAsObjectData
280
     1
291
     1
101
ACDSRECORD
 95
        0
 90
        2
  2
AcDbDs::Legacy
280
     1
291
     1
101
ACDSRECORD
  1
AcDbDs::ID
 90
        3
  2
AcDs:Indexable
280
     1
291
     1
101
ACDSRECORD
  1
AcDbDs::ID
 90
        4
  2
AcDbDs::HandleAttribute
280
     7
282
     1
  0
ACDSSCHEMA
 90
        1
  1
AcDbDs::TreatedAsObjectDataSchema
  2
AcDbDs::TreatedAsObjectData
280
     1
 91
        0
  0
ACDSSCHEMA
 90
        2
  1
AcDbDs::LegacySchema
  2
AcDbDs::Legacy
280
     1
 91
        0
  0
ACDSSCHEMA
 90
        3
  1
AcDbDs::IndexedPropertySchema
  2
AcDs:Indexable
280
     1
 91
        0
  0
ACDSSCHEMA
 90
        4
  1
AcDbDs::HandleAttributeSchema
  2
AcDbDs::HandleAttribute
280
     7
 91
        1
284
     1
  0
ACDSRECORD
 90
        0
  2
AcDbDs::ID
280
    10
320
22
  2
Thumbnail_Data
280
    15
 94
     1424
310
89504E470D0A1A0A0000000D4948445200000100000000C808030000003060CF3900000300504C54452128300000000000000000000000000000000000000000000000000000000000000000330000660000990000CC0000FF0033000033330033660033990033CC0033FF0066000066330066660066990066CC0066FF0099
310
000099330099660099990099CC0099FF00CC0000CC3300CC6600CC9900CCCC00CCFF00FF0000FF3300FF6600FF9900FFCC00FFFF3300003300333300663300993300CC3300FF3333003333333333663333993333CC3333FF3366003366333366663366993366CC3366FF3399003399333399663399993399CC3399FF33CC00
310
33CC3333CC6633CC9933CCCC33CCFF33FF0033FF3333FF6633FF9933FFCC33FFFF6600006600336600666600996600CC6600FF6633006633336633666633996633CC6633FF6666006666336666666666996666CC6666FF6699006699336699666699996699CC6699FF66CC0066CC3366CC6666CC9966CCCC66CCFF66FF0066
310
FF3366FF6666FF9966FFCC66FFFF9900009900339900669900999900CC9900FF9933009933339933669933999933CC9933FF9966009966339966669966999966CC9966FF9999009999339999669999999999CC9999FF99CC0099CC3399CC6699CC9999CCCC99CCFF99FF0099FF3399FF6699FF9999FFCC99FFFFCC0000CC00
310
33CC0066CC0099CC00CCCC00FFCC3300CC3333CC3366CC3399CC33CCCC33FFCC6600CC6633CC6666CC6699CC66CCCC66FFCC9900CC9933CC9966CC9999CC99CCCC99FFCCCC00CCCC33CCCC66CCCC99CCCCCCCCCCFFCCFF00CCFF33CCFF66CCFF99CCFFCCCCFFFFFF0000FF0033FF0066FF0099FF00CCFF00FFFF3300FF3333
310
FF3366FF3399FF33CCFF33FFFF6600FF6633FF6666FF6699FF66CCFF66FFFF9900FF9933FF9966FF9999FF99CCFF99FFFFCC00FFCC33FFCC66FFCC99FFCCCCFFCCFFFFFF00FFFF33FFFF66FFFF99FFFFCCFFFFFF0000000D0D0D1A1A1A2828283535354343435050505D5D5D6B6B6B787878868686939393A1A1A1AEAEAEBB
310
BBBBC9C9C9D6D6D6E4E4E4F1F1F1FFFFFF000000000000000000000000000000000000000000000000000000000000544354A8000002344944415478DAEDDD4172C2400C4451DFFFBE7F9F6D8A32C4636B4249FD7B0B0BE9554348620FC7618C31C61863FE2F9C267DFF2001C20510E06CD51C00DE0390D3FF850766BEFE8F
310
5081CF3B0608FCB5E07400AE0010BCFFF40A082080001C020820800002082080000208208000E7CF1140000104104000010410400001E6ED4FC99306EF3F59E0EA5E020C05B8BE9700020820403A0002E47E0C104000014602B0064070016656805500820B30B202E900AC03105C8081154807E00E00C105985601EE01105C
310
8061154807E02E00C1051855817400EE03105C803915E00900C10518538174009E01105C8021154807E02900C1059850019E03105C80FE15A00280E00274AF0035000417A077056A66EF2B503479DF1741D5DC5D01EAE66E2A5037754F80CAA95B0A54CEDC11A076E67E02D513B713A89EB71B40FDBCCD04364CDB0A803D00
310
2417A09500E1009B268D07E82320C0A639BB00EC9B53801E02FBA6EC01B0734A013A080820008700020890FB7350000104F04D500001FC5D40000104C8FC18B013A0CF1F45114080D8B7809D73FACF5101A201BC444680565789C55F26977DA1A497CAE2D5E2B503D31220FA8689DA9149BF67A6EB4D53DE3748EE0BA07070
310
7ADF3D4DF0FE1EA05030FE8033441E2D30E2189D072B30E52C2DBE529FEE258049676AAE6FC2B0838517978179A7AB2F2C044CFC8281AB3B0D5CFF370175525D05DE6F0783F77F31E0C34383BF7CFC65D1D31CD313BEFE2783232EB99B1B638C31C618638C31C618638C31C67C233F3DDFA65F86C4CC470000000049454E44
310
AE42608230005F42578C889C5B44890000000049454E44AE426082
  0
ACDSRECORD
 90
        0
  2
AcDbDs::ID
280
    10
320
D7
  2
Thumbnail_Data
280
    15
 94
     2103
310
89504E470D0A1A0A0000000D4948445200000100000000B5080300000087DCD12600000300504C5445FFFFFF000000C8C8C80000000000000000000000000000000000000000000000000000330000660000990000CC0000FF0033000033330033660033990033CC0033FF0066000066330066660066990066CC0066FF0099
310
000099330099660099990099CC0099FF00CC0000CC3300CC6600CC9900CCCC00CCFF00FF0000FF3300FF6600FF9900FFCC00FFFF3300003300333300663300993300CC3300FF3333003333333333663333993333CC3333FF3366003366333366663366993366CC3366FF3399003399333399663399993399CC3399FF33CC00
310
33CC3333CC6633CC9933CCCC33CCFF33FF0033FF3333FF6633FF9933FFCC33FFFF6600006600336600666600996600CC6600FF6633006633336633666633996633CC6633FF6666006666336666666666996666CC6666FF6699006699336699666699996699CC6699FF66CC0066CC3366CC6666CC9966CCCC66CCFF66FF0066
310
FF3366FF6666FF9966FFCC66FFFF9900009900339900669900999900CC9900FF9933009933339933669933999933CC9933FF9966009966339966669966999966CC9966FF9999009999339999669999999999CC9999FF99CC0099CC3399CC6699CC9999CCCC99CCFF99FF0099FF3399FF6699FF9999FFCC99FFFFCC0000CC00
310
33CC0066CC0099CC00CCCC00FFCC3300CC3333CC3366CC3399CC33CCCC33FFCC6600CC6633CC6666CC6699CC66CCCC66FFCC9900CC9933CC9966CC9999CC99CCCC99FFCCCC00CCCC33CCCC66CCCC99CCCCCCCCCCFFCCFF00CCFF33CCFF66CCFF99CCFFCCCCFFFFFF0000FF0033FF0066FF0099FF00CCFF00FFFF3300FF3333
310
FF3366FF3399FF33CCFF33FFFF6600FF6633FF6666FF6699FF66CCFF66FFFF9900FF9933FF9966FF9999FF99CCFF99FFFFCC00FFCC33FFCC66FFCC99FFCCCCFFCCFFFFFF00FFFF33FFFF66FFFF99FFFFCCFFFFFF0000000D0D0D1A1A1A2828283535354343435050505D5D5D6B6B6B787878868686939393A1A1A1AEAEAEBB
310
BBBBC9C9C9D6D6D6E4E4E4F1F1F1FFFFFF000000000000000000000000000000000000000000000000000000000000B0E2D235000004F24944415478DAED9DEB72A3300C85F5FE8F797EF721DAD94D82C1176C5DC0C187D9CDB41484F9906449368EFC2CBEC9F20096DE0880000880008E1BFEFEFD6DCFFCEC04F0D88D0056
310
07D0E7031EBCC9E21AB0BC13240002581D8010004D8000088000E8040980264000044000748204401320000220003A4102A00910000110009D2001EC8FCA0792919C0CCF16D4A4417F81F79C188309A0D99EE9011C9F9802C0DF91FFFF6F67FEFBED33D5E835DFE0BD6BA07D1FD17809FA08C5E1679B06D800C8AB39B203F0
310
86FB9E75A506209203D8A9EFED1A20DB0D036F006FA12FC0DB7E1500D900245E26B94004007135019138135003D864580098BCDA5A81D0F200180A13C05AB94073D6A5C263BBC9BA08003C01E006004613489B6A6F359228035F01E07CEAB156013C09B444DA00EC855A5BBD3FDB8D401BAA094026D14420177609003102F0
310
3302F8DA53A75D9901B49FE2FD1A9019A9B309C8E4008EB75C78648F072041008A2665B1DD300D687A81E703388905F44EF0CB34A026F5F900CE34803EE0F9DD60DB041E0FA08A624600FEB17026CBCF097A03789D8ACF059D4A4C671A304B32F43E33F974AEB1F99B40A517700320AE00029C60B9BE301B80382758BE57F5
310
207608001434000B01E85833C1140A8BF811880270B62F04000CC67A3900632E00AFAEF01B010C5C550B0004E00E40BE0880D8019CEEB438414F00F846009E4E3004404FA4328B096C91DA1E00DC15E0B07B6E003237004713400480AE5875120D0802D0F187497A81246B3D00C01200100100E8B18D394CA00A4042008813
310
00547DA3A1AD1900CC0CC0AF13A801104395B5B35266A9081D2BD962BEFFEB018803007C44FA03107D95F53200C59FB4014B0100DCEF7F376AAC06B09D8DD4048C015BE646BE00807130A750A5845F6E715A7FB81D4056A85F0F80B40178083D31DF3B01200240D71969E39500E00240CE000C4BED3B3EE9C33D01989F5501
310
C02881CEA393F8E54E00E20E001702C88201988DB50460486E3F2DF3374CECDC0854BA5A99C06F213076A8C5096217FF3B01A8744E3303D81507CCDE0AE52B8EE8F50800384E91A9F8148D025854E04200A5E926636FCE375EE151ABC0E823B0BE3495A56E2600F56559A604509C85667257F57A7518007102B06557FD2D00
310
1AFD7FF6FB5C00EAC550ADBFCE16C9C0D930AED9071A4CA05803DEE202652500FD7F9D00C04882D59D087D166281BA1FBC110030160ED647562C37769D09A47781F4BBEB10A4AD533BC1BD139090B6CED50D660454DD4040923B28D43A3456EF0CEE0370492E501F101D0A842292DCC174D81C07F440B5034004009800D4DB
310
19D5D6809298BA20D29C8218A10211EE02E525EA064C60F7D4377D0A5057C401707282E9ED04A86B445D1CD6B2783D1B84F7C3722836D7EDD50940A4BA4231DC804E996A00F5D7B0DCD55537E68EBE034CB940777065BB3D8759178D64CEB31BFC2CAEEAFDB044C455071AAFD2DAEA0180D2624DE63C7A62734185E17A401E
310
19B8BA2CDBFBE81D7359DD92214D55B4A30A649C2E5E5CEECDFF8509BBC99AF3AAA6DC741263694E96320E90C2A43EBDCE16B26AE735342AD9AB0940FEC8AD361BB2A4644BA0C7B2BABB5121EB5B3E57AFAAEA04E0F2C560A70220DF7BFB5C599ADF3243005C5D9E0008804E900068020440000440274800340102200002A0
310
1324009A0001100001D00912004DE070D483B7C5354008607500D2EB039EFBD9014056D70002200002580BC0CFE2DBF2007E01244A6875B0FF4A1A0000000049454E44AE426082
  0
ENDSEC
  0
EOF
