  0
SECTION
  2
HEADER
  9
$ACADVER
  1
AC1009
  0
ENDSEC
  0
SECTION
  2
BLOCKS
  0
ENDSEC
  0
SECTION
  2
ENTITIES
  0
LINE
  8
CutLine
  6
CONTINUOUS
 62
8
 10
184.456253
 20
716.167344
 11
182.048065
 21
709.518989
  0
LINE
  8
CutLine
  6
CONTINUOUS
 62
8
 10
182.048065
 20
709.518989
 11
182.537836
 21
708.472890
  0
LINE
  8
CutLine
  6
CONTINUOUS
 62
8
 10
182.537836
 20
708.472890
 11
189.186191
 21
706.064702
  0
LINE
  8
CutLine
  6
CONTINUOUS
 62
8
 10
191.795787
 20
736.428731
 11
184.834003
 21
735.190356
  0
LINE
  8
CutLine
  6
CONTINUOUS
 62
8
 10
184.834003
 20
735.190356
 11
184.173081
 21
734.243427
  0
LINE
  8
CutLine
  6
CONTINUOUS
 62
8
 10
184.173081
 20
734.243427
 11
185.411456
 21
727.281643
  0
LINE
  8
CutLine
  6
CONTINUOUS
 62
8
 10
221.217432
 20
734.867624
 11
219.526477
 21
741.733530
  0
LINE
  8
CutLine
  6
CONTINUOUS
 62
8
 10
219.526477
 20
741.733530
 11
218.537655
 21
742.331542
  0
LINE
  8
CutLine
  6
CONTINUOUS
 62
8
 10
218.537655
 20
742.331542
 11
211.671749
 21
740.640588
  0
LINE
  8
CutLine
  6
CONTINUOUS
 62
8
 10
230.200229
 20
721.344450
 11
226.597296
 21
725.096385
  0
LINE
  8
CutLine
  6
CONTINUOUS
 62
8
 10
198.333665
 20
699.680339
 11
201.652814
 21
695.737028
  0
LINE
  8
CutLine
  6
CONTINUOUS
 62
8
 10
398.904703
 20
449.923245
 11
405.032164
 21
446.394189
  0
LINE
  8
CutLine
  6
CONTINUOUS
 62
8
 10
405.032164
 20
446.394189
 11
441.594220
 21
456.232418
  0
LINE
  8
CutLine
  6
CONTINUOUS
 62
8
 10
441.594220
 20
456.232418
 11
445.123275
 21
462.359878
  0
LINE
  8
CutLine
  6
CONTINUOUS
 62
8
 10
478.930481
 20
496.239180
 11
485.163190
 21
499.578842
  0
LINE
  8
CutLine
  6
CONTINUOUS
 62
8
 10
485.163190
 20
499.578842
 11
494.419018
 21
530.204070
  0
LINE
  8
CutLine
  6
CONTINUOUS
 62
8
 10
494.419018
 20
530.204070
 11
491.079356
 21
536.436778
  0
LINE
  8
CutLine
  6
CONTINUOUS
 62
8
 10
481.692475
 20
583.369713
 11
482.147157
 21
590.426147
  0
LINE
  8
CutLine
  6
CONTINUOUS
 62
8
 10
482.147157
 20
590.426147
 11
457.150126
 21
618.866416
  0
LINE
  8
CutLine
  6
CONTINUOUS
 62
8
 10
457.150126
 20
618.866416
 11
450.093692
 21
619.321098
  0
LINE
  8
CutLine
  6
CONTINUOUS
 62
8
 10
318.780624
 20
496.070290
 11
318.788072
 21
488.999226
  0
LINE
  8
CutLine
  6
CONTINUOUS
 62
8
 10
318.788072
 20
488.999226
 11
345.589155
 21
462.254546
  0
LINE
  8
CutLine
  6
CONTINUOUS
 62
8
 10
345.589155
 20
462.254546
 11
352.660219
 21
462.261994
  0
LINE
  8
CutLine
  6
CONTINUOUS
 62
8
 10
313.345106
 20
577.680238
 11
307.469877
 21
573.745561
  0
LINE
  8
CutLine
  6
CONTINUOUS
 62
8
 10
307.469877
 20
573.745561
 11
302.409400
 21
548.163767
  0
LINE
  8
CutLine
  6
CONTINUOUS
 62
8
 10
302.409400
 20
548.163767
 11
306.344077
 21
542.288538
  0
LINE
  8
CutLine
  6
CONTINUOUS
 62
8
 10
404.757097
 20
634.656100
 11
398.873586
 21
638.578383
  0
LINE
  8
CutLine
  6
CONTINUOUS
 62
8
 10
398.873586
 20
638.578383
 11
361.746454
 21
631.152696
  0
LINE
  8
CutLine
  6
CONTINUOUS
 62
8
 10
361.746454
 20
631.152696
 11
357.824171
 21
625.269185
  0
LINE
  8
CutLine
  6
CONTINUOUS
 62
8
 10
379.817438
 20
667.779301
 11
385.882519
 21
671.414515
  0
LINE
  8
CutLine
  6
CONTINUOUS
 62
8
 10
385.882519
 20
671.414515
 11
395.081970
 21
708.139731
  0
LINE
  8
CutLine
  6
CONTINUOUS
 62
8
 10
395.081970
 20
708.139731
 11
391.446756
 21
714.204812
  0
LINE
  8
CutLine
  6
CONTINUOUS
 62
8
 10
234.207519
 20
734.671345
 11
228.142434
 21
731.036137
  0
LINE
  8
CutLine
  6
CONTINUOUS
 62
8
 10
228.142434
 20
731.036137
 11
227.861935
 21
729.916361
  0
LINE
  8
CutLine
  6
CONTINUOUS
 62
8
 10
227.861935
 20
729.916361
 11
231.497144
 21
723.851275
  0
LINE
  8
CutLine
  6
CONTINUOUS
 62
8
 10
392.089988
 20
762.064727
 11
350.795421
 21
762.839818
  0
LINE
  8
CutLine
  6
CONTINUOUS
 62
8
 10
350.795421
 20
762.839818
 11
238.819070
 21
751.311690
  0
LINE
  8
CutLine
  6
CONTINUOUS
 62
8
 10
238.819070
 20
751.311690
 11
234.357410
 21
745.825928
  0
LINE
  8
CutLine
  6
CONTINUOUS
 62
8
 10
176.875132
 20
694.332738
 11
173.765091
 21
700.683143
  0
LINE
  8
CutLine
  6
CONTINUOUS
 62
8
 10
173.765091
 20
700.683143
 11
172.672154
 21
701.057492
  0
LINE
  8
CutLine
  6
CONTINUOUS
 62
8
 10
172.672154
 20
701.057492
 11
166.321748
 21
697.947452
  0
LINE
  8
CutLine
  6
CONTINUOUS
 62
8
 10
1.833013
 20
650.281686
 11
0.304579
 21
643.377782
  0
LINE
  8
CutLine
  6
CONTINUOUS
 62
8
 10
0.304579
 20
643.377782
 11
20.657426
 21
611.450888
  0
LINE
  8
CutLine
  6
CONTINUOUS
 62
8
 10
20.657426
 20
611.450888
 11
27.561330
 21
609.922455
  0
LINE
  8
CutLine
  6
CONTINUOUS
 62
8
 10
156.882800
 20
703.891789
 11
157.720350
 21
710.913079
  0
LINE
  8
CutLine
  6
CONTINUOUS
 62
8
 10
157.720350
 20
710.913079
 11
151.340385
 21
719.021297
  0
LINE
  8
CutLine
  6
CONTINUOUS
 62
8
 10
151.340385
 20
719.021297
 11
144.319095
 21
719.858846
  0
LINE
  8
CutLine
  6
CONTINUOUS
 62
8
 10
57.423019
 20
580.397522
 11
58.989497
 21
573.502151
  0
LINE
  8
CutLine
  6
CONTINUOUS
 62
8
 10
58.989497
 20
573.502151
 11
91.027424
 21
553.326097
  0
LINE
  8
CutLine
  6
CONTINUOUS
 62
8
 10
91.027424
 20
553.326097
 11
97.922795
 21
554.892575
  0
LINE
  8
CutLine
  6
CONTINUOUS
 62
8
 10
238.268921
 20
541.097741
 11
244.727324
 21
538.218674
  0
LINE
  8
CutLine
  6
CONTINUOUS
 62
8
 10
244.727324
 20
538.218674
 11
280.081080
 21
551.770841
  0
LINE
  8
CutLine
  6
CONTINUOUS
 62
8
 10
280.081080
 20
551.770841
 11
282.960148
 21
558.229244
  0
LINE
  8
CutLine
  6
CONTINUOUS
 62
8
 10
143.202928
 20
539.383356
 11
147.689843
 21
533.918231
  0
LINE
  8
CutLine
  6
CONTINUOUS
 62
8
 10
147.689843
 20
533.918231
 11
185.370528
 21
530.214504
  0
LINE
  8
CutLine
  6
CONTINUOUS
 62
8
 10
185.370528
 20
530.214504
 11
190.835653
 21
534.701419
  0
LINE
  8
CutLine
  6
CONTINUOUS
 62
8
 10
199.031764
 20
694.732297
 11
193.408439
 21
699.019279
  0
LINE
  8
CutLine
  6
CONTINUOUS
 62
8
 10
193.408439
 20
699.019279
 11
192.263694
 21
698.864917
  0
LINE
  8
CutLine
  6
CONTINUOUS
 62
8
 10
192.263694
 20
698.864917
 11
187.976712
 21
693.241591
  0
LINE
  8
CutLine
  6
CONTINUOUS
 62
8
 10
28.820900
 20
251.321774
 11
35.889168
 21
251.520739
  0
LINE
  8
CutLine
  6
CONTINUOUS
 62
8
 10
35.889168
 20
251.520739
 11
46.116599
 21
262.340632
  0
LINE
  8
CutLine
  6
CONTINUOUS
 62
8
 10
46.116599
 20
262.340632
 11
45.917634
 21
269.408900
  0
LINE
  8
CutLine
  6
CONTINUOUS
 62
8
 10
17.471950
 20
310.621809
 11
12.112622
 21
307.323134
  0
LINE
  8
CutLine
  6
CONTINUOUS
 62
8
 10
154.470023
 20
334.874449
 11
163.554480
 21
339.208631
  0
LINE
  8
CutLine
  6
CONTINUOUS
 62
8
 10
163.554480
 20
339.208631
 11
194.694889
 21
384.166023
  0
LINE
  8
CutLine
  6
CONTINUOUS
 62
8
 10
194.694889
 20
384.166023
 11
193.431658
 21
391.123339
  0
LINE
  8
CutLine
  6
CONTINUOUS
 62
8
 10
193.431767
 20
416.011940
 11
191.628205
 21
422.849130
  0
LINE
  8
CutLine
  6
CONTINUOUS
 62
8
 10
191.628205
 20
422.849130
 11
136.093396
 21
455.200660
  0
LINE
  8
CutLine
  6
CONTINUOUS
 62
8
 10
136.093396
 20
455.200660
 11
129.256206
 21
453.397098
  0
LINE
  8
CutLine
  6
CONTINUOUS
 62
8
 10
64.791910
 20
490.282153
 11
57.961766
 21
492.112217
  0
LINE
  8
CutLine
  6
CONTINUOUS
 62
8
 10
57.961766
 20
492.112217
 11
16.011085
 21
467.891468
  0
LINE
  8
CutLine
  6
CONTINUOUS
 62
8
 10
16.011085
 20
467.891468
 11
14.181021
 21
461.061325
  0
LINE
  8
CutLine
  6
CONTINUOUS
 62
8
 10
13.892015
 20
386.791638
 11
8.911498
 21
381.772231
  0
LINE
  8
CutLine
  6
CONTINUOUS
 62
8
 10
8.911498
 20
381.772231
 11
9.161441
 21
317.502468
  0
LINE
  8
CutLine
  6
CONTINUOUS
 62
8
 10
9.161441
 20
317.502468
 11
14.180848
 21
312.521951
  0
LINE
  8
CutLine
  6
CONTINUOUS
 62
8
 10
103.928877
 20
305.694467
 11
110.751834
 21
303.837788
  0
LINE
  8
CutLine
  6
CONTINUOUS
 62
8
 10
110.751834
 20
303.837788
 11
127.399527
 21
313.363196
  0
LINE
  8
CutLine
  6
CONTINUOUS
 62
8
 10
127.399527
 20
313.363196
 11
129.256206
 21
320.186153
  0
LINE
  8
CutLine
  6
CONTINUOUS
 62
8
 10
60.642565
 20
58.609671
 11
67.689792
 21
58.029506
  0
LINE
  8
CutLine
  6
CONTINUOUS
 62
8
 10
67.689792
 20
58.029506
 11
71.487035
 21
61.249088
  0
LINE
  8
CutLine
  6
CONTINUOUS
 62
8
 10
71.487035
 20
61.249088
 11
72.067200
 21
68.296315
  0
LINE
  8
CutLine
  6
CONTINUOUS
 62
8
 10
72.008893
 20
83.148884
 11
69.536623
 21
89.773677
  0
LINE
  8
CutLine
  6
CONTINUOUS
 62
8
 10
69.536623
 20
89.773677
 11
67.267358
 21
90.809525
  0
LINE
  8
CutLine
  6
CONTINUOUS
 62
8
 10
67.267358
 20
90.809525
 11
60.642565
 21
88.337256
  0
LINE
  8
CutLine
  6
CONTINUOUS
 62
8
 10
30.174320
 20
93.547993
 11
25.174328
 21
88.547984
  0
LINE
  8
CutLine
  6
CONTINUOUS
 62
8
 10
25.174328
 20
88.547984
 11
25.174337
 21
83.798829
  0
LINE
  8
CutLine
  6
CONTINUOUS
 62
8
 10
25.174337
 20
83.798829
 11
30.174345
 21
78.798838
  0
LINE
  8
CutLine
  6
CONTINUOUS
 62
8
 10
49.392819
 20
78.798871
 11
54.392810
 21
83.798879
  0
LINE
  8
CutLine
  6
CONTINUOUS
 62
8
 10
54.392810
 20
83.798879
 11
54.392802
 21
88.548034
  0
LINE
  8
CutLine
  6
CONTINUOUS
 62
8
 10
54.392802
 20
88.548034
 11
49.392793
 21
93.548026
  0
LINE
  8
CutLine
  6
CONTINUOUS
 62
8
 10
49.392772
 20
106.042529
 11
44.392763
 21
111.042520
  0
LINE
  8
CutLine
  6
CONTINUOUS
 62
8
 10
44.392763
 20
111.042520
 11
35.174290
 21
111.042505
  0
LINE
  8
CutLine
  6
CONTINUOUS
 62
8
 10
35.174290
 20
111.042505
 11
30.174298
 21
106.042496
  0
LINE
  8
CutLine
  6
CONTINUOUS
 62
8
 10
30.174371
 20
63.820401
 11
25.174379
 21
58.820392
  0
LINE
  8
CutLine
  6
CONTINUOUS
 62
8
 10
25.174379
 20
58.820392
 11
25.174383
 21
56.422479
  0
LINE
  8
CutLine
  6
CONTINUOUS
 62
8
 10
25.174383
 20
56.422479
 11
30.174392
 21
51.422488
  0
LINE
  8
CutLine
  6
CONTINUOUS
 62
8
 10
49.392866
 20
51.422520
 11
54.392857
 21
56.422529
  0
LINE
  8
CutLine
  6
CONTINUOUS
 62
8
 10
54.392857
 20
56.422529
 11
54.392853
 21
58.820442
  0
LINE
  8
CutLine
  6
CONTINUOUS
 62
8
 10
54.392853
 20
58.820442
 11
49.392844
 21
63.820434
  0
LINE
  8
CutLine
  6
CONTINUOUS
 62
8
 10
49.392917
 20
21.591407
 11
54.392908
 21
26.591416
  0
LINE
  8
CutLine
  6
CONTINUOUS
 62
8
 10
54.392908
 20
26.591416
 11
54.392900
 21
31.444099
  0
LINE
  8
CutLine
  6
CONTINUOUS
 62
8
 10
54.392900
 20
31.444099
 11
49.392891
 21
36.444091
  0
LINE
  8
CutLine
  6
CONTINUOUS
 62
8
 10
30.174418
 20
36.444058
 11
25.174426
 21
31.444049
  0
LINE
  8
CutLine
  6
CONTINUOUS
 62
8
 10
25.174426
 20
31.444049
 11
25.174434
 21
26.591366
  0
LINE
  8
CutLine
  6
CONTINUOUS
 62
8
 10
25.174434
 20
26.591366
 11
30.174443
 21
21.591374
  0
LINE
  8
CutLine
  6
CONTINUOUS
 62
8
 10
7.500000
 20
68.296204
 11
8.080189
 21
61.248979
  0
LINE
  8
CutLine
  6
CONTINUOUS
 62
8
 10
8.080189
 20
61.248979
 11
11.877443
 21
58.029411
  0
LINE
  8
CutLine
  6
CONTINUOUS
 62
8
 10
11.877443
 20
58.029411
 11
18.924668
 21
58.609600
  0
LINE
  8
CutLine
  6
CONTINUOUS
 62
8
 10
18.924566
 20
88.337184
 11
12.299765
 21
90.809431
  0
LINE
  8
CutLine
  6
CONTINUOUS
 62
8
 10
12.299765
 20
90.809431
 11
10.030503
 21
89.773575
  0
LINE
  8
CutLine
  6
CONTINUOUS
 62
8
 10
10.030503
 20
89.773575
 11
7.558256
 21
83.148774
  0
LINE
  8
CutLine
  6
CONTINUOUS
 62
8
 10
282.563715
 20
17.045603
 11
286.538834
 21
11.197661
  0
LINE
  8
CutLine
  6
CONTINUOUS
 62
8
 10
286.538834
 20
11.197661
 11
345.271179
 21
0.000000
  0
LINE
  8
CutLine
  6
CONTINUOUS
 62
8
 10
345.271179
 20
0.000000
 11
351.119121
 21
3.975119
  0
LINE
  8
CutLine
  6
CONTINUOUS
 62
8
 10
332.687945
 20
93.630985
 11
334.116796
 21
100.578831
  0
LINE
  8
CutLine
  6
CONTINUOUS
 62
8
 10
334.116796
 20
100.578831
 11
289.490640
 21
168.774633
  0
LINE
  8
CutLine
  6
CONTINUOUS
 62
8
 10
289.490640
 20
168.774633
 11
282.569002
 21
170.220633
  0
LINE
  8
CutLine
  6
CONTINUOUS
 62
8
 10
224.423349
 20
208.818099
 11
218.196506
 21
205.467514
  0
LINE
  8
CutLine
  6
CONTINUOUS
 62
8
 10
218.196506
 20
205.467514
 11
186.783422
 21
100.867499
  0
LINE
  8
CutLine
  6
CONTINUOUS
 62
8
 10
186.783422
 20
100.867499
 11
189.830788
 21
93.630985
  0
LINE
  8
CutLine
  6
CONTINUOUS
 62
8
 10
71.095172
 20
181.532271
 11
68.785904
 21
192.663189
  0
LINE
  8
CutLine
  6
CONTINUOUS
 62
8
 10
68.785904
 20
192.663189
 11
46.875291
 21
220.896118
  0
LINE
  8
CutLine
  6
CONTINUOUS
 62
8
 10
46.875291
 20
220.896118
 11
39.859767
 21
221.780666
  0
LINE
  8
CutLine
  6
CONTINUOUS
 62
8
 10
25.340267
 20
203.940416
 11
19.340540
 21
200.198320
  0
LINE
  8
CutLine
  6
CONTINUOUS
 62
8
 10
19.340540
 20
200.198320
 11
16.405167
 21
187.531998
  0
LINE
  8
CutLine
  6
CONTINUOUS
 62
8
 10
16.405167
 20
187.531998
 11
20.147263
 21
181.532271
  0
LINE
  8
CutLine
  6
CONTINUOUS
 62
8
 10
25.340257
 20
159.124149
 11
18.306129
 21
159.845987
  0
LINE
  8
CutLine
  6
CONTINUOUS
 62
8
 10
18.306129
 20
159.845987
 11
8.221838
 21
151.638760
  0
LINE
  8
CutLine
  6
CONTINUOUS
 62
8
 10
8.221838
 20
151.638760
 11
7.500000
 21
144.604632
  0
LINE
  8
CutLine
  6
CONTINUOUS
 62
8
 10
22.019536
 20
126.764360
 11
29.053663
 21
126.042520
  0
LINE
  8
CutLine
  6
CONTINUOUS
 62
8
 10
29.053663
 20
126.042520
 11
39.137944
 21
134.249736
  0
LINE
  8
CutLine
  6
CONTINUOUS
 62
8
 10
39.137944
 20
134.249736
 11
39.859784
 21
141.283863
  0
LINE
  8
CutLine
  6
CONTINUOUS
 62
8
 10
86.817014
 20
144.604665
 11
86.095172
 21
137.570538
  0
LINE
  8
CutLine
  6
CONTINUOUS
 62
8
 10
86.095172
 20
137.570538
 11
94.302398
 21
127.486238
  0
LINE
  8
CutLine
  6
CONTINUOUS
 62
8
 10
94.302398
 20
127.486238
 11
101.336525
 21
126.764396
  0
LINE
  8
CutLine
  6
CONTINUOUS
 62
8
 10
119.176788
 20
141.283888
 11
126.192312
 21
142.168434
  0
LINE
  8
CutLine
  6
CONTINUOUS
 62
8
 10
126.192312
 20
142.168434
 11
148.102920
 21
170.401342
  0
LINE
  8
CutLine
  6
CONTINUOUS
 62
8
 10
148.102920
 20
170.401342
 11
150.412203
 21
181.532274
  0
LINE
  8
CutLine
  6
CONTINUOUS
 62
8
 10
99.464306
 20
181.532274
 11
95.722203
 21
175.532551
  0
LINE
  8
CutLine
  6
CONTINUOUS
 62
8
 10
95.722203
 20
175.532551
 11
98.657555
 21
162.866259
  0
LINE
  8
CutLine
  6
CONTINUOUS
 62
8
 10
98.657555
 20
162.866259
 11
104.657277
 21
159.124157
  0
LINE
  8
CutLine
  6
CONTINUOUS
 62
8
 10
119.176797
 20
221.780666
 11
112.142671
 21
221.058820
  0
LINE
  8
CutLine
  6
CONTINUOUS
 62
8
 10
112.142671
 20
221.058820
 11
103.935463
 21
210.974527
  0
LINE
  8
CutLine
  6
CONTINUOUS
 62
8
 10
103.935463
 20
210.974527
 11
104.657309
 21
203.940400
  0
LINE
  8
ValleyLine
  6
CONTINUOUS
 62
1
 10
209.447929
 20
698.725138
 11
226.371351
 21
713.943555
  0
LINE
  8
ValleyLine
  6
CONTINUOUS
 62
1
 10
184.456253
 20
716.167344
 11
189.186191
 21
706.064702
  0
LINE
  8
CutLine
  6
CONTINUOUS
 62
8
 10
185.411456
 20
727.281643
 11
184.456253
 21
716.167344
  0
LINE
  8
CutLine
  6
CONTINUOUS
 62
8
 10
226.597296
 20
725.096385
 11
221.217432
 21
734.867624
  0
LINE
  8
ValleyLine
  6
CONTINUOUS
 62
1
 10
191.795787
 20
736.428731
 11
185.411456
 21
727.281643
  0
LINE
  8
ValleyLine
  6
CONTINUOUS
 62
1
 10
221.217432
 20
734.867624
 11
211.671749
 21
740.640588
  0
LINE
  8
CutLine
  6
CONTINUOUS
 62
8
 10
211.671749
 20
740.640588
 11
191.795787
 21
736.428731
  0
LINE
  8
ValleyLine
  6
CONTINUOUS
 62
1
 10
226.371351
 20
713.943555
 11
226.597296
 21
725.096385
  0
LINE
  8
ValleyLine
  6
CONTINUOUS
 62
1
 10
198.333665
 20
699.680339
 11
209.447929
 21
698.725138
  0
LINE
  8
CutLine
  6
CONTINUOUS
 62
8
 10
189.186191
 20
706.064702
 11
198.333665
 21
699.680339
  0
LINE
  8
ValleyLine
  6
CONTINUOUS
 62
1
 10
398.904703
 20
449.923245
 11
445.123275
 21
462.359878
  0
LINE
  8
CutLine
  6
CONTINUOUS
 62
8
 10
491.079356
 20
536.436778
 11
481.692475
 21
583.369713
  0
LINE
  8
CutLine
  6
CONTINUOUS
 62
8
 10
445.123275
 20
462.359878
 11
478.930481
 21
496.239180
  0
LINE
  8
ValleyLine
  6
CONTINUOUS
 62
1
 10
478.930481
 20
496.239180
 11
491.079356
 21
536.436778
  0
LINE
  8
ValleyLine
  6
CONTINUOUS
 62
1
 10
481.692475
 20
583.369713
 11
450.093692
 21
619.321098
  0
LINE
  8
CutLine
  6
CONTINUOUS
 62
8
 10
450.093692
 20
619.321098
 11
404.757097
 21
634.656100
  0
LINE
  8
CutLine
  6
CONTINUOUS
 62
8
 10
352.660219
 20
462.261994
 11
398.904703
 21
449.923245
  0
LINE
  8
ValleyLine
  6
CONTINUOUS
 62
1
 10
318.780624
 20
496.070290
 11
352.660219
 21
462.261994
  0
LINE
  8
ValleyLine
  6
CONTINUOUS
 62
1
 10
313.345106
 20
577.680238
 11
306.344077
 21
542.288538
  0
LINE
  8
ValleyLine
  6
CONTINUOUS
 62
1
 10
357.824171
 20
625.269185
 11
313.345106
 21
577.680238
  0
LINE
  8
CutLine
  6
CONTINUOUS
 62
8
 10
306.344077
 20
542.288538
 11
318.780624
 21
496.070290
  0
LINE
  8
ValleyLine
  6
CONTINUOUS
 62
1
 10
404.757097
 20
634.656100
 11
357.824171
 21
625.269185
  0
LINE
  8
ValleyLine
  6
CONTINUOUS
 62
1
 10
379.817438
 20
667.779301
 11
391.446756
 21
714.204812
  0
LINE
  8
ValleyLine
  6
CONTINUOUS
 62
1
 10
391.446756
 20
714.204812
 11
234.207519
 21
734.671345
  0
LINE
  8
ValleyLine
  6
CONTINUOUS
 62
1
 10
231.497144
 20
723.851275
 11
379.817438
 21
667.779301
  0
LINE
  8
ValleyLine
  6
CONTINUOUS
 62
1
 10
234.207519
 20
734.671345
 11
231.497144
 21
723.851275
  0
LINE
  8
ValleyLine
  6
CONTINUOUS
 62
1
 10
226.371351
 20
713.943555
 11
357.824171
 21
625.269185
  0
LINE
  8
CutLine
  6
CONTINUOUS
 62
8
 10
231.497144
 20
723.851275
 11
226.371351
 21
713.943555
  0
LINE
  8
CutLine
  6
CONTINUOUS
 62
8
 10
357.824171
 20
625.269185
 11
379.817438
 21
667.779301
  0
LINE
  8
CutLine
  6
CONTINUOUS
 62
8
 10
391.446756
 20
714.204812
 11
392.089988
 21
762.064727
  0
LINE
  8
ValleyLine
  6
CONTINUOUS
 62
1
 10
392.089988
 20
762.064727
 11
234.357410
 21
745.825928
  0
LINE
  8
CutLine
  6
CONTINUOUS
 62
8
 10
234.357410
 20
745.825928
 11
234.207519
 21
734.671345
  0
LINE
  8
CutLine
  6
CONTINUOUS
 62
8
 10
97.922795
 20
554.892575
 11
143.202928
 21
539.383356
  0
LINE
  8
ValleyLine
  6
CONTINUOUS
 62
1
 10
143.202928
 20
539.383356
 11
176.875132
 21
694.332738
  0
LINE
  8
ValleyLine
  6
CONTINUOUS
 62
1
 10
166.321748
 20
697.947452
 11
97.922795
 21
554.892575
  0
LINE
  8
ValleyLine
  6
CONTINUOUS
 62
1
 10
176.875132
 20
694.332738
 11
166.321748
 21
697.947452
  0
LINE
  8
CutLine
  6
CONTINUOUS
 62
8
 10
27.561330
 20
609.922455
 11
57.423019
 21
580.397522
  0
LINE
  8
ValleyLine
  6
CONTINUOUS
 62
1
 10
57.423019
 20
580.397522
 11
156.882800
 21
703.891789
  0
LINE
  8
ValleyLine
  6
CONTINUOUS
 62
1
 10
156.882800
 20
703.891789
 11
27.561330
 21
609.922455
  0
LINE
  8
ValleyLine
  6
CONTINUOUS
 62
1
 10
1.833013
 20
650.281686
 11
27.561330
 21
609.922455
  0
LINE
  8
MountainLine
  6
CONTINUOUS
 62
5
 10
156.882800
 20
703.891789
 11
1.833013
 21
650.281686
  0
LINE
  8
CutLine
  6
CONTINUOUS
 62
8
 10
144.319095
 20
719.858846
 11
1.833013
 21
650.281686
  0
LINE
  8
ValleyLine
  6
CONTINUOUS
 62
1
 10
156.882800
 20
703.891789
 11
144.319095
 21
719.858846
  0
LINE
  8
CutLine
  6
CONTINUOUS
 62
8
 10
166.321748
 20
697.947452
 11
156.882800
 21
703.891789
  0
LINE
  8
ValleyLine
  6
CONTINUOUS
 62
1
 10
57.423019
 20
580.397522
 11
97.922795
 21
554.892575
  0
LINE
  8
ValleyLine
  6
CONTINUOUS
 62
1
 10
238.268921
 20
541.097741
 11
282.960148
 21
558.229244
  0
LINE
  8
ValleyLine
  6
CONTINUOUS
 62
1
 10
282.960148
 20
558.229244
 11
209.447929
 21
698.725138
  0
LINE
  8
ValleyLine
  6
CONTINUOUS
 62
1
 10
199.031764
 20
694.732297
 11
238.268921
 21
541.097741
  0
LINE
  8
CutLine
  6
CONTINUOUS
 62
8
 10
209.447929
 20
698.725138
 11
199.031764
 21
694.732297
  0
LINE
  8
ValleyLine
  6
CONTINUOUS
 62
1
 10
226.371351
 20
713.943555
 11
313.345106
 21
577.680238
  0
LINE
  8
ValleyLine
  6
CONTINUOUS
 62
1
 10
209.447929
 20
698.725138
 11
313.345106
 21
577.680238
  0
LINE
  8
CutLine
  6
CONTINUOUS
 62
8
 10
282.960148
 20
558.229244
 11
313.345106
 21
577.680238
  0
LINE
  8
ValleyLine
  6
CONTINUOUS
 62
1
 10
143.202928
 20
539.383356
 11
190.835653
 21
534.701419
  0
LINE
  8
ValleyLine
  6
CONTINUOUS
 62
1
 10
190.835653
 20
534.701419
 11
187.976712
 21
693.241591
  0
LINE
  8
CutLine
  6
CONTINUOUS
 62
8
 10
187.976712
 20
693.241591
 11
176.875132
 21
694.332738
  0
LINE
  8
ValleyLine
  6
CONTINUOUS
 62
1
 10
199.031764
 20
694.732297
 11
187.976712
 21
693.241591
  0
LINE
  8
CutLine
  6
CONTINUOUS
 62
8
 10
190.835653
 20
534.701419
 11
238.268921
 21
541.097741
  0
LINE
  8
ValleyLine
  6
CONTINUOUS
 62
1
 10
28.820900
 20
251.321774
 11
45.917634
 21
269.408900
  0
LINE
  8
ValleyLine
  6
CONTINUOUS
 62
1
 10
45.917634
 20
269.408900
 11
30.951257
 21
302.839433
  0
LINE
  8
CutLine
  6
CONTINUOUS
 62
8
 10
12.112622
 20
307.323134
 11
28.820900
 21
251.321774
  0
LINE
  8
ValleyLine
  6
CONTINUOUS
 62
1
 10
30.951257
 20
302.839433
 11
12.112622
 21
307.323134
  0
LINE
  8
ValleyLine
  6
CONTINUOUS
 62
1
 10
154.470023
 20
334.874449
 11
193.431658
 21
391.123339
  0
LINE
  8
ValleyLine
  6
CONTINUOUS
 62
1
 10
129.256206
 20
453.397098
 11
129.256206
 21
320.186153
  0
LINE
  8
CutLine
  6
CONTINUOUS
 62
8
 10
129.256206
 20
320.186153
 11
154.470023
 21
334.874449
  0
LINE
  8
ValleyLine
  6
CONTINUOUS
 62
1
 10
193.431767
 20
416.011940
 11
129.256206
 21
453.397098
  0
LINE
  8
CutLine
  6
CONTINUOUS
 62
8
 10
193.431658
 20
391.123339
 11
193.431767
 21
416.011940
  0
LINE
  8
ValleyLine
  6
CONTINUOUS
 62
1
 10
129.256206
 20
453.397098
 11
13.892015
 21
386.791638
  0
LINE
  8
ValleyLine
  6
CONTINUOUS
 62
1
 10
13.892015
 20
386.791638
 11
129.256206
 21
320.186153
  0
LINE
  8
CutLine
  6
CONTINUOUS
 62
8
 10
129.256206
 20
453.397098
 11
64.791910
 21
490.282153
  0
LINE
  8
ValleyLine
  6
CONTINUOUS
 62
1
 10
64.791910
 20
490.282153
 11
14.181021
 21
461.061325
  0
LINE
  8
CutLine
  6
CONTINUOUS
 62
8
 10
14.181021
 20
461.061325
 11
13.892015
 21
386.791638
  0
LINE
  8
ValleyLine
  6
CONTINUOUS
 62
1
 10
13.892015
 20
386.791638
 11
14.180848
 21
312.521951
  0
LINE
  8
ValleyLine
  6
CONTINUOUS
 62
1
 10
103.928877
 20
305.694467
 11
129.256206
 21
320.186153
  0
LINE
  8
ValleyLine
  6
CONTINUOUS
 62
1
 10
30.951257
 20
302.839433
 11
103.928877
 21
305.694467
  0
LINE
  8
CutLine
  6
CONTINUOUS
 62
8
 10
14.180848
 20
312.521951
 11
30.951257
 21
302.839433
  0
LINE
  8
CutLine
  6
CONTINUOUS
 62
8
 10
45.917634
 20
269.408900
 11
103.928877
 21
305.694467
  0
LINE
  8
ValleyLine
  6
CONTINUOUS
 62
1
 10
60.642565
 20
58.609671
 11
72.067200
 21
68.296315
  0
LINE
  8
CutLine
  6
CONTINUOUS
 62
8
 10
72.067200
 20
68.296315
 11
72.008893
 21
83.148884
  0
LINE
  8
ValleyLine
  6
CONTINUOUS
 62
1
 10
72.008893
 20
83.148884
 11
60.642565
 21
88.337256
  0
LINE
  8
ValleyLine
  6
CONTINUOUS
 62
1
 10
49.392819
 20
78.798871
 11
49.392844
 21
63.820434
  0
LINE
  8
CutLine
  6
CONTINUOUS
 62
8
 10
49.392844
 20
63.820434
 11
60.642565
 21
58.609671
  0
LINE
  8
CutLine
  6
CONTINUOUS
 62
8
 10
60.642565
 20
88.337256
 11
49.392819
 21
78.798871
  0
LINE
  8
ValleyLine
  6
CONTINUOUS
 62
1
 10
30.174345
 20
78.798838
 11
30.174371
 21
63.820401
  0
LINE
  8
ValleyLine
  6
CONTINUOUS
 62
1
 10
30.174371
 20
63.820401
 11
49.392844
 21
63.820434
  0
LINE
  8
ValleyLine
  6
CONTINUOUS
 62
1
 10
49.392819
 20
78.798871
 11
30.174345
 21
78.798838
  0
LINE
  8
ValleyLine
  6
CONTINUOUS
 62
1
 10
30.174320
 20
93.547993
 11
30.174345
 21
78.798838
  0
LINE
  8
ValleyLine
  6
CONTINUOUS
 62
1
 10
49.392793
 20
93.548026
 11
30.174320
 21
93.547993
  0
LINE
  8
ValleyLine
  6
CONTINUOUS
 62
1
 10
49.392819
 20
78.798871
 11
49.392793
 21
93.548026
  0
LINE
  8
CutLine
  6
CONTINUOUS
 62
8
 10
30.174298
 20
106.042496
 11
30.174320
 21
93.547993
  0
LINE
  8
ValleyLine
  6
CONTINUOUS
 62
1
 10
49.392772
 20
106.042529
 11
30.174298
 21
106.042496
  0
LINE
  8
CutLine
  6
CONTINUOUS
 62
8
 10
49.392793
 20
93.548026
 11
49.392772
 21
106.042529
  0
LINE
  8
ValleyLine
  6
CONTINUOUS
 62
1
 10
30.174371
 20
63.820401
 11
30.174392
 21
51.422488
  0
LINE
  8
ValleyLine
  6
CONTINUOUS
 62
1
 10
30.174392
 20
51.422488
 11
49.392866
 21
51.422520
  0
LINE
  8
ValleyLine
  6
CONTINUOUS
 62
1
 10
49.392866
 20
51.422520
 11
49.392844
 21
63.820434
  0
LINE
  8
CutLine
  6
CONTINUOUS
 62
8
 10
49.392891
 20
36.444091
 11
49.392866
 21
51.422520
  0
LINE
  8
CutLine
  6
CONTINUOUS
 62
8
 10
30.174392
 20
51.422488
 11
30.174418
 21
36.444058
  0
LINE
  8
ValleyLine
  6
CONTINUOUS
 62
1
 10
30.174418
 20
36.444058
 11
49.392891
 21
36.444091
  0
LINE
  8
CutLine
  6
CONTINUOUS
 62
8
 10
30.174443
 20
21.591374
 11
49.392917
 21
21.591407
  0
LINE
  8
ValleyLine
  6
CONTINUOUS
 62
1
 10
49.392917
 20
21.591407
 11
49.392891
 21
36.444091
  0
LINE
  8
ValleyLine
  6
CONTINUOUS
 62
1
 10
30.174418
 20
36.444058
 11
30.174443
 21
21.591374
  0
LINE
  8
CutLine
  6
CONTINUOUS
 62
8
 10
7.558256
 20
83.148774
 11
7.500000
 21
68.296204
  0
LINE
  8
ValleyLine
  6
CONTINUOUS
 62
1
 10
7.500000
 20
68.296204
 11
18.924668
 21
58.609600
  0
LINE
  8
ValleyLine
  6
CONTINUOUS
 62
1
 10
18.924566
 20
88.337184
 11
7.558256
 21
83.148774
  0
LINE
  8
CutLine
  6
CONTINUOUS
 62
8
 10
30.174345
 20
78.798838
 11
18.924566
 21
88.337184
  0
LINE
  8
CutLine
  6
CONTINUOUS
 62
8
 10
18.924668
 20
58.609600
 11
30.174371
 21
63.820401
  0
LINE
  8
ValleyLine
  6
CONTINUOUS
 62
1
 10
282.563715
 20
17.045603
 11
351.119121
 21
3.975119
  0
LINE
  8
CutLine
  6
CONTINUOUS
 62
8
 10
351.119121
 20
3.975119
 11
332.687945
 21
93.630985
  0
LINE
  8
ValleyLine
  6
CONTINUOUS
 62
1
 10
332.687945
 20
93.630985
 11
282.563715
 21
17.045603
  0
LINE
  8
CutLine
  6
CONTINUOUS
 62
8
 10
189.830788
 20
93.630985
 11
282.563715
 21
17.045603
  0
LINE
  8
ValleyLine
  6
CONTINUOUS
 62
1
 10
332.687945
 20
93.630985
 11
189.830788
 21
93.630985
  0
LINE
  8
ValleyLine
  6
CONTINUOUS
 62
1
 10
332.687945
 20
93.630985
 11
282.569002
 21
170.220633
  0
LINE
  8
ValleyLine
  6
CONTINUOUS
 62
1
 10
282.569002
 20
170.220633
 11
189.830788
 21
93.630985
  0
LINE
  8
CutLine
  6
CONTINUOUS
 62
8
 10
282.569002
 20
170.220633
 11
224.423349
 21
208.818099
  0
LINE
  8
ValleyLine
  6
CONTINUOUS
 62
1
 10
224.423349
 20
208.818099
 11
189.830788
 21
93.630985
  0
LINE
  8
ValleyLine
  6
CONTINUOUS
 62
1
 10
71.095172
 20
181.532271
 11
39.859767
 21
221.780666
  0
LINE
  8
CutLine
  6
CONTINUOUS
 62
8
 10
39.859767
 20
221.780666
 11
25.340267
 21
203.940416
  0
LINE
  8
ValleyLine
  6
CONTINUOUS
 62
1
 10
25.340267
 20
203.940416
 11
71.095172
 21
181.532271
  0
LINE
  8
ValleyLine
  6
CONTINUOUS
 62
1
 10
25.340257
 20
159.124149
 11
71.095172
 21
181.532271
  0
LINE
  8
ValleyLine
  6
CONTINUOUS
 62
1
 10
71.095172
 20
181.532271
 11
20.147263
 21
181.532271
  0
LINE
  8
CutLine
  6
CONTINUOUS
 62
8
 10
20.147263
 20
181.532271
 11
25.340257
 21
159.124149
  0
LINE
  8
ValleyLine
  6
CONTINUOUS
 62
1
 10
25.340267
 20
203.940416
 11
20.147263
 21
181.532271
  0
LINE
  8
ValleyLine
  6
CONTINUOUS
 62
1
 10
25.340257
 20
159.124149
 11
39.859784
 21
141.283863
  0
LINE
  8
CutLine
  6
CONTINUOUS
 62
8
 10
39.859784
 20
141.283863
 11
71.095172
 21
181.532271
  0
LINE
  8
CutLine
  6
CONTINUOUS
 62
8
 10
7.500000
 20
144.604632
 11
22.019536
 21
126.764360
  0
LINE
  8
ValleyLine
  6
CONTINUOUS
 62
1
 10
25.340257
 20
159.124149
 11
7.500000
 21
144.604632
  0
LINE
  8
ValleyLine
  6
CONTINUOUS
 62
1
 10
22.019536
 20
126.764360
 11
39.859784
 21
141.283863
  0
LINE
  8
ValleyLine
  6
CONTINUOUS
 62
1
 10
86.817014
 20
144.604665
 11
101.336525
 21
126.764396
  0
LINE
  8
CutLine
  6
CONTINUOUS
 62
8
 10
104.657277
 20
159.124157
 11
86.817014
 21
144.604665
  0
LINE
  8
CutLine
  6
CONTINUOUS
 62
8
 10
101.336525
 20
126.764396
 11
119.176788
 21
141.283888
  0
LINE
  8
ValleyLine
  6
CONTINUOUS
 62
1
 10
119.176788
 20
141.283888
 11
104.657277
 21
159.124157
  0
LINE
  8
ValleyLine
  6
CONTINUOUS
 62
1
 10
150.412203
 20
181.532274
 11
104.657277
 21
159.124157
  0
LINE
  8
ValleyLine
  6
CONTINUOUS
 62
1
 10
119.176788
 20
141.283888
 11
150.412203
 21
181.532274
  0
LINE
  8
ValleyLine
  6
CONTINUOUS
 62
1
 10
150.412203
 20
181.532274
 11
99.464306
 21
181.532274
  0
LINE
  8
ValleyLine
  6
CONTINUOUS
 62
1
 10
99.464306
 20
181.532274
 11
104.657277
 21
159.124157
  0
LINE
  8
ValleyLine
  6
CONTINUOUS
 62
1
 10
150.412203
 20
181.532274
 11
104.657309
 21
203.940400
  0
LINE
  8
CutLine
  6
CONTINUOUS
 62
8
 10
104.657309
 20
203.940400
 11
99.464306
 21
181.532274
  0
LINE
  8
CutLine
  6
CONTINUOUS
 62
8
 10
150.412203
 20
181.532274
 11
119.176797
 21
221.780666
  0
LINE
  8
ValleyLine
  6
CONTINUOUS
 62
1
 10
119.176797
 20
221.780666
 11
104.657309
 21
203.940400
  0
ENDSEC
  0
EOF
