  0
SECTION
  2
HEADER
  9
$ACADVER
  1
AC1018
  9
$ACADMAINTVER
 70
     0
  9
$DWGCODEPAGE
  3
ANSI_1252
  9
$INSBASE
 10
0.0
 20
0.0
 30
0.0
  9
$EXTMIN
 10
-23.4772
 20
-8.74532
 30
0.0
  9
$EXTMAX
 10
21.11513
 20
28.93161
 30
0.0
  9
$LIMMIN
 10
0.0
 20
0.0
  9
$LIMMAX
 10
12.0
 20
9.0
  9
$ORTHOMODE
 70
     0
  9
$REGENMODE
 70
     1
  9
$FILLMODE
 70
     1
  9
$QTEXTMODE
 70
     0
  9
$MIRRTEXT
 70
     1
  9
$LTSCALE
 40
1.0
  9
$ATTMODE
 70
     1
  9
$TEXTSIZE
 40
0.2
  9
$TRACEWID
 40
0.05
  9
$TEXTSTYLE
  7
Standard
  9
$CLAYER
  8
0
  9
$CELTYPE
  6
ByLayer
  9
$CECOLOR
 62
   256
  9
$CELTSCALE
 40
1.0
  9
$DISPSILH
 70
     0
  9
$DIMSCALE
 40
1.0
  9
$DIMASZ
 40
0.18
  9
$DIMEXO
 40
0.0625
  9
$DIMDLI
 40
0.38
  9
$DIMRND
 40
0.0
  9
$DIMDLE
 40
0.0
  9
$DIMEXE
 40
0.18
  9
$DIMTP
 40
0.0
  9
$DIMTM
 40
0.0
  9
$DIMTXT
 40
0.18
  9
$DIMCEN
 40
0.09
  9
$DIMTSZ
 40
0.0
  9
$DIMTOL
 70
     0
  9
$DIMLIM
 70
     0
  9
$DIMTIH
 70
     1
  9
$DIMTOH
 70
     1
  9
$DIMSE1
 70
     0
  9
$DIMSE2
 70
     0
  9
$DIMTAD
 70
     0
  9
$DIMZIN
 70
     0
  9
$DIMBLK
  1

  9
$DIMASO
 70
     1
  9
$DIMSHO
 70
     1
  9
$DIMPOST
  1

  9
$DIMAPOST
  1

  9
$DIMALT
 70
     0
  9
$DIMALTD
 70
     2
  9
$DIMALTF
 40
25.4
  9
$DIMLFAC
 40
1.0
  9
$DIMTOFL
 70
     0
  9
$DIMTVP
 40
0.0
  9
$DIMTIX
 70
     0
  9
$DIMSOXD
 70
     0
  9
$DIMSAH
 70
     0
  9
$DIMBLK1
  1

  9
$DIMBLK2
  1

  9
$DIMSTYLE
  2
Standard
  9
$DIMCLRD
 70
     0
  9
$DIMCLRE
 70
     0
  9
$DIMCLRT
 70
     0
  9
$DIMTFAC
 40
1.0
  9
$DIMGAP
 40
0.09
  9
$DIMJUST
 70
     0
  9
$DIMSD1
 70
     0
  9
$DIMSD2
 70
     0
  9
$DIMTOLJ
 70
     1
  9
$DIMTZIN
 70
     0
  9
$DIMALTZ
 70
     0
  9
$DIMALTTZ
 70
     0
  9
$DIMUPT
 70
     0
  9
$DIMDEC
 70
     4
  9
$DIMTDEC
 70
     4
  9
$DIMALTU
 70
     2
  9
$DIMALTTD
 70
     2
  9
$DIMTXSTY
  7
Standard
  9
$DIMAUNIT
 70
     0
  9
$DIMADEC
 70
     0
  9
$DIMALTRND
 40
0.0
  9
$DIMAZIN
 70
     0
  9
$DIMDSEP
 70
    46
  9
$DIMATFIT
 70
     3
  9
$DIMFRAC
 70
     0
  9
$DIMLDRBLK
  1

  9
$DIMLUNIT
 70
     2
  9
$DIMLWD
 70
    -2
  9
$DIMLWE
 70
    -2
  9
$DIMTMOVE
 70
     0
  9
$LUNITS
 70
     2
  9
$LUPREC
 70
     4
  9
$SKETCHINC
 40
0.1
  9
$FILLETRAD
 40
0.5
  9
$AUNITS
 70
     0
  9
$AUPREC
 70
     0
  9
$MENU
  1
.
  9
$ELEVATION
 40
0.0
  9
$PELEVATION
 40
0.0
  9
$THICKNESS
 40
0.0
  9
$LIMCHECK
 70
     0
  9
$CHAMFERA
 40
0.5
  9
$CHAMFERB
 40
0.5
  9
$CHAMFERC
 40
1.0
  9
$CHAMFERD
 40
0.0
  9
$SKPOLY
 70
     0
  9
$TDCREATE
 40
2459301.625919016
  9
$TDUCREATE
 40
2459301.542585683
  9
$TDUPDATE
 40
2459301.625919028
  9
$TDUUPDATE
 40
2459301.542585694
  9
$TDINDWG
 40
0.0000000116
  9
$TDUSRTIMER
 40
0.0000000116
  9
$USRTIMER
 70
     1
  9
$ANGBASE
 50
0.0
  9
$ANGDIR
 70
     0
  9
$PDMODE
 70
     0
  9
$PDSIZE
 40
0.0
  9
$PLINEWID
 40
0.0
  9
$SPLFRAME
 70
     0
  9
$SPLINETYPE
 70
     6
  9
$SPLINESEGS
 70
     8
  9
$HANDSEED
  5
73
  9
$SURFTAB1
 70
     6
  9
$SURFTAB2
 70
     6
  9
$SURFTYPE
 70
     6
  9
$SURFU
 70
     6
  9
$SURFV
 70
     6
  9
$UCSBASE
  2

  9
$UCSNAME
  2

  9
$UCSORG
 10
0.0
 20
0.0
 30
0.0
  9
$UCSXDIR
 10
1.0
 20
0.0
 30
0.0
  9
$UCSYDIR
 10
0.0
 20
1.0
 30
0.0
  9
$UCSORTHOREF
  2

  9
$UCSORTHOVIEW
 70
     0
  9
$UCSORGTOP
 10
0.0
 20
0.0
 30
0.0
  9
$UCSORGBOTTOM
 10
0.0
 20
0.0
 30
0.0
  9
$UCSORGLEFT
 10
0.0
 20
0.0
 30
0.0
  9
$UCSORGRIGHT
 10
0.0
 20
0.0
 30
0.0
  9
$UCSORGFRONT
 10
0.0
 20
0.0
 30
0.0
  9
$UCSORGBACK
 10
0.0
 20
0.0
 30
0.0
  9
$PUCSBASE
  2

  9
$PUCSNAME
  2

  9
$PUCSORG
 10
0.0
 20
0.0
 30
0.0
  9
$PUCSXDIR
 10
1.0
 20
0.0
 30
0.0
  9
$PUCSYDIR
 10
0.0
 20
1.0
 30
0.0
  9
$PUCSORTHOREF
  2

  9
$PUCSORTHOVIEW
 70
     0
  9
$PUCSORGTOP
 10
0.0
 20
0.0
 30
0.0
  9
$PUCSORGBOTTOM
 10
0.0
 20
0.0
 30
0.0
  9
$PUCSORGLEFT
 10
0.0
 20
0.0
 30
0.0
  9
$PUCSORGRIGHT
 10
0.0
 20
0.0
 30
0.0
  9
$PUCSORGFRONT
 10
0.0
 20
0.0
 30
0.0
  9
$PUCSORGBACK
 10
0.0
 20
0.0
 30
0.0
  9
$USERI1
 70
     0
  9
$USERI2
 70
     0
  9
$USERI3
 70
     0
  9
$USERI4
 70
     0
  9
$USERI5
 70
     0
  9
$USERR1
 40
0.0
  9
$USERR2
 40
0.0
  9
$USERR3
 40
0.0
  9
$USERR4
 40
0.0
  9
$USERR5
 40
0.0
  9
$WORLDVIEW
 70
     1
  9
$SHADEDGE
 70
     3
  9
$SHADEDIF
 70
    70
  9
$TILEMODE
 70
     1
  9
$MAXACTVP
 70
    64
  9
$PINSBASE
 10
0.0
 20
0.0
 30
0.0
  9
$PLIMCHECK
 70
     0
  9
$PEXTMIN
 10
1.000000000000000E+20
 20
1.000000000000000E+20
 30
1.000000000000000E+20
  9
$PEXTMAX
 10
-1.000000000000000E+20
 20
-1.000000000000000E+20
 30
-1.000000000000000E+20
  9
$PLIMMIN
 10
0.0
 20
0.0
  9
$PLIMMAX
 10
12.0
 20
9.0
  9
$UNITMODE
 70
     0
  9
$VISRETAIN
 70
     1
  9
$PLINEGEN
 70
     0
  9
$PSLTSCALE
 70
     1
  9
$TREEDEPTH
 70
  3020
  9
$CMLSTYLE
  2
Standard
  9
$CMLJUST
 70
     0
  9
$CMLSCALE
 40
1.0
  9
$PROXYGRAPHICS
 70
     1
  9
$MEASUREMENT
 70
     0
  9
$CELWEIGHT
370
    -1
  9
$ENDCAPS
280
     0
  9
$JOINSTYLE
280
     0
  9
$LWDISPLAY
290
     0
  9
$INSUNITS
 70
     5
  9
$HYPERLINKBASE
  1

  9
$STYLESHEET
  1

  9
$XEDIT
290
     1
  9
$CEPSNTYPE
380
     0
  9
$PSTYLEMODE
290
     0
  9
$FINGERPRINTGUID
  2
{FAEB1C30-E019-11D5-929B-00C0DF256EC4}
  9
$VERSIONGUID
  2
{FAEB1C32-E019-11D5-929B-00C0DF256EC4}
  9
$EXTNAMES
290
     1
  9
$PSVPSCALE
 40
0.0
  9
$OLESTARTUP
290
     0
  9
$SORTENTS
280
   127
  9
$INDEXCTL
280
     0
  9
$HIDETEXT
280
     1
  9
$XCLIPFRAME
290
     0
  9
$HALOGAP
280
     0
  9
$OBSCOLOR
 70
   257
  9
$OBSLTYPE
280
     0
  9
$INTERSECTIONDISPLAY
280
     0
  9
$INTERSECTIONCOLOR
 70
   257
  9
$DIMASSOC
280
     2
  9
$PROJECTNAME
  1

  0
ENDSEC
  0
SECTION
  2
CLASSES
  0
CLASS
  1
ACDBDICTIONARYWDFLT
  2
AcDbDictionaryWithDefault
  3
ObjectDBX Classes
 90
        0
 91
        1
280
     0
281
     0
  0
ENDSEC
  0
SECTION
  2
TABLES
  0
TABLE
  2
VPORT
  5
8
330
0
100
AcDbSymbolTable
 70
     2
  0
VPORT
  5
29
330
8
100
AcDbSymbolTableRecord
100
AcDbViewportTableRecord
  2
*Active
 70
     0
 10
0.0
 20
0.0
 11
1.0
 21
1.0
 12
10.42990654205607
 22
4.5
 13
0.0
 23
0.0
 14
0.5
 24
0.5
 15
0.5
 25
0.5
 16
0.0
 26
0.0
 36
1.0
 17
0.0
 27
0.0
 37
0.0
 40
9.0
 41
1.972972972850329
 42
50.0
 43
0.0
 44
0.0
 50
0.0
 51
0.0
 71
     0
 72
   100
 73
     1
 74
     3
 75
     0
 76
     0
 77
     0
 78
     0
281
     0
 65
     1
110
0.0
120
0.0
130
0.0
111
1.0
121
0.0
131
0.0
112
0.0
122
1.0
132
0.0
 79
     0
146
0.0
  0
ENDTAB
  0
TABLE
  2
LTYPE
  5
5
330
0
100
AcDbSymbolTable
 70
     1
  0
LTYPE
  5
14
330
5
100
AcDbSymbolTableRecord
100
AcDbLinetypeTableRecord
  2
ByBlock
 70
     0
  3

 72
    65
 73
     0
 40
0.0
  0
LTYPE
  5
15
330
5
100
AcDbSymbolTableRecord
100
AcDbLinetypeTableRecord
  2
ByLayer
 70
     0
  3

 72
    65
 73
     0
 40
0.0
  0
LTYPE
  5
16
330
5
100
AcDbSymbolTableRecord
100
AcDbLinetypeTableRecord
  2
Continuous
 70
     0
  3
Solid line
 72
    65
 73
     0
 40
0.0
  0
ENDTAB
  0
TABLE
  2
LAYER
  5
2
330
0
100
AcDbSymbolTable
 70
     1
  0
LAYER
  5
10
330
2
100
AcDbSymbolTableRecord
100
AcDbLayerTableRecord
  2
0
 70
     0
 62
     7
  6
Continuous
370
    -3
390
F
  0
ENDTAB
  0
TABLE
  2
STYLE
  5
3
330
0
100
AcDbSymbolTable
 70
     1
  0
STYLE
  5
11
330
3
100
AcDbSymbolTableRecord
100
AcDbTextStyleTableRecord
  2
Standard
 70
     0
 40
0.0
 41
1.0
 50
0.0
 71
     0
 42
0.2
  3
txt
  4

  0
ENDTAB
  0
TABLE
  2
VIEW
  5
6
330
0
100
AcDbSymbolTable
 70
     0
  0
ENDTAB
  0
TABLE
  2
UCS
  5
7
330
0
100
AcDbSymbolTable
 70
     0
  0
ENDTAB
  0
TABLE
  2
APPID
  5
9
330
0
100
AcDbSymbolTable
 70
     2
  0
APPID
  5
12
330
9
100
AcDbSymbolTableRecord
100
AcDbRegAppTableRecord
  2
ACAD
 70
     0
  0
APPID
  5
2A
330
9
100
AcDbSymbolTableRecord
100
AcDbRegAppTableRecord
  2
ODA
 70
     0
  0
ENDTAB
  0
TABLE
  2
DIMSTYLE
  5
A
330
0
100
AcDbSymbolTable
 70
     1
100
AcDbDimStyleTable
  0
DIMSTYLE
105
27
330
A
100
AcDbSymbolTableRecord
100
AcDbDimStyleTableRecord
  2
Standard
 70
     0
340
11
  0
ENDTAB
  0
TABLE
  2
BLOCK_RECORD
  5
1
330
0
100
AcDbSymbolTable
 70
     1
  0
BLOCK_RECORD
  5
1F
330
1
100
AcDbSymbolTableRecord
100
AcDbBlockTableRecord
  2
*Model_Space
340
22
  0
BLOCK_RECORD
  5
1B
330
1
100
AcDbSymbolTableRecord
100
AcDbBlockTableRecord
  2
*Paper_Space
340
1E
  0
BLOCK_RECORD
  5
23
330
1
100
AcDbSymbolTableRecord
100
AcDbBlockTableRecord
  2
*Paper_Space0
340
26
  0
ENDTAB
  0
ENDSEC
  0
SECTION
  2
BLOCKS
  0
BLOCK
  5
20
330
1F
100
AcDbEntity
  8
0
100
AcDbBlockBegin
  2
*Model_Space
 70
     0
 71
     0
 10
0.0
 20
0.0
 30
0.0
  3
*Model_Space
  1

  0
ENDBLK
  5
21
330
1F
100
AcDbEntity
  8
0
100
AcDbBlockEnd
  0
BLOCK
  5
1C
330
1B
100
AcDbEntity
 67
     1
  8
0
100
AcDbBlockBegin
  2
*Paper_Space
 70
     0
 71
     0
 10
0.0
 20
0.0
 30
0.0
  3
*Paper_Space
  1

  0
ENDBLK
  5
1D
330
1B
100
AcDbEntity
 67
     1
  8
0
100
AcDbBlockEnd
  0
BLOCK
  5
24
330
23
100
AcDbEntity
  8
0
100
AcDbBlockBegin
  2
*Paper_Space0
 70
     0
 71
     0
 10
0.0
 20
0.0
 30
0.0
  3
*Paper_Space0
  1

  0
ENDBLK
  5
25
330
23
100
AcDbEntity
  8
0
100
AcDbBlockEnd
  0
ENDSEC
  0
SECTION
  2
ENTITIES
  0
SPLINE
  5
2B
330
1F
100
AcDbEntity
  8
0
370
     5
100
AcDbSpline
210
0.0
220
0.0
230
1.0
 70
    11
 71
     3
 72
    20
 73
    16
 74
     0
 42
0.0000000001
 43
0.0000000001
 40
0.0
 40
0.0
 40
0.0
 40
0.0
 40
0.25
 40
0.25
 40
0.25
 40
0.25
 40
0.5
 40
0.5
 40
0.5
 40
0.5
 40
0.75
 40
0.75
 40
0.75
 40
0.75
 40
1.0
 40
1.0
 40
1.0
 40
1.0
 10
-20.37244
 20
5.040870000000001
 30
0.0
 10
-20.37244
 20
5.178940000000001
 30
0.0
 10
-20.48437
 20
5.290870000000001
 30
0.0
 10
-20.62244
 20
5.290870000000001
 30
0.0
 10
-20.62244
 20
5.290870000000001
 30
0.0
 10
-20.76051
 20
5.290870000000001
 30
0.0
 10
-20.87244
 20
5.17895
 30
0.0
 10
-20.87244
 20
5.040870000000001
 30
0.0
 10
-20.87244
 20
5.040870000000001
 30
0.0
 10
-20.87244
 20
4.9028
 30
0.0
 10
-20.76051
 20
4.79087
 30
0.0
 10
-20.62244
 20
4.79087
 30
0.0
 10
-20.62244
 20
4.79087
 30
0.0
 10
-20.48437
 20
4.79087
 30
0.0
 10
-20.37244
 20
4.9028
 30
0.0
 10
-20.37244
 20
5.040870000000001
 30
0.0
  0
SPLINE
  5
2C
330
1F
100
AcDbEntity
  8
0
370
     5
100
AcDbSpline
210
0.0
220
0.0
230
1.0
 70
    11
 71
     3
 72
    20
 73
    16
 74
     0
 42
0.0000000001
 43
0.0000000001
 40
0.0
 40
0.0
 40
0.0
 40
0.0
 40
0.25
 40
0.25
 40
0.25
 40
0.25
 40
0.5
 40
0.5
 40
0.5
 40
0.5
 40
0.75
 40
0.75
 40
0.75
 40
0.75
 40
1.0
 40
1.0
 40
1.0
 40
1.0
 10
-9.009680000000001
 20
0.33084
 30
0.0
 10
-9.009680000000001
 20
0.4689100000000001
 30
0.0
 10
-9.12161
 20
0.58084
 30
0.0
 10
-9.259680000000001
 20
0.58084
 30
0.0
 10
-9.259680000000001
 20
0.58084
 30
0.0
 10
-9.39775
 20
0.58084
 30
0.0
 10
-9.509680000000001
 20
0.4689100000000001
 30
0.0
 10
-9.509680000000001
 20
0.33084
 30
0.0
 10
-9.509680000000001
 20
0.33084
 30
0.0
 10
-9.509680000000001
 20
0.19277
 30
0.0
 10
-9.39775
 20
0.08084
 30
0.0
 10
-9.259680000000001
 20
0.08084
 30
0.0
 10
-9.259680000000001
 20
0.08084
 30
0.0
 10
-9.12161
 20
0.08084
 30
0.0
 10
-9.009680000000001
 20
0.19276
 30
0.0
 10
-9.009680000000001
 20
0.33084
 30
0.0
  0
SPLINE
  5
2D
330
1F
100
AcDbEntity
  8
0
370
     5
100
AcDbSpline
210
0.0
220
0.0
230
1.0
 70
    11
 71
     3
 72
    20
 73
    16
 74
     0
 42
0.0000000001
 43
0.0000000001
 40
0.0
 40
0.0
 40
0.0
 40
0.0
 40
0.25
 40
0.25
 40
0.25
 40
0.25
 40
0.5
 40
0.5
 40
0.5
 40
0.5
 40
0.75
 40
0.75
 40
0.75
 40
0.75
 40
1.0
 40
1.0
 40
1.0
 40
1.0
 10
-20.37486
 20
-4.37336
 30
0.0
 10
-20.37486
 20
-4.23529
 30
0.0
 10
-20.48679
 20
-4.12336
 30
0.0
 10
-20.62486
 20
-4.12336
 30
0.0
 10
-20.62486
 20
-4.12336
 30
0.0
 10
-20.76293
 20
-4.12336
 30
0.0
 10
-20.87486
 20
-4.23529
 30
0.0
 10
-20.87486
 20
-4.37336
 30
0.0
 10
-20.87486
 20
-4.37336
 30
0.0
 10
-20.87486
 20
-4.511430000000001
 30
0.0
 10
-20.76293
 20
-4.623360000000001
 30
0.0
 10
-20.62486
 20
-4.623360000000001
 30
0.0
 10
-20.62486
 20
-4.623360000000001
 30
0.0
 10
-20.48679
 20
-4.623360000000001
 30
0.0
 10
-20.37486
 20
-4.511430000000001
 30
0.0
 10
-20.37486
 20
-4.37336
 30
0.0
  0
SPLINE
  5
2E
330
1F
100
AcDbEntity
  8
0
370
     5
100
AcDbSpline
210
0.0
220
0.0
230
1.0
 70
    11
 71
     3
 72
    20
 73
    16
 74
     0
 42
0.0000000001
 43
0.0000000001
 40
0.0
 40
0.0
 40
0.0
 40
0.0
 40
0.25
 40
0.25
 40
0.25
 40
0.25
 40
0.5
 40
0.5
 40
0.5
 40
0.5
 40
0.75
 40
0.75
 40
0.75
 40
0.75
 40
1.0
 40
1.0
 40
1.0
 40
1.0
 10
-14.66655
 20
-0.6674500000000001
 30
0.0
 10
-14.66655
 20
-0.5293800000000001
 30
0.0
 10
-14.77847
 20
-0.41745
 30
0.0
 10
-14.91654
 20
-0.41745
 30
0.0
 10
-14.91654
 20
-0.41745
 30
0.0
 10
-15.05462
 20
-0.41745
 30
0.0
 10
-15.16654
 20
-0.5293800000000001
 30
0.0
 10
-15.16654
 20
-0.6674500000000001
 30
0.0
 10
-15.16654
 20
-0.6674500000000001
 30
0.0
 10
-15.16655
 20
-0.80552
 30
0.0
 10
-15.05462
 20
-0.9174500000000001
 30
0.0
 10
-14.91655
 20
-0.9174500000000001
 30
0.0
 10
-14.91655
 20
-0.9174500000000001
 30
0.0
 10
-14.77847
 20
-0.9174500000000001
 30
0.0
 10
-14.66655
 20
-0.80552
 30
0.0
 10
-14.66655
 20
-0.6674500000000001
 30
0.0
  0
SPLINE
  5
2F
330
1F
100
AcDbEntity
  8
0
370
     5
100
AcDbSpline
210
0.0
220
0.0
230
1.0
 70
    11
 71
     3
 72
    20
 73
    16
 74
     0
 42
0.0000000001
 43
0.0000000001
 40
0.0
 40
0.0
 40
0.0
 40
0.0
 40
0.25
 40
0.25
 40
0.25
 40
0.25
 40
0.5
 40
0.5
 40
0.5
 40
0.5
 40
0.75
 40
0.75
 40
0.75
 40
0.75
 40
1.0
 40
1.0
 40
1.0
 40
1.0
 10
-16.66654
 20
1.33255
 30
0.0
 10
-16.66654
 20
1.47062
 30
0.0
 10
-16.77846
 20
1.58255
 30
0.0
 10
-16.91653
 20
1.58255
 30
0.0
 10
-16.91653
 20
1.58255
 30
0.0
 10
-17.05461
 20
1.58255
 30
0.0
 10
-17.16653
 20
1.47062
 30
0.0
 10
-17.16653
 20
1.33255
 30
0.0
 10
-17.16653
 20
1.33255
 30
0.0
 10
-17.16654
 20
1.19448
 30
0.0
 10
-17.05461
 20
1.08255
 30
0.0
 10
-16.91654
 20
1.08255
 30
0.0
 10
-16.91654
 20
1.08255
 30
0.0
 10
-16.77846
 20
1.08255
 30
0.0
 10
-16.66654
 20
1.19448
 30
0.0
 10
-16.66654
 20
1.33255
 30
0.0
  0
SPLINE
  5
30
330
1F
100
AcDbEntity
  8
0
370
     5
100
AcDbSpline
210
0.0
220
0.0
230
1.0
 70
    11
 71
     3
 72
    20
 73
    16
 74
     0
 42
0.0000000001
 43
0.0000000001
 40
0.0
 40
0.0
 40
0.0
 40
0.0
 40
0.25
 40
0.25
 40
0.25
 40
0.25
 40
0.5
 40
0.5
 40
0.5
 40
0.5
 40
0.75
 40
0.75
 40
0.75
 40
0.75
 40
1.0
 40
1.0
 40
1.0
 40
1.0
 10
-15.66655
 20
0.33255
 30
0.0
 10
-15.66655
 20
0.47062
 30
0.0
 10
-15.77847
 20
0.58255
 30
0.0
 10
-15.91654
 20
0.58255
 30
0.0
 10
-15.91654
 20
0.58255
 30
0.0
 10
-16.05461
 20
0.58255
 30
0.0
 10
-16.16653
 20
0.47062
 30
0.0
 10
-16.16653
 20
0.33255
 30
0.0
 10
-16.16653
 20
0.33255
 30
0.0
 10
-16.16654
 20
0.19448
 30
0.0
 10
-16.05461
 20
0.08255
 30
0.0
 10
-15.91654
 20
0.08255
 30
0.0
 10
-15.91654
 20
0.08255
 30
0.0
 10
-15.77847
 20
0.08255
 30
0.0
 10
-15.66655
 20
0.19448
 30
0.0
 10
-15.66655
 20
0.33255
 30
0.0
  0
SPLINE
  5
31
330
1F
100
AcDbEntity
  8
0
370
     5
100
AcDbSpline
210
0.0
220
0.0
230
1.0
 70
    11
 71
     3
 72
    20
 73
    16
 74
     0
 42
0.0000000001
 43
0.0000000001
 40
0.0
 40
0.0
 40
0.0
 40
0.0
 40
0.25
 40
0.25
 40
0.25
 40
0.25
 40
0.5
 40
0.5
 40
0.5
 40
0.5
 40
0.75
 40
0.75
 40
0.75
 40
0.75
 40
1.0
 40
1.0
 40
1.0
 40
1.0
 10
-10.96064
 20
-4.375780000000001
 30
0.0
 10
-10.96064
 20
-4.237710000000001
 30
0.0
 10
-11.07257
 20
-4.125780000000001
 30
0.0
 10
-11.21064
 20
-4.125780000000001
 30
0.0
 10
-11.21064
 20
-4.125780000000001
 30
0.0
 10
-11.34871
 20
-4.125780000000001
 30
0.0
 10
-11.46064
 20
-4.237710000000001
 30
0.0
 10
-11.46064
 20
-4.375780000000001
 30
0.0
 10
-11.46064
 20
-4.375780000000001
 30
0.0
 10
-11.46064
 20
-4.513850000000001
 30
0.0
 10
-11.34871
 20
-4.625780000000001
 30
0.0
 10
-11.21064
 20
-4.625780000000001
 30
0.0
 10
-11.21064
 20
-4.625780000000001
 30
0.0
 10
-11.07257
 20
-4.625780000000001
 30
0.0
 10
-10.96064
 20
-4.513850000000001
 30
0.0
 10
-10.96064
 20
-4.375780000000001
 30
0.0
  0
SPLINE
  5
32
330
1F
100
AcDbEntity
  8
0
370
     5
100
AcDbSpline
210
0.0
220
0.0
230
1.0
 70
    11
 71
     3
 72
    20
 73
    16
 74
     0
 42
0.0000000001
 43
0.0000000001
 40
0.0
 40
0.0
 40
0.0
 40
0.0
 40
0.25
 40
0.25
 40
0.25
 40
0.25
 40
0.5
 40
0.5
 40
0.5
 40
0.5
 40
0.75
 40
0.75
 40
0.75
 40
0.75
 40
1.0
 40
1.0
 40
1.0
 40
1.0
 10
-22.3234
 20
0.33426
 30
0.0
 10
-22.3234
 20
0.47233
 30
0.0
 10
-22.43533
 20
0.58426
 30
0.0
 10
-22.5734
 20
0.58426
 30
0.0
 10
-22.5734
 20
0.58426
 30
0.0
 10
-22.71147
 20
0.58426
 30
0.0
 10
-22.8234
 20
0.47233
 30
0.0
 10
-22.8234
 20
0.33426
 30
0.0
 10
-22.8234
 20
0.33426
 30
0.0
 10
-22.8234
 20
0.19619
 30
0.0
 10
-22.71147
 20
0.08426
 30
0.0
 10
-22.5734
 20
0.08426
 30
0.0
 10
-22.5734
 20
0.08426
 30
0.0
 10
-22.43533
 20
0.08426
 30
0.0
 10
-22.3234
 20
0.19619
 30
0.0
 10
-22.3234
 20
0.33426
 30
0.0
  0
SPLINE
  5
33
330
1F
100
AcDbEntity
  8
0
370
     5
100
AcDbSpline
210
0.0
220
0.0
230
1.0
 70
    11
 71
     3
 72
    20
 73
    16
 74
     0
 42
0.0000000001
 43
0.0000000001
 40
0.0
 40
0.0
 40
0.0
 40
0.0
 40
0.25
 40
0.25
 40
0.25
 40
0.25
 40
0.5
 40
0.5
 40
0.5
 40
0.5
 40
0.75
 40
0.75
 40
0.75
 40
0.75
 40
1.0
 40
1.0
 40
1.0
 40
1.0
 10
-15.66483
 20
6.98941
 30
0.0
 10
-15.66483
 20
7.12748
 30
0.0
 10
-15.77676
 20
7.239400000000001
 30
0.0
 10
-15.91483
 20
7.239400000000001
 30
0.0
 10
-15.91483
 20
7.239400000000001
 30
0.0
 10
-16.05289
 20
7.239400000000001
 30
0.0
 10
-16.16482
 20
7.12748
 30
0.0
 10
-16.16482
 20
6.98941
 30
0.0
 10
-16.16482
 20
6.98941
 30
0.0
 10
-16.16482
 20
6.85134
 30
0.0
 10
-16.0529
 20
6.739420000000001
 30
0.0
 10
-15.91483
 20
6.73941
 30
0.0
 10
-15.91483
 20
6.73941
 30
0.0
 10
-15.77676
 20
6.73941
 30
0.0
 10
-15.66483
 20
6.85134
 30
0.0
 10
-15.66483
 20
6.98941
 30
0.0
  0
SPLINE
  5
34
330
1F
100
AcDbEntity
  8
0
370
     5
100
AcDbSpline
210
0.0
220
0.0
230
1.0
 70
    11
 71
     3
 72
    20
 73
    16
 74
     0
 42
0.0000000001
 43
0.0000000001
 40
0.0
 40
0.0
 40
0.0
 40
0.0
 40
0.25
 40
0.25
 40
0.25
 40
0.25
 40
0.5
 40
0.5
 40
0.5
 40
0.5
 40
0.75
 40
0.75
 40
0.75
 40
0.75
 40
1.0
 40
1.0
 40
1.0
 40
1.0
 10
-15.66826
 20
-6.32432
 30
0.0
 10
-15.66826
 20
-6.18625
 30
0.0
 10
-15.78018
 20
-6.07432
 30
0.0
 10
-15.91825
 20
-6.07432
 30
0.0
 10
-15.91825
 20
-6.07432
 30
0.0
 10
-16.05632
 20
-6.07432
 30
0.0
 10
-16.16825
 20
-6.18625
 30
0.0
 10
-16.16825
 20
-6.32432
 30
0.0
 10
-16.16825
 20
-6.32432
 30
0.0
 10
-16.16825
 20
-6.462390000000001
 30
0.0
 10
-16.05632
 20
-6.57432
 30
0.0
 10
-15.91825
 20
-6.57432
 30
0.0
 10
-15.91825
 20
-6.57432
 30
0.0
 10
-15.78019
 20
-6.57432
 30
0.0
 10
-15.66826
 20
-6.462390000000001
 30
0.0
 10
-15.66826
 20
-6.32432
 30
0.0
  0
SPLINE
  5
35
330
1F
100
AcDbEntity
  8
0
370
     5
100
AcDbSpline
210
0.0
220
0.0
230
1.0
 70
    11
 71
     3
 72
    20
 73
    16
 74
     0
 42
0.0000000001
 43
0.0000000001
 40
0.0
 40
0.0
 40
0.0
 40
0.0
 40
0.25
 40
0.25
 40
0.25
 40
0.25
 40
0.5
 40
0.5
 40
0.5
 40
0.5
 40
0.75
 40
0.75
 40
0.75
 40
0.75
 40
1.0
 40
1.0
 40
1.0
 40
1.0
 10
-10.95822
 20
5.03845
 30
0.0
 10
-10.95822
 20
5.17652
 30
0.0
 10
-11.07015
 20
5.28845
 30
0.0
 10
-11.20822
 20
5.28845
 30
0.0
 10
-11.20822
 20
5.28845
 30
0.0
 10
-11.34629
 20
5.28845
 30
0.0
 10
-11.45822
 20
5.176530000000001
 30
0.0
 10
-11.45822
 20
5.03845
 30
0.0
 10
-11.45822
 20
5.03845
 30
0.0
 10
-11.45822
 20
4.90038
 30
0.0
 10
-11.34629
 20
4.78845
 30
0.0
 10
-11.20822
 20
4.78845
 30
0.0
 10
-11.20822
 20
4.78845
 30
0.0
 10
-11.07015
 20
4.78845
 30
0.0
 10
-10.95822
 20
4.90038
 30
0.0
 10
-10.95822
 20
5.03845
 30
0.0
  0
SPLINE
  5
36
330
1F
100
AcDbEntity
  8
0
370
     5
100
AcDbSpline
210
0.0
220
0.0
230
1.0
 70
    11
 71
     3
 72
    20
 73
    16
 74
     0
 42
0.0000000001
 43
0.0000000001
 40
0.0
 40
0.0
 40
0.0
 40
0.0
 40
0.25
 40
0.25
 40
0.25
 40
0.25
 40
0.5
 40
0.5
 40
0.5
 40
0.5
 40
0.75
 40
0.75
 40
0.75
 40
0.75
 40
1.0
 40
1.0
 40
1.0
 40
1.0
 10
-16.66654
 20
-0.6674500000000001
 30
0.0
 10
-16.66654
 20
-0.5293800000000001
 30
0.0
 10
-16.77846
 20
-0.41745
 30
0.0
 10
-16.91653
 20
-0.41745
 30
0.0
 10
-16.91653
 20
-0.41745
 30
0.0
 10
-17.05461
 20
-0.41745
 30
0.0
 10
-17.16653
 20
-0.5293800000000001
 30
0.0
 10
-17.16653
 20
-0.6674500000000001
 30
0.0
 10
-17.16653
 20
-0.6674500000000001
 30
0.0
 10
-17.16654
 20
-0.80552
 30
0.0
 10
-17.05461
 20
-0.9174500000000001
 30
0.0
 10
-16.91654
 20
-0.9174500000000001
 30
0.0
 10
-16.91654
 20
-0.9174500000000001
 30
0.0
 10
-16.77846
 20
-0.9174500000000001
 30
0.0
 10
-16.66654
 20
-0.80552
 30
0.0
 10
-16.66654
 20
-0.6674500000000001
 30
0.0
  0
SPLINE
  5
37
330
1F
100
AcDbEntity
  8
0
370
     5
100
AcDbSpline
210
0.0
220
0.0
230
1.0
 70
     8
 71
     3
 72
    20
 73
    16
 74
     0
 42
0.0000000001
 43
0.0000000001
 40
0.0
 40
0.0
 40
0.0
 40
0.0
 40
0.25
 40
0.25
 40
0.25
 40
0.25
 40
0.5
 40
0.5
 40
0.5
 40
0.5
 40
0.75
 40
0.75
 40
0.75
 40
0.75
 40
1.0
 40
1.0
 40
1.0
 40
1.0
 10
-14.66654
 20
1.33255
 30
0.0
 10
-14.66654
 20
1.47062
 30
0.0
 10
-14.77847
 20
1.58255
 30
0.0
 10
-14.91654
 20
1.58255
 30
0.0
 10
-14.91654
 20
1.58255
 30
0.0
 10
-15.05462
 20
1.58255
 30
0.0
 10
-15.16654
 20
1.47062
 30
0.0
 10
-15.16654
 20
1.33255
 30
0.0
 10
-15.16654
 20
1.33255
 30
0.0
 10
-15.16655
 20
1.19448
 30
0.0
 10
-15.05462
 20
1.08255
 30
0.0
 10
-14.91655
 20
1.08255
 30
0.0
 10
-14.91655
 20
1.08255
 30
0.0
 10
-14.77847
 20
1.08255
 30
0.0
 10
-14.66655
 20
1.19448
 30
0.0
 10
-14.66655
 20
1.33255
 30
0.0
  0
SPLINE
  5
38
330
1F
100
AcDbEntity
  8
0
370
     5
100
AcDbSpline
210
0.0
220
0.0
230
1.0
 70
     8
 71
     3
 72
    20
 73
    16
 74
     0
 42
0.0000000001
 43
0.0000000001
 40
0.0
 40
0.0
 40
0.0
 40
0.0
 40
0.25
 40
0.25
 40
0.25
 40
0.25
 40
0.5
 40
0.5
 40
0.5
 40
0.5
 40
0.75
 40
0.75
 40
0.75
 40
0.75
 40
1.0
 40
1.0
 40
1.0
 40
1.0
 10
-8.359680000000001
 20
0.33255
 30
0.0
 10
-8.359680000000001
 20
4.50609
 30
0.0
 10
-11.743
 20
7.889400000000001
 30
0.0
 10
-15.91653
 20
7.889400000000001
 30
0.0
 10
-15.91653
 20
7.889400000000001
 30
0.0
 10
-20.09006
 20
7.889410000000001
 30
0.0
 10
-23.47339
 20
4.506110000000001
 30
0.0
 10
-23.4734
 20
0.33257
 30
0.0
 10
-23.4734
 20
0.33257
 30
0.0
 10
-23.47341
 20
-3.84097
 30
0.0
 10
-20.0901
 20
-7.2243
 30
0.0
 10
-15.91657
 20
-7.224320000000001
 30
0.0
 10
-15.91657
 20
-7.224320000000001
 30
0.0
 10
-11.74304
 20
-7.224340000000001
 30
0.0
 10
-8.3597
 20
-3.84103
 30
0.0
 10
-8.359680000000001
 20
0.33251
 30
0.0
  0
SPLINE
  5
39
330
1F
100
AcDbEntity
  8
0
370
     5
100
AcDbSpline
210
0.0
220
0.0
230
1.0
 70
    11
 71
     3
 72
    20
 73
    16
 74
     0
 42
0.0000000001
 43
0.0000000001
 40
0.0
 40
0.0
 40
0.0
 40
0.0
 40
0.25
 40
0.25
 40
0.25
 40
0.25
 40
0.5
 40
0.5
 40
0.5
 40
0.5
 40
0.75
 40
0.75
 40
0.75
 40
0.75
 40
1.0
 40
1.0
 40
1.0
 40
1.0
 10
-2.73191
 20
11.94271
 30
0.0
 10
-2.73191
 20
12.08078
 30
0.0
 10
-2.84383
 20
12.19271
 30
0.0
 10
-2.98191
 20
12.19271
 30
0.0
 10
-2.98191
 20
12.19271
 30
0.0
 10
-3.11998
 20
12.19271
 30
0.0
 10
-3.23191
 20
12.08078
 30
0.0
 10
-3.23191
 20
11.94271
 30
0.0
 10
-3.23191
 20
11.94271
 30
0.0
 10
-3.23191
 20
11.80464
 30
0.0
 10
-3.11998
 20
11.69271
 30
0.0
 10
-2.98191
 20
11.69271
 30
0.0
 10
-2.98191
 20
11.69271
 30
0.0
 10
-2.84384
 20
11.69271
 30
0.0
 10
-2.73191
 20
11.80464
 30
0.0
 10
-2.73191
 20
11.94271
 30
0.0
  0
SPLINE
  5
3A
330
1F
100
AcDbEntity
  8
0
370
     5
100
AcDbSpline
210
0.0
220
0.0
230
1.0
 70
    11
 71
     3
 72
    20
 73
    16
 74
     0
 42
0.0000000001
 43
0.0000000001
 40
0.0
 40
0.0
 40
0.0
 40
0.0
 40
0.25
 40
0.25
 40
0.25
 40
0.25
 40
0.5
 40
0.5
 40
0.5
 40
0.5
 40
0.75
 40
0.75
 40
0.75
 40
0.75
 40
1.0
 40
1.0
 40
1.0
 40
1.0
 10
-15.00637
 20
11.94271
 30
0.0
 10
-15.00637
 20
12.08078
 30
0.0
 10
-15.1183
 20
12.19271
 30
0.0
 10
-15.25637
 20
12.19271
 30
0.0
 10
-15.25637
 20
12.19271
 30
0.0
 10
-15.39444
 20
12.19271
 30
0.0
 10
-15.50637
 20
12.08078
 30
0.0
 10
-15.50637
 20
11.94271
 30
0.0
 10
-15.50637
 20
11.94271
 30
0.0
 10
-15.50637
 20
11.80464
 30
0.0
 10
-15.39445
 20
11.69271
 30
0.0
 10
-15.25638
 20
11.69271
 30
0.0
 10
-15.25638
 20
11.69271
 30
0.0
 10
-15.1183
 20
11.69271
 30
0.0
 10
-15.00637
 20
11.80464
 30
0.0
 10
-15.00637
 20
11.94271
 30
0.0
  0
SPLINE
  5
3B
330
1F
100
AcDbEntity
  8
0
370
     5
100
AcDbSpline
210
0.0
220
0.0
230
1.0
 70
    11
 71
     3
 72
    20
 73
    16
 74
     0
 42
0.0000000001
 43
0.0000000001
 40
0.0
 40
0.0
 40
0.0
 40
0.0
 40
0.25
 40
0.25
 40
0.25
 40
0.25
 40
0.5
 40
0.5
 40
0.5
 40
0.5
 40
0.75
 40
0.75
 40
0.75
 40
0.75
 40
1.0
 40
1.0
 40
1.0
 40
1.0
 10
-2.73191
 20
24.21719
 30
0.0
 10
-2.73191
 20
24.35526
 30
0.0
 10
-2.84383
 20
24.46719
 30
0.0
 10
-2.98191
 20
24.46719
 30
0.0
 10
-2.98191
 20
24.46719
 30
0.0
 10
-3.11998
 20
24.46719
 30
0.0
 10
-3.23191
 20
24.35526
 30
0.0
 10
-3.23191
 20
24.21719
 30
0.0
 10
-3.23191
 20
24.21719
 30
0.0
 10
-3.23191
 20
24.07912
 30
0.0
 10
-3.11998
 20
23.96719
 30
0.0
 10
-2.98191
 20
23.96719
 30
0.0
 10
-2.98191
 20
23.96719
 30
0.0
 10
-2.84384
 20
23.96719
 30
0.0
 10
-2.73191
 20
24.07911
 30
0.0
 10
-2.73191
 20
24.21719
 30
0.0
  0
SPLINE
  5
3C
330
1F
100
AcDbEntity
  8
0
370
     5
100
AcDbSpline
210
0.0
220
0.0
230
1.0
 70
    11
 71
     3
 72
    20
 73
    16
 74
     0
 42
0.0000000001
 43
0.0000000001
 40
0.0
 40
0.0
 40
0.0
 40
0.0
 40
0.25
 40
0.25
 40
0.25
 40
0.25
 40
0.5
 40
0.5
 40
0.5
 40
0.5
 40
0.75
 40
0.75
 40
0.75
 40
0.75
 40
1.0
 40
1.0
 40
1.0
 40
1.0
 10
-15.00637
 20
24.21719
 30
0.0
 10
-15.00637
 20
24.35526
 30
0.0
 10
-15.1183
 20
24.46719
 30
0.0
 10
-15.25637
 20
24.46719
 30
0.0
 10
-15.25637
 20
24.46719
 30
0.0
 10
-15.39444
 20
24.46719
 30
0.0
 10
-15.50637
 20
24.35526
 30
0.0
 10
-15.50637
 20
24.21719
 30
0.0
 10
-15.50637
 20
24.21719
 30
0.0
 10
-15.50637
 20
24.07912
 30
0.0
 10
-15.39445
 20
23.96719
 30
0.0
 10
-15.25638
 20
23.96719
 30
0.0
 10
-15.25638
 20
23.96719
 30
0.0
 10
-15.1183
 20
23.96719
 30
0.0
 10
-15.00637
 20
24.07911
 30
0.0
 10
-15.00637
 20
24.21719
 30
0.0
  0
SPLINE
  5
3D
330
1F
100
AcDbEntity
  8
0
370
     5
100
AcDbSpline
210
0.0
220
0.0
230
1.0
 70
    11
 71
     3
 72
    20
 73
    16
 74
     0
 42
0.0000000001
 43
0.0000000001
 40
0.0
 40
0.0
 40
0.0
 40
0.0
 40
0.25
 40
0.25
 40
0.25
 40
0.25
 40
0.5
 40
0.5
 40
0.5
 40
0.5
 40
0.75
 40
0.75
 40
0.75
 40
0.75
 40
1.0
 40
1.0
 40
1.0
 40
1.0
 10
-0.18978
 20
18.07995
 30
0.0
 10
-0.18978
 20
18.21802
 30
0.0
 10
-0.30171
 20
18.32995
 30
0.0
 10
-0.4397800000000001
 20
18.32995
 30
0.0
 10
-0.4397800000000001
 20
18.32995
 30
0.0
 10
-0.5778500000000001
 20
18.32995
 30
0.0
 10
-0.6897800000000001
 20
18.21802
 30
0.0
 10
-0.6897800000000001
 20
18.07995
 30
0.0
 10
-0.6897800000000001
 20
18.07995
 30
0.0
 10
-0.6897800000000001
 20
17.94188
 30
0.0
 10
-0.5778500000000001
 20
17.82995
 30
0.0
 10
-0.4397800000000001
 20
17.82995
 30
0.0
 10
-0.4397800000000001
 20
17.82995
 30
0.0
 10
-0.30171
 20
17.82995
 30
0.0
 10
-0.18978
 20
17.94188
 30
0.0
 10
-0.18978
 20
18.07995
 30
0.0
  0
SPLINE
  5
3E
330
1F
100
AcDbEntity
  8
0
370
     5
100
AcDbSpline
210
0.0
220
0.0
230
1.0
 70
     8
 71
     3
 72
    20
 73
    16
 74
     0
 42
0.0000000001
 43
0.0000000001
 40
0.0
 40
0.0
 40
0.0
 40
0.0
 40
0.25
 40
0.25
 40
0.25
 40
0.25
 40
0.5
 40
0.5
 40
0.5
 40
0.5
 40
0.75
 40
0.75
 40
0.75
 40
0.75
 40
1.0
 40
1.0
 40
1.0
 40
1.0
 10
-8.869150000000001
 20
26.75931
 30
0.0
 10
-8.869150000000001
 20
26.89738
 30
0.0
 10
-8.981070000000001
 20
27.0093
 30
0.0
 10
-9.119140000000002
 20
27.0093
 30
0.0
 10
-9.119140000000002
 20
27.0093
 30
0.0
 10
-9.257210000000001
 20
27.00931
 30
0.0
 10
-9.36913
 20
26.89738
 30
0.0
 10
-9.36913
 20
26.75931
 30
0.0
 10
-9.36913
 20
26.75931
 30
0.0
 10
-9.369140000000002
 20
26.62123
 30
0.0
 10
-9.257210000000001
 20
26.50931
 30
0.0
 10
-9.119140000000002
 20
26.50931
 30
0.0
 10
-9.119140000000002
 20
26.50931
 30
0.0
 10
-8.981070000000001
 20
26.5093
 30
0.0
 10
-8.869150000000001
 20
26.62123
 30
0.0
 10
-8.869150000000001
 20
26.7593
 30
0.0
  0
SPLINE
  5
3F
330
1F
100
AcDbEntity
  8
0
370
     5
100
AcDbSpline
210
0.0
220
0.0
230
1.0
 70
    11
 71
     3
 72
    20
 73
    16
 74
     0
 42
0.0000000001
 43
0.0000000001
 40
0.0
 40
0.0
 40
0.0
 40
0.0
 40
0.25
 40
0.25
 40
0.25
 40
0.25
 40
0.5
 40
0.5
 40
0.5
 40
0.5
 40
0.75
 40
0.75
 40
0.75
 40
0.75
 40
1.0
 40
1.0
 40
1.0
 40
1.0
 10
-17.5485
 20
18.07995
 30
0.0
 10
-17.5485
 20
18.21802
 30
0.0
 10
-17.66043
 20
18.32995
 30
0.0
 10
-17.7985
 20
18.32995
 30
0.0
 10
-17.7985
 20
18.32995
 30
0.0
 10
-17.93657
 20
18.32995
 30
0.0
 10
-18.0485
 20
18.21802
 30
0.0
 10
-18.0485
 20
18.07995
 30
0.0
 10
-18.0485
 20
18.07995
 30
0.0
 10
-18.0485
 20
17.94188
 30
0.0
 10
-17.93657
 20
17.82995
 30
0.0
 10
-17.7985
 20
17.82995
 30
0.0
 10
-17.7985
 20
17.82995
 30
0.0
 10
-17.66043
 20
17.82995
 30
0.0
 10
-17.5485
 20
17.94188
 30
0.0
 10
-17.5485
 20
18.07995
 30
0.0
  0
SPLINE
  5
40
330
1F
100
AcDbEntity
  8
0
370
     5
100
AcDbSpline
210
0.0
220
0.0
230
1.0
 70
     8
 71
     3
 72
    20
 73
    16
 74
     0
 42
0.0000000001
 43
0.0000000001
 40
0.0
 40
0.0
 40
0.0
 40
0.0
 40
0.25
 40
0.25
 40
0.25
 40
0.25
 40
0.5
 40
0.5
 40
0.5
 40
0.5
 40
0.75
 40
0.75
 40
0.75
 40
0.75
 40
1.0
 40
1.0
 40
1.0
 40
1.0
 10
-1.46228
 20
18.07995
 30
0.0
 10
-1.46228
 20
22.30872
 30
0.0
 10
-4.890370000000001
 20
25.7368
 30
0.0
 10
-9.11913
 20
25.7368
 30
0.0
 10
-9.11913
 20
25.7368
 30
0.0
 10
-13.34789
 20
25.73681
 30
0.0
 10
-16.77599
 20
22.30874
 30
0.0
 10
-16.776
 20
18.07997
 30
0.0
 10
-16.776
 20
18.07997
 30
0.0
 10
-16.77601
 20
13.8512
 30
0.0
 10
-13.34793
 20
10.4231
 30
0.0
 10
-9.11917
 20
10.42308
 30
0.0
 10
-9.11917
 20
10.42308
 30
0.0
 10
-4.89041
 20
10.42306
 30
0.0
 10
-1.4623
 20
13.85114
 30
0.0
 10
-1.46228
 20
18.07991
 30
0.0
  0
SPLINE
  5
41
330
1F
100
AcDbEntity
  8
0
370
     5
100
AcDbSpline
210
0.0
220
0.0
230
1.0
 70
     8
 71
     3
 72
    20
 73
    16
 74
     0
 42
0.0000000001
 43
0.0000000001
 40
0.0
 40
0.0
 40
0.0
 40
0.0
 40
0.25
 40
0.25
 40
0.25
 40
0.25
 40
0.5
 40
0.5
 40
0.5
 40
0.5
 40
0.75
 40
0.75
 40
0.75
 40
0.75
 40
1.0
 40
1.0
 40
1.0
 40
1.0
 10
-8.869140000000002
 20
9.400580000000002
 30
0.0
 10
-8.869140000000002
 20
9.538650000000001
 30
0.0
 10
-8.981070000000001
 20
9.650580000000002
 30
0.0
 10
-9.119140000000002
 20
9.650580000000002
 30
0.0
 10
-9.119140000000002
 20
9.650580000000002
 30
0.0
 10
-9.257210000000001
 20
9.650580000000002
 30
0.0
 10
-9.36913
 20
9.538650000000001
 30
0.0
 10
-9.36913
 20
9.400580000000002
 30
0.0
 10
-9.36913
 20
9.400580000000002
 30
0.0
 10
-9.369140000000002
 20
9.262510000000001
 30
0.0
 10
-9.257210000000001
 20
9.150580000000002
 30
0.0
 10
-9.119140000000002
 20
9.150580000000002
 30
0.0
 10
-9.119140000000002
 20
9.150580000000002
 30
0.0
 10
-8.981070000000001
 20
9.150580000000002
 30
0.0
 10
-8.869150000000001
 20
9.262510000000001
 30
0.0
 10
-8.869150000000001
 20
9.400580000000002
 30
0.0
  0
SPLINE
  5
42
330
1F
100
AcDbEntity
  8
0
370
     5
100
AcDbSpline
210
0.0
220
0.0
230
1.0
 70
     8
 71
     3
 72
    20
 73
    16
 74
     0
 42
0.0000000001
 43
0.0000000001
 40
0.0
 40
0.0
 40
0.0
 40
0.0
 40
0.25
 40
0.25
 40
0.25
 40
0.25
 40
0.5
 40
0.5
 40
0.5
 40
0.5
 40
0.75
 40
0.75
 40
0.75
 40
0.75
 40
1.0
 40
1.0
 40
1.0
 40
1.0
 10
0.7547200000000001
 20
18.07995
 30
0.0
 10
0.7547200000000001
 20
23.53313
 30
0.0
 10
-3.665950000000001
 20
27.9538
 30
0.0
 10
-9.11913
 20
27.9538
 30
0.0
 10
-9.11913
 20
27.9538
 30
0.0
 10
-14.5723
 20
27.95381
 30
0.0
 10
-18.99299
 20
23.53316
 30
0.0
 10
-18.993
 20
18.07997
 30
0.0
 10
-18.993
 20
18.07997
 30
0.0
 10
-18.99302
 20
12.62679
 30
0.0
 10
-14.57236
 20
8.206100000000001
 30
0.0
 10
-9.11917
 20
8.20608
 30
0.0
 10
-9.11917
 20
8.20608
 30
0.0
 10
-3.666
 20
8.206060000000001
 30
0.0
 10
0.7546900000000001
 20
12.62671
 30
0.0
 10
0.7547200000000001
 20
18.0799
 30
0.0
  0
SPLINE
  5
43
330
1F
100
AcDbEntity
  8
0
370
     5
100
AcDbSpline
210
0.0
220
0.0
230
1.0
 70
    11
 71
     3
 72
    20
 73
    16
 74
     0
 42
0.0000000001
 43
0.0000000001
 40
0.0
 40
0.0
 40
0.0
 40
0.0
 40
0.25
 40
0.25
 40
0.25
 40
0.25
 40
0.5
 40
0.5
 40
0.5
 40
0.5
 40
0.75
 40
0.75
 40
0.75
 40
0.75
 40
1.0
 40
1.0
 40
1.0
 40
1.0
 10
11.48745
 20
19.05395
 30
0.0
 10
11.48745
 20
19.19202
 30
0.0
 10
11.37553
 20
19.30395
 30
0.0
 10
11.23746
 20
19.30395
 30
0.0
 10
11.23746
 20
19.30395
 30
0.0
 10
11.09939
 20
19.30395
 30
0.0
 10
10.98747
 20
19.19202
 30
0.0
 10
10.98747
 20
19.05395
 30
0.0
 10
10.98747
 20
19.05395
 30
0.0
 10
10.98746
 20
18.91588
 30
0.0
 10
11.09939
 20
18.80395
 30
0.0
 10
11.23746
 20
18.80395
 30
0.0
 10
11.23746
 20
18.80395
 30
0.0
 10
11.37553
 20
18.80395
 30
0.0
 10
11.48745
 20
18.91588
 30
0.0
 10
11.48745
 20
19.05395
 30
0.0
  0
SPLINE
  5
44
330
1F
100
AcDbEntity
  8
0
370
     5
100
AcDbSpline
210
0.0
220
0.0
230
1.0
 70
    11
 71
     3
 72
    20
 73
    16
 74
     0
 42
0.0000000001
 43
0.0000000001
 40
0.0
 40
0.0
 40
0.0
 40
0.0
 40
0.25
 40
0.25
 40
0.25
 40
0.25
 40
0.5
 40
0.5
 40
0.5
 40
0.5
 40
0.75
 40
0.75
 40
0.75
 40
0.75
 40
1.0
 40
1.0
 40
1.0
 40
1.0
 10
20.16682
 20
19.05395
 30
0.0
 10
20.16682
 20
19.19202
 30
0.0
 10
20.05489
 20
19.30395
 30
0.0
 10
19.91682
 20
19.30395
 30
0.0
 10
19.91682
 20
19.30395
 30
0.0
 10
19.77875
 20
19.30395
 30
0.0
 10
19.66682
 20
19.19202
 30
0.0
 10
19.66682
 20
19.05395
 30
0.0
 10
19.66682
 20
19.05395
 30
0.0
 10
19.66682
 20
18.91588
 30
0.0
 10
19.77875
 20
18.80395
 30
0.0
 10
19.91682
 20
18.80395
 30
0.0
 10
19.91682
 20
18.80395
 30
0.0
 10
20.05489
 20
18.80395
 30
0.0
 10
20.16682
 20
18.91588
 30
0.0
 10
20.16682
 20
19.05395
 30
0.0
  0
SPLINE
  5
45
330
1F
100
AcDbEntity
  8
0
370
     5
100
AcDbSpline
210
0.0
220
0.0
230
1.0
 70
    11
 71
     3
 72
    40
 73
    36
 74
     0
 42
0.0000000001
 43
0.0000000001
 40
0.0
 40
0.0
 40
0.0
 40
0.0
 40
0.1111111111111111
 40
0.1111111111111111
 40
0.1111111111111111
 40
0.1111111111111111
 40
0.2222222222222222
 40
0.2222222222222222
 40
0.2222222222222222
 40
0.2222222222222222
 40
0.3333333333333333
 40
0.3333333333333333
 40
0.3333333333333333
 40
0.3333333333333333
 40
0.4444444444444444
 40
0.4444444444444444
 40
0.4444444444444444
 40
0.4444444444444444
 40
0.5555555555555556
 40
0.5555555555555556
 40
0.5555555555555556
 40
0.5555555555555556
 40
0.6666666666666667
 40
0.6666666666666667
 40
0.6666666666666667
 40
0.6666666666666667
 40
0.7777777777777779
 40
0.7777777777777779
 40
0.7777777777777779
 40
0.7777777777777779
 40
0.8888888888888891
 40
0.8888888888888891
 40
0.8888888888888891
 40
0.8888888888888891
 40
1.0
 40
1.0
 40
1.0
 40
1.0
 10
13.90319
 20
14.06456
 30
0.0
 10
13.59388
 20
13.8986
 30
0.0
 10
13.22016
 20
13.90716
 30
0.0
 10
12.91877
 20
14.08712
 30
0.0
 10
12.91877
 20
14.08712
 30
0.0
 10
12.61739
 20
14.26708
 30
0.0
 10
12.43257
 20
14.59554
 30
0.0
 10
12.43196
 20
14.94657
 30
0.0
 10
12.43196
 20
14.94657
 30
0.0
 10
12.43196
 20
14.94657
 30
0.0
 10
12.43196
 20
15.85945
 30
0.0
 10
12.43196
 20
15.85945
 30
0.0
 10
12.43196
 20
15.85945
 30
0.0
 10
12.43162
 20
16.38955
 30
0.0
 10
12.64188
 20
16.89806
 30
0.0
 10
13.01648
 20
17.27314
 30
0.0
 10
13.01648
 20
17.27314
 30
0.0
 10
13.39107
 20
17.64821
 30
0.0
 10
13.90186
 20
17.85911
 30
0.0
 10
14.43195
 20
17.85945
 30
0.0
 10
14.43195
 20
17.85945
 30
0.0
 10
14.43195
 20
17.85945
 30
0.0
 10
15.34484
 20
17.85945
 30
0.0
 10
15.34484
 20
17.85945
 30
0.0
 10
15.34484
 20
17.85945
 30
0.0
 10
15.69586
 20
17.86007
 30
0.0
 10
16.02145
 20
17.6764
 30
0.0
 10
16.20247
 20
17.37565
 30
0.0
 10
16.20247
 20
17.37565
 30
0.0
 10
16.38349
 20
17.0749
 30
0.0
 10
16.39171
 20
16.6981
 30
0.0
 10
16.22684
 20
16.38821
 30
0.0
 10
16.22684
 20
16.38821
 30
0.0
 10
15.69944
 20
15.40095
 30
0.0
 10
14.89039
 20
14.59208
 30
0.0
 10
13.90319
 20
14.06456
 30
0.0
  0
SPLINE
  5
46
330
1F
100
AcDbEntity
  8
0
370
     5
100
AcDbSpline
210
0.0
220
0.0
230
1.0
 70
     8
 71
     3
 72
    20
 73
    16
 74
     0
 42
0.0000000001
 43
0.0000000001
 40
0.0
 40
0.0
 40
0.0
 40
0.0
 40
0.25
 40
0.25
 40
0.25
 40
0.25
 40
0.5
 40
0.5
 40
0.5
 40
0.5
 40
0.75
 40
0.75
 40
0.75
 40
0.75
 40
1.0
 40
1.0
 40
1.0
 40
1.0
 10
11.48745
 20
23.68532
 30
0.0
 10
11.48745
 20
23.82339
 30
0.0
 10
11.37553
 20
23.93531
 30
0.0
 10
11.23746
 20
23.93531
 30
0.0
 10
11.23746
 20
23.93531
 30
0.0
 10
11.09939
 20
23.93532
 30
0.0
 10
10.98747
 20
23.82339
 30
0.0
 10
10.98747
 20
23.68532
 30
0.0
 10
10.98747
 20
23.68532
 30
0.0
 10
10.98746
 20
23.54724
 30
0.0
 10
11.09939
 20
23.43532
 30
0.0
 10
11.23746
 20
23.43532
 30
0.0
 10
11.23746
 20
23.43532
 30
0.0
 10
11.37553
 20
23.43531
 30
0.0
 10
11.48745
 20
23.54724
 30
0.0
 10
11.48745
 20
23.68531
 30
0.0
  0
SPLINE
  5
47
330
1F
100
AcDbEntity
  8
0
370
     5
100
AcDbSpline
210
0.0
220
0.0
230
1.0
 70
     8
 71
     3
 72
    20
 73
    16
 74
     0
 42
0.0000000001
 43
0.0000000001
 40
0.0
 40
0.0
 40
0.0
 40
0.0
 40
0.25
 40
0.25
 40
0.25
 40
0.25
 40
0.5
 40
0.5
 40
0.5
 40
0.5
 40
0.75
 40
0.75
 40
0.75
 40
0.75
 40
1.0
 40
1.0
 40
1.0
 40
1.0
 10
11.48745
 20
27.73331
 30
0.0
 10
11.48745
 20
27.87138
 30
0.0
 10
11.37553
 20
27.9833
 30
0.0
 10
11.23746
 20
27.9833
 30
0.0
 10
11.23746
 20
27.9833
 30
0.0
 10
11.09939
 20
27.98331
 30
0.0
 10
10.98747
 20
27.87138
 30
0.0
 10
10.98747
 20
27.73331
 30
0.0
 10
10.98747
 20
27.73331
 30
0.0
 10
10.98746
 20
27.59523
 30
0.0
 10
11.09939
 20
27.48331
 30
0.0
 10
11.23746
 20
27.48331
 30
0.0
 10
11.23746
 20
27.48331
 30
0.0
 10
11.37553
 20
27.4833
 30
0.0
 10
11.48745
 20
27.59523
 30
0.0
 10
11.48745
 20
27.7333
 30
0.0
  0
SPLINE
  5
48
330
1F
100
AcDbEntity
  8
0
370
     5
100
AcDbSpline
210
0.0
220
0.0
230
1.0
 70
    11
 71
     3
 72
    20
 73
    16
 74
     0
 42
0.0000000001
 43
0.0000000001
 40
0.0
 40
0.0
 40
0.0
 40
0.0
 40
0.25
 40
0.25
 40
0.25
 40
0.25
 40
0.5
 40
0.5
 40
0.5
 40
0.5
 40
0.75
 40
0.75
 40
0.75
 40
0.75
 40
1.0
 40
1.0
 40
1.0
 40
1.0
 10
16.11882
 20
19.05395
 30
0.0
 10
16.11882
 20
19.19202
 30
0.0
 10
16.00689
 20
19.30395
 30
0.0
 10
15.86882
 20
19.30395
 30
0.0
 10
15.86882
 20
19.30395
 30
0.0
 10
15.73075
 20
19.30395
 30
0.0
 10
15.61882
 20
19.19202
 30
0.0
 10
15.61882
 20
19.05395
 30
0.0
 10
15.61882
 20
19.05395
 30
0.0
 10
15.61882
 20
18.91588
 30
0.0
 10
15.73075
 20
18.80395
 30
0.0
 10
15.86882
 20
18.80395
 30
0.0
 10
15.86882
 20
18.80395
 30
0.0
 10
16.00689
 20
18.80395
 30
0.0
 10
16.11882
 20
18.91588
 30
0.0
 10
16.11882
 20
19.05395
 30
0.0
  0
SPLINE
  5
49
330
1F
100
AcDbEntity
  8
0
370
     5
100
AcDbSpline
210
0.0
220
0.0
230
1.0
 70
    11
 71
     3
 72
    20
 73
    16
 74
     0
 42
0.0000000001
 43
0.0000000001
 40
0.0
 40
0.0
 40
0.0
 40
0.0
 40
0.25
 40
0.25
 40
0.25
 40
0.25
 40
0.5
 40
0.5
 40
0.5
 40
0.5
 40
0.75
 40
0.75
 40
0.75
 40
0.75
 40
1.0
 40
1.0
 40
1.0
 40
1.0
 10
12.48745
 20
18.05395
 30
0.0
 10
12.48745
 20
18.19202
 30
0.0
 10
12.37553
 20
18.30395
 30
0.0
 10
12.23746
 20
18.30395
 30
0.0
 10
12.23746
 20
18.30395
 30
0.0
 10
12.09938
 20
18.30395
 30
0.0
 10
11.98746
 20
18.19202
 30
0.0
 10
11.98746
 20
18.05395
 30
0.0
 10
11.98746
 20
18.05395
 30
0.0
 10
11.98745
 20
17.91588
 30
0.0
 10
12.09938
 20
17.80395
 30
0.0
 10
12.23745
 20
17.80395
 30
0.0
 10
12.23745
 20
17.80395
 30
0.0
 10
12.37553
 20
17.80395
 30
0.0
 10
12.48745
 20
17.91588
 30
0.0
 10
12.48745
 20
18.05395
 30
0.0
  0
SPLINE
  5
4A
330
1F
100
AcDbEntity
  8
0
370
     5
100
AcDbSpline
210
0.0
220
0.0
230
1.0
 70
    11
 71
     3
 72
    20
 73
    16
 74
     0
 42
0.0000000001
 43
0.0000000001
 40
0.0
 40
0.0
 40
0.0
 40
0.0
 40
0.25
 40
0.25
 40
0.25
 40
0.25
 40
0.5
 40
0.5
 40
0.5
 40
0.5
 40
0.75
 40
0.75
 40
0.75
 40
0.75
 40
1.0
 40
1.0
 40
1.0
 40
1.0
 10
2.8081
 20
19.05395
 30
0.0
 10
2.8081
 20
19.19202
 30
0.0
 10
2.69617
 20
19.30395
 30
0.0
 10
2.5581
 20
19.30395
 30
0.0
 10
2.5581
 20
19.30395
 30
0.0
 10
2.42003
 20
19.30395
 30
0.0
 10
2.3081
 20
19.19202
 30
0.0
 10
2.3081
 20
19.05395
 30
0.0
 10
2.3081
 20
19.05395
 30
0.0
 10
2.3081
 20
18.91588
 30
0.0
 10
2.42003
 20
18.80395
 30
0.0
 10
2.5581
 20
18.80395
 30
0.0
 10
2.5581
 20
18.80395
 30
0.0
 10
2.69617
 20
18.80395
 30
0.0
 10
2.8081
 20
18.91588
 30
0.0
 10
2.8081
 20
19.05395
 30
0.0
  0
SPLINE
  5
4B
330
1F
100
AcDbEntity
  8
0
370
     5
100
AcDbSpline
210
0.0
220
0.0
230
1.0
 70
     8
 71
     3
 72
    20
 73
    16
 74
     0
 42
0.0000000001
 43
0.0000000001
 40
0.0
 40
0.0
 40
0.0
 40
0.0
 40
0.25
 40
0.25
 40
0.25
 40
0.25
 40
0.5
 40
0.5
 40
0.5
 40
0.5
 40
0.75
 40
0.75
 40
0.75
 40
0.75
 40
1.0
 40
1.0
 40
1.0
 40
1.0
 10
11.48746
 20
10.37458
 30
0.0
 10
11.48746
 20
10.51265
 30
0.0
 10
11.37553
 20
10.62458
 30
0.0
 10
11.23746
 20
10.62458
 30
0.0
 10
11.23746
 20
10.62458
 30
0.0
 10
11.09939
 20
10.62458
 30
0.0
 10
10.98747
 20
10.51265
 30
0.0
 10
10.98747
 20
10.37458
 30
0.0
 10
10.98747
 20
10.37458
 30
0.0
 10
10.98746
 20
10.23651
 30
0.0
 10
11.09939
 20
10.12458
 30
0.0
 10
11.23746
 20
10.12458
 30
0.0
 10
11.23746
 20
10.12458
 30
0.0
 10
11.37553
 20
10.12458
 30
0.0
 10
11.48745
 20
10.23651
 30
0.0
 10
11.48745
 20
10.37458
 30
0.0
  0
SPLINE
  5
4C
330
1F
100
AcDbEntity
  8
0
370
     5
100
AcDbSpline
210
0.0
220
0.0
230
1.0
 70
    11
 71
     3
 72
    20
 73
    16
 74
     0
 42
0.0000000001
 43
0.0000000001
 40
0.0
 40
0.0
 40
0.0
 40
0.0
 40
0.25
 40
0.25
 40
0.25
 40
0.25
 40
0.5
 40
0.5
 40
0.5
 40
0.5
 40
0.75
 40
0.75
 40
0.75
 40
0.75
 40
1.0
 40
1.0
 40
1.0
 40
1.0
 10
10.48746
 20
20.05395
 30
0.0
 10
10.48746
 20
20.19202
 30
0.0
 10
10.37554
 20
20.30395
 30
0.0
 10
10.23747
 20
20.30395
 30
0.0
 10
10.23747
 20
20.30395
 30
0.0
 10
10.09939
 20
20.30395
 30
0.0
 10
9.98747
 20
20.19202
 30
0.0
 10
9.98747
 20
20.05395
 30
0.0
 10
9.98747
 20
20.05395
 30
0.0
 10
9.98746
 20
19.91588
 30
0.0
 10
10.09939
 20
19.80395
 30
0.0
 10
10.23746
 20
19.80395
 30
0.0
 10
10.23746
 20
19.80395
 30
0.0
 10
10.37554
 20
19.80395
 30
0.0
 10
10.48746
 20
19.91588
 30
0.0
 10
10.48746
 20
20.05395
 30
0.0
  0
SPLINE
  5
4D
330
1F
100
AcDbEntity
  8
0
370
     5
100
AcDbSpline
210
0.0
220
0.0
230
1.0
 70
     8
 71
     3
 72
    20
 73
    16
 74
     0
 42
0.0000000001
 43
0.0000000001
 40
0.0
 40
0.0
 40
0.0
 40
0.0
 40
0.25
 40
0.25
 40
0.25
 40
0.25
 40
0.5
 40
0.5
 40
0.5
 40
0.5
 40
0.75
 40
0.75
 40
0.75
 40
0.75
 40
1.0
 40
1.0
 40
1.0
 40
1.0
 10
11.48746
 20
14.42258
 30
0.0
 10
11.48746
 20
14.56065
 30
0.0
 10
11.37553
 20
14.67258
 30
0.0
 10
11.23746
 20
14.67258
 30
0.0
 10
11.23746
 20
14.67258
 30
0.0
 10
11.09939
 20
14.67258
 30
0.0
 10
10.98747
 20
14.56065
 30
0.0
 10
10.98747
 20
14.42258
 30
0.0
 10
10.98747
 20
14.42258
 30
0.0
 10
10.98746
 20
14.28451
 30
0.0
 10
11.09939
 20
14.17258
 30
0.0
 10
11.23746
 20
14.17258
 30
0.0
 10
11.23746
 20
14.17258
 30
0.0
 10
11.37553
 20
14.17258
 30
0.0
 10
11.48745
 20
14.28451
 30
0.0
 10
11.48745
 20
14.42258
 30
0.0
  0
SPLINE
  5
4E
330
1F
100
AcDbEntity
  8
0
370
     5
100
AcDbSpline
210
0.0
220
0.0
230
1.0
 70
    11
 71
     3
 72
    40
 73
    36
 74
     0
 42
0.0000000001
 43
0.0000000001
 40
0.0
 40
0.0
 40
0.0
 40
0.0
 40
0.1111111111111111
 40
0.1111111111111111
 40
0.1111111111111111
 40
0.1111111111111111
 40
0.2222222222222222
 40
0.2222222222222222
 40
0.2222222222222222
 40
0.2222222222222222
 40
0.3333333333333333
 40
0.3333333333333333
 40
0.3333333333333333
 40
0.3333333333333333
 40
0.4444444444444444
 40
0.4444444444444444
 40
0.4444444444444444
 40
0.4444444444444444
 40
0.5555555555555556
 40
0.5555555555555556
 40
0.5555555555555556
 40
0.5555555555555556
 40
0.6666666666666667
 40
0.6666666666666667
 40
0.6666666666666667
 40
0.6666666666666667
 40
0.7777777777777779
 40
0.7777777777777779
 40
0.7777777777777779
 40
0.7777777777777779
 40
0.8888888888888891
 40
0.8888888888888891
 40
0.8888888888888891
 40
0.8888888888888891
 40
1.0
 40
1.0
 40
1.0
 40
1.0
 10
14.43196
 20
20.24845
 30
0.0
 10
13.90186
 20
20.24811
 30
0.0
 10
13.39334
 20
20.45837
 30
0.0
 10
13.01827
 20
20.83297
 30
0.0
 10
13.01827
 20
20.83297
 30
0.0
 10
12.64319
 20
21.20757
 30
0.0
 10
12.43229
 20
21.71835
 30
0.0
 10
12.43196
 20
22.24845
 30
0.0
 10
12.43196
 20
22.24845
 30
0.0
 10
12.43196
 20
22.24845
 30
0.0
 10
12.43196
 20
23.16133
 30
0.0
 10
12.43196
 20
23.16133
 30
0.0
 10
12.43196
 20
23.16133
 30
0.0
 10
12.43134
 20
23.51235
 30
0.0
 10
12.615
 20
23.83794
 30
0.0
 10
12.91575
 20
24.01896
 30
0.0
 10
12.91575
 20
24.01896
 30
0.0
 10
13.2165
 20
24.19998
 30
0.0
 10
13.5933
 20
24.2082
 30
0.0
 10
13.90319
 20
24.04333
 30
0.0
 10
13.90319
 20
24.04333
 30
0.0
 10
14.89045
 20
23.51594
 30
0.0
 10
15.69933
 20
22.70688
 30
0.0
 10
16.22684
 20
21.71969
 30
0.0
 10
16.22684
 20
21.71969
 30
0.0
 10
16.3928
 20
21.41038
 30
0.0
 10
16.38424
 20
21.03665
 30
0.0
 10
16.20428
 20
20.73527
 30
0.0
 10
16.20428
 20
20.73527
 30
0.0
 10
16.02432
 20
20.43388
 30
0.0
 10
15.69586
 20
20.24907
 30
0.0
 10
15.34484
 20
20.24845
 30
0.0
 10
15.34484
 20
20.24845
 30
0.0
 10
15.34484
 20
20.24845
 30
0.0
 10
14.43196
 20
20.24845
 30
0.0
 10
14.43196
 20
20.24845
 30
0.0
  0
SPLINE
  5
4F
330
1F
100
AcDbEntity
  8
0
370
     5
100
AcDbSpline
210
0.0
220
0.0
230
1.0
 70
    11
 71
     3
 72
    40
 73
    36
 74
     0
 42
0.0000000001
 43
0.0000000001
 40
0.0
 40
0.0
 40
0.0
 40
0.0
 40
0.1111111111111111
 40
0.1111111111111111
 40
0.1111111111111111
 40
0.1111111111111111
 40
0.2222222222222222
 40
0.2222222222222222
 40
0.2222222222222222
 40
0.2222222222222222
 40
0.3333333333333333
 40
0.3333333333333333
 40
0.3333333333333333
 40
0.3333333333333333
 40
0.4444444444444444
 40
0.4444444444444444
 40
0.4444444444444444
 40
0.4444444444444444
 40
0.5555555555555556
 40
0.5555555555555556
 40
0.5555555555555556
 40
0.5555555555555556
 40
0.6666666666666667
 40
0.6666666666666667
 40
0.6666666666666667
 40
0.6666666666666667
 40
0.7777777777777779
 40
0.7777777777777779
 40
0.7777777777777779
 40
0.7777777777777779
 40
0.8888888888888891
 40
0.8888888888888891
 40
0.8888888888888891
 40
0.8888888888888891
 40
1.0
 40
1.0
 40
1.0
 40
1.0
 10
8.04297
 20
17.85945
 30
0.0
 10
8.57306
 20
17.85978
 30
0.0
 10
9.081580000000001
 20
17.64953
 30
0.0
 10
9.456650000000002
 20
17.27493
 30
0.0
 10
9.456650000000002
 20
17.27493
 30
0.0
 10
9.83173
 20
16.90033
 30
0.0
 10
10.04263
 20
16.38955
 30
0.0
 10
10.04297
 20
15.85945
 30
0.0
 10
10.04297
 20
15.85945
 30
0.0
 10
10.04297
 20
15.85945
 30
0.0
 10
10.04297
 20
14.94657
 30
0.0
 10
10.04297
 20
14.94657
 30
0.0
 10
10.04297
 20
14.94657
 30
0.0
 10
10.04358
 20
14.59554
 30
0.0
 10
9.859920000000001
 20
14.26995
 30
0.0
 10
9.55917
 20
14.08893
 30
0.0
 10
9.55917
 20
14.08893
 30
0.0
 10
9.258420000000001
 20
13.90791
 30
0.0
 10
8.88162
 20
13.89969
 30
0.0
 10
8.571730000000001
 20
14.06456
 30
0.0
 10
8.571730000000001
 20
14.06456
 30
0.0
 10
7.584470000000001
 20
14.59196
 30
0.0
 10
6.77559
 20
15.40102
 30
0.0
 10
6.248080000000001
 20
16.38821
 30
0.0
 10
6.248080000000001
 20
16.38821
 30
0.0
 10
6.082120000000001
 20
16.69752
 30
0.0
 10
6.090680000000001
 20
17.07124
 30
0.0
 10
6.27064
 20
17.37263
 30
0.0
 10
6.27064
 20
17.37263
 30
0.0
 10
6.450600000000001
 20
17.67401
 30
0.0
 10
6.77906
 20
17.85883
 30
0.0
 10
7.13008
 20
17.85945
 30
0.0
 10
7.13008
 20
17.85945
 30
0.0
 10
7.13008
 20
17.85945
 30
0.0
 10
8.04297
 20
17.85945
 30
0.0
 10
8.04297
 20
17.85945
 30
0.0
  0
SPLINE
  5
50
330
1F
100
AcDbEntity
  8
0
370
     5
100
AcDbSpline
210
0.0
220
0.0
230
1.0
 70
    11
 71
     3
 72
    40
 73
    36
 74
     0
 42
0.0000000001
 43
0.0000000001
 40
0.0
 40
0.0
 40
0.0
 40
0.0
 40
0.1111111111111111
 40
0.1111111111111111
 40
0.1111111111111111
 40
0.1111111111111111
 40
0.2222222222222222
 40
0.2222222222222222
 40
0.2222222222222222
 40
0.2222222222222222
 40
0.3333333333333333
 40
0.3333333333333333
 40
0.3333333333333333
 40
0.3333333333333333
 40
0.4444444444444444
 40
0.4444444444444444
 40
0.4444444444444444
 40
0.4444444444444444
 40
0.5555555555555556
 40
0.5555555555555556
 40
0.5555555555555556
 40
0.5555555555555556
 40
0.6666666666666667
 40
0.6666666666666667
 40
0.6666666666666667
 40
0.6666666666666667
 40
0.7777777777777779
 40
0.7777777777777779
 40
0.7777777777777779
 40
0.7777777777777779
 40
0.8888888888888891
 40
0.8888888888888891
 40
0.8888888888888891
 40
0.8888888888888891
 40
1.0
 40
1.0
 40
1.0
 40
1.0
 10
8.571730000000001
 20
24.04333
 30
0.0
 10
8.881040000000001
 20
24.2093
 30
0.0
 10
9.254760000000001
 20
24.20073
 30
0.0
 10
9.556150000000001
 20
24.02077
 30
0.0
 10
9.556150000000001
 20
24.02077
 30
0.0
 10
9.857530000000001
 20
23.84082
 30
0.0
 10
10.04235
 20
23.51235
 30
0.0
 10
10.04297
 20
23.16133
 30
0.0
 10
10.04297
 20
23.16133
 30
0.0
 10
10.04297
 20
23.16133
 30
0.0
 10
10.04297
 20
22.24845
 30
0.0
 10
10.04297
 20
22.24845
 30
0.0
 10
10.04297
 20
22.24845
 30
0.0
 10
10.0433
 20
21.71835
 30
0.0
 10
9.83304
 20
21.20983
 30
0.0
 10
9.458440000000001
 20
20.83476
 30
0.0
 10
9.458440000000001
 20
20.83476
 30
0.0
 10
9.08385
 20
20.45969
 30
0.0
 10
8.57306
 20
20.24878
 30
0.0
 10
8.04297
 20
20.24845
 30
0.0
 10
8.04297
 20
20.24845
 30
0.0
 10
8.04297
 20
20.24845
 30
0.0
 10
7.13008
 20
20.24845
 30
0.0
 10
7.13008
 20
20.24845
 30
0.0
 10
7.13008
 20
20.24845
 30
0.0
 10
6.77906
 20
20.24783
 30
0.0
 10
6.45347
 20
20.4315
 30
0.0
 10
6.27245
 20
20.73224
 30
0.0
 10
6.27245
 20
20.73224
 30
0.0
 10
6.091430000000001
 20
21.03299
 30
0.0
 10
6.08321
 20
21.40979
 30
0.0
 10
6.248080000000001
 20
21.71969
 30
0.0
 10
6.248080000000001
 20
21.71969
 30
0.0
 10
6.775480000000001
 20
22.70694
 30
0.0
 10
7.584530000000001
 20
23.51582
 30
0.0
 10
8.571730000000001
 20
24.04333
 30
0.0
  0
SPLINE
  5
51
330
1F
100
AcDbEntity
  8
0
370
     5
100
AcDbSpline
210
0.0
220
0.0
230
1.0
 70
    11
 71
     3
 72
    20
 73
    16
 74
     0
 42
0.0000000001
 43
0.0000000001
 40
0.0
 40
0.0
 40
0.0
 40
0.0
 40
0.25
 40
0.25
 40
0.25
 40
0.25
 40
0.5
 40
0.5
 40
0.5
 40
0.5
 40
0.75
 40
0.75
 40
0.75
 40
0.75
 40
1.0
 40
1.0
 40
1.0
 40
1.0
 10
6.856100000000001
 20
19.05395
 30
0.0
 10
6.856100000000001
 20
19.19202
 30
0.0
 10
6.74417
 20
19.30395
 30
0.0
 10
6.606100000000001
 20
19.30395
 30
0.0
 10
6.606100000000001
 20
19.30395
 30
0.0
 10
6.468030000000001
 20
19.30395
 30
0.0
 10
6.356100000000001
 20
19.19202
 30
0.0
 10
6.356100000000001
 20
19.05395
 30
0.0
 10
6.356100000000001
 20
19.05395
 30
0.0
 10
6.356100000000001
 20
18.91588
 30
0.0
 10
6.468030000000001
 20
18.80395
 30
0.0
 10
6.606100000000001
 20
18.80395
 30
0.0
 10
6.606100000000001
 20
18.80395
 30
0.0
 10
6.74417
 20
18.80395
 30
0.0
 10
6.856100000000001
 20
18.91588
 30
0.0
 10
6.856100000000001
 20
19.05395
 30
0.0
  0
SPLINE
  5
52
330
1F
100
AcDbEntity
  8
0
370
     5
100
AcDbSpline
210
0.0
220
0.0
230
1.0
 70
    11
 71
     3
 72
    20
 73
    16
 74
     0
 42
0.0000000001
 43
0.0000000001
 40
0.0
 40
0.0
 40
0.0
 40
0.0
 40
0.25
 40
0.25
 40
0.25
 40
0.25
 40
0.5
 40
0.5
 40
0.5
 40
0.5
 40
0.75
 40
0.75
 40
0.75
 40
0.75
 40
1.0
 40
1.0
 40
1.0
 40
1.0
 10
10.48746
 20
18.05395
 30
0.0
 10
10.48746
 20
18.19202
 30
0.0
 10
10.37554
 20
18.30395
 30
0.0
 10
10.23747
 20
18.30395
 30
0.0
 10
10.23747
 20
18.30395
 30
0.0
 10
10.09939
 20
18.30395
 30
0.0
 10
9.98747
 20
18.19202
 30
0.0
 10
9.98747
 20
18.05395
 30
0.0
 10
9.98747
 20
18.05395
 30
0.0
 10
9.98746
 20
17.91588
 30
0.0
 10
10.09939
 20
17.80395
 30
0.0
 10
10.23746
 20
17.80395
 30
0.0
 10
10.23746
 20
17.80395
 30
0.0
 10
10.37554
 20
17.80395
 30
0.0
 10
10.48746
 20
17.91588
 30
0.0
 10
10.48746
 20
18.05395
 30
0.0
  0
SPLINE
  5
53
330
1F
100
AcDbEntity
  8
0
370
     5
100
AcDbSpline
210
0.0
220
0.0
230
1.0
 70
     8
 71
     3
 72
    20
 73
    16
 74
     0
 42
0.0000000001
 43
0.0000000001
 40
0.0
 40
0.0
 40
0.0
 40
0.0
 40
0.25
 40
0.25
 40
0.25
 40
0.25
 40
0.5
 40
0.5
 40
0.5
 40
0.5
 40
0.75
 40
0.75
 40
0.75
 40
0.75
 40
1.0
 40
1.0
 40
1.0
 40
1.0
 10
12.48746
 20
20.05395
 30
0.0
 10
12.48746
 20
20.19202
 30
0.0
 10
12.37553
 20
20.30395
 30
0.0
 10
12.23746
 20
20.30395
 30
0.0
 10
12.23746
 20
20.30395
 30
0.0
 10
12.09938
 20
20.30395
 30
0.0
 10
11.98746
 20
20.19202
 30
0.0
 10
11.98746
 20
20.05395
 30
0.0
 10
11.98746
 20
20.05395
 30
0.0
 10
11.98745
 20
19.91588
 30
0.0
 10
12.09938
 20
19.80395
 30
0.0
 10
12.23745
 20
19.80395
 30
0.0
 10
12.23745
 20
19.80395
 30
0.0
 10
12.37553
 20
19.80395
 30
0.0
 10
12.48745
 20
19.91588
 30
0.0
 10
12.48745
 20
20.05395
 30
0.0
  0
SPLINE
  5
54
330
1F
100
AcDbEntity
  8
0
370
     5
100
AcDbSpline
210
0.0
220
0.0
230
1.0
 70
    11
 71
     3
 72
   132
 73
   128
 74
     0
 42
0.0000000001
 43
0.0000000001
 40
0.0
 40
0.0
 40
0.0
 40
0.0
 40
0.03125
 40
0.03125
 40
0.03125
 40
0.03125
 40
0.0625
 40
0.0625
 40
0.0625
 40
0.0625
 40
0.09375
 40
0.09375
 40
0.09375
 40
0.09375
 40
0.125
 40
0.125
 40
0.125
 40
0.125
 40
0.15625
 40
0.15625
 40
0.15625
 40
0.15625
 40
0.1875
 40
0.1875
 40
0.1875
 40
0.1875
 40
0.21875
 40
0.21875
 40
0.21875
 40
0.21875
 40
0.25
 40
0.25
 40
0.25
 40
0.25
 40
0.28125
 40
0.28125
 40
0.28125
 40
0.28125
 40
0.3125
 40
0.3125
 40
0.3125
 40
0.3125
 40
0.34375
 40
0.34375
 40
0.34375
 40
0.34375
 40
0.375
 40
0.375
 40
0.375
 40
0.375
 40
0.40625
 40
0.40625
 40
0.40625
 40
0.40625
 40
0.4375
 40
0.4375
 40
0.4375
 40
0.4375
 40
0.46875
 40
0.46875
 40
0.46875
 40
0.46875
 40
0.5
 40
0.5
 40
0.5
 40
0.5
 40
0.53125
 40
0.53125
 40
0.53125
 40
0.53125
 40
0.5625
 40
0.5625
 40
0.5625
 40
0.5625
 40
0.59375
 40
0.59375
 40
0.59375
 40
0.59375
 40
0.625
 40
0.625
 40
0.625
 40
0.625
 40
0.65625
 40
0.65625
 40
0.65625
 40
0.65625
 40
0.6875
 40
0.6875
 40
0.6875
 40
0.6875
 40
0.71875
 40
0.71875
 40
0.71875
 40
0.71875
 40
0.75
 40
0.75
 40
0.75
 40
0.75
 40
0.78125
 40
0.78125
 40
0.78125
 40
0.78125
 40
0.8125
 40
0.8125
 40
0.8125
 40
0.8125
 40
0.84375
 40
0.84375
 40
0.84375
 40
0.84375
 40
0.875
 40
0.875
 40
0.875
 40
0.875
 40
0.90625
 40
0.90625
 40
0.90625
 40
0.90625
 40
0.9375
 40
0.9375
 40
0.9375
 40
0.9375
 40
0.96875
 40
0.96875
 40
0.96875
 40
0.96875
 40
1.0
 40
1.0
 40
1.0
 40
1.0
 10
10.54297
 20
9.18008
 30
0.0
 10
10.41044
 20
9.180000000000002
 30
0.0
 10
10.28331
 20
9.232560000000001
 30
0.0
 10
10.18954
 20
9.326210000000001
 30
0.0
 10
10.18954
 20
9.326210000000001
 30
0.0
 10
10.09577
 20
9.41986
 30
0.0
 10
10.04305
 20
9.547560000000001
 30
0.0
 10
10.04297
 20
9.68008
 30
0.0
 10
10.04297
 20
9.68008
 30
0.0
 10
10.04297
 20
9.68008
 30
0.0
 10
10.04297
 20
11.49083
 30
0.0
 10
10.04297
 20
11.49083
 30
0.0
 10
10.04297
 20
11.49083
 30
0.0
 10
6.765330000000001
 20
12.00737
 30
0.0
 10
4.19308
 20
14.58216
 30
0.0
 10
3.67435
 20
17.85945
 30
0.0
 10
3.67435
 20
17.85945
 30
0.0
 10
3.67435
 20
17.85945
 30
0.0
 10
1.8636
 20
17.85945
 30
0.0
 10
1.8636
 20
17.85945
 30
0.0
 10
1.8636
 20
17.85945
 30
0.0
 10
1.73107
 20
17.85936
 30
0.0
 10
1.60394
 20
17.91193
 30
0.0
 10
1.51018
 20
18.00558
 30
0.0
 10
1.51018
 20
18.00558
 30
0.0
 10
1.41641
 20
18.09923
 30
0.0
 10
1.36368
 20
18.22692
 30
0.0
 10
1.3636
 20
18.35945
 30
0.0
 10
1.3636
 20
18.35945
 30
0.0
 10
1.3636
 20
18.35945
 30
0.0
 10
1.3636
 20
19.74845
 30
0.0
 10
1.3636
 20
19.74845
 30
0.0
 10
1.3636
 20
19.74845
 30
0.0
 10
1.36351
 20
19.88097
 30
0.0
 10
1.41608
 20
20.0081
 30
0.0
 10
1.50973
 20
20.10187
 30
0.0
 10
1.50973
 20
20.10187
 30
0.0
 10
1.60338
 20
20.19564
 30
0.0
 10
1.73107
 20
20.24836
 30
0.0
 10
1.8636
 20
20.24845
 30
0.0
 10
1.8636
 20
20.24845
 30
0.0
 10
1.8636
 20
20.24845
 30
0.0
 10
3.67435
 20
20.24845
 30
0.0
 10
3.67435
 20
20.24845
 30
0.0
 10
3.67435
 20
20.24845
 30
0.0
 10
4.19088
 20
23.52609
 30
0.0
 10
6.765670000000001
 20
26.09833
 30
0.0
 10
10.04297
 20
26.61706
 30
0.0
 10
10.04297
 20
26.61706
 30
0.0
 10
10.04297
 20
26.61706
 30
0.0
 10
10.04297
 20
28.4278
 30
0.0
 10
10.04297
 20
28.4278
 30
0.0
 10
10.04297
 20
28.4278
 30
0.0
 10
10.04288
 20
28.56033
 30
0.0
 10
10.09545
 20
28.68746
 30
0.0
 10
10.1891
 20
28.78123
 30
0.0
 10
10.1891
 20
28.78123
 30
0.0
 10
10.28274
 20
28.875
 30
0.0
 10
10.41044
 20
28.92772
 30
0.0
 10
10.54297
 20
28.9278
 30
0.0
 10
10.54297
 20
28.9278
 30
0.0
 10
10.54297
 20
28.9278
 30
0.0
 10
11.93196
 20
28.9278
 30
0.0
 10
11.93196
 20
28.9278
 30
0.0
 10
11.93196
 20
28.9278
 30
0.0
 10
12.06448
 20
28.92789
 30
0.0
 10
12.19161
 20
28.87532
 30
0.0
 10
12.28538
 20
28.78167
 30
0.0
 10
12.28538
 20
28.78167
 30
0.0
 10
12.37915
 20
28.68803
 30
0.0
 10
12.43187
 20
28.56033
 30
0.0
 10
12.43196
 20
28.4278
 30
0.0
 10
12.43196
 20
28.4278
 30
0.0
 10
12.43196
 20
28.4278
 30
0.0
 10
12.43196
 20
26.61706
 30
0.0
 10
12.43196
 20
26.61706
 30
0.0
 10
12.43196
 20
26.61706
 30
0.0
 10
15.70959
 20
26.10052
 30
0.0
 10
18.28184
 20
23.52574
 30
0.0
 10
18.80057
 20
20.24845
 30
0.0
 10
18.80057
 20
20.24845
 30
0.0
 10
18.80057
 20
20.24845
 30
0.0
 10
20.61132
 20
20.24845
 30
0.0
 10
20.61132
 20
20.24845
 30
0.0
 10
20.61132
 20
20.24845
 30
0.0
 10
20.74385
 20
20.24853
 30
0.0
 10
20.87098
 20
20.19597
 30
0.0
 10
20.96474
 20
20.10232
 30
0.0
 10
20.96474
 20
20.10232
 30
0.0
 10
21.05851
 20
20.00867
 30
0.0
 10
21.11124
 20
19.88097
 30
0.0
 10
21.11132
 20
19.74845
 30
0.0
 10
21.11132
 20
19.74845
 30
0.0
 10
21.11132
 20
19.74845
 30
0.0
 10
21.11132
 20
18.35945
 30
0.0
 10
21.11132
 20
18.35945
 30
0.0
 10
21.11132
 20
18.35945
 30
0.0
 10
21.11141
 20
18.22692
 30
0.0
 10
21.05884
 20
18.09979
 30
0.0
 10
20.96519
 20
18.00603
 30
0.0
 10
20.96519
 20
18.00603
 30
0.0
 10
20.87154
 20
17.91226
 30
0.0
 10
20.74385
 20
17.85953
 30
0.0
 10
20.61132
 20
17.85945
 30
0.0
 10
20.61132
 20
17.85945
 30
0.0
 10
20.61132
 20
17.85945
 30
0.0
 10
18.80057
 20
17.85945
 30
0.0
 10
18.80057
 20
17.85945
 30
0.0
 10
18.80057
 20
17.85945
 30
0.0
 10
18.28404
 20
14.58181
 30
0.0
 10
15.70925
 20
12.00956
 30
0.0
 10
12.43196
 20
11.49083
 30
0.0
 10
12.43196
 20
11.49083
 30
0.0
 10
12.43196
 20
11.49083
 30
0.0
 10
12.43195
 20
9.68008
 30
0.0
 10
12.43195
 20
9.68008
 30
0.0
 10
12.43195
 20
9.68008
 30
0.0
 10
12.43204
 20
9.547560000000001
 30
0.0
 10
12.37947
 20
9.420430000000001
 30
0.0
 10
12.28582
 20
9.32666
 30
0.0
 10
12.28582
 20
9.32666
 30
0.0
 10
12.19218
 20
9.232890000000001
 30
0.0
 10
12.06448
 20
9.18017
 30
0.0
 10
11.93196
 20
9.18008
 30
0.0
 10
11.93196
 20
9.18008
 30
0.0
 10
11.93196
 20
9.18008
 30
0.0
 10
10.54297
 20
9.18008
 30
0.0
 10
10.54297
 20
9.18008
 30
0.0
  0
SPLINE
  5
55
330
1F
100
AcDbEntity
  8
0
370
     5
100
AcDbSpline
210
0.0
220
0.0
230
1.0
 70
    11
 71
     3
 72
    44
 73
    40
 74
     0
 42
0.0000000001
 43
0.0000000001
 40
0.0
 40
0.0
 40
0.0
 40
0.0
 40
0.1
 40
0.1
 40
0.1
 40
0.1
 40
0.2
 40
0.2
 40
0.2
 40
0.2
 40
0.3
 40
0.3
 40
0.3
 40
0.3
 40
0.4
 40
0.4
 40
0.4
 40
0.4
 40
0.5
 40
0.5
 40
0.5
 40
0.5
 40
0.6
 40
0.6
 40
0.6
 40
0.6
 40
0.7
 40
0.7
 40
0.7
 40
0.7
 40
0.7999999999999999
 40
0.7999999999999999
 40
0.7999999999999999
 40
0.7999999999999999
 40
0.8999999999999999
 40
0.8999999999999999
 40
0.8999999999999999
 40
0.8999999999999999
 40
1.0
 40
1.0
 40
1.0
 40
1.0
 10
7.26609
 20
-0.6219400000000001
 30
0.0
 10
7.17548
 20
-0.8997700000000001
 30
0.0
 10
7.063460000000001
 20
-1.1702
 30
0.0
 10
6.931080000000001
 20
-1.43073
 30
0.0
 10
6.931080000000001
 20
-1.43073
 30
0.0
 10
6.86732
 20
-1.55643
 30
0.0
 10
6.753450000000001
 20
-1.64936
 30
0.0
 10
6.617520000000001
 20
-1.68661
 30
0.0
 10
6.617520000000001
 20
-1.68661
 30
0.0
 10
6.481590000000001
 20
-1.72386
 30
0.0
 10
6.3356
 20
-1.70156
 30
0.0
 10
6.216670000000001
 20
-1.62592
 30
0.0
 10
6.216670000000001
 20
-1.62592
 30
0.0
 10
6.216670000000001
 20
-1.62592
 30
0.0
 10
4.89967
 20
-0.7869
 30
0.0
 10
4.89967
 20
-0.7869
 30
0.0
 10
4.89967
 20
-0.7869
 30
0.0
 10
4.689410000000001
 20
-0.6530900000000001
 30
0.0
 10
4.610090000000001
 20
-0.3843800000000001
 30
0.0
 10
4.71346
 20
-0.15761
 30
0.0
 10
4.71346
 20
-0.15761
 30
0.0
 10
4.743950000000001
 20
-0.09078
 30
0.0
 10
4.77207
 20
-0.0229
 30
0.0
 10
4.79776
 20
0.04592
 30
0.0
 10
4.79776
 20
0.04592
 30
0.0
 10
4.8848
 20
0.27945
 30
0.0
 10
5.13107
 20
0.41305
 30
0.0
 10
5.37441
 20
0.35922
 30
0.0
 10
5.37441
 20
0.35922
 30
0.0
 10
5.37441
 20
0.35922
 30
0.0
 10
6.89895
 20
0.02124
 30
0.0
 10
6.89895
 20
0.02124
 30
0.0
 10
6.89895
 20
0.02124
 30
0.0
 10
7.03657
 20
-0.00916
 30
0.0
 10
7.154960000000001
 20
-0.09627
 30
0.0
 10
7.224920000000001
 20
-0.21862
 30
0.0
 10
7.224920000000001
 20
-0.21862
 30
0.0
 10
7.294890000000001
 20
-0.3409700000000001
 30
0.0
 10
7.309690000000001
 20
-0.4879100000000001
 30
0.0
 10
7.26609
 20
-0.6219400000000001
 30
0.0
  0
SPLINE
  5
56
330
1F
100
AcDbEntity
  8
0
370
     5
100
AcDbSpline
210
0.0
220
0.0
230
1.0
 70
    11
 71
     3
 72
    40
 73
    36
 74
     0
 42
0.0000000001
 43
0.0000000001
 40
0.0
 40
0.0
 40
0.0
 40
0.0
 40
0.1111111111111111
 40
0.1111111111111111
 40
0.1111111111111111
 40
0.1111111111111111
 40
0.2222222222222222
 40
0.2222222222222222
 40
0.2222222222222222
 40
0.2222222222222222
 40
0.3333333333333333
 40
0.3333333333333333
 40
0.3333333333333333
 40
0.3333333333333333
 40
0.4444444444444444
 40
0.4444444444444444
 40
0.4444444444444444
 40
0.4444444444444444
 40
0.5555555555555556
 40
0.5555555555555556
 40
0.5555555555555556
 40
0.5555555555555556
 40
0.6666666666666667
 40
0.6666666666666667
 40
0.6666666666666667
 40
0.6666666666666667
 40
0.7777777777777779
 40
0.7777777777777779
 40
0.7777777777777779
 40
0.7777777777777779
 40
0.8888888888888891
 40
0.8888888888888891
 40
0.8888888888888891
 40
0.8888888888888891
 40
1.0
 40
1.0
 40
1.0
 40
1.0
 10
-1.12555
 20
3.0516
 30
0.0
 10
-1.12555
 20
3.0516
 30
0.0
 10
-2.44255
 20
3.89062
 30
0.0
 10
-2.44255
 20
3.89062
 30
0.0
 10
-2.44255
 20
3.89062
 30
0.0
 10
-2.56165
 20
3.96636
 30
0.0
 10
-2.70719
 20
3.988280000000001
 30
0.0
 10
-2.84331
 20
3.95098
 30
0.0
 10
-2.84331
 20
3.95098
 30
0.0
 10
-2.97943
 20
3.91368
 30
0.0
 10
-3.09311
 20
3.8213
 30
0.0
 10
-3.15696
 20
3.69543
 30
0.0
 10
-3.15696
 20
3.69543
 30
0.0
 10
-3.28935
 20
3.43488
 30
0.0
 10
-3.40135
 20
3.1645
 30
0.0
 10
-3.49197
 20
2.88664
 30
0.0
 10
-3.49197
 20
2.88664
 30
0.0
 10
-3.53563
 20
2.75242
 30
0.0
 10
-3.52057
 20
2.60601
 30
0.0
 10
-3.45051
 20
2.48349
 30
0.0
 10
-3.45051
 20
2.48349
 30
0.0
 10
-3.38045
 20
2.36097
 30
0.0
 10
-3.26265
 20
2.2739
 30
0.0
 10
-3.12483
 20
2.24346
 30
0.0
 10
-3.12483
 20
2.24346
 30
0.0
 10
-3.12483
 20
2.24346
 30
0.0
 10
-1.14614
 20
1.80479
 30
0.0
 10
-1.14614
 20
1.80479
 30
0.0
 10
-1.14614
 20
1.80479
 30
0.0
 10
-1.09903
 20
2.01729
 30
0.0
 10
-1.02971
 20
2.22429
 30
0.0
 10
-0.9393400000000001
 20
2.4223
 30
0.0
 10
-0.9393400000000001
 20
2.4223
 30
0.0
 10
-0.8358500000000001
 20
2.64933
 30
0.0
 10
-0.9150600000000001
 20
2.917640000000001
 30
0.0
 10
-1.12555
 20
3.0516
 30
0.0
  0
SPLINE
  5
57
330
1F
100
AcDbEntity
  8
0
370
     5
100
AcDbSpline
210
0.0
220
0.0
230
1.0
 70
    11
 71
     3
 72
    44
 73
    40
 74
     0
 42
0.0000000001
 43
0.0000000001
 40
0.0
 40
0.0
 40
0.0
 40
0.0
 40
0.1
 40
0.1
 40
0.1
 40
0.1
 40
0.2
 40
0.2
 40
0.2
 40
0.2
 40
0.3
 40
0.3
 40
0.3
 40
0.3
 40
0.4
 40
0.4
 40
0.4
 40
0.4
 40
0.5
 40
0.5
 40
0.5
 40
0.5
 40
0.6
 40
0.6
 40
0.6
 40
0.6
 40
0.7
 40
0.7
 40
0.7
 40
0.7
 40
0.7999999999999999
 40
0.7999999999999999
 40
0.7999999999999999
 40
0.7999999999999999
 40
0.8999999999999999
 40
0.8999999999999999
 40
0.8999999999999999
 40
0.8999999999999999
 40
1.0
 40
1.0
 40
1.0
 40
1.0
 10
1.11394
 20
4.619700000000001
 30
0.0
 10
1.11394
 20
4.619700000000001
 30
0.0
 10
0.77595
 20
6.144240000000001
 30
0.0
 10
0.77595
 20
6.144240000000001
 30
0.0
 10
0.77595
 20
6.144240000000001
 30
0.0
 10
0.7453000000000001
 20
6.282010000000001
 30
0.0
 10
0.6578900000000001
 20
6.400430000000001
 30
0.0
 10
0.5352600000000001
 20
6.470300000000001
 30
0.0
 10
0.5352600000000001
 20
6.470300000000001
 30
0.0
 10
0.4126300000000001
 20
6.54018
 30
0.0
 10
0.2669200000000001
 20
6.555250000000001
 30
0.0
 10
0.13278
 20
6.511380000000001
 30
0.0
 10
0.13278
 20
6.511380000000001
 30
0.0
 10
-0.14508
 20
6.420760000000001
 30
0.0
 10
-0.4154600000000001
 20
6.308770000000001
 30
0.0
 10
-0.6760200000000001
 20
6.17637
 30
0.0
 10
-0.6760200000000001
 20
6.17637
 30
0.0
 10
-0.8017900000000001
 20
6.112340000000001
 30
0.0
 10
-0.8946700000000001
 20
5.99816
 30
0.0
 10
-0.9317700000000001
 20
5.861980000000001
 30
0.0
 10
-0.9317700000000001
 20
5.861980000000001
 30
0.0
 10
-0.9688600000000001
 20
5.72581
 30
0.0
 10
-0.94713
 20
5.580940000000001
 30
0.0
 10
-0.87121
 20
5.461970000000001
 30
0.0
 10
-0.87121
 20
5.461970000000001
 30
0.0
 10
-0.87121
 20
5.461970000000001
 30
0.0
 10
-0.03218
 20
4.144970000000001
 30
0.0
 10
-0.03218
 20
4.144970000000001
 30
0.0
 10
-0.03218
 20
4.144970000000001
 30
0.0
 10
0.10197
 20
3.934600000000001
 30
0.0
 10
0.37018
 20
3.85505
 30
0.0
 10
0.59711
 20
3.95875
 30
0.0
 10
0.59711
 20
3.95875
 30
0.0
 10
0.66393
 20
3.98925
 30
0.0
 10
0.73182
 20
4.017370000000001
 30
0.0
 10
0.8006300000000001
 20
4.04305
 30
0.0
 10
0.8006300000000001
 20
4.04305
 30
0.0
 10
1.03434
 20
4.13041
 30
0.0
 10
1.16805
 20
4.37615
 30
0.0
 10
1.11394
 20
4.619700000000001
 30
0.0
  0
SPLINE
  5
58
330
1F
100
AcDbEntity
  8
0
370
     5
100
AcDbSpline
210
0.0
220
0.0
230
1.0
 70
    11
 71
     3
 72
    44
 73
    40
 74
     0
 42
0.0000000001
 43
0.0000000001
 40
0.0
 40
0.0
 40
0.0
 40
0.0
 40
0.1
 40
0.1
 40
0.1
 40
0.1
 40
0.2
 40
0.2
 40
0.2
 40
0.2
 40
0.3
 40
0.3
 40
0.3
 40
0.3
 40
0.4
 40
0.4
 40
0.4
 40
0.4
 40
0.5
 40
0.5
 40
0.5
 40
0.5
 40
0.6
 40
0.6
 40
0.6
 40
0.6
 40
0.7
 40
0.7
 40
0.7
 40
0.7
 40
0.7999999999999999
 40
0.7999999999999999
 40
0.7999999999999999
 40
0.7999999999999999
 40
0.8999999999999999
 40
0.8999999999999999
 40
0.8999999999999999
 40
0.8999999999999999
 40
1.0
 40
1.0
 40
1.0
 40
1.0
 10
4.45014
 20
-3.91167
 30
0.0
 10
4.18961
 20
-4.04406
 30
0.0
 10
3.91918
 20
-4.156070000000001
 30
0.0
 10
3.641340000000001
 20
-4.246680000000001
 30
0.0
 10
3.641340000000001
 20
-4.246680000000001
 30
0.0
 10
3.50738
 20
-4.29049
 30
0.0
 10
3.36115
 20
-4.27568
 30
0.0
 10
3.23869
 20
-4.205900000000001
 30
0.0
 10
3.23869
 20
-4.205900000000001
 30
0.0
 10
3.11624
 20
-4.13612
 30
0.0
 10
3.02878
 20
-4.01712
 30
0.0
 10
2.99817
 20
-3.879550000000001
 30
0.0
 10
2.99817
 20
-3.879550000000001
 30
0.0
 10
2.99817
 20
-3.879550000000001
 30
0.0
 10
2.66018
 20
-2.35501
 30
0.0
 10
2.66018
 20
-2.35501
 30
0.0
 10
2.66018
 20
-2.35501
 30
0.0
 10
2.60612
 20
-2.11172
 30
0.0
 10
2.74004
 20
-1.86562
 30
0.0
 10
2.97349
 20
-1.77835
 30
0.0
 10
2.97349
 20
-1.77835
 30
0.0
 10
3.0423
 20
-1.75267
 30
0.0
 10
3.11019
 20
-1.72455
 30
0.0
 10
3.17701
 20
-1.69405
 30
0.0
 10
3.17701
 20
-1.69405
 30
0.0
 10
3.40369
 20
-1.59047
 30
0.0
 10
3.6723
 20
-1.67014
 30
0.0
 10
3.8063
 20
-1.88027
 30
0.0
 10
3.8063
 20
-1.88027
 30
0.0
 10
3.8063
 20
-1.88027
 30
0.0
 10
4.64533
 20
-3.19727
 30
0.0
 10
4.64533
 20
-3.19727
 30
0.0
 10
4.64533
 20
-3.19727
 30
0.0
 10
4.721150000000001
 20
-3.31608
 30
0.0
 10
4.74326
 20
-3.46139
 30
0.0
 10
4.70622
 20
-3.59737
 30
0.0
 10
4.70622
 20
-3.59737
 30
0.0
 10
4.669180000000001
 20
-3.73336
 30
0.0
 10
4.575740000000001
 20
-3.84773
 30
0.0
 10
4.45014
 20
-3.91167
 30
0.0
  0
SPLINE
  5
59
330
1F
100
AcDbEntity
  8
0
370
     5
100
AcDbSpline
210
0.0
220
0.0
230
1.0
 70
    11
 71
     3
 72
    44
 73
    40
 74
     0
 42
0.0000000001
 43
0.0000000001
 40
0.0
 40
0.0
 40
0.0
 40
0.0
 40
0.1
 40
0.1
 40
0.1
 40
0.1
 40
0.2
 40
0.2
 40
0.2
 40
0.2
 40
0.3
 40
0.3
 40
0.3
 40
0.3
 40
0.4
 40
0.4
 40
0.4
 40
0.4
 40
0.5
 40
0.5
 40
0.5
 40
0.5
 40
0.6
 40
0.6
 40
0.6
 40
0.6
 40
0.7
 40
0.7
 40
0.7
 40
0.7
 40
0.7999999999999999
 40
0.7999999999999999
 40
0.7999999999999999
 40
0.7999999999999999
 40
0.8999999999999999
 40
0.8999999999999999
 40
0.8999999999999999
 40
0.8999999999999999
 40
1.0
 40
1.0
 40
1.0
 40
1.0
 10
6.931080000000001
 20
3.69543
 30
0.0
 10
7.063460000000001
 20
3.4349
 30
0.0
 10
7.17548
 20
3.16447
 30
0.0
 10
7.26609
 20
2.88664
 30
0.0
 10
7.26609
 20
2.88664
 30
0.0
 10
7.30989
 20
2.75268
 30
0.0
 10
7.295080000000001
 20
2.60644
 30
0.0
 10
7.225300000000001
 20
2.48399
 30
0.0
 10
7.225300000000001
 20
2.48399
 30
0.0
 10
7.155530000000001
 20
2.36153
 30
0.0
 10
7.036530000000001
 20
2.27407
 30
0.0
 10
6.89895
 20
2.24346
 30
0.0
 10
6.89895
 20
2.24346
 30
0.0
 10
6.89895
 20
2.24346
 30
0.0
 10
5.37441
 20
1.90548
 30
0.0
 10
5.37441
 20
1.90548
 30
0.0
 10
5.37441
 20
1.90548
 30
0.0
 10
5.13112
 20
1.85142
 30
0.0
 10
4.885020000000001
 20
1.98533
 30
0.0
 10
4.79776
 20
2.21878
 30
0.0
 10
4.79776
 20
2.21878
 30
0.0
 10
4.77207
 20
2.2876
 30
0.0
 10
4.743950000000001
 20
2.35548
 30
0.0
 10
4.71346
 20
2.4223
 30
0.0
 10
4.71346
 20
2.4223
 30
0.0
 10
4.609870000000001
 20
2.64898
 30
0.0
 10
4.68954
 20
2.91759
 30
0.0
 10
4.89967
 20
3.0516
 30
0.0
 10
4.89967
 20
3.0516
 30
0.0
 10
4.89967
 20
3.0516
 30
0.0
 10
6.216670000000001
 20
3.89062
 30
0.0
 10
6.216670000000001
 20
3.89062
 30
0.0
 10
6.216670000000001
 20
3.89062
 30
0.0
 10
6.33548
 20
3.96644
 30
0.0
 10
6.480790000000001
 20
3.988550000000001
 30
0.0
 10
6.61678
 20
3.95151
 30
0.0
 10
6.61678
 20
3.95151
 30
0.0
 10
6.75276
 20
3.91447
 30
0.0
 10
6.86713
 20
3.82103
 30
0.0
 10
6.931080000000001
 20
3.69543
 30
0.0
  0
SPLINE
  5
5A
330
1F
100
AcDbEntity
  8
0
370
     5
100
AcDbSpline
210
0.0
220
0.0
230
1.0
 70
    11
 71
     3
 72
    44
 73
    40
 74
     0
 42
0.0000000001
 43
0.0000000001
 40
0.0
 40
0.0
 40
0.0
 40
0.0
 40
0.1
 40
0.1
 40
0.1
 40
0.1
 40
0.2
 40
0.2
 40
0.2
 40
0.2
 40
0.3
 40
0.3
 40
0.3
 40
0.3
 40
0.4
 40
0.4
 40
0.4
 40
0.4
 40
0.5
 40
0.5
 40
0.5
 40
0.5
 40
0.6
 40
0.6
 40
0.6
 40
0.6
 40
0.7
 40
0.7
 40
0.7
 40
0.7
 40
0.7999999999999999
 40
0.7999999999999999
 40
0.7999999999999999
 40
0.7999999999999999
 40
0.8999999999999999
 40
0.8999999999999999
 40
0.8999999999999999
 40
0.8999999999999999
 40
1.0
 40
1.0
 40
1.0
 40
1.0
 10
-1.60029
 20
0.35922
 30
0.0
 10
-1.60029
 20
0.35922
 30
0.0
 10
-3.12483
 20
0.02124
 30
0.0
 10
-3.12483
 20
0.02124
 30
0.0
 10
-3.12483
 20
0.02124
 30
0.0
 10
-3.2626
 20
-0.00942
 30
0.0
 10
-3.38101
 20
-0.09683
 30
0.0
 10
-3.45089
 20
-0.21946
 30
0.0
 10
-3.45089
 20
-0.21946
 30
0.0
 10
-3.52076
 20
-0.34209
 30
0.0
 10
-3.53583
 20
-0.4877900000000001
 30
0.0
 10
-3.49197
 20
-0.6219400000000001
 30
0.0
 10
-3.49197
 20
-0.6219400000000001
 30
0.0
 10
-3.40135
 20
-0.8998
 30
0.0
 10
-3.28935
 20
-1.17018
 30
0.0
 10
-3.15696
 20
-1.43073
 30
0.0
 10
-3.15696
 20
-1.43073
 30
0.0
 10
-3.09292
 20
-1.55651
 30
0.0
 10
-2.97875
 20
-1.64939
 30
0.0
 10
-2.84257
 20
-1.68649
 30
0.0
 10
-2.84257
 20
-1.68649
 30
0.0
 10
-2.70639
 20
-1.72358
 30
0.0
 10
-2.56153
 20
-1.70185
 30
0.0
 10
-2.44255
 20
-1.62592
 30
0.0
 10
-2.44255
 20
-1.62592
 30
0.0
 10
-2.44255
 20
-1.62592
 30
0.0
 10
-1.12555
 20
-0.7869
 30
0.0
 10
-1.12555
 20
-0.7869
 30
0.0
 10
-1.12555
 20
-0.7869
 30
0.0
 10
-0.9151900000000001
 20
-0.6527400000000001
 30
0.0
 10
-0.8356400000000001
 20
-0.38453
 30
0.0
 10
-0.9393400000000001
 20
-0.15761
 30
0.0
 10
-0.9393400000000001
 20
-0.15761
 30
0.0
 10
-0.9698300000000001
 20
-0.09078
 30
0.0
 10
-0.9979500000000001
 20
-0.0229
 30
0.0
 10
-1.02364
 20
0.04592
 30
0.0
 10
-1.02364
 20
0.04592
 30
0.0
 10
-1.111
 20
0.27962
 30
0.0
 10
-1.35673
 20
0.41334
 30
0.0
 10
-1.60029
 20
0.35922
 30
0.0
  0
SPLINE
  5
5B
330
1F
100
AcDbEntity
  8
0
370
     5
100
AcDbSpline
210
0.0
220
0.0
230
1.0
 70
    11
 71
     3
 72
    44
 73
    40
 74
     0
 42
0.0000000001
 43
0.0000000001
 40
0.0
 40
0.0
 40
0.0
 40
0.0
 40
0.1
 40
0.1
 40
0.1
 40
0.1
 40
0.2
 40
0.2
 40
0.2
 40
0.2
 40
0.3
 40
0.3
 40
0.3
 40
0.3
 40
0.4
 40
0.4
 40
0.4
 40
0.4
 40
0.5
 40
0.5
 40
0.5
 40
0.5
 40
0.6
 40
0.6
 40
0.6
 40
0.6
 40
0.7
 40
0.7
 40
0.7
 40
0.7
 40
0.7999999999999999
 40
0.7999999999999999
 40
0.7999999999999999
 40
0.7999999999999999
 40
0.8999999999999999
 40
0.8999999999999999
 40
0.8999999999999999
 40
0.8999999999999999
 40
1.0
 40
1.0
 40
1.0
 40
1.0
 10
3.641340000000001
 20
6.511380000000001
 30
0.0
 10
3.91918
 20
6.42077
 30
0.0
 10
4.18961
 20
6.308750000000001
 30
0.0
 10
4.45014
 20
6.17637
 30
0.0
 10
4.45014
 20
6.17637
 30
0.0
 10
4.57584
 20
6.112620000000001
 30
0.0
 10
4.668760000000001
 20
5.998740000000001
 30
0.0
 10
4.70601
 20
5.862810000000001
 30
0.0
 10
4.70601
 20
5.862810000000001
 30
0.0
 10
4.743270000000001
 20
5.72688
 30
0.0
 10
4.720960000000001
 20
5.58089
 30
0.0
 10
4.64533
 20
5.461970000000001
 30
0.0
 10
4.64533
 20
5.461970000000001
 30
0.0
 10
4.64533
 20
5.461970000000001
 30
0.0
 10
3.8063
 20
4.144970000000001
 30
0.0
 10
3.8063
 20
4.144970000000001
 30
0.0
 10
3.8063
 20
4.144970000000001
 30
0.0
 10
3.6725
 20
3.93471
 30
0.0
 10
3.40379
 20
3.85538
 30
0.0
 10
3.17701
 20
3.95875
 30
0.0
 10
3.17701
 20
3.95875
 30
0.0
 10
3.11019
 20
3.98925
 30
0.0
 10
3.0423
 20
4.017370000000001
 30
0.0
 10
2.97349
 20
4.04305
 30
0.0
 10
2.97349
 20
4.04305
 30
0.0
 10
2.73996
 20
4.13009
 30
0.0
 10
2.60636
 20
4.37636
 30
0.0
 10
2.66018
 20
4.619700000000001
 30
0.0
 10
2.66018
 20
4.619700000000001
 30
0.0
 10
2.66018
 20
4.619700000000001
 30
0.0
 10
2.99817
 20
6.144240000000001
 30
0.0
 10
2.99817
 20
6.144240000000001
 30
0.0
 10
2.99817
 20
6.144240000000001
 30
0.0
 10
3.02856
 20
6.281870000000001
 30
0.0
 10
3.11568
 20
6.400250000000001
 30
0.0
 10
3.23803
 20
6.47022
 30
0.0
 10
3.23803
 20
6.47022
 30
0.0
 10
3.36038
 20
6.54018
 30
0.0
 10
3.50731
 20
6.554980000000001
 30
0.0
 10
3.641340000000001
 20
6.511380000000001
 30
0.0
  0
SPLINE
  5
5C
330
1F
100
AcDbEntity
  8
0
370
     5
100
AcDbSpline
210
0.0
220
0.0
230
1.0
 70
    11
 71
     3
 72
    44
 73
    40
 74
     0
 42
0.0000000001
 43
0.0000000001
 40
0.0
 40
0.0
 40
0.0
 40
0.0
 40
0.1
 40
0.1
 40
0.1
 40
0.1
 40
0.2
 40
0.2
 40
0.2
 40
0.2
 40
0.3
 40
0.3
 40
0.3
 40
0.3
 40
0.4
 40
0.4
 40
0.4
 40
0.4
 40
0.5
 40
0.5
 40
0.5
 40
0.5
 40
0.6
 40
0.6
 40
0.6
 40
0.6
 40
0.7
 40
0.7
 40
0.7
 40
0.7
 40
0.7999999999999999
 40
0.7999999999999999
 40
0.7999999999999999
 40
0.7999999999999999
 40
0.8999999999999999
 40
0.8999999999999999
 40
0.8999999999999999
 40
0.8999999999999999
 40
1.0
 40
1.0
 40
1.0
 40
1.0
 10
-0.03218
 20
-1.88027
 30
0.0
 10
-0.03218
 20
-1.88027
 30
0.0
 10
-0.87121
 20
-3.19727
 30
0.0
 10
-0.87121
 20
-3.19727
 30
0.0
 10
-0.87121
 20
-3.19727
 30
0.0
 10
-0.9469500000000001
 20
-3.31636
 30
0.0
 10
-0.9688700000000001
 20
-3.461910000000001
 30
0.0
 10
-0.9315700000000001
 20
-3.598030000000001
 30
0.0
 10
-0.9315700000000001
 20
-3.598030000000001
 30
0.0
 10
-0.8942600000000001
 20
-3.734150000000001
 30
0.0
 10
-0.8018900000000001
 20
-3.847830000000001
 30
0.0
 10
-0.6760200000000001
 20
-3.91167
 30
0.0
 10
-0.6760200000000001
 20
-3.91167
 30
0.0
 10
-0.4154600000000001
 20
-4.044070000000001
 30
0.0
 10
-0.14508
 20
-4.156070000000001
 30
0.0
 10
0.13278
 20
-4.246680000000001
 30
0.0
 10
0.13278
 20
-4.246680000000001
 30
0.0
 10
0.26699
 20
-4.290340000000001
 30
0.0
 10
0.4134000000000001
 20
-4.27529
 30
0.0
 10
0.53593
 20
-4.205220000000001
 30
0.0
 10
0.53593
 20
-4.205220000000001
 30
0.0
 10
0.6584500000000001
 20
-4.13516
 30
0.0
 10
0.74551
 20
-4.01736
 30
0.0
 10
0.77595
 20
-3.879550000000001
 30
0.0
 10
0.77595
 20
-3.879550000000001
 30
0.0
 10
0.77595
 20
-3.879550000000001
 30
0.0
 10
1.11394
 20
-2.35501
 30
0.0
 10
1.11394
 20
-2.35501
 30
0.0
 10
1.11394
 20
-2.35501
 30
0.0
 10
1.16782
 20
-2.1114
 30
0.0
 10
1.03442
 20
-1.86549
 30
0.0
 10
0.8006300000000001
 20
-1.77835
 30
0.0
 10
0.8006300000000001
 20
-1.77835
 30
0.0
 10
0.73182
 20
-1.75267
 30
0.0
 10
0.66393
 20
-1.72455
 30
0.0
 10
0.59711
 20
-1.69405
 30
0.0
 10
0.59711
 20
-1.69405
 30
0.0
 10
0.37008
 20
-1.59057
 30
0.0
 10
0.10177
 20
-1.66978
 30
0.0
 10
-0.03218
 20
-1.88027
 30
0.0
  0
SPLINE
  5
5D
330
1F
100
AcDbEntity
  8
0
370
     5
100
AcDbSpline
210
0.0
220
0.0
230
1.0
 70
    11
 71
     3
 72
    20
 73
    16
 74
     0
 42
0.0000000001
 43
0.0000000001
 40
0.0
 40
0.0
 40
0.0
 40
0.0
 40
0.25
 40
0.25
 40
0.25
 40
0.25
 40
0.5
 40
0.5
 40
0.5
 40
0.5
 40
0.75
 40
0.75
 40
0.75
 40
0.75
 40
1.0
 40
1.0
 40
1.0
 40
1.0
 10
-1.13781
 20
-2.14252
 30
0.0
 10
-1.13781
 20
-2.00445
 30
0.0
 10
-1.24973
 20
-1.89252
 30
0.0
 10
-1.38781
 20
-1.89252
 30
0.0
 10
-1.38781
 20
-1.89252
 30
0.0
 10
-1.52588
 20
-1.89252
 30
0.0
 10
-1.63781
 20
-2.00445
 30
0.0
 10
-1.63781
 20
-2.14252
 30
0.0
 10
-1.63781
 20
-2.14252
 30
0.0
 10
-1.63781
 20
-2.28059
 30
0.0
 10
-1.52588
 20
-2.39252
 30
0.0
 10
-1.38781
 20
-2.39252
 30
0.0
 10
-1.38781
 20
-2.39252
 30
0.0
 10
-1.24974
 20
-2.39252
 30
0.0
 10
-1.13781
 20
-2.28059
 30
0.0
 10
-1.13781
 20
-2.14252
 30
0.0
  0
SPLINE
  5
5E
330
1F
100
AcDbEntity
  8
0
370
     5
100
AcDbSpline
210
0.0
220
0.0
230
1.0
 70
    11
 71
     3
 72
    20
 73
    16
 74
     0
 42
0.0000000001
 43
0.0000000001
 40
0.0
 40
0.0
 40
0.0
 40
0.0
 40
0.25
 40
0.25
 40
0.25
 40
0.25
 40
0.5
 40
0.5
 40
0.5
 40
0.5
 40
0.75
 40
0.75
 40
0.75
 40
0.75
 40
1.0
 40
1.0
 40
1.0
 40
1.0
 10
-1.13781
 20
4.407220000000001
 30
0.0
 10
-1.13781
 20
4.545290000000001
 30
0.0
 10
-1.24973
 20
4.657220000000001
 30
0.0
 10
-1.38781
 20
4.657220000000001
 30
0.0
 10
-1.38781
 20
4.657220000000001
 30
0.0
 10
-1.52588
 20
4.657220000000001
 30
0.0
 10
-1.63781
 20
4.545290000000001
 30
0.0
 10
-1.63781
 20
4.407220000000001
 30
0.0
 10
-1.63781
 20
4.407220000000001
 30
0.0
 10
-1.63781
 20
4.269150000000001
 30
0.0
 10
-1.52588
 20
4.157220000000001
 30
0.0
 10
-1.38781
 20
4.157220000000001
 30
0.0
 10
-1.38781
 20
4.157220000000001
 30
0.0
 10
-1.24974
 20
4.157220000000001
 30
0.0
 10
-1.13781
 20
4.269150000000001
 30
0.0
 10
-1.13781
 20
4.407220000000001
 30
0.0
  0
SPLINE
  5
5F
330
1F
100
AcDbEntity
  8
0
370
     5
100
AcDbSpline
210
0.0
220
0.0
230
1.0
 70
    11
 71
     3
 72
    20
 73
    16
 74
     0
 42
0.0000000001
 43
0.0000000001
 40
0.0
 40
0.0
 40
0.0
 40
0.0
 40
0.25
 40
0.25
 40
0.25
 40
0.25
 40
0.5
 40
0.5
 40
0.5
 40
0.5
 40
0.75
 40
0.75
 40
0.75
 40
0.75
 40
1.0
 40
1.0
 40
1.0
 40
1.0
 10
5.411930000000001
 20
-2.14252
 30
0.0
 10
5.411930000000001
 20
-2.00445
 30
0.0
 10
5.300000000000001
 20
-1.89252
 30
0.0
 10
5.161930000000001
 20
-1.89252
 30
0.0
 10
5.161930000000001
 20
-1.89252
 30
0.0
 10
5.02386
 20
-1.89252
 30
0.0
 10
4.911930000000001
 20
-2.00445
 30
0.0
 10
4.911930000000001
 20
-2.14252
 30
0.0
 10
4.911930000000001
 20
-2.14252
 30
0.0
 10
4.911930000000001
 20
-2.28059
 30
0.0
 10
5.02385
 20
-2.39252
 30
0.0
 10
5.16192
 20
-2.39252
 30
0.0
 10
5.16192
 20
-2.39252
 30
0.0
 10
5.300000000000001
 20
-2.39252
 30
0.0
 10
5.411930000000001
 20
-2.28059
 30
0.0
 10
5.411930000000001
 20
-2.14252
 30
0.0
  0
SPLINE
  5
60
330
1F
100
AcDbEntity
  8
0
370
     5
100
AcDbSpline
210
0.0
220
0.0
230
1.0
 70
    11
 71
     3
 72
    20
 73
    16
 74
     0
 42
0.0000000001
 43
0.0000000001
 40
0.0
 40
0.0
 40
0.0
 40
0.0
 40
0.25
 40
0.25
 40
0.25
 40
0.25
 40
0.5
 40
0.5
 40
0.5
 40
0.5
 40
0.75
 40
0.75
 40
0.75
 40
0.75
 40
1.0
 40
1.0
 40
1.0
 40
1.0
 10
5.411930000000001
 20
4.407220000000001
 30
0.0
 10
5.411930000000001
 20
4.545290000000001
 30
0.0
 10
5.300000000000001
 20
4.657220000000001
 30
0.0
 10
5.161930000000001
 20
4.657220000000001
 30
0.0
 10
5.161930000000001
 20
4.657220000000001
 30
0.0
 10
5.02386
 20
4.657220000000001
 30
0.0
 10
4.911930000000001
 20
4.545290000000001
 30
0.0
 10
4.911930000000001
 20
4.407220000000001
 30
0.0
 10
4.911930000000001
 20
4.407220000000001
 30
0.0
 10
4.911930000000001
 20
4.269150000000001
 30
0.0
 10
5.02385
 20
4.157220000000001
 30
0.0
 10
5.16192
 20
4.157220000000001
 30
0.0
 10
5.16192
 20
4.157220000000001
 30
0.0
 10
5.300000000000001
 20
4.157220000000001
 30
0.0
 10
5.411930000000001
 20
4.269150000000001
 30
0.0
 10
5.411930000000001
 20
4.407220000000001
 30
0.0
  0
SPLINE
  5
61
330
1F
100
AcDbEntity
  8
0
370
     5
100
AcDbSpline
210
0.0
220
0.0
230
1.0
 70
    11
 71
     3
 72
    20
 73
    16
 74
     0
 42
0.0000000001
 43
0.0000000001
 40
0.0
 40
0.0
 40
0.0
 40
0.0
 40
0.25
 40
0.25
 40
0.25
 40
0.25
 40
0.5
 40
0.5
 40
0.5
 40
0.5
 40
0.75
 40
0.75
 40
0.75
 40
0.75
 40
1.0
 40
1.0
 40
1.0
 40
1.0
 10
8.274290000000001
 20
-5.004890000000001
 30
0.0
 10
8.274290000000001
 20
-4.866820000000001
 30
0.0
 10
8.162370000000001
 20
-4.754890000000001
 30
0.0
 10
8.024290000000001
 20
-4.754890000000001
 30
0.0
 10
8.024290000000001
 20
-4.754890000000001
 30
0.0
 10
7.886220000000001
 20
-4.754890000000001
 30
0.0
 10
7.774290000000001
 20
-4.866820000000001
 30
0.0
 10
7.774290000000001
 20
-5.004890000000001
 30
0.0
 10
7.774290000000001
 20
-5.004890000000001
 30
0.0
 10
7.774290000000001
 20
-5.14296
 30
0.0
 10
7.886220000000001
 20
-5.254890000000001
 30
0.0
 10
8.024290000000001
 20
-5.254890000000001
 30
0.0
 10
8.024290000000001
 20
-5.254890000000001
 30
0.0
 10
8.162360000000001
 20
-5.254890000000001
 30
0.0
 10
8.274290000000001
 20
-5.14296
 30
0.0
 10
8.274290000000001
 20
-5.004890000000001
 30
0.0
  0
SPLINE
  5
62
330
1F
100
AcDbEntity
  8
0
370
     5
100
AcDbSpline
210
0.0
220
0.0
230
1.0
 70
    11
 71
     3
 72
    20
 73
    16
 74
     0
 42
0.0000000001
 43
0.0000000001
 40
0.0
 40
0.0
 40
0.0
 40
0.0
 40
0.25
 40
0.25
 40
0.25
 40
0.25
 40
0.5
 40
0.5
 40
0.5
 40
0.5
 40
0.75
 40
0.75
 40
0.75
 40
0.75
 40
1.0
 40
1.0
 40
1.0
 40
1.0
 10
-4.000170000000001
 20
-5.004890000000001
 30
0.0
 10
-4.000170000000001
 20
-4.866820000000001
 30
0.0
 10
-4.112100000000001
 20
-4.754890000000001
 30
0.0
 10
-4.250170000000001
 20
-4.754890000000001
 30
0.0
 10
-4.250170000000001
 20
-4.754890000000001
 30
0.0
 10
-4.388240000000001
 20
-4.754890000000001
 30
0.0
 10
-4.500170000000001
 20
-4.866820000000001
 30
0.0
 10
-4.500170000000001
 20
-5.004890000000001
 30
0.0
 10
-4.500170000000001
 20
-5.004890000000001
 30
0.0
 10
-4.500170000000001
 20
-5.14296
 30
0.0
 10
-4.38825
 20
-5.254890000000001
 30
0.0
 10
-4.25018
 20
-5.254890000000001
 30
0.0
 10
-4.25018
 20
-5.254890000000001
 30
0.0
 10
-4.112100000000001
 20
-5.254890000000001
 30
0.0
 10
-4.000170000000001
 20
-5.14296
 30
0.0
 10
-4.000170000000001
 20
-5.004890000000001
 30
0.0
  0
SPLINE
  5
63
330
1F
100
AcDbEntity
  8
0
370
     5
100
AcDbSpline
210
0.0
220
0.0
230
1.0
 70
    11
 71
     3
 72
    20
 73
    16
 74
     0
 42
0.0000000001
 43
0.0000000001
 40
0.0
 40
0.0
 40
0.0
 40
0.0
 40
0.25
 40
0.25
 40
0.25
 40
0.25
 40
0.5
 40
0.5
 40
0.5
 40
0.5
 40
0.75
 40
0.75
 40
0.75
 40
0.75
 40
1.0
 40
1.0
 40
1.0
 40
1.0
 10
8.274290000000001
 20
7.269590000000001
 30
0.0
 10
8.274290000000001
 20
7.407660000000001
 30
0.0
 10
8.162370000000001
 20
7.519590000000001
 30
0.0
 10
8.024290000000001
 20
7.519590000000001
 30
0.0
 10
8.024290000000001
 20
7.519590000000001
 30
0.0
 10
7.886220000000001
 20
7.519590000000001
 30
0.0
 10
7.774290000000001
 20
7.407660000000001
 30
0.0
 10
7.774290000000001
 20
7.269590000000001
 30
0.0
 10
7.774290000000001
 20
7.269590000000001
 30
0.0
 10
7.774290000000001
 20
7.131520000000001
 30
0.0
 10
7.886220000000001
 20
7.019590000000001
 30
0.0
 10
8.024290000000001
 20
7.019590000000001
 30
0.0
 10
8.024290000000001
 20
7.019590000000001
 30
0.0
 10
8.162360000000001
 20
7.019590000000001
 30
0.0
 10
8.274290000000001
 20
7.131510000000001
 30
0.0
 10
8.274290000000001
 20
7.269590000000001
 30
0.0
  0
SPLINE
  5
64
330
1F
100
AcDbEntity
  8
0
370
     5
100
AcDbSpline
210
0.0
220
0.0
230
1.0
 70
    11
 71
     3
 72
    20
 73
    16
 74
     0
 42
0.0000000001
 43
0.0000000001
 40
0.0
 40
0.0
 40
0.0
 40
0.0
 40
0.25
 40
0.25
 40
0.25
 40
0.25
 40
0.5
 40
0.5
 40
0.5
 40
0.5
 40
0.75
 40
0.75
 40
0.75
 40
0.75
 40
1.0
 40
1.0
 40
1.0
 40
1.0
 10
-4.000170000000001
 20
7.269590000000001
 30
0.0
 10
-4.000170000000001
 20
7.407660000000001
 30
0.0
 10
-4.112100000000001
 20
7.519590000000001
 30
0.0
 10
-4.250170000000001
 20
7.519590000000001
 30
0.0
 10
-4.250170000000001
 20
7.519590000000001
 30
0.0
 10
-4.388240000000001
 20
7.519590000000001
 30
0.0
 10
-4.500170000000001
 20
7.407660000000001
 30
0.0
 10
-4.500170000000001
 20
7.269590000000001
 30
0.0
 10
-4.500170000000001
 20
7.269590000000001
 30
0.0
 10
-4.500170000000001
 20
7.131520000000001
 30
0.0
 10
-4.38825
 20
7.019590000000001
 30
0.0
 10
-4.25018
 20
7.019590000000001
 30
0.0
 10
-4.25018
 20
7.019590000000001
 30
0.0
 10
-4.112100000000001
 20
7.019590000000001
 30
0.0
 10
-4.000170000000001
 20
7.131510000000001
 30
0.0
 10
-4.000170000000001
 20
7.269590000000001
 30
0.0
  0
SPLINE
  5
65
330
1F
100
AcDbEntity
  8
0
370
     5
100
AcDbSpline
210
0.0
220
0.0
230
1.0
 70
     8
 71
     3
 72
    20
 73
    16
 74
     0
 42
0.0000000001
 43
0.0000000001
 40
0.0
 40
0.0
 40
0.0
 40
0.0
 40
0.25
 40
0.25
 40
0.25
 40
0.25
 40
0.5
 40
0.5
 40
0.5
 40
0.5
 40
0.75
 40
0.75
 40
0.75
 40
0.75
 40
1.0
 40
1.0
 40
1.0
 40
1.0
 10
11.76092
 20
1.13235
 30
0.0
 10
11.76092
 20
6.58553
 30
0.0
 10
7.34025
 20
11.0062
 30
0.0
 10
1.88707
 20
11.0062
 30
0.0
 10
1.88707
 20
11.0062
 30
0.0
 10
-3.566100000000001
 20
11.00621
 30
0.0
 10
-7.986790000000001
 20
6.585560000000001
 30
0.0
 10
-7.986800000000001
 20
1.13237
 30
0.0
 10
-7.986800000000001
 20
1.13237
 30
0.0
 10
-7.986820000000001
 20
-4.320810000000001
 30
0.0
 10
-3.56616
 20
-8.7415
 30
0.0
 10
1.88703
 20
-8.741520000000001
 30
0.0
 10
1.88703
 20
-8.741520000000001
 30
0.0
 10
7.3402
 20
-8.741540000000001
 30
0.0
 10
11.76089
 20
-4.32089
 30
0.0
 10
11.76092
 20
1.1323
 30
0.0
  0
SPLINE
  5
66
330
1F
100
AcDbEntity
  8
0
370
     5
100
AcDbSpline
210
0.0
220
0.0
230
1.0
 70
     8
 71
     3
 72
    20
 73
    16
 74
     0
 42
0.0000000001
 43
0.0000000001
 40
0.0
 40
0.0
 40
0.0
 40
0.0
 40
0.25
 40
0.25
 40
0.25
 40
0.25
 40
0.5
 40
0.5
 40
0.5
 40
0.5
 40
0.75
 40
0.75
 40
0.75
 40
0.75
 40
1.0
 40
1.0
 40
1.0
 40
1.0
 10
3.13706
 20
2.13235
 30
0.0
 10
3.13706
 20
2.27042
 30
0.0
 10
3.02513
 20
2.38235
 30
0.0
 10
2.88706
 20
2.38235
 30
0.0
 10
2.88706
 20
2.38235
 30
0.0
 10
2.74898
 20
2.38235
 30
0.0
 10
2.63706
 20
2.27042
 30
0.0
 10
2.63706
 20
2.13235
 30
0.0
 10
2.63706
 20
2.13235
 30
0.0
 10
2.63705
 20
1.99428
 30
0.0
 10
2.74898
 20
1.88235
 30
0.0
 10
2.88705
 20
1.88235
 30
0.0
 10
2.88705
 20
1.88235
 30
0.0
 10
3.02513
 20
1.88235
 30
0.0
 10
3.13705
 20
1.99428
 30
0.0
 10
3.13705
 20
2.13235
 30
0.0
  0
SPLINE
  5
67
330
1F
100
AcDbEntity
  8
0
370
     5
100
AcDbSpline
210
0.0
220
0.0
230
1.0
 70
    11
 71
     3
 72
    20
 73
    16
 74
     0
 42
0.0000000001
 43
0.0000000001
 40
0.0
 40
0.0
 40
0.0
 40
0.0
 40
0.25
 40
0.25
 40
0.25
 40
0.25
 40
0.5
 40
0.5
 40
0.5
 40
0.5
 40
0.75
 40
0.75
 40
0.75
 40
0.75
 40
1.0
 40
1.0
 40
1.0
 40
1.0
 10
1.13706
 20
0.13235
 30
0.0
 10
1.13706
 20
0.2704200000000001
 30
0.0
 10
1.02514
 20
0.38235
 30
0.0
 10
0.88707
 20
0.38235
 30
0.0
 10
0.88707
 20
0.38235
 30
0.0
 10
0.74899
 20
0.38235
 30
0.0
 10
0.63707
 20
0.2704200000000001
 30
0.0
 10
0.63707
 20
0.13235
 30
0.0
 10
0.63707
 20
0.13235
 30
0.0
 10
0.6370600000000001
 20
-0.00572
 30
0.0
 10
0.74899
 20
-0.11765
 30
0.0
 10
0.8870600000000001
 20
-0.11765
 30
0.0
 10
0.8870600000000001
 20
-0.11765
 30
0.0
 10
1.02514
 20
-0.11765
 30
0.0
 10
1.13706
 20
-0.00572
 30
0.0
 10
1.13706
 20
0.13235
 30
0.0
  0
SPLINE
  5
68
330
1F
100
AcDbEntity
  8
0
370
     5
100
AcDbSpline
210
0.0
220
0.0
230
1.0
 70
    11
 71
     3
 72
    20
 73
    16
 74
     0
 42
0.0000000001
 43
0.0000000001
 40
0.0
 40
0.0
 40
0.0
 40
0.0
 40
0.25
 40
0.25
 40
0.25
 40
0.25
 40
0.5
 40
0.5
 40
0.5
 40
0.5
 40
0.75
 40
0.75
 40
0.75
 40
0.75
 40
1.0
 40
1.0
 40
1.0
 40
1.0
 10
-2.4943
 20
1.13235
 30
0.0
 10
-2.4943
 20
1.27042
 30
0.0
 10
-2.60623
 20
1.38235
 30
0.0
 10
-2.7443
 20
1.38235
 30
0.0
 10
-2.7443
 20
1.38235
 30
0.0
 10
-2.88237
 20
1.38235
 30
0.0
 10
-2.9943
 20
1.27042
 30
0.0
 10
-2.9943
 20
1.13235
 30
0.0
 10
-2.9943
 20
1.13235
 30
0.0
 10
-2.9943
 20
0.9942800000000001
 30
0.0
 10
-2.88237
 20
0.8823500000000001
 30
0.0
 10
-2.7443
 20
0.8823500000000001
 30
0.0
 10
-2.7443
 20
0.8823500000000001
 30
0.0
 10
-2.60623
 20
0.8823500000000001
 30
0.0
 10
-2.4943
 20
0.9942800000000001
 30
0.0
 10
-2.4943
 20
1.13235
 30
0.0
  0
SPLINE
  5
69
330
1F
100
AcDbEntity
  8
0
370
     5
100
AcDbSpline
210
0.0
220
0.0
230
1.0
 70
     8
 71
     3
 72
    20
 73
    16
 74
     0
 42
0.0000000001
 43
0.0000000001
 40
0.0
 40
0.0
 40
0.0
 40
0.0
 40
0.25
 40
0.25
 40
0.25
 40
0.25
 40
0.5
 40
0.5
 40
0.5
 40
0.5
 40
0.75
 40
0.75
 40
0.75
 40
0.75
 40
1.0
 40
1.0
 40
1.0
 40
1.0
 10
2.13706
 20
-3.49902
 30
0.0
 10
2.13706
 20
-3.36095
 30
0.0
 10
2.02513
 20
-3.24902
 30
0.0
 10
1.88706
 20
-3.24902
 30
0.0
 10
1.88706
 20
-3.24902
 30
0.0
 10
1.74899
 20
-3.24902
 30
0.0
 10
1.63707
 20
-3.36095
 30
0.0
 10
1.63707
 20
-3.49902
 30
0.0
 10
1.63707
 20
-3.49902
 30
0.0
 10
1.63706
 20
-3.63709
 30
0.0
 10
1.74899
 20
-3.74902
 30
0.0
 10
1.88706
 20
-3.74902
 30
0.0
 10
1.88706
 20
-3.74902
 30
0.0
 10
2.02513
 20
-3.74902
 30
0.0
 10
2.13705
 20
-3.63709
 30
0.0
 10
2.13705
 20
-3.49902
 30
0.0
  0
SPLINE
  5
6A
330
1F
100
AcDbEntity
  8
0
370
     5
100
AcDbSpline
210
0.0
220
0.0
230
1.0
 70
    11
 71
     3
 72
    20
 73
    16
 74
     0
 42
0.0000000001
 43
0.0000000001
 40
0.0
 40
0.0
 40
0.0
 40
0.0
 40
0.25
 40
0.25
 40
0.25
 40
0.25
 40
0.5
 40
0.5
 40
0.5
 40
0.5
 40
0.75
 40
0.75
 40
0.75
 40
0.75
 40
1.0
 40
1.0
 40
1.0
 40
1.0
 10
1.13706
 20
2.13235
 30
0.0
 10
1.13706
 20
2.27042
 30
0.0
 10
1.02514
 20
2.38235
 30
0.0
 10
0.88707
 20
2.38235
 30
0.0
 10
0.88707
 20
2.38235
 30
0.0
 10
0.74899
 20
2.38235
 30
0.0
 10
0.63707
 20
2.27042
 30
0.0
 10
0.63707
 20
2.13235
 30
0.0
 10
0.63707
 20
2.13235
 30
0.0
 10
0.6370600000000001
 20
1.99428
 30
0.0
 10
0.74899
 20
1.88235
 30
0.0
 10
0.8870600000000001
 20
1.88235
 30
0.0
 10
0.8870600000000001
 20
1.88235
 30
0.0
 10
1.02514
 20
1.88235
 30
0.0
 10
1.13706
 20
1.99428
 30
0.0
 10
1.13706
 20
2.13235
 30
0.0
  0
SPLINE
  5
6B
330
1F
100
AcDbEntity
  8
0
370
     5
100
AcDbSpline
210
0.0
220
0.0
230
1.0
 70
     8
 71
     3
 72
    20
 73
    16
 74
     0
 42
0.0000000001
 43
0.0000000001
 40
0.0
 40
0.0
 40
0.0
 40
0.0
 40
0.25
 40
0.25
 40
0.25
 40
0.25
 40
0.5
 40
0.5
 40
0.5
 40
0.5
 40
0.75
 40
0.75
 40
0.75
 40
0.75
 40
1.0
 40
1.0
 40
1.0
 40
1.0
 10
2.13706
 20
-7.547020000000001
 30
0.0
 10
2.13706
 20
-7.408950000000001
 30
0.0
 10
2.02513
 20
-7.297020000000001
 30
0.0
 10
1.88706
 20
-7.297020000000001
 30
0.0
 10
1.88706
 20
-7.297020000000001
 30
0.0
 10
1.74899
 20
-7.297020000000001
 30
0.0
 10
1.63707
 20
-7.408950000000001
 30
0.0
 10
1.63707
 20
-7.547020000000001
 30
0.0
 10
1.63707
 20
-7.547020000000001
 30
0.0
 10
1.63706
 20
-7.685090000000001
 30
0.0
 10
1.74899
 20
-7.797020000000001
 30
0.0
 10
1.88706
 20
-7.797020000000001
 30
0.0
 10
1.88706
 20
-7.797020000000001
 30
0.0
 10
2.02513
 20
-7.797020000000001
 30
0.0
 10
2.13705
 20
-7.685090000000001
 30
0.0
 10
2.13705
 20
-7.547020000000001
 30
0.0
  0
SPLINE
  5
6C
330
1F
100
AcDbEntity
  8
0
370
     5
100
AcDbSpline
210
0.0
220
0.0
230
1.0
 70
    11
 71
     3
 72
    20
 73
    16
 74
     0
 42
0.0000000001
 43
0.0000000001
 40
0.0
 40
0.0
 40
0.0
 40
0.0
 40
0.25
 40
0.25
 40
0.25
 40
0.25
 40
0.5
 40
0.5
 40
0.5
 40
0.5
 40
0.75
 40
0.75
 40
0.75
 40
0.75
 40
1.0
 40
1.0
 40
1.0
 40
1.0
 10
-6.542300000000001
 20
1.13235
 30
0.0
 10
-6.542300000000001
 20
1.27042
 30
0.0
 10
-6.654230000000001
 20
1.38235
 30
0.0
 10
-6.792300000000001
 20
1.38235
 30
0.0
 10
-6.792300000000001
 20
1.38235
 30
0.0
 10
-6.930370000000001
 20
1.38235
 30
0.0
 10
-7.042300000000001
 20
1.27042
 30
0.0
 10
-7.042300000000001
 20
1.13235
 30
0.0
 10
-7.042300000000001
 20
1.13235
 30
0.0
 10
-7.042300000000001
 20
0.9942800000000001
 30
0.0
 10
-6.930370000000001
 20
0.8823500000000001
 30
0.0
 10
-6.792300000000001
 20
0.8823500000000001
 30
0.0
 10
-6.792300000000001
 20
0.8823500000000001
 30
0.0
 10
-6.654230000000001
 20
0.8823500000000001
 30
0.0
 10
-6.542300000000001
 20
0.9942800000000001
 30
0.0
 10
-6.542300000000001
 20
1.13235
 30
0.0
  0
SPLINE
  5
6D
330
1F
100
AcDbEntity
  8
0
370
     5
100
AcDbSpline
210
0.0
220
0.0
230
1.0
 70
    11
 71
     3
 72
    20
 73
    16
 74
     0
 42
0.0000000001
 43
0.0000000001
 40
0.0
 40
0.0
 40
0.0
 40
0.0
 40
0.25
 40
0.25
 40
0.25
 40
0.25
 40
0.5
 40
0.5
 40
0.5
 40
0.5
 40
0.75
 40
0.75
 40
0.75
 40
0.75
 40
1.0
 40
1.0
 40
1.0
 40
1.0
 10
3.13705
 20
0.13235
 30
0.0
 10
3.13705
 20
0.2704200000000001
 30
0.0
 10
3.02513
 20
0.38235
 30
0.0
 10
2.88706
 20
0.38235
 30
0.0
 10
2.88706
 20
0.38235
 30
0.0
 10
2.74898
 20
0.38235
 30
0.0
 10
2.63706
 20
0.2704200000000001
 30
0.0
 10
2.63706
 20
0.13235
 30
0.0
 10
2.63706
 20
0.13235
 30
0.0
 10
2.63705
 20
-0.00572
 30
0.0
 10
2.74898
 20
-0.11765
 30
0.0
 10
2.88705
 20
-0.11765
 30
0.0
 10
2.88705
 20
-0.11765
 30
0.0
 10
3.02513
 20
-0.11765
 30
0.0
 10
3.13705
 20
-0.00572
 30
0.0
 10
3.13705
 20
0.13235
 30
0.0
  0
SPLINE
  5
6E
330
1F
100
AcDbEntity
  8
0
370
     5
100
AcDbSpline
210
0.0
220
0.0
230
1.0
 70
    11
 71
     3
 72
    20
 73
    16
 74
     0
 42
0.0000000001
 43
0.0000000001
 40
0.0
 40
0.0
 40
0.0
 40
0.0
 40
0.25
 40
0.25
 40
0.25
 40
0.25
 40
0.5
 40
0.5
 40
0.5
 40
0.5
 40
0.75
 40
0.75
 40
0.75
 40
0.75
 40
1.0
 40
1.0
 40
1.0
 40
1.0
 10
6.768420000000001
 20
1.13235
 30
0.0
 10
6.768420000000001
 20
1.27042
 30
0.0
 10
6.656490000000001
 20
1.38235
 30
0.0
 10
6.518420000000001
 20
1.38235
 30
0.0
 10
6.518420000000001
 20
1.38235
 30
0.0
 10
6.380350000000001
 20
1.38235
 30
0.0
 10
6.268420000000001
 20
1.27042
 30
0.0
 10
6.268420000000001
 20
1.13235
 30
0.0
 10
6.268420000000001
 20
1.13235
 30
0.0
 10
6.268420000000001
 20
0.9942800000000001
 30
0.0
 10
6.380350000000001
 20
0.8823500000000001
 30
0.0
 10
6.518420000000001
 20
0.8823500000000001
 30
0.0
 10
6.518420000000001
 20
0.8823500000000001
 30
0.0
 10
6.656490000000001
 20
0.8823500000000001
 30
0.0
 10
6.768420000000001
 20
0.9942800000000001
 30
0.0
 10
6.768420000000001
 20
1.13235
 30
0.0
  0
SPLINE
  5
6F
330
1F
100
AcDbEntity
  8
0
370
     5
100
AcDbSpline
210
0.0
220
0.0
230
1.0
 70
     8
 71
     3
 72
    20
 73
    16
 74
     0
 42
0.0000000001
 43
0.0000000001
 40
0.0
 40
0.0
 40
0.0
 40
0.0
 40
0.25
 40
0.25
 40
0.25
 40
0.25
 40
0.5
 40
0.5
 40
0.5
 40
0.5
 40
0.75
 40
0.75
 40
0.75
 40
0.75
 40
1.0
 40
1.0
 40
1.0
 40
1.0
 10
2.13705
 20
9.811710000000002
 30
0.0
 10
2.13705
 20
9.949780000000001
 30
0.0
 10
2.02513
 20
10.0617
 30
0.0
 10
1.88706
 20
10.0617
 30
0.0
 10
1.88706
 20
10.0617
 30
0.0
 10
1.74899
 20
10.06171
 30
0.0
 10
1.63707
 20
9.949780000000001
 30
0.0
 10
1.63707
 20
9.811710000000002
 30
0.0
 10
1.63707
 20
9.811710000000002
 30
0.0
 10
1.63706
 20
9.673630000000001
 30
0.0
 10
1.74899
 20
9.561710000000002
 30
0.0
 10
1.88706
 20
9.561710000000002
 30
0.0
 10
1.88706
 20
9.561710000000002
 30
0.0
 10
2.02513
 20
9.5617
 30
0.0
 10
2.13705
 20
9.673630000000001
 30
0.0
 10
2.13705
 20
9.8117
 30
0.0
  0
SPLINE
  5
70
330
1F
100
AcDbEntity
  8
0
370
     5
100
AcDbSpline
210
0.0
220
0.0
230
1.0
 70
     8
 71
     3
 72
    20
 73
    16
 74
     0
 42
0.0000000001
 43
0.0000000001
 40
0.0
 40
0.0
 40
0.0
 40
0.0
 40
0.25
 40
0.25
 40
0.25
 40
0.25
 40
0.5
 40
0.5
 40
0.5
 40
0.5
 40
0.75
 40
0.75
 40
0.75
 40
0.75
 40
1.0
 40
1.0
 40
1.0
 40
1.0
 10
2.13705
 20
5.76372
 30
0.0
 10
2.13705
 20
5.90179
 30
0.0
 10
2.02513
 20
6.013710000000001
 30
0.0
 10
1.88706
 20
6.013710000000001
 30
0.0
 10
1.88706
 20
6.013710000000001
 30
0.0
 10
1.74899
 20
6.01372
 30
0.0
 10
1.63707
 20
5.90179
 30
0.0
 10
1.63707
 20
5.76372
 30
0.0
 10
1.63707
 20
5.76372
 30
0.0
 10
1.63706
 20
5.625640000000001
 30
0.0
 10
1.74899
 20
5.51372
 30
0.0
 10
1.88706
 20
5.51372
 30
0.0
 10
1.88706
 20
5.51372
 30
0.0
 10
2.02513
 20
5.513710000000001
 30
0.0
 10
2.13705
 20
5.625640000000001
 30
0.0
 10
2.13705
 20
5.763710000000001
 30
0.0
  0
SPLINE
  5
71
330
1F
100
AcDbEntity
  8
0
370
     5
100
AcDbSpline
210
0.0
220
0.0
230
1.0
 70
    11
 71
     3
 72
    20
 73
    16
 74
     0
 42
0.0000000001
 43
0.0000000001
 40
0.0
 40
0.0
 40
0.0
 40
0.0
 40
0.25
 40
0.25
 40
0.25
 40
0.25
 40
0.5
 40
0.5
 40
0.5
 40
0.5
 40
0.75
 40
0.75
 40
0.75
 40
0.75
 40
1.0
 40
1.0
 40
1.0
 40
1.0
 10
10.81642
 20
1.13235
 30
0.0
 10
10.81642
 20
1.27042
 30
0.0
 10
10.70449
 20
1.38235
 30
0.0
 10
10.56642
 20
1.38235
 30
0.0
 10
10.56642
 20
1.38235
 30
0.0
 10
10.42835
 20
1.38235
 30
0.0
 10
10.31642
 20
1.27042
 30
0.0
 10
10.31642
 20
1.13235
 30
0.0
 10
10.31642
 20
1.13235
 30
0.0
 10
10.31642
 20
0.9942800000000001
 30
0.0
 10
10.42835
 20
0.8823500000000001
 30
0.0
 10
10.56642
 20
0.8823500000000001
 30
0.0
 10
10.56642
 20
0.8823500000000001
 30
0.0
 10
10.70449
 20
0.8823500000000001
 30
0.0
 10
10.81642
 20
0.9942800000000001
 30
0.0
 10
10.81642
 20
1.13235
 30
0.0
  0
SPLINE
  5
72
330
1F
100
AcDbEntity
  8
0
370
     5
100
AcDbSpline
210
0.0
220
0.0
230
1.0
 70
     8
 71
     3
 72
    20
 73
    16
 74
     0
 42
0.0000000001
 43
0.0000000001
 40
0.0
 40
0.0
 40
0.0
 40
0.0
 40
0.25
 40
0.25
 40
0.25
 40
0.25
 40
0.5
 40
0.5
 40
0.5
 40
0.5
 40
0.75
 40
0.75
 40
0.75
 40
0.75
 40
1.0
 40
1.0
 40
1.0
 40
1.0
 10
2.13706
 20
1.13235
 30
0.0
 10
2.13706
 20
1.27042
 30
0.0
 10
2.02513
 20
1.38235
 30
0.0
 10
1.88706
 20
1.38235
 30
0.0
 10
1.88706
 20
1.38235
 30
0.0
 10
1.74899
 20
1.38235
 30
0.0
 10
1.63707
 20
1.27042
 30
0.0
 10
1.63707
 20
1.13235
 30
0.0
 10
1.63707
 20
1.13235
 30
0.0
 10
1.63706
 20
0.9942800000000001
 30
0.0
 10
1.74899
 20
0.8823500000000001
 30
0.0
 10
1.88706
 20
0.8823500000000001
 30
0.0
 10
1.88706
 20
0.8823500000000001
 30
0.0
 10
2.02513
 20
0.8823500000000001
 30
0.0
 10
2.13705
 20
0.9942800000000001
 30
0.0
 10
2.13705
 20
1.13235
 30
0.0
  0
ENDSEC
  0
SECTION
  2
OBJECTS
  0
DICTIONARY
  5
C
330
0
100
AcDbDictionary
281
     1
  3
ACAD_GROUP
350
D
  3
ACAD_LAYOUT
350
1A
  3
ACAD_MLINESTYLE
350
17
  3
ACAD_PLOTSETTINGS
350
19
  3
ACAD_PLOTSTYLENAME
350
E
  0
DICTIONARY
  5
D
102
{ACAD_REACTORS
330
C
102
}
330
C
100
AcDbDictionary
281
     1
  0
DICTIONARY
  5
1A
102
{ACAD_REACTORS
330
C
102
}
330
C
100
AcDbDictionary
281
     1
  3
Layout1
350
1E
  3
Layout2
350
26
  3
Model
350
22
  0
DICTIONARY
  5
17
102
{ACAD_REACTORS
330
C
102
}
330
C
100
AcDbDictionary
281
     1
  3
Standard
350
18
  0
DICTIONARY
  5
19
102
{ACAD_REACTORS
330
C
102
}
330
C
100
AcDbDictionary
281
     1
  0
ACDBDICTIONARYWDFLT
  5
E
102
{ACAD_REACTORS
330
C
102
}
330
C
100
AcDbDictionary
281
     1
  3
Normal
350
F
100
AcDbDictionaryWithDefault
340
F
  0
LAYOUT
  5
1E
102
{ACAD_REACTORS
330
1A
102
}
330
1A
100
AcDbPlotSettings
  1

  2

  4

  6

 40
0.0
 41
0.0
 42
0.0
 43
0.0
 44
0.0
 45
0.0
 46
0.0
 47
0.0
 48
0.0
 49
0.0
140
0.0
141
0.0
142
1.0
143
1.0
 70
   688
 72
     0
 73
     0
 74
     5
  7

 75
    16
 76
     0
 77
     2
 78
   300
147
1.0
148
0.0
149
0.0
100
AcDbLayout
  1
Layout1
 70
     1
 71
     1
 10
0.0
 20
0.0
 11
12.0
 21
9.0
 12
0.0
 22
0.0
 32
0.0
 14
1.000000000000000E+20
 24
1.000000000000000E+20
 34
1.000000000000000E+20
 15
-1.000000000000000E+20
 25
-1.000000000000000E+20
 35
-1.000000000000000E+20
146
0.0
 13
0.0
 23
0.0
 33
0.0
 16
1.0
 26
0.0
 36
0.0
 17
0.0
 27
1.0
 37
0.0
 76
     0
330
1B
  0
LAYOUT
  5
26
102
{ACAD_REACTORS
330
1A
102
}
330
1A
100
AcDbPlotSettings
  1

  2

  4

  6

 40
0.0
 41
0.0
 42
0.0
 43
0.0
 44
0.0
 45
0.0
 46
0.0
 47
0.0
 48
0.0
 49
0.0
140
0.0
141
0.0
142
1.0
143
1.0
 70
   688
 72
     0
 73
     0
 74
     5
  7

 75
    16
 76
     0
 77
     2
 78
   300
147
1.0
148
0.0
149
0.0
100
AcDbLayout
  1
Layout2
 70
     1
 71
     2
 10
0.0
 20
0.0
 11
0.0
 21
0.0
 12
0.0
 22
0.0
 32
0.0
 14
0.0
 24
0.0
 34
0.0
 15
0.0
 25
0.0
 35
0.0
146
0.0
 13
0.0
 23
0.0
 33
0.0
 16
1.0
 26
0.0
 36
0.0
 17
0.0
 27
1.0
 37
0.0
 76
     0
330
23
  0
LAYOUT
  5
22
102
{ACAD_REACTORS
330
1A
102
}
330
1A
100
AcDbPlotSettings
  1

  2

  4

  6

 40
0.0
 41
0.0
 42
0.0
 43
0.0
 44
0.0
 45
0.0
 46
0.0
 47
0.0
 48
0.0
 49
0.0
140
0.0
141
0.0
142
1.0
143
1.0
 70
  1712
 72
     0
 73
     0
 74
     0
  7

 75
     0
 76
     0
 77
     2
 78
   300
147
1.0
148
0.0
149
0.0
100
AcDbLayout
  1
Model
 70
     1
 71
     0
 10
0.0
 20
0.0
 11
0.0
 21
0.0
 12
0.0
 22
0.0
 32
0.0
 14
-23.4772
 24
-8.74532
 34
0.0
 15
21.11513
 25
28.93161
 35
0.0
146
0.0
 13
0.0
 23
0.0
 33
0.0
 16
1.0
 26
0.0
 36
0.0
 17
0.0
 27
1.0
 37
0.0
 76
     0
330
1F
  0
MLINESTYLE
  5
18
102
{ACAD_REACTORS
330
17
102
}
330
17
100
AcDbMlineStyle
  2
Standard
 70
     0
  3

 62
   256
 51
90.0
 52
90.0
 71
     2
 49
0.5
 62
   256
  6
BYLAYER
 49
-0.5
 62
   256
  6
BYLAYER
  0
ACDBPLACEHOLDER
  5
F
102
{ACAD_REACTORS
330
E
102
}
330
E
  0
ENDSEC
  0
EOF
