  0
SECTION
  2
BLOCKS
  0
ENDSEC
  0
SECTION
  2
ENTITIES
  0
LINE
  8
0
 10
240
 20
170
 11
-240
 21
170
  0
LINE
  8
0
 10
-240
 20
170
 11
-240
 21
-170
  0
LINE
  8
0
 10
-240
 20
-170
 11
240
 21
-170
  0
LINE
  8
0
 10
240
 20
-170
 11
240
 21
170
  0
LINE
  8
0
 10
200
 20
55
 11
200
 21
95
  0
LINE
  8
0
 10
200
 20
95
 11
230
 21
95
  0
LINE
  8
0
 10
230
 20
95
 11
230
 21
55
  0
LINE
  8
0
 10
230
 20
55
 11
200
 21
55
  0
LINE
  8
0
 10
-230
 20
55
 11
-230
 21
95
  0
LINE
  8
0
 10
-230
 20
95
 11
-200
 21
95
  0
LINE
  8
0
 10
-200
 20
95
 11
-200
 21
55
  0
LINE
  8
0
 10
-200
 20
55
 11
-230
 21
55
  0
LINE
  8
0
 10
200
 20
-95
 11
200
 21
-55
  0
LINE
  8
0
 10
200
 20
-55
 11
230
 21
-55
  0
LINE
  8
0
 10
230
 20
-55
 11
230
 21
-95
  0
LINE
  8
0
 10
230
 20
-95
 11
200
 21
-95
  0
LINE
  8
0
 10
-230
 20
-95
 11
-230
 21
-55
  0
LINE
  8
0
 10
-230
 20
-55
 11
-200
 21
-55
  0
LINE
  8
0
 10
-200
 20
-55
 11
-200
 21
-95
  0
LINE
  8
0
 10
-200
 20
-95
 11
-230
 21
-95
  0
ENDSEC
  0
SECTION
  2
OBJECTS
  0
DICTIONARY
  0
ENDSEC
  0
EOF
