  0
SECTION
  2
BLOCKS
  0
ENDSEC
  0
SECTION
  2
ENTITIES
  0
LINE
  8
0
 10
200
 20
97.5
 11
200
 21
147.5
  0
LINE
  8
0
 10
200
 20
147.5
 11
-200
 21
147.5
  0
LINE
  8
0
 10
-200
 20
147.5
 11
-200
 21
97.5
  0
LINE
  8
0
 10
-200
 20
97.5
 11
-215
 21
97.5
  0
LINE
  8
0
 10
-215
 20
97.5
 11
-215
 21
57.5
  0
LINE
  8
0
 10
-215
 20
57.5
 11
-200
 21
57.5
  0
LINE
  8
0
 10
-200
 20
57.5
 11
-200
 21
-57.5
  0
LINE
  8
0
 10
-200
 20
-57.5
 11
-215
 21
-57.5
  0
LINE
  8
0
 10
-215
 20
-57.5
 11
-215
 21
-97.5
  0
LINE
  8
0
 10
-215
 20
-97.5
 11
-200
 21
-97.5
  0
LINE
  8
0
 10
-200
 20
-97.5
 11
-200
 21
-147.5
  0
LINE
  8
0
 10
-200
 20
-147.5
 11
200
 21
-147.5
  0
LINE
  8
0
 10
200
 20
-147.5
 11
200
 21
-97.5
  0
LINE
  8
0
 10
200
 20
-97.5
 11
215
 21
-97.5
  0
LINE
  8
0
 10
215
 20
-97.5
 11
215
 21
-57.5
  0
LINE
  8
0
 10
215
 20
-57.5
 11
200
 21
-57.5
  0
LINE
  8
0
 10
200
 20
-57.5
 11
200
 21
57.5
  0
LINE
  8
0
 10
200
 20
57.5
 11
215
 21
57.5
  0
LINE
  8
0
 10
215
 20
57.5
 11
215
 21
97.5
  0
LINE
  8
0
 10
215
 20
97.5
 11
200
 21
97.5
  0
ENDSEC
  0
SECTION
  2
OBJECTS
  0
DICTIONARY
  0
ENDSEC
  0
EOF
