  0
SECTION
  2
HEADER
  9
$ACADVER
  1
AC1014
  9
$HANDSEED
  5
FFFF
  9
$MEASUREMENT
 70
     1
  0
ENDSEC
  0
SECTION
  2
TABLES
  0
TABLE
  2
VPORT
  5
8
330
0
100
AcDbSymbolTable
 70
     4
  0
VPORT
  5
2E
330
8
100
AcDbSymbolTableRecord
100
AcDbViewportTableRecord
  2
*ACTIVE
 70
     0
 10
0.0
 20
0.0
 11
1.0
 21
1.0
 12
210.0
 22
148.5
 13
0.0
 23
0.0
 14
10.0
 24
10.0
 15
10.0
 25
10.0
 16
0.0
 26
0.0
 36
1.0
 17
0.0
 27
0.0
 37
0.0
 40
341.0
 41
1.24
 42
50.0
 43
0.0
 44
0.0
 50
0.0
 51
0.0
 71
     0
 72
   100
 73
     1
 74
     3
 75
     0
 76
     0
 77
     0
 78
     0
  0
ENDTAB
  0
TABLE
  2
LTYPE
  5
5
330
0
100
AcDbSymbolTable
 70
     1
  0
LTYPE
  5
14
330
5
100
AcDbSymbolTableRecord
100
AcDbLinetypeTableRecord
  2
BYBLOCK
 70
     0
  3

 72
    65
 73
     0
 40
0.0
  0
LTYPE
  5
15
330
5
100
AcDbSymbolTableRecord
100
AcDbLinetypeTableRecord
  2
BYLAYER
 70
     0
  3

 72
    65
 73
     0
 40
0.0
  0
LTYPE
  5
16
330
5
100
AcDbSymbolTableRecord
100
AcDbLinetypeTableRecord
  2
CONTINUOUS
 70
     0
  3
Solid line
 72
    65
 73
     0
 40
0.0
  0
ENDTAB
  0
TABLE
  2
LAYER
  5
2
100
AcDbSymbolTable
 70
2
  0
LAYER
  5
50
100
AcDbSymbolTableRecord
100
AcDbLayerTableRecord
  2
0
 70
0
  6
CONTINUOUS
  0
LAYER
  5
51
100
AcDbSymbolTableRecord
100
AcDbLayerTableRecord
  2
Capa_1
 70
0
  6
CONTINUOUS
  0
ENDTAB
  0
TABLE
  2
STYLE
  5
3
330
0
100
AcDbSymbolTable
 70
     1
  0
STYLE
  5
11
330
3
100
AcDbSymbolTableRecord
100
AcDbTextStyleTableRecord
  2
STANDARD
 70
     0
 40
0.0
 41
1.0
 50
0.0
 71
     0
 42
2.5
  3
txt
  4

  0
ENDTAB
  0
TABLE
  2
VIEW
  5
6
330
0
100
AcDbSymbolTable
 70
     0
  0
ENDTAB
  0
TABLE
  2
UCS
  5
7
330
0
100
AcDbSymbolTable
 70
     0
  0
ENDTAB
  0
TABLE
  2
APPID
  5
9
330
0
100
AcDbSymbolTable
 70
     2
  0
APPID
  5
12
330
9
100
AcDbSymbolTableRecord
100
AcDbRegAppTableRecord
  2
ACAD
 70
     0
  0
ENDTAB
  0
TABLE
  2
DIMSTYLE
  5
A
330
0
100
AcDbSymbolTable
 70
     1
  0
DIMSTYLE
105
27
330
A
100
AcDbSymbolTableRecord
100
AcDbDimStyleTableRecord
  2
ISO-25
 70
     0
  3

  4

  5

  6

  7

 40
1.0
 41
2.5
 42
0.625
 43
3.75
 44
1.25
 45
0.0
 46
0.0
 47
0.0
 48
0.0
140
2.5
141
2.5
142
0.0
143
0.03937007874016
144
1.0
145
0.0
146
1.0
147
0.625
 71
     0
 72
     0
 73
     0
 74
     0
 75
     0
 76
     0
 77
     1
 78
     8
170
     0
171
     3
172
     1
173
     0
174
     0
175
     0
176
     0
177
     0
178
     0
270
     2
271
     2
272
     2
273
     2
274
     3
340
11
275
     0
280
     0
281
     0
282
     0
283
     0
284
     8
285
     0
286
     0
287
     3
288
     0
  0
ENDTAB
  0
TABLE
  2
BLOCK_RECORD
  5
1
330
0
100
AcDbSymbolTable
 70
     1
  0
BLOCK_RECORD
  5
1F
330
1
100
AcDbSymbolTableRecord
100
AcDbBlockTableRecord
  2
*MODEL_SPACE
  0
BLOCK_RECORD
  5
1B
330
1
100
AcDbSymbolTableRecord
100
AcDbBlockTableRecord
  2
*PAPER_SPACE
  0
ENDTAB
  0
ENDSEC
  0
SECTION
  2
BLOCKS
  0
BLOCK
  5
20
330
1F
100
AcDbEntity
  8
0
100
AcDbBlockBegin
  2
*MODEL_SPACE
 70
     0
 10
0.0
 20
0.0
 30
0.0
  3
*MODEL_SPACE
  1

  0
ENDBLK
  5
21
330
1F
100
AcDbEntity
  8
0
100
AcDbBlockEnd
  0
BLOCK
  5
1C
330
1B
100
AcDbEntity
 67
     1
  8
0
100
AcDbBlockBegin
  2
*PAPER_SPACE
  1

  0
ENDBLK
  5
1D
330
1B
100
AcDbEntity
 67
     1
  8
0
100
AcDbBlockEnd
  0
ENDSEC
  0
SECTION
  2
ENTITIES
  0
SPLINE
  5
100
100
AcDbEntity
  8
Capa_1
 62
7
100
AcDbSpline
 70
8
 71
3
 72
8
 73
4
 74
0
 40
0
 40
0
 40
0
 40
0
 40
1
 40
1
 40
1
 40
1
 10
118.283184
 20
620.349124
 30
0.0
 10
110.899793
 20
620.349089
 30
0.0
 10
104.914400
 20
614.593851
 30
0.0
 10
104.914432
 20
607.494436
 30
0.0
  0
SPLINE
  5
101
100
AcDbEntity
  8
Capa_1
 62
7
100
AcDbSpline
 70
8
 71
3
 72
8
 73
4
 74
0
 40
0
 40
0
 40
0
 40
0
 40
1
 40
1
 40
1
 40
1
 10
104.914432
 20
607.494436
 30
0.0
 10
104.918825
 20
602.703978
 30
0.0
 10
107.693192
 20
598.313281
 30
0.0
 10
112.112864
 20
596.102244
 30
0.0
  0
SPLINE
  5
102
100
AcDbEntity
  8
Capa_1
 62
7
100
AcDbSpline
 70
8
 71
3
 72
8
 73
4
 74
0
 40
0
 40
0
 40
0
 40
0
 40
1
 40
1
 40
1
 40
1
 10
112.112864
 20
506.100684
 30
0.0
 10
108.934361
 20
503.906635
 30
0.0
 10
107.034783
 20
500.292588
 30
0.0
 10
107.030056
 20
496.430372
 30
0.0
  0
SPLINE
  5
103
100
AcDbEntity
  8
Capa_1
 62
7
100
AcDbSpline
 70
8
 71
3
 72
8
 73
4
 74
0
 40
0
 40
0
 40
0
 40
0
 40
1
 40
1
 40
1
 40
1
 10
107.030056
 20
496.430372
 30
0.0
 10
107.030478
 20
489.931706
 30
0.0
 10
112.298582
 20
484.663602
 30
0.0
 10
118.797248
 20
484.663180
 30
0.0
  0
SPLINE
  5
104
100
AcDbEntity
  8
Capa_1
 62
7
100
AcDbSpline
 70
8
 71
3
 72
8
 73
4
 74
0
 40
0
 40
0
 40
0
 40
0
 40
1
 40
1
 40
1
 40
1
 10
118.797248
 20
484.663180
 30
0.0
 10
121.918309
 20
484.662969
 30
0.0
 10
124.911624
 20
485.902606
 30
0.0
 10
127.118694
 20
488.109383
 30
0.0
  0
SPLINE
  5
105
100
AcDbEntity
  8
Capa_1
 62
7
100
AcDbSpline
 70
8
 71
3
 72
8
 73
4
 74
0
 40
0
 40
0
 40
0
 40
0
 40
1
 40
1
 40
1
 40
1
 10
127.118694
 20
488.109383
 30
0.0
 10
129.325764
 20
490.316160
 30
0.0
 10
130.565797
 20
493.309310
 30
0.0
 10
130.566000
 20
496.430372
 30
0.0
  0
SPLINE
  5
106
100
AcDbEntity
  8
Capa_1
 62
7
100
AcDbSpline
 70
8
 71
3
 72
8
 73
4
 74
0
 40
0
 40
0
 40
0
 40
0
 40
1
 40
1
 40
1
 40
1
 10
130.566000
 20
496.430372
 30
0.0
 10
130.565575
 20
500.728062
 30
0.0
 10
128.222357
 20
504.683737
 30
0.0
 10
124.453496
 20
506.749124
 30
0.0
  0
LWPOLYLINE
  5
107
100
AcDbEntity
  8
Capa_1
 62
7
100
AcDbPolyline
 90
2
 70
1
 10
112.112864
 20
596.102244
 30
0.0
 10
112.112864
 20
506.100684
 30
0.0
  0
SPLINE
  5
108
100
AcDbEntity
  8
Capa_1
 62
7
100
AcDbSpline
 70
8
 71
3
 72
8
 73
4
 74
0
 40
0
 40
0
 40
0
 40
0
 40
1
 40
1
 40
1
 40
1
 10
124.453496
 20
596.097556
 30
0.0
 10
128.874724
 20
598.309370
 30
0.0
 10
131.649358
 20
602.702291
 30
0.0
 10
131.651936
 20
607.494436
 30
0.0
  0
SPLINE
  5
109
100
AcDbEntity
  8
Capa_1
 62
7
100
AcDbSpline
 70
8
 71
3
 72
8
 73
4
 74
0
 40
0
 40
0
 40
0
 40
0
 40
1
 40
1
 40
1
 40
1
 10
131.651936
 20
607.494436
 30
0.0
 10
131.651968
 20
614.593851
 30
0.0
 10
125.666575
 20
620.349089
 30
0.0
 10
118.283184
 20
620.349124
 30
0.0
  0
LWPOLYLINE
  5
10a
100
AcDbEntity
  8
Capa_1
 62
7
100
AcDbPolyline
 90
2
 70
1
 10
124.453496
 20
506.749124
 30
0.0
 10
124.453496
 20
596.097556
 30
0.0
  0
LWPOLYLINE
  5
10b
100
AcDbEntity
  8
Capa_1
 62
7
100
AcDbPolyline
 90
2
 70
1
 10
118.283184
 20
620.349124
 30
0.0
 10
118.283184
 20
620.349124
 30
0.0
  0
SPLINE
  5
10c
100
AcDbEntity
  8
Capa_1
 62
7
100
AcDbSpline
 70
8
 71
3
 72
8
 73
4
 74
0
 40
0
 40
0
 40
0
 40
0
 40
1
 40
1
 40
1
 40
1
 10
161.474392
 20
621.377484
 30
0.0
 10
154.091001
 20
621.377449
 30
0.0
 10
148.105608
 20
615.622211
 30
0.0
 10
148.105640
 20
608.522796
 30
0.0
  0
SPLINE
  5
10d
100
AcDbEntity
  8
Capa_1
 62
7
100
AcDbSpline
 70
8
 71
3
 72
8
 73
4
 74
0
 40
0
 40
0
 40
0
 40
0
 40
1
 40
1
 40
1
 40
1
 10
148.105640
 20
608.522796
 30
0.0
 10
148.110034
 20
603.732336
 30
0.0
 10
150.884405
 20
599.341639
 30
0.0
 10
155.304080
 20
597.130604
 30
0.0
  0
LWPOLYLINE
  5
10e
100
AcDbEntity
  8
Capa_1
 62
7
100
AcDbPolyline
 90
5
 70
1
 10
105.922152
 20
785.675121
 30
0.0
 10
120.319327
 20
785.675121
 30
0.0
 10
120.319327
 20
637.589761
 30
0.0
 10
105.922152
 20
637.589761
 30
0.0
 10
105.922152
 20
785.675121
 30
0.0
  0
SPLINE
  5
10f
100
AcDbEntity
  8
Capa_1
 62
7
100
AcDbSpline
 70
8
 71
3
 72
8
 73
4
 74
0
 40
0
 40
0
 40
0
 40
0
 40
1
 40
1
 40
1
 40
1
 10
155.304080
 20
506.650916
 30
0.0
 10
151.814080
 20
504.462306
 30
0.0
 10
149.726061
 20
500.829040
 30
0.0
 10
149.725952
 20
496.944668
 30
0.0
  0
SPLINE
  5
110
100
AcDbEntity
  8
Capa_1
 62
7
100
AcDbSpline
 70
8
 71
3
 72
8
 73
4
 74
0
 40
0
 40
0
 40
0
 40
0
 40
1
 40
1
 40
1
 40
1
 10
149.725952
 20
496.944668
 30
0.0
 10
149.725675
 20
493.828604
 30
0.0
 10
151.071623
 20
490.840066
 30
0.0
 10
153.467699
 20
488.636510
 30
0.0
  0
SPLINE
  5
111
100
AcDbEntity
  8
Capa_1
 62
7
100
AcDbSpline
 70
8
 71
3
 72
8
 73
4
 74
0
 40
0
 40
0
 40
0
 40
0
 40
1
 40
1
 40
1
 40
1
 10
153.467699
 20
488.636510
 30
0.0
 10
155.863775
 20
486.432953
 30
0.0
 10
159.113701
 20
485.194884
 30
0.0
 10
162.502520
 20
485.194668
 30
0.0
  0
SPLINE
  5
112
100
AcDbEntity
  8
Capa_1
 62
7
100
AcDbSpline
 70
8
 71
3
 72
8
 73
4
 74
0
 40
0
 40
0
 40
0
 40
0
 40
1
 40
1
 40
1
 40
1
 10
162.502520
 20
485.194668
 30
0.0
 10
165.891608
 20
485.194505
 30
0.0
 10
169.141933
 20
486.432407
 30
0.0
 10
171.538344
 20
488.636005
 30
0.0
  0
SPLINE
  5
113
100
AcDbEntity
  8
Capa_1
 62
7
100
AcDbSpline
 70
8
 71
3
 72
8
 73
4
 74
0
 40
0
 40
0
 40
0
 40
0
 40
1
 40
1
 40
1
 40
1
 10
171.538344
 20
488.636005
 30
0.0
 10
173.934756
 20
490.839603
 30
0.0
 10
175.280917
 20
493.828356
 30
0.0
 10
175.280640
 20
496.944668
 30
0.0
  0
SPLINE
  5
114
100
AcDbEntity
  8
Capa_1
 62
7
100
AcDbSpline
 70
8
 71
3
 72
8
 73
4
 74
0
 40
0
 40
0
 40
0
 40
0
 40
1
 40
1
 40
1
 40
1
 10
175.280640
 20
496.944668
 30
0.0
 10
175.274067
 20
501.599687
 30
0.0
 10
172.279252
 20
505.812161
 30
0.0
 10
167.644704
 20
507.685292
 30
0.0
  0
SPLINE
  5
115
100
AcDbEntity
  8
Capa_1
 62
7
100
AcDbSpline
 70
8
 71
3
 72
8
 73
4
 74
0
 40
0
 40
0
 40
0
 40
0
 40
1
 40
1
 40
1
 40
1
 10
167.644704
 20
507.685292
 30
0.0
 10
167.644704
 20
507.685292
 30
0.0
 10
167.644704
 20
597.125916
 30
0.0
 10
167.644704
 20
597.125916
 30
0.0
  0
SPLINE
  5
116
100
AcDbEntity
  8
Capa_1
 62
7
100
AcDbSpline
 70
8
 71
3
 72
8
 73
4
 74
0
 40
0
 40
0
 40
0
 40
0
 40
1
 40
1
 40
1
 40
1
 10
167.644704
 20
597.125916
 30
0.0
 10
172.065932
 20
599.337730
 30
0.0
 10
174.840566
 20
603.730651
 30
0.0
 10
174.843144
 20
608.522796
 30
0.0
  0
SPLINE
  5
117
100
AcDbEntity
  8
Capa_1
 62
7
100
AcDbSpline
 70
8
 71
3
 72
8
 73
4
 74
0
 40
0
 40
0
 40
0
 40
0
 40
1
 40
1
 40
1
 40
1
 10
174.843144
 20
608.522796
 30
0.0
 10
174.843176
 20
615.622211
 30
0.0
 10
168.857783
 20
621.377449
 30
0.0
 10
161.474392
 20
621.377484
 30
0.0
  0
LWPOLYLINE
  5
118
100
AcDbEntity
  8
Capa_1
 62
7
100
AcDbPolyline
 90
2
 70
1
 10
155.304080
 20
597.130604
 30
0.0
 10
155.304080
 20
506.650916
 30
0.0
  0
SPLINE
  5
119
100
AcDbEntity
  8
Capa_1
 62
7
100
AcDbSpline
 70
8
 71
3
 72
8
 73
4
 74
0
 40
0
 40
0
 40
0
 40
0
 40
1
 40
1
 40
1
 40
1
 10
400.570656
 20
705.703572
 30
0.0
 10
394.607381
 20
705.702987
 30
0.0
 10
389.773551
 20
700.638308
 30
0.0
 10
389.773776
 20
694.391068
 30
0.0
  0
SPLINE
  5
11a
100
AcDbEntity
  8
Capa_1
 62
7
100
AcDbSpline
 70
8
 71
3
 72
8
 73
4
 74
0
 40
0
 40
0
 40
0
 40
0
 40
1
 40
1
 40
1
 40
1
 10
389.773776
 20
694.391068
 30
0.0
 10
389.779240
 20
690.467875
 30
0.0
 10
391.724653
 20
686.827771
 30
0.0
 10
394.914408
 20
684.772324
 30
0.0
  0
LWPOLYLINE
  5
11b
100
AcDbEntity
  8
Capa_1
 62
7
100
AcDbPolyline
 90
2
 70
1
 10
161.474392
 20
621.377484
 30
0.0
 10
161.474392
 20
621.377484
 30
0.0
  0
SPLINE
  5
11c
100
AcDbEntity
  8
Capa_1
 62
7
100
AcDbSpline
 70
8
 71
3
 72
8
 73
4
 74
0
 40
0
 40
0
 40
0
 40
0
 40
1
 40
1
 40
1
 40
1
 10
387.715968
 20
490.773884
 30
0.0
 10
387.146248
 20
490.773884
 30
0.0
 10
386.687840
 20
490.315476
 30
0.0
 10
386.687840
 20
489.745756
 30
0.0
  0
LWPOLYLINE
  5
11d
100
AcDbEntity
  8
Capa_1
 62
7
100
AcDbPolyline
 90
3
 70
1
 10
394.914408
 20
684.772324
 30
0.0
 10
394.914408
 20
490.773884
 30
0.0
 10
387.715968
 20
490.773884
 30
0.0
  0
SPLINE
  5
11e
100
AcDbEntity
  8
Capa_1
 62
7
100
AcDbSpline
 70
8
 71
3
 72
8
 73
4
 74
0
 40
0
 40
0
 40
0
 40
0
 40
1
 40
1
 40
1
 40
1
 10
321.900344
 20
488.717636
 30
0.0
 10
321.900344
 20
489.287348
 30
0.0
 10
321.441936
 20
489.745756
 30
0.0
 10
320.872216
 20
489.745756
 30
0.0
  0
LWPOLYLINE
  5
11f
100
AcDbEntity
  8
Capa_1
 62
7
100
AcDbPolyline
 90
4
 70
1
 10
386.687840
 20
489.745756
 30
0.0
 10
386.687840
 20
483.575444
 30
0.0
 10
321.900344
 20
483.575444
 30
0.0
 10
321.900344
 20
488.717636
 30
0.0
  0
SPLINE
  5
120
100
AcDbEntity
  8
Capa_1
 62
7
100
AcDbSpline
 70
8
 71
3
 72
8
 73
4
 74
0
 40
0
 40
0
 40
0
 40
0
 40
1
 40
1
 40
1
 40
1
 10
301.333152
 20
489.745756
 30
0.0
 10
300.763440
 20
489.745756
 30
0.0
 10
300.305032
 20
489.287348
 30
0.0
 10
300.305032
 20
488.717636
 30
0.0
  0
LWPOLYLINE
  5
121
100
AcDbEntity
  8
Capa_1
 62
7
100
AcDbPolyline
 90
2
 70
1
 10
320.872216
 20
489.745756
 30
0.0
 10
301.333152
 20
489.745756
 30
0.0
  0
SPLINE
  5
122
100
AcDbEntity
  8
Capa_1
 62
7
100
AcDbSpline
 70
8
 71
3
 72
8
 73
4
 74
0
 40
0
 40
0
 40
0
 40
0
 40
1
 40
1
 40
1
 40
1
 10
300.305032
 20
469.178572
 30
0.0
 10
300.305032
 20
468.608860
 30
0.0
 10
300.763440
 20
468.150444
 30
0.0
 10
301.333152
 20
468.150444
 30
0.0
  0
LWPOLYLINE
  5
123
100
AcDbEntity
  8
Capa_1
 62
7
100
AcDbPolyline
 90
2
 70
1
 10
300.305032
 20
488.717636
 30
0.0
 10
300.305032
 20
469.178572
 30
0.0
  0
SPLINE
  5
124
100
AcDbEntity
  8
Capa_1
 62
7
100
AcDbSpline
 70
8
 71
3
 72
8
 73
4
 74
0
 40
0
 40
0
 40
0
 40
0
 40
1
 40
1
 40
1
 40
1
 10
320.872216
 20
468.150444
 30
0.0
 10
321.441936
 20
468.150444
 30
0.0
 10
321.900344
 20
468.608860
 30
0.0
 10
321.900344
 20
469.178572
 30
0.0
  0
LWPOLYLINE
  5
125
100
AcDbEntity
  8
Capa_1
 62
7
100
AcDbPolyline
 90
2
 70
1
 10
301.333152
 20
468.150444
 30
0.0
 10
320.872216
 20
468.150444
 30
0.0
  0
SPLINE
  5
126
100
AcDbEntity
  8
Capa_1
 62
7
100
AcDbSpline
 70
8
 71
3
 72
8
 73
4
 74
0
 40
0
 40
0
 40
0
 40
0
 40
1
 40
1
 40
1
 40
1
 10
386.687840
 20
470.206700
 30
0.0
 10
386.687840
 20
469.636980
 30
0.0
 10
387.146248
 20
469.178572
 30
0.0
 10
387.715968
 20
469.178572
 30
0.0
  0
LWPOLYLINE
  5
127
100
AcDbEntity
  8
Capa_1
 62
7
100
AcDbPolyline
 90
4
 70
1
 10
321.900344
 20
469.178572
 30
0.0
 10
321.900344
 20
475.348884
 30
0.0
 10
386.687840
 20
475.348884
 30
0.0
 10
386.687840
 20
470.206700
 30
0.0
  0
SPLINE
  5
128
100
AcDbEntity
  8
Capa_1
 62
7
100
AcDbSpline
 70
8
 71
3
 72
8
 73
4
 74
0
 40
0
 40
0
 40
0
 40
0
 40
1
 40
1
 40
1
 40
1
 10
411.369096
 20
469.178572
 30
0.0
 10
411.938800
 20
469.178572
 30
0.0
 10
412.397216
 20
469.636980
 30
0.0
 10
412.397216
 20
470.206700
 30
0.0
  0
LWPOLYLINE
  5
129
100
AcDbEntity
  8
Capa_1
 62
7
100
AcDbPolyline
 90
2
 70
1
 10
387.715968
 20
469.178572
 30
0.0
 10
411.369096
 20
469.178572
 30
0.0
  0
SPLINE
  5
12a
100
AcDbEntity
  8
Capa_1
 62
7
100
AcDbSpline
 70
8
 71
3
 72
8
 73
4
 74
0
 40
0
 40
0
 40
0
 40
0
 40
1
 40
1
 40
1
 40
1
 10
412.397216
 20
489.745756
 30
0.0
 10
412.397216
 20
490.315476
 30
0.0
 10
411.938808
 20
490.773884
 30
0.0
 10
411.369096
 20
490.773884
 30
0.0
  0
LWPOLYLINE
  5
12b
100
AcDbEntity
  8
Capa_1
 62
7
100
AcDbPolyline
 90
2
 70
1
 10
412.397216
 20
470.206700
 30
0.0
 10
412.397216
 20
489.745756
 30
0.0
  0
SPLINE
  5
12c
100
AcDbEntity
  8
Capa_1
 62
7
100
AcDbSpline
 70
8
 71
3
 72
8
 73
4
 74
0
 40
0
 40
0
 40
0
 40
0
 40
1
 40
1
 40
1
 40
1
 10
406.226904
 20
490.773884
 30
0.0
 10
406.226904
 20
490.773884
 30
0.0
 10
406.226904
 20
684.764508
 30
0.0
 10
406.226904
 20
684.764508
 30
0.0
  0
SPLINE
  5
12d
100
AcDbEntity
  8
Capa_1
 62
7
100
AcDbSpline
 70
8
 71
3
 72
8
 73
4
 74
0
 40
0
 40
0
 40
0
 40
0
 40
1
 40
1
 40
1
 40
1
 10
406.226904
 20
684.764508
 30
0.0
 10
409.419515
 20
686.821018
 30
0.0
 10
411.365886
 20
690.464767
 30
0.0
 10
411.369096
 20
694.391068
 30
0.0
  0
SPLINE
  5
12e
100
AcDbEntity
  8
Capa_1
 62
7
100
AcDbSpline
 70
8
 71
3
 72
8
 73
4
 74
0
 40
0
 40
0
 40
0
 40
0
 40
1
 40
1
 40
1
 40
1
 10
411.369096
 20
694.391068
 30
0.0
 10
411.369204
 20
697.391391
 30
0.0
 10
410.231545
 20
700.268859
 30
0.0
 10
408.206417
 20
702.390393
 30
0.0
  0
SPLINE
  5
12f
100
AcDbEntity
  8
Capa_1
 62
7
100
AcDbSpline
 70
8
 71
3
 72
8
 73
4
 74
0
 40
0
 40
0
 40
0
 40
0
 40
1
 40
1
 40
1
 40
1
 10
408.206417
 20
702.390393
 30
0.0
 10
406.181289
 20
704.511928
 30
0.0
 10
403.434601
 20
705.703724
 30
0.0
 10
400.570656
 20
705.703572
 30
0.0
  0
LWPOLYLINE
  5
130
100
AcDbEntity
  8
Capa_1
 62
7
100
AcDbPolyline
 90
2
 70
1
 10
411.369096
 20
490.773884
 30
0.0
 10
406.226904
 20
490.773884
 30
0.0
  0
SPLINE
  5
131
100
AcDbEntity
  8
Capa_1
 62
7
100
AcDbSpline
 70
8
 71
3
 72
8
 73
4
 74
0
 40
0
 40
0
 40
0
 40
0
 40
1
 40
1
 40
1
 40
1
 10
106.970656
 20
465.064508
 30
0.0
 10
106.400936
 20
465.064508
 30
0.0
 10
105.942528
 20
464.606100
 30
0.0
 10
105.942528
 20
464.036388
 30
0.0
  0
LWPOLYLINE
  5
132
100
AcDbEntity
  8
Capa_1
 62
7
100
AcDbPolyline
 90
2
 70
1
 10
400.570656
 20
705.703572
 30
0.0
 10
400.570656
 20
705.703572
 30
0.0
  0
SPLINE
  5
133
100
AcDbEntity
  8
Capa_1
 62
7
100
AcDbSpline
 70
8
 71
3
 72
8
 73
4
 74
0
 40
0
 40
0
 40
0
 40
0
 40
1
 40
1
 40
1
 40
1
 10
105.942528
 20
436.270756
 30
0.0
 10
105.942528
 20
435.701044
 30
0.0
 10
106.400936
 20
435.242636
 30
0.0
 10
106.970656
 20
435.242636
 30
0.0
  0
LWPOLYLINE
  5
134
100
AcDbEntity
  8
Capa_1
 62
7
100
AcDbPolyline
 90
2
 70
1
 10
105.942528
 20
464.036388
 30
0.0
 10
105.942528
 20
436.270756
 30
0.0
  0
SPLINE
  5
135
100
AcDbEntity
  8
Capa_1
 62
7
100
AcDbSpline
 70
8
 71
3
 72
8
 73
4
 74
0
 40
0
 40
0
 40
0
 40
0
 40
1
 40
1
 40
1
 40
1
 10
131.651904
 20
435.242636
 30
0.0
 10
132.221624
 20
435.242636
 30
0.0
 10
132.680032
 20
435.701044
 30
0.0
 10
132.680032
 20
436.270756
 30
0.0
  0
LWPOLYLINE
  5
136
100
AcDbEntity
  8
Capa_1
 62
7
100
AcDbPolyline
 90
2
 70
1
 10
106.970656
 20
435.242636
 30
0.0
 10
131.651904
 20
435.242636
 30
0.0
  0
SPLINE
  5
137
100
AcDbEntity
  8
Capa_1
 62
7
100
AcDbSpline
 70
8
 71
3
 72
8
 73
4
 74
0
 40
0
 40
0
 40
0
 40
0
 40
1
 40
1
 40
1
 40
1
 10
300.819096
 20
441.927012
 30
0.0
 10
300.819096
 20
441.357300
 30
0.0
 10
301.277496
 20
440.898884
 30
0.0
 10
301.847216
 20
440.898884
 30
0.0
  0
LWPOLYLINE
  5
138
100
AcDbEntity
  8
Capa_1
 62
7
100
AcDbPolyline
 90
4
 70
1
 10
132.680032
 20
436.270756
 30
0.0
 10
132.680032
 20
444.497324
 30
0.0
 10
300.819096
 20
444.497324
 30
0.0
 10
300.819096
 20
441.927012
 30
0.0
  0
SPLINE
  5
139
100
AcDbEntity
  8
Capa_1
 62
7
100
AcDbSpline
 70
8
 71
3
 72
8
 73
4
 74
0
 40
0
 40
0
 40
0
 40
0
 40
1
 40
1
 40
1
 40
1
 10
321.386280
 20
440.898884
 30
0.0
 10
321.955992
 20
440.898884
 30
0.0
 10
322.414408
 20
441.357300
 30
0.0
 10
322.414408
 20
441.927012
 30
0.0
  0
LWPOLYLINE
  5
13a
100
AcDbEntity
  8
Capa_1
 62
7
100
AcDbPolyline
 90
2
 70
1
 10
301.847216
 20
440.898884
 30
0.0
 10
321.386280
 20
440.898884
 30
0.0
  0
SPLINE
  5
13b
100
AcDbEntity
  8
Capa_1
 62
7
100
AcDbSpline
 70
8
 71
3
 72
8
 73
4
 74
0
 40
0
 40
0
 40
0
 40
0
 40
1
 40
1
 40
1
 40
1
 10
322.414408
 20
461.466076
 30
0.0
 10
322.414408
 20
462.035796
 30
0.0
 10
321.955992
 20
462.494196
 30
0.0
 10
321.386280
 20
462.494196
 30
0.0
  0
LWPOLYLINE
  5
13c
100
AcDbEntity
  8
Capa_1
 62
7
100
AcDbPolyline
 90
2
 70
1
 10
322.414408
 20
441.927012
 30
0.0
 10
322.414408
 20
461.466076
 30
0.0
  0
SPLINE
  5
13d
100
AcDbEntity
  8
Capa_1
 62
7
100
AcDbSpline
 70
8
 71
3
 72
8
 73
4
 74
0
 40
0
 40
0
 40
0
 40
0
 40
1
 40
1
 40
1
 40
1
 10
301.847216
 20
462.494196
 30
0.0
 10
301.277496
 20
462.494196
 30
0.0
 10
300.819096
 20
462.035796
 30
0.0
 10
300.819096
 20
461.466076
 30
0.0
  0
LWPOLYLINE
  5
13e
100
AcDbEntity
  8
Capa_1
 62
7
100
AcDbPolyline
 90
2
 70
1
 10
321.386280
 20
462.494196
 30
0.0
 10
301.847216
 20
462.494196
 30
0.0
  0
SPLINE
  5
13f
100
AcDbEntity
  8
Capa_1
 62
7
100
AcDbSpline
 70
8
 71
3
 72
8
 73
4
 74
0
 40
0
 40
0
 40
0
 40
0
 40
1
 40
1
 40
1
 40
1
 10
132.680032
 20
464.036388
 30
0.0
 10
132.680032
 20
464.606100
 30
0.0
 10
132.221624
 20
465.064508
 30
0.0
 10
131.651904
 20
465.064508
 30
0.0
  0
LWPOLYLINE
  5
140
100
AcDbEntity
  8
Capa_1
 62
7
100
AcDbPolyline
 90
4
 70
1
 10
300.819096
 20
461.466076
 30
0.0
 10
300.819096
 20
456.837948
 30
0.0
 10
132.680032
 20
456.837948
 30
0.0
 10
132.680032
 20
464.036388
 30
0.0
  0
SPLINE
  5
141
100
AcDbEntity
  8
Capa_1
 62
7
100
AcDbSpline
 70
8
 71
3
 72
8
 73
4
 74
0
 40
0
 40
0
 40
0
 40
0
 40
1
 40
1
 40
1
 40
1
 10
390.287352
 20
462.494516
 30
0.0
 10
389.717640
 20
462.494516
 30
0.0
 10
389.259232
 20
462.036108
 30
0.0
 10
389.259232
 20
461.466388
 30
0.0
  0
LWPOLYLINE
  5
142
100
AcDbEntity
  8
Capa_1
 62
7
100
AcDbPolyline
 90
3
 70
1
 10
131.651904
 20
465.064508
 30
0.0
 10
106.970656
 20
465.064508
 30
0.0
 10
106.970656
 20
465.064508
 30
0.0
  0
SPLINE
  5
143
100
AcDbEntity
  8
Capa_1
 62
7
100
AcDbSpline
 70
8
 71
3
 72
8
 73
4
 74
0
 40
0
 40
0
 40
0
 40
0
 40
1
 40
1
 40
1
 40
1
 10
389.259232
 20
441.927324
 30
0.0
 10
389.259232
 20
441.357612
 30
0.0
 10
389.717640
 20
440.897636
 30
0.0
 10
390.287352
 20
440.897636
 30
0.0
  0
LWPOLYLINE
  5
144
100
AcDbEntity
  8
Capa_1
 62
7
100
AcDbPolyline
 90
2
 70
1
 10
389.259232
 20
461.466388
 30
0.0
 10
389.259232
 20
441.927324
 30
0.0
  0
SPLINE
  5
145
100
AcDbEntity
  8
Capa_1
 62
7
100
AcDbSpline
 70
8
 71
3
 72
8
 73
4
 74
0
 40
0
 40
0
 40
0
 40
0
 40
1
 40
1
 40
1
 40
1
 10
409.826416
 20
440.897636
 30
0.0
 10
410.396136
 20
440.897636
 30
0.0
 10
410.854544
 20
441.357612
 30
0.0
 10
410.854544
 20
441.927324
 30
0.0
  0
LWPOLYLINE
  5
146
100
AcDbEntity
  8
Capa_1
 62
7
100
AcDbPolyline
 90
2
 70
1
 10
390.287352
 20
440.897636
 30
0.0
 10
409.826416
 20
440.897636
 30
0.0
  0
SPLINE
  5
147
100
AcDbEntity
  8
Capa_1
 62
7
100
AcDbSpline
 70
8
 71
3
 72
8
 73
4
 74
0
 40
0
 40
0
 40
0
 40
0
 40
1
 40
1
 40
1
 40
1
 10
410.854544
 20
461.466388
 30
0.0
 10
410.854544
 20
462.036108
 30
0.0
 10
410.396136
 20
462.494516
 30
0.0
 10
409.826416
 20
462.494516
 30
0.0
  0
LWPOLYLINE
  5
148
100
AcDbEntity
  8
Capa_1
 62
7
100
AcDbPolyline
 90
2
 70
1
 10
410.854544
 20
441.927324
 30
0.0
 10
410.854544
 20
461.466388
 30
0.0
  0
SPLINE
  5
149
100
AcDbEntity
  8
Capa_1
 62
7
100
AcDbSpline
 70
8
 71
3
 72
8
 73
4
 74
0
 40
0
 40
0
 40
0
 40
0
 40
1
 40
1
 40
1
 40
1
 10
395.943608
 20
440.383580
 30
0.0
 10
395.373888
 20
440.383580
 30
0.0
 10
394.915480
 20
439.925164
 30
0.0
 10
394.915480
 20
439.355452
 30
0.0
  0
LWPOLYLINE
  5
14a
100
AcDbEntity
  8
Capa_1
 62
7
100
AcDbPolyline
 90
3
 70
1
 10
409.826416
 20
462.494516
 30
0.0
 10
390.287352
 20
462.494516
 30
0.0
 10
390.287352
 20
462.494516
 30
0.0
  0
SPLINE
  5
14b
100
AcDbEntity
  8
Capa_1
 62
7
100
AcDbSpline
 70
8
 71
3
 72
8
 73
4
 74
0
 40
0
 40
0
 40
0
 40
0
 40
1
 40
1
 40
1
 40
1
 10
390.801416
 20
293.327324
 30
0.0
 10
390.231704
 20
293.327324
 30
0.0
 10
389.773296
 20
292.868916
 30
0.0
 10
389.773296
 20
292.299204
 30
0.0
  0
LWPOLYLINE
  5
14c
100
AcDbEntity
  8
Capa_1
 62
7
100
AcDbPolyline
 90
3
 70
1
 10
394.915480
 20
439.355452
 30
0.0
 10
394.915480
 20
293.327324
 30
0.0
 10
390.801416
 20
293.327324
 30
0.0
  0
SPLINE
  5
14d
100
AcDbEntity
  8
Capa_1
 62
7
100
AcDbSpline
 70
8
 71
3
 72
8
 73
4
 74
0
 40
0
 40
0
 40
0
 40
0
 40
1
 40
1
 40
1
 40
1
 10
389.773296
 20
265.561700
 30
0.0
 10
389.773296
 20
264.991988
 30
0.0
 10
390.231704
 20
264.533580
 30
0.0
 10
390.801416
 20
264.533580
 30
0.0
  0
LWPOLYLINE
  5
14e
100
AcDbEntity
  8
Capa_1
 62
7
100
AcDbPolyline
 90
2
 70
1
 10
389.773296
 20
292.299204
 30
0.0
 10
389.773296
 20
265.561700
 30
0.0
  0
SPLINE
  5
14f
100
AcDbEntity
  8
Capa_1
 62
7
100
AcDbSpline
 70
8
 71
3
 72
8
 73
4
 74
0
 40
0
 40
0
 40
0
 40
0
 40
1
 40
1
 40
1
 40
1
 10
410.340480
 20
264.533580
 30
0.0
 10
410.910200
 20
264.533580
 30
0.0
 10
411.368608
 20
264.991988
 30
0.0
 10
411.368608
 20
265.561700
 30
0.0
  0
LWPOLYLINE
  5
150
100
AcDbEntity
  8
Capa_1
 62
7
100
AcDbPolyline
 90
2
 70
1
 10
390.801416
 20
264.533580
 30
0.0
 10
410.340480
 20
264.533580
 30
0.0
  0
SPLINE
  5
151
100
AcDbEntity
  8
Capa_1
 62
7
100
AcDbSpline
 70
8
 71
3
 72
8
 73
4
 74
0
 40
0
 40
0
 40
0
 40
0
 40
1
 40
1
 40
1
 40
1
 10
411.368608
 20
292.299204
 30
0.0
 10
411.368608
 20
292.868916
 30
0.0
 10
410.910200
 20
293.327324
 30
0.0
 10
410.340480
 20
293.327324
 30
0.0
  0
LWPOLYLINE
  5
152
100
AcDbEntity
  8
Capa_1
 62
7
100
AcDbPolyline
 90
2
 70
1
 10
411.368608
 20
265.561700
 30
0.0
 10
411.368608
 20
292.299204
 30
0.0
  0
SPLINE
  5
153
100
AcDbEntity
  8
Capa_1
 62
7
100
AcDbSpline
 70
8
 71
3
 72
8
 73
4
 74
0
 40
0
 40
0
 40
0
 40
0
 40
1
 40
1
 40
1
 40
1
 10
404.170168
 20
439.355452
 30
0.0
 10
404.170168
 20
439.925164
 30
0.0
 10
403.711760
 20
440.383580
 30
0.0
 10
403.142040
 20
440.383580
 30
0.0
  0
LWPOLYLINE
  5
154
100
AcDbEntity
  8
Capa_1
 62
7
100
AcDbPolyline
 90
3
 70
1
 10
410.340480
 20
293.327324
 30
0.0
 10
404.170168
 20
293.327324
 30
0.0
 10
404.170168
 20
439.355452
 30
0.0
  0
LWPOLYLINE
  5
155
100
AcDbEntity
  8
Capa_1
 62
7
100
AcDbPolyline
 90
3
 70
1
 10
403.142040
 20
440.383580
 30
0.0
 10
395.943608
 20
440.383580
 30
0.0
 10
395.943608
 20
440.383580
 30
0.0
  0
ENDSEC
  0
SECTION
  2
OBJECTS
  0
DICTIONARY
  5
C
330
0
100
AcDbDictionary
  3
ACAD_GROUP
350
D
  3
ACAD_MLINESTYLE
350
17
  0
DICTIONARY
  5
D
330
C
100
AcDbDictionary
  0
DICTIONARY
  5
1A
330
C
100
AcDbDictionary
  0
DICTIONARY
  5
17
330
C
100
AcDbDictionary
  3
STANDARD
350
18
  0
DICTIONARY
  5
19
330
C
100
AcDbDictionary
  0
ENDSEC
  0
EOF
