  0
SECTION
  2
HEADER
  9
$ACADVER
  1
AC1015
  9
$ACADMAINTVER
 70
     6
  9
$DWGCODEPAGE
  3
ANSI_1252
  9
$INSBASE
 10
0.0
 20
0.0
 30
0.0
  9
$EXTMIN
 10
0.0
 20
0.0
 30
0.0
  9
$EXTMAX
 10
2400.0
 20
1200.0
 30
0.0
  9
$LIMMIN
 10
0.0
 20
0.0
  9
$LIMMAX
 10
2400.0
 20
1200.0
  9
$ORTHOMODE
 70
     0
  9
$REGENMODE
 70
     1
  9
$FILLMODE
 70
     1
  9
$QTEXTMODE
 70
     0
  9
$MIRRTEXT
 70
     1
  9
$LTSCALE
 40
1.0
  9
$ATTMODE
 70
     1
  9
$TEXTSIZE
 40
3.5
  9
$TRACEWID
 40
1.0
  9
$TEXTSTYLE
  7
Standard
  9
$CLAYER
  8
0
  9
$CELTYPE
  6
ByLayer
  9
$CECOLOR
 62
   256
  9
$CELTSCALE
 40
1.0
  9
$DISPSILH
 70
     0
  9
$DIMSCALE
 40
1.0
  9
$DIMASZ
 40
3.302
  9
$DIMEXO
 40
1.0
  9
$DIMDLI
 40
3.75
  9
$DIMRND
 40
0.0
  9
$DIMDLE
 40
0.0
  9
$DIMEXE
 40
1.0
  9
$DIMTP
 40
0.0
  9
$DIMTM
 40
0.0
  9
$DIMTXT
 40
3.5
  9
$DIMCEN
 40
2.5
  9
$DIMTSZ
 40
0.0
  9
$DIMTOL
 70
     0
  9
$DIMLIM
 70
     0
  9
$DIMTIH
 70
     1
  9
$DIMTOH
 70
     1
  9
$DIMSE1
 70
     0
  9
$DIMSE2
 70
     0
  9
$DIMTAD
 70
     1
  9
$DIMZIN
 70
     0
  9
$DIMBLK
  1

  9
$DIMASO
 70
     1
  9
$DIMSHO
 70
     1
  9
$DIMPOST
  1

  9
$DIMAPOST
  1

  9
$DIMALT
 70
     0
  9
$DIMALTD
 70
     3
  9
$DIMALTF
 40
0.0393700787
  9
$DIMLFAC
 40
1.0
  9
$DIMTOFL
 70
     1
  9
$DIMTVP
 40
0.0
  9
$DIMTIX
 70
     0
  9
$DIMSOXD
 70
     0
  9
$DIMSAH
 70
     0
  9
$DIMBLK1
  1

  9
$DIMBLK2
  1

  9
$DIMSTYLE
  2
ISO-25
  9
$DIMCLRD
 70
     0
  9
$DIMCLRE
 70
     0
  9
$DIMCLRT
 70
     0
  9
$DIMTFAC
 40
1.0
  9
$DIMGAP
 40
1.524
  9
$DIMJUST
 70
     0
  9
$DIMSD1
 70
     0
  9
$DIMSD2
 70
     0
  9
$DIMTOLJ
 70
     0
  9
$DIMTZIN
 70
     0
  9
$DIMALTZ
 70
     0
  9
$DIMALTTZ
 70
     0
  9
$DIMUPT
 70
     0
  9
$DIMDEC
 70
     2
  9
$DIMTDEC
 70
     2
  9
$DIMALTU
 70
     2
  9
$DIMALTTD
 70
     3
  9
$DIMTXSTY
  7
Standard
  9
$DIMAUNIT
 70
     0
  9
$DIMADEC
 70
     2
  9
$DIMALTRND
 40
0.0
  9
$DIMAZIN
 70
     0
  9
$DIMDSEP
 70
    44
  9
$DIMATFIT
 70
     3
  9
$DIMFRAC
 70
     0
  9
$DIMLDRBLK
  1

  9
$DIMLUNIT
 70
     2
  9
$DIMLWD
 70
    -2
  9
$DIMLWE
 70
    -2
  9
$DIMTMOVE
 70
     0
  9
$LUNITS
 70
     2
  9
$LUPREC
 70
     2
  9
$SKETCHINC
 40
1.0
  9
$FILLETRAD
 40
10.0
  9
$AUNITS
 70
     0
  9
$AUPREC
 70
     2
  9
$MENU
  1
.
  9
$ELEVATION
 40
0.0
  9
$PELEVATION
 40
0.0
  9
$THICKNESS
 40
0.0
  9
$LIMCHECK
 70
     0
  9
$CHAMFERA
 40
0.0
  9
$CHAMFERB
 40
0.0
  9
$CHAMFERC
 40
0.0
  9
$CHAMFERD
 40
0.0
  9
$SKPOLY
 70
     0
  9
$TDCREATE
 40
2458187.575974919
  9
$TDUCREATE
 40
2458187.534308252
  9
$TDUPDATE
 40
2458187.575977372
  9
$TDUUPDATE
 40
2458187.534310706
  9
$TDINDWG
 40
0.0000000116
  9
$TDUSRTIMER
 40
0.0000000116
  9
$USRTIMER
 70
     1
  9
$ANGBASE
 50
0.0
  9
$ANGDIR
 70
     0
  9
$PDMODE
 70
     0
  9
$PDSIZE
 40
-1.0
  9
$PLINEWID
 40
0.0
  9
$SPLFRAME
 70
     0
  9
$SPLINETYPE
 70
     6
  9
$SPLINESEGS
 70
     8
  9
$HANDSEED
  5
2CE
  9
$SURFTAB1
 70
     6
  9
$SURFTAB2
 70
     6
  9
$SURFTYPE
 70
     6
  9
$SURFU
 70
     6
  9
$SURFV
 70
     6
  9
$UCSBASE
  2

  9
$UCSNAME
  2

  9
$UCSORG
 10
0.0
 20
0.0
 30
0.0
  9
$UCSXDIR
 10
1.0
 20
0.0
 30
0.0
  9
$UCSYDIR
 10
0.0
 20
1.0
 30
0.0
  9
$UCSORTHOREF
  2

  9
$UCSORTHOVIEW
 70
     0
  9
$UCSORGTOP
 10
0.0
 20
0.0
 30
0.0
  9
$UCSORGBOTTOM
 10
0.0
 20
0.0
 30
0.0
  9
$UCSORGLEFT
 10
0.0
 20
0.0
 30
0.0
  9
$UCSORGRIGHT
 10
0.0
 20
0.0
 30
0.0
  9
$UCSORGFRONT
 10
0.0
 20
0.0
 30
0.0
  9
$UCSORGBACK
 10
0.0
 20
0.0
 30
0.0
  9
$PUCSBASE
  2

  9
$PUCSNAME
  2

  9
$PUCSORG
 10
0.0
 20
0.0
 30
0.0
  9
$PUCSXDIR
 10
1.0
 20
0.0
 30
0.0
  9
$PUCSYDIR
 10
0.0
 20
1.0
 30
0.0
  9
$PUCSORTHOREF
  2

  9
$PUCSORTHOVIEW
 70
     0
  9
$PUCSORGTOP
 10
0.0
 20
0.0
 30
0.0
  9
$PUCSORGBOTTOM
 10
0.0
 20
0.0
 30
0.0
  9
$PUCSORGLEFT
 10
0.0
 20
0.0
 30
0.0
  9
$PUCSORGRIGHT
 10
0.0
 20
0.0
 30
0.0
  9
$PUCSORGFRONT
 10
0.0
 20
0.0
 30
0.0
  9
$PUCSORGBACK
 10
0.0
 20
0.0
 30
0.0
  9
$USERI1
 70
     0
  9
$USERI2
 70
     0
  9
$USERI3
 70
     0
  9
$USERI4
 70
     0
  9
$USERI5
 70
     0
  9
$USERR1
 40
0.0
  9
$USERR2
 40
0.0
  9
$USERR3
 40
0.0
  9
$USERR4
 40
0.0
  9
$USERR5
 40
0.0
  9
$WORLDVIEW
 70
     1
  9
$SHADEDGE
 70
     3
  9
$SHADEDIF
 70
    70
  9
$TILEMODE
 70
     1
  9
$MAXACTVP
 70
    64
  9
$PINSBASE
 10
0.0
 20
0.0
 30
0.0
  9
$PLIMCHECK
 70
     0
  9
$PEXTMIN
 10
1.0000000000E+20
 20
1.0000000000E+20
 30
1.0000000000E+20
  9
$PEXTMAX
 10
-1.0000000000E+20
 20
-1.0000000000E+20
 30
-1.0000000000E+20
  9
$PLIMMIN
 10
0.0
 20
0.0
  9
$PLIMMAX
 10
420.0
 20
297.0
  9
$UNITMODE
 70
     0
  9
$VISRETAIN
 70
     1
  9
$PLINEGEN
 70
     0
  9
$PSLTSCALE
 70
     1
  9
$TREEDEPTH
 70
  3020
  9
$CMLSTYLE
  2
Standard
  9
$CMLJUST
 70
     0
  9
$CMLSCALE
 40
20.0
  9
$PROXYGRAPHICS
 70
     1
  9
$MEASUREMENT
 70
     1
  9
$CELWEIGHT
370
    -1
  9
$ENDCAPS
280
     0
  9
$JOINSTYLE
280
     0
  9
$LWDISPLAY
290
     1
  9
$INSUNITS
 70
     4
  9
$HYPERLINKBASE
  1

  9
$STYLESHEET
  1

  9
$XEDIT
290
     1
  9
$CEPSNTYPE
380
     0
  9
$PSTYLEMODE
290
     1
  9
$FINGERPRINTGUID
  2
{9989F26D-A297-4596-A752-3CEC778A8577}
  9
$VERSIONGUID
  2
{FAEB1C32-E019-11D5-929B-00C0DF256EC4}
  9
$EXTNAMES
290
     1
  9
$PSVPSCALE
 40
0.0
  9
$OLESTARTUP
290
     0
  0
ENDSEC
  0
SECTION
  2
CLASSES
  0
CLASS
  1
ACDBDICTIONARYWDFLT
  2
AcDbDictionaryWithDefault
  3
ObjectDBX Classes
 90
        0
280
     0
281
     0
  0
CLASS
  1
VISUALSTYLE
  2
AcDbVisualStyle
  3
ObjectDBX Classes
 90
     4095
280
     0
281
     0
  0
CLASS
  1
MATERIAL
  2
AcDbMaterial
  3
ObjectDBX Classes
 90
     1153
280
     0
281
     0
  0
CLASS
  1
SCALE
  2
AcDbScale
  3
ObjectDBX Classes
 90
     1153
280
     0
281
     0
  0
CLASS
  1
TABLESTYLE
  2
AcDbTableStyle
  3
ObjectDBX Classes
 90
     4095
280
     0
281
     0
  0
CLASS
  1
MLEADERSTYLE
  2
AcDbMLeaderStyle
  3
ACDB_MLEADERSTYLE_CLASS
 90
     4095
280
     0
281
     0
  0
CLASS
  1
SUN
  2
AcDbSun
  3
SCENEOE
 90
     1153
280
     0
281
     0
  0
CLASS
  1
ACDBPLACEHOLDER
  2
AcDbPlaceHolder
  3
ObjectDBX Classes
 90
        0
280
     0
281
     0
  0
CLASS
  1
LAYOUT
  2
AcDbLayout
  3
ObjectDBX Classes
 90
        0
280
     0
281
     0
  0
ENDSEC
  0
SECTION
  2
TABLES
  0
TABLE
  2
VPORT
  5
8
330
0
100
AcDbSymbolTable
 70
     1
  0
VPORT
  5
29
330
8
100
AcDbSymbolTableRecord
100
AcDbViewportTableRecord
  2
*Active
 70
     0
 10
0.0
 20
0.0
 11
1.0
 21
1.0
 12
1200.0
 22
600.0
 13
0.0
 23
0.0
 14
10.0
 24
10.0
 15
10.0
 25
10.0
 16
0.0
 26
0.0
 36
1.0
 17
0.0
 27
0.0
 37
0.0
 40
1200.0
 41
2.0
 42
50.0
 43
0.0
 44
0.0
 50
0.0
 51
0.0
 71
     0
 72
  2000
 73
     1
 74
     3
 75
     0
 76
     0
 77
     0
 78
     0
281
     0
 65
     1
110
0.0
120
0.0
130
0.0
111
1.0
121
0.0
131
0.0
112
0.0
122
1.0
132
0.0
 79
     0
146
0.0
  0
ENDTAB
  0
TABLE
  2
LTYPE
  5
5
330
0
100
AcDbSymbolTable
 70
     6
  0
LTYPE
  5
14
330
5
100
AcDbSymbolTableRecord
100
AcDbLinetypeTableRecord
  2
ByBlock
 70
     0
  3

 72
    65
 73
     0
 40
0.0
  0
LTYPE
  5
15
330
5
100
AcDbSymbolTableRecord
100
AcDbLinetypeTableRecord
  2
ByLayer
 70
     0
  3

 72
    65
 73
     0
 40
0.0
  0
LTYPE
  5
16
330
5
100
AcDbSymbolTableRecord
100
AcDbLinetypeTableRecord
  2
Continuous
 70
     0
  3
Solid line
 72
    65
 73
     0
 40
0.0
  0
LTYPE
  5
6E
330
5
100
AcDbSymbolTableRecord
100
AcDbLinetypeTableRecord
  2
HIDDEN
 70
     0
  3
Hidden __ __ __ __ __ __ __ __ __ __ __ __ __ __
 72
    65
 73
     2
 40
1.905
 49
1.27
 74
     0
 49
-0.635
 74
     0
  0
LTYPE
  5
6F
330
5
100
AcDbSymbolTableRecord
100
AcDbLinetypeTableRecord
  2
PHANTOM
 70
     0
  3
Phantom ______  __  __  ______  __  __  ______
 72
    65
 73
     6
 40
12.7
 49
6.35
 74
     0
 49
-1.27
 74
     0
 49
1.27
 74
     0
 49
-1.27
 74
     0
 49
1.27
 74
     0
 49
-1.27
 74
     0
  0
LTYPE
  5
70
330
5
100
AcDbSymbolTableRecord
100
AcDbLinetypeTableRecord
  2
CENTER
 70
     0
  3
Center ____ _ ____ _ ____ _ ____ _ ____ _ ____
 72
    65
 73
     4
 40
10.16
 49
6.35
 74
     0
 49
-1.27
 74
     0
 49
1.27
 74
     0
 49
-1.27
 74
     0
  0
LTYPE
  5
71
330
5
100
AcDbSymbolTableRecord
100
AcDbLinetypeTableRecord
  2
CENTERX2
 70
     0
  3
Center (2x) ________  __  ________  __  _____
 72
    65
 73
     4
 40
20.32
 49
12.7
 74
     0
 49
-2.54
 74
     0
 49
2.54
 74
     0
 49
-2.54
 74
     0
  0
LTYPE
  5
72
330
5
100
AcDbSymbolTableRecord
100
AcDbLinetypeTableRecord
  2
DOT2
 70
     0
  3
Dot (.5x) ........................................
 72
    65
 73
     2
 40
0.635
 49
0.0
 74
     0
 49
-0.635
 74
     0
  0
ENDTAB
  0
TABLE
  2
LAYER
  5
2
330
0
100
AcDbSymbolTable
 70
     1
  0
LAYER
  5
10
330
2
100
AcDbSymbolTableRecord
100
AcDbLayerTableRecord
  2
0
 70
     0
 62
     7
  6
Continuous
370
    -3
390
F
  0
ENDTAB
  0
TABLE
  2
STYLE
  5
3
330
0
100
AcDbSymbolTable
 70
     1
  0
STYLE
  5
11
330
3
100
AcDbSymbolTableRecord
100
AcDbTextStyleTableRecord
  2
Standard
 70
     0
 40
0.0
 41
1.0
 50
0.0
 71
     0
 42
3.5
  3
txt
  4

  0
ENDTAB
  0
TABLE
  2
VIEW
  5
6
330
0
100
AcDbSymbolTable
 70
     0
  0
ENDTAB
  0
TABLE
  2
UCS
  5
7
330
0
100
AcDbSymbolTable
 70
     0
  0
ENDTAB
  0
TABLE
  2
APPID
  5
9
330
0
100
AcDbSymbolTable
 70
     1
  0
APPID
  5
12
330
9
100
AcDbSymbolTableRecord
100
AcDbRegAppTableRecord
  2
ACAD
 70
     0
  0
ENDTAB
  0
TABLE
  2
DIMSTYLE
  5
A
330
0
100
AcDbSymbolTable
 70
     1
100
AcDbDimStyleTable
  0
DIMSTYLE
105
27
330
A
100
AcDbSymbolTableRecord
100
AcDbDimStyleTableRecord
  2
ISO-25
 70
     0
 41
2.5
 42
0.625
 43
3.75
 44
1.25
 73
     0
 74
     0
 77
     1
 78
     8
140
2.5
141
2.5
143
0.0393700787
147
0.625
171
     3
172
     1
178
     0
271
     2
272
     2
274
     3
278
    44
283
     0
284
     8
340
11
  0
ENDTAB
  0
TABLE
  2
BLOCK_RECORD
  5
1
330
0
100
AcDbSymbolTable
 70
     1
  0
BLOCK_RECORD
  5
1F
330
1
100
AcDbSymbolTableRecord
100
AcDbBlockTableRecord
  2
*Model_Space
340
22
  0
BLOCK_RECORD
  5
1B
330
1
100
AcDbSymbolTableRecord
100
AcDbBlockTableRecord
  2
*Paper_Space
340
1E
  0
BLOCK_RECORD
  5
23
330
1
100
AcDbSymbolTableRecord
100
AcDbBlockTableRecord
  2
*Paper_Space0
340
26
  0
ENDTAB
  0
ENDSEC
  0
SECTION
  2
BLOCKS
  0
BLOCK
  5
20
330
1F
100
AcDbEntity
  8
0
100
AcDbBlockBegin
  2
*Model_Space
 70
     0
 10
0.0
 20
0.0
 30
0.0
  3
*Model_Space
  1

  0
ENDBLK
  5
21
330
1F
100
AcDbEntity
  8
0
100
AcDbBlockEnd
  0
BLOCK
  5
1C
330
1B
100
AcDbEntity
 67
     1
  8
0
100
AcDbBlockBegin
  2
*Paper_Space
 70
     0
 10
0.0
 20
0.0
 30
0.0
  3
*Paper_Space
  1

  0
ENDBLK
  5
1D
330
1B
100
AcDbEntity
 67
     1
  8
0
100
AcDbBlockEnd
  0
BLOCK
  5
24
330
23
100
AcDbEntity
  8
0
100
AcDbBlockBegin
  2
*Paper_Space0
 70
     0
 10
0.0
 20
0.0
 30
0.0
  3
*Paper_Space0
  1

  0
ENDBLK
  5
25
330
23
100
AcDbEntity
  8
0
100
AcDbBlockEnd
  0
ENDSEC
  0
SECTION
  2
ENTITIES
  0
LINE
  5
73
330
1F
100
AcDbEntity
  8
0
  6
Continuous
 62
     7
370
    25
100
AcDbLine
 10
1775.1662028443
 20
670.6175724791
 30
0.0
 11
1769.4065194066
 21
670.6175724791
 31
0.0
  0
ARC
  5
74
330
1F
100
AcDbEntity
  8
0
  6
Continuous
 62
     7
370
    25
100
AcDbCircle
 10
1777.2875231878
 20
642.7388925991
 30
0.0
 40
3.000000000000105
100
AcDbArc
 50
135.0
 51
315.0
  0
LINE
  5
75
330
1F
100
AcDbEntity
  8
0
  6
Continuous
 62
     7
370
    25
100
AcDbLine
 10
1785.1662026207
 20
600.6175740437
 30
0.0
 11
1785.1662026207
 21
640.6175731496
 31
0.0
  0
ARC
  5
76
330
1F
100
AcDbEntity
  8
0
  6
Continuous
 62
     7
370
    25
100
AcDbCircle
 10
1777.2875231878
 20
598.496251912
 30
0.0
 40
3.000000000000105
100
AcDbArc
 50
45.0
 51
225.0
  0
ARC
  5
77
330
1F
100
AcDbEntity
  8
0
  6
Continuous
 62
     7
370
    25
100
AcDbCircle
 10
1777.2875231878
 20
552.7388925991
 30
0.0
 40
3.000000000000105
100
AcDbArc
 50
135.0
 51
315.0
  0
LINE
  5
78
330
1F
100
AcDbEntity
  8
0
  6
Continuous
 62
     7
370
    25
100
AcDbLine
 10
1785.1662026207
 20
510.6175704674
 30
0.0
 11
1785.1662026207
 21
550.6175770239
 31
0.0
  0
ARC
  5
79
330
1F
100
AcDbEntity
  8
0
  6
Continuous
 62
     7
370
    25
100
AcDbCircle
 10
1777.2875231878
 20
508.496251912
 30
0.0
 40
3.000000000000145
100
AcDbArc
 50
45.0
 51
225.0
  0
ARC
  5
7A
330
1F
100
AcDbEntity
  8
0
  6
Continuous
 62
     7
370
    25
100
AcDbCircle
 10
1777.2875231878
 20
462.7388925991
 30
0.0
 40
3.000000000000105
100
AcDbArc
 50
135.0
 51
315.0
  0
LINE
  5
7B
330
1F
100
AcDbEntity
  8
0
  6
Continuous
 62
     7
370
    25
100
AcDbLine
 10
1785.1662026207
 20
420.6175817923
 30
0.0
 11
1785.1662026207
 21
460.6175734476
 31
0.0
  0
ARC
  5
7C
330
1F
100
AcDbEntity
  8
0
  6
Continuous
 62
     7
370
    25
100
AcDbCircle
 10
1777.2875231878
 20
418.496251912
 30
0.0
 40
3.000000000000064
100
AcDbArc
 50
45.0
 51
225.0
  0
ARC
  5
7D
330
1F
100
AcDbEntity
  8
0
  6
Continuous
 62
     7
370
    25
100
AcDbCircle
 10
1777.2875231878
 20
372.7388925991
 30
0.0
 40
3.000000000000145
100
AcDbArc
 50
135.0
 51
315.0
  0
LINE
  5
7E
330
1F
100
AcDbEntity
  8
0
  6
Continuous
 62
     7
370
    25
100
AcDbLine
 10
1785.1662026207
 20
330.617578216
 30
0.0
 11
1785.1662026207
 21
370.6175698714
 31
0.0
  0
ARC
  5
7F
330
1F
100
AcDbEntity
  8
0
  6
Continuous
 62
     7
370
    25
100
AcDbCircle
 10
1777.2875231878
 20
328.496251912
 30
0.0
 40
3.000000000000064
100
AcDbArc
 50
45.0
 51
225.0
  0
ARC
  5
80
330
1F
100
AcDbEntity
  8
0
  6
Continuous
 62
     7
370
    25
100
AcDbCircle
 10
1273.0448825007
 20
328.496251912
 30
0.0
 40
3.000000000000064
100
AcDbArc
 50
315.0
 51
135.0
  0
LINE
  5
81
330
1F
100
AcDbEntity
  8
0
  6
Continuous
 62
     7
370
    25
100
AcDbLine
 10
1265.166212381
 20
330.617578216
 30
0.0
 11
1270.9235442291
 21
330.617578216
 31
0.0
  0
LINE
  5
82
330
1F
100
AcDbEntity
  8
0
  6
Continuous
 62
     7
370
    25
100
AcDbLine
 10
1265.166212381
 20
330.617578216
 30
0.0
 11
1265.166212381
 21
370.6175698714
 31
0.0
  0
LINE
  5
83
330
1F
100
AcDbEntity
  8
0
  6
Continuous
 62
     7
370
    25
100
AcDbLine
 10
1265.166212381
 20
370.6175698714
 30
0.0
 11
1270.9235442291
 21
370.6175698714
 31
0.0
  0
ARC
  5
84
330
1F
100
AcDbEntity
  8
0
  6
Continuous
 62
     7
370
    25
100
AcDbCircle
 10
1273.0448825007
 20
372.7388925991
 30
0.0
 40
3.000000000000064
100
AcDbArc
 50
225.0
 51
45.0
  0
ARC
  5
85
330
1F
100
AcDbEntity
  8
0
  6
Continuous
 62
     7
370
    25
100
AcDbCircle
 10
1273.0448825007
 20
418.496251912
 30
0.0
 40
3.000000000000064
100
AcDbArc
 50
315.0
 51
135.0
  0
LINE
  5
86
330
1F
100
AcDbEntity
  8
0
  6
Continuous
 62
     7
370
    25
100
AcDbLine
 10
1265.166212381
 20
420.6175817923
 30
0.0
 11
1270.9235442291
 21
420.6175817923
 31
0.0
  0
LINE
  5
87
330
1F
100
AcDbEntity
  8
0
  6
Continuous
 62
     7
370
    25
100
AcDbLine
 10
1265.166212381
 20
420.6175817923
 30
0.0
 11
1265.166212381
 21
460.6175734476
 31
0.0
  0
LINE
  5
88
330
1F
100
AcDbEntity
  8
0
  6
Continuous
 62
     7
370
    25
100
AcDbLine
 10
1265.166212381
 20
460.6175734476
 30
0.0
 11
1270.9235442291
 21
460.6175734476
 31
0.0
  0
ARC
  5
89
330
1F
100
AcDbEntity
  8
0
  6
Continuous
 62
     7
370
    25
100
AcDbCircle
 10
1273.0448825007
 20
462.7388925991
 30
0.0
 40
3.000000000000105
100
AcDbArc
 50
225.0
 51
45.0
  0
ARC
  5
8A
330
1F
100
AcDbEntity
  8
0
  6
Continuous
 62
     7
370
    25
100
AcDbCircle
 10
1273.0448825007
 20
508.496251912
 30
0.0
 40
2.999999999999904
100
AcDbArc
 50
315.0
 51
135.0
  0
LINE
  5
8B
330
1F
100
AcDbEntity
  8
0
  6
Continuous
 62
     7
370
    25
100
AcDbLine
 10
1265.166212381
 20
510.6175704674
 30
0.0
 11
1270.9235442291
 21
510.6175704674
 31
0.0
  0
LINE
  5
8C
330
1F
100
AcDbEntity
  8
0
  6
Continuous
 62
     7
370
    25
100
AcDbLine
 10
1265.166212381
 20
510.6175704674
 30
0.0
 11
1265.166212381
 21
550.6175770239
 31
0.0
  0
LINE
  5
8D
330
1F
100
AcDbEntity
  8
0
  6
Continuous
 62
     7
370
    25
100
AcDbLine
 10
1265.166212381
 20
550.6175770239
 30
0.0
 11
1270.9235442291
 21
550.6175770239
 31
0.0
  0
ARC
  5
8E
330
1F
100
AcDbEntity
  8
0
  6
Continuous
 62
     7
370
    25
100
AcDbCircle
 10
1273.0448825007
 20
552.7388925991
 30
0.0
 40
2.999999999999944
100
AcDbArc
 50
225.0
 51
45.0
  0
ARC
  5
8F
330
1F
100
AcDbEntity
  8
0
  6
Continuous
 62
     7
370
    25
100
AcDbCircle
 10
1273.0448825007
 20
598.496251912
 30
0.0
 40
2.999999999999864
100
AcDbArc
 50
315.0
 51
135.0
  0
LINE
  5
90
330
1F
100
AcDbEntity
  8
0
  6
Continuous
 62
     7
370
    25
100
AcDbLine
 10
1265.166212381
 20
600.6175740437
 30
0.0
 11
1270.9235442291
 21
600.6175740437
 31
0.0
  0
LINE
  5
91
330
1F
100
AcDbEntity
  8
0
  6
Continuous
 62
     7
370
    25
100
AcDbLine
 10
1265.166212381
 20
600.6175740437
 30
0.0
 11
1265.166212381
 21
640.6175731496
 31
0.0
  0
LINE
  5
92
330
1F
100
AcDbEntity
  8
0
  6
Continuous
 62
     7
370
    25
100
AcDbLine
 10
1265.166212381
 20
640.6175731496
 30
0.0
 11
1270.9235442291
 21
640.6175731496
 31
0.0
  0
ARC
  5
93
330
1F
100
AcDbEntity
  8
0
  6
Continuous
 62
     7
370
    25
100
AcDbCircle
 10
1273.0448825007
 20
642.7388925991
 30
0.0
 40
2.999999999999864
100
AcDbArc
 50
225.0
 51
45.0
  0
LINE
  5
94
330
1F
100
AcDbEntity
  8
0
  6
Continuous
 62
     7
370
    25
100
AcDbLine
 10
1315.1661944996
 20
680.6175722555
 30
0.0
 11
1315.1661944996
 21
674.8602129334
 31
0.0
  0
ARC
  5
95
330
1F
100
AcDbEntity
  8
0
  6
Continuous
 62
     7
370
    25
100
AcDbCircle
 10
1317.2875231878
 20
672.7388925991
 30
0.0
 40
3.000000000000105
100
AcDbArc
 50
135.0
 51
315.0
  0
LINE
  5
96
330
1F
100
AcDbEntity
  8
0
  6
Continuous
 62
     7
370
    25
100
AcDbLine
 10
1319.4088531147
 20
670.6175724791
 30
0.0
 11
1361.6012526165
 21
670.6175724791
 31
0.0
  0
ARC
  5
97
330
1F
100
AcDbEntity
  8
0
  6
Continuous
 62
     7
370
    25
100
AcDbCircle
 10
1363.722558262
 20
672.7388925991
 30
0.0
 40
3.000000000000024
100
AcDbArc
 50
225.0
 51
45.0
  0
LINE
  5
98
330
1F
100
AcDbEntity
  8
0
  6
Continuous
 62
     7
370
    25
100
AcDbLine
 10
1365.8438814293
 20
674.8602129334
 30
0.0
 11
1365.8438814293
 21
680.6175722555
 31
0.0
  0
LINE
  5
99
330
1F
100
AcDbEntity
  8
0
  6
Continuous
 62
     7
370
    25
100
AcDbLine
 10
1405.1661980759
 20
680.6175722555
 30
0.0
 11
1405.1661980759
 21
674.8602129334
 31
0.0
  0
ARC
  5
9A
330
1F
100
AcDbEntity
  8
0
  6
Continuous
 62
     7
370
    25
100
AcDbCircle
 10
1407.2875231878
 20
672.7388925991
 30
0.0
 40
2.999999999999944
100
AcDbArc
 50
135.0
 51
315.0
  0
LINE
  5
9B
330
1F
100
AcDbEntity
  8
0
  6
Continuous
 62
     7
370
    25
100
AcDbLine
 10
1409.408856691
 20
670.6175724791
 30
0.0
 11
1451.6012263905
 21
670.6175724791
 31
0.0
  0
ARC
  5
9C
330
1F
100
AcDbEntity
  8
0
  6
Continuous
 62
     7
370
    25
100
AcDbCircle
 10
1453.722558262
 20
672.7388925991
 30
0.0
 40
3.000000000000105
100
AcDbArc
 50
225.0
 51
45.0
  0
LINE
  5
9D
330
1F
100
AcDbEntity
  8
0
  6
Continuous
 62
     7
370
    25
100
AcDbLine
 10
1455.8438850056
 20
674.8602129334
 30
0.0
 11
1455.8438850056
 21
680.6175722555
 31
0.0
  0
LINE
  5
9E
330
1F
100
AcDbEntity
  8
0
  6
Continuous
 62
     7
370
    25
100
AcDbLine
 10
1495.1662016522
 20
680.6175722555
 30
0.0
 11
1495.1662016522
 21
674.8602129334
 31
0.0
  0
ARC
  5
9F
330
1F
100
AcDbEntity
  8
0
  6
Continuous
 62
     7
370
    25
100
AcDbCircle
 10
1497.2875231878
 20
672.7388925991
 30
0.0
 40
3.000000000000105
100
AcDbArc
 50
135.0
 51
315.0
  0
LINE
  5
A0
330
1F
100
AcDbEntity
  8
0
  6
Continuous
 62
     7
370
    25
100
AcDbLine
 10
1499.408830465
 20
670.6175724791
 30
0.0
 11
1541.6012448679
 21
670.6175724791
 31
0.0
  0
ARC
  5
A1
330
1F
100
AcDbEntity
  8
0
  6
Continuous
 62
     7
370
    25
100
AcDbCircle
 10
1543.722558262
 20
672.7388925991
 30
0.0
 40
3.000000000000024
100
AcDbArc
 50
225.0
 51
45.0
  0
LINE
  5
A2
330
1F
100
AcDbEntity
  8
0
  6
Continuous
 62
     7
370
    25
100
AcDbLine
 10
1545.8438736807
 20
674.8602129334
 30
0.0
 11
1545.8438736807
 21
680.6175722555
 31
0.0
  0
ARC
  5
A3
330
1F
100
AcDbEntity
  8
0
  6
Continuous
 62
     7
370
    25
100
AcDbCircle
 10
1587.2875231878
 20
672.7388925991
 30
0.0
 40
3.000000000000105
100
AcDbArc
 50
135.0
 51
315.0
  0
LINE
  5
A4
330
1F
100
AcDbEntity
  8
0
  6
Continuous
 62
     7
370
    25
100
AcDbLine
 10
1589.4088489424
 20
670.6175724791
 30
0.0
 11
1631.601233543
 21
670.6175724791
 31
0.0
  0
ARC
  5
A5
330
1F
100
AcDbEntity
  8
0
  6
Continuous
 62
     7
370
    25
100
AcDbCircle
 10
1633.722558262
 20
672.7388925991
 30
0.0
 40
2.999999999999944
100
AcDbArc
 50
225.0
 51
45.0
  0
LINE
  5
A6
330
1F
100
AcDbEntity
  8
0
  6
Continuous
 62
     7
370
    25
100
AcDbLine
 10
1635.843877257
 20
674.8602129334
 30
0.0
 11
1635.843877257
 21
680.6175722555
 31
0.0
  0
LINE
  5
A7
330
1F
100
AcDbEntity
  8
0
  6
Continuous
 62
     7
370
    25
100
AcDbLine
 10
1675.1662013541
 20
680.6175722555
 30
0.0
 11
1675.1662013541
 21
674.8602129334
 31
0.0
  0
ARC
  5
A8
330
1F
100
AcDbEntity
  8
0
  6
Continuous
 62
     7
370
    25
100
AcDbCircle
 10
1677.2875231878
 20
672.7388925991
 30
0.0
 40
3.000000000000105
100
AcDbArc
 50
135.0
 51
315.0
  0
LINE
  5
A9
330
1F
100
AcDbEntity
  8
0
  6
Continuous
 62
     7
370
    25
100
AcDbLine
 10
1679.4088450681
 20
670.6175724791
 30
0.0
 11
1721.6012371193
 21
670.6175724791
 31
0.0
  0
ARC
  5
AA
330
1F
100
AcDbEntity
  8
0
  6
Continuous
 62
     7
370
    25
100
AcDbCircle
 10
1723.722558262
 20
672.7388925991
 30
0.0
 40
3.000000000000105
100
AcDbArc
 50
225.0
 51
45.0
  0
LINE
  5
AB
330
1F
100
AcDbEntity
  8
0
  6
Continuous
 62
     7
370
    25
100
AcDbLine
 10
1725.843877108
 20
674.8602129334
 30
0.0
 11
1725.843877108
 21
680.6175722555
 31
0.0
  0
LINE
  5
AC
330
1F
100
AcDbEntity
  8
0
  6
Continuous
 62
     7
370
    25
100
AcDbLine
 10
1765.1638784866
 20
674.8602129334
 30
0.0
 11
1765.1638784866
 21
680.6175722555
 31
0.0
  0
ARC
  5
AD
330
1F
100
AcDbEntity
  8
0
  6
Continuous
 62
     7
370
    25
100
AcDbCircle
 10
1767.2851989491
 20
672.7388925991
 30
0.0
 40
3.000000000000185
100
AcDbArc
 50
135.0
 51
315.0
  0
LINE
  5
AE
330
1F
100
AcDbEntity
  8
0
  6
Continuous
 62
     7
370
    25
100
AcDbLine
 10
1585.1662052284
 20
680.6175722555
 30
0.0
 11
1585.1662052284
 21
674.8602129334
 31
0.0
  0
LINE
  5
AF
330
1F
100
AcDbEntity
  8
0
  6
Continuous
 62
     7
370
    25
100
AcDbLine
 10
1765.1638784866
 20
680.6175722555
 30
0.0
 11
1725.843877108
 21
680.6175722555
 31
0.0
  0
LINE
  5
B0
330
1F
100
AcDbEntity
  8
0
  6
Continuous
 62
     7
370
    25
100
AcDbLine
 10
1275.1662028443
 20
680.6175722555
 30
0.0
 11
1275.1662028443
 21
644.8602131383
 31
0.0
  0
LINE
  5
B1
330
1F
100
AcDbEntity
  8
0
  6
Continuous
 62
     7
370
    25
100
AcDbLine
 10
1275.1662028443
 20
290.6175865607
 30
0.0
 11
1775.1662028443
 21
290.6175865607
 31
0.0
  0
LINE
  5
B2
330
1F
100
AcDbEntity
  8
0
  6
Continuous
 62
     7
370
    25
100
AcDbLine
 10
1275.1662028443
 20
596.3749303297
 30
0.0
 11
1275.1662028443
 21
554.8602058367
 31
0.0
  0
LINE
  5
B3
330
1F
100
AcDbEntity
  8
0
  6
Continuous
 62
     7
370
    25
100
AcDbLine
 10
1275.1662028443
 20
506.3749267535
 30
0.0
 11
1275.1662028443
 21
464.8602171616
 31
0.0
  0
LINE
  5
B4
330
1F
100
AcDbEntity
  8
0
  6
Continuous
 62
     7
370
    25
100
AcDbLine
 10
1275.1662028443
 20
416.3749231772
 30
0.0
 11
1275.1662028443
 21
374.8601986842
 31
0.0
  0
LINE
  5
B5
330
1F
100
AcDbEntity
  8
0
  6
Continuous
 62
     7
370
    25
100
AcDbLine
 10
1275.1662028443
 20
326.3749196009
 30
0.0
 11
1275.1662028443
 21
290.6175865607
 31
0.0
  0
LINE
  5
B6
330
1F
100
AcDbEntity
  8
0
  6
Continuous
 62
     7
370
    25
100
AcDbLine
 10
1785.1662026207
 20
370.6175698714
 30
0.0
 11
1779.4088432986
 21
370.6175698714
 31
0.0
  0
LINE
  5
B7
330
1F
100
AcDbEntity
  8
0
  6
Continuous
 62
     7
370
    25
100
AcDbLine
 10
1785.1662026207
 20
330.617578216
 30
0.0
 11
1779.4088432986
 21
330.617578216
 31
0.0
  0
LINE
  5
B8
330
1F
100
AcDbEntity
  8
0
  6
Continuous
 62
     7
370
    25
100
AcDbLine
 10
1785.1662026207
 20
460.6175734476
 30
0.0
 11
1779.4088432986
 21
460.6175734476
 31
0.0
  0
LINE
  5
B9
330
1F
100
AcDbEntity
  8
0
  6
Continuous
 62
     7
370
    25
100
AcDbLine
 10
1785.1662026207
 20
420.6175817923
 30
0.0
 11
1779.4088432986
 21
420.6175817923
 31
0.0
  0
LINE
  5
BA
330
1F
100
AcDbEntity
  8
0
  6
Continuous
 62
     7
370
    25
100
AcDbLine
 10
1785.1662026207
 20
550.6175770239
 30
0.0
 11
1779.4088432986
 21
550.6175770239
 31
0.0
  0
LINE
  5
BB
330
1F
100
AcDbEntity
  8
0
  6
Continuous
 62
     7
370
    25
100
AcDbLine
 10
1785.1662026207
 20
510.6175704674
 30
0.0
 11
1779.4088432986
 21
510.6175704674
 31
0.0
  0
LINE
  5
BC
330
1F
100
AcDbEntity
  8
0
  6
Continuous
 62
     7
370
    25
100
AcDbLine
 10
1785.1662026207
 20
640.6175731496
 30
0.0
 11
1779.4088432986
 21
640.6175731496
 31
0.0
  0
LINE
  5
BD
330
1F
100
AcDbEntity
  8
0
  6
Continuous
 62
     7
370
    25
100
AcDbLine
 10
1785.1662026207
 20
600.6175740437
 30
0.0
 11
1779.4088432986
 21
600.6175740437
 31
0.0
  0
LINE
  5
BE
330
1F
100
AcDbEntity
  8
0
  6
Continuous
 62
     7
370
    25
100
AcDbLine
 10
1775.1662028443
 20
644.8602131383
 30
0.0
 11
1775.1662028443
 21
670.6175724791
 31
0.0
  0
LINE
  5
BF
330
1F
100
AcDbEntity
  8
0
  6
Continuous
 62
     7
370
    25
100
AcDbLine
 10
1775.1662028443
 20
554.8602058367
 30
0.0
 11
1775.1662028443
 21
596.3749303297
 31
0.0
  0
LINE
  5
C0
330
1F
100
AcDbEntity
  8
0
  6
Continuous
 62
     7
370
    25
100
AcDbLine
 10
1775.1662028443
 20
464.8602171616
 30
0.0
 11
1775.1662028443
 21
506.3749267535
 31
0.0
  0
LINE
  5
C1
330
1F
100
AcDbEntity
  8
0
  6
Continuous
 62
     7
370
    25
100
AcDbLine
 10
1775.1662028443
 20
374.8601986842
 30
0.0
 11
1775.1662028443
 21
416.3749231772
 31
0.0
  0
LINE
  5
C2
330
1F
100
AcDbEntity
  8
0
  6
Continuous
 62
     7
370
    25
100
AcDbLine
 10
1775.1662028443
 20
290.6175865607
 30
0.0
 11
1775.1662028443
 21
326.3749196009
 31
0.0
  0
LINE
  5
C3
330
1F
100
AcDbEntity
  8
0
  6
Continuous
 62
     7
370
    25
100
AcDbLine
 10
1315.1661944996
 20
680.6175722555
 30
0.0
 11
1275.1662028443
 21
680.6175722555
 31
0.0
  0
LINE
  5
C4
330
1F
100
AcDbEntity
  8
0
  6
Continuous
 62
     7
370
    25
100
AcDbLine
 10
1675.1662013541
 20
680.6175722555
 30
0.0
 11
1635.843877257
 21
680.6175722555
 31
0.0
  0
LINE
  5
C5
330
1F
100
AcDbEntity
  8
0
  6
Continuous
 62
     7
370
    25
100
AcDbLine
 10
1585.1662052284
 20
680.6175722555
 30
0.0
 11
1545.8438736807
 21
680.6175722555
 31
0.0
  0
LINE
  5
C6
330
1F
100
AcDbEntity
  8
0
  6
Continuous
 62
     7
370
    25
100
AcDbLine
 10
1495.1662016522
 20
680.6175722555
 30
0.0
 11
1455.8438850056
 21
680.6175722555
 31
0.0
  0
LINE
  5
C7
330
1F
100
AcDbEntity
  8
0
  6
Continuous
 62
     7
370
    25
100
AcDbLine
 10
1405.1661980759
 20
680.6175722555
 30
0.0
 11
1365.8438814293
 21
680.6175722555
 31
0.0
  0
ARC
  5
C8
330
1F
100
AcDbEntity
  8
0
  6
Continuous
 62
     7
370
    25
100
AcDbCircle
 10
1027.3002523493
 20
44.6489222535
 30
0.0
 40
2.999999999999944
100
AcDbArc
 50
45.0
 51
225.0
  0
LINE
  5
C9
330
1F
100
AcDbEntity
  8
0
  6
Continuous
 62
     7
370
    25
100
AcDbLine
 10
1025.1789320057
 20
36.7702425971
 30
0.0
 11
1025.1789320057
 21
42.5276019099
 31
0.0
  0
LINE
  5
CA
330
1F
100
AcDbEntity
  8
0
  6
Continuous
 62
     7
370
    25
100
AcDbLine
 10
975.1789320057
 20
42.5276019099
 30
0.0
 11
975.1789320057
 21
36.7702425971
 31
0.0
  0
ARC
  5
CB
330
1F
100
AcDbEntity
  8
0
  6
Continuous
 62
     7
370
    25
100
AcDbCircle
 10
973.0576116622
 20
44.6489222535
 30
0.0
 40
3.000000000000009
100
AcDbArc
 50
315.0
 51
135.0
  0
LINE
  5
CC
330
1F
100
AcDbEntity
  8
0
  6
Continuous
 62
     7
370
    25
100
AcDbLine
 10
939.4215726928
 20
46.7702425971
 30
0.0
 11
970.9362913186
 21
46.7702425971
 31
0.0
  0
ARC
  5
CD
330
1F
100
AcDbEntity
  8
0
  6
Continuous
 62
     7
370
    25
100
AcDbCircle
 10
937.3002523493
 20
44.6489222535
 30
0.0
 40
3.000000000000009
100
AcDbArc
 50
45.0
 51
225.0
  0
LINE
  5
CE
330
1F
100
AcDbEntity
  8
0
  6
Continuous
 62
     7
370
    25
100
AcDbLine
 10
935.1789320057
 20
36.7702425971
 30
0.0
 11
935.1789320057
 21
42.5276019099
 31
0.0
  0
LINE
  5
CF
330
1F
100
AcDbEntity
  8
0
  6
Continuous
 62
     7
370
    25
100
AcDbLine
 10
885.1789320057
 20
42.5276019099
 30
0.0
 11
885.1789320057
 21
36.7702425971
 31
0.0
  0
ARC
  5
D0
330
1F
100
AcDbEntity
  8
0
  6
Continuous
 62
     7
370
    25
100
AcDbCircle
 10
883.0576116622
 20
44.6489222535
 30
0.0
 40
3.000000000000009
100
AcDbArc
 50
315.0
 51
135.0
  0
LINE
  5
D1
330
1F
100
AcDbEntity
  8
0
  6
Continuous
 62
     7
370
    25
100
AcDbLine
 10
849.4215726928
 20
46.7702425971
 30
0.0
 11
880.9362913186
 21
46.7702425971
 31
0.0
  0
ARC
  5
D2
330
1F
100
AcDbEntity
  8
0
  6
Continuous
 62
     7
370
    25
100
AcDbCircle
 10
847.3002523493
 20
44.6489222535
 30
0.0
 40
3.000000000000044
100
AcDbArc
 50
45.0
 51
225.0
  0
LINE
  5
D3
330
1F
100
AcDbEntity
  8
0
  6
Continuous
 62
     7
370
    25
100
AcDbLine
 10
845.1789320057
 20
36.7702425971
 30
0.0
 11
845.1789320057
 21
42.5276019099
 31
0.0
  0
LINE
  5
D4
330
1F
100
AcDbEntity
  8
0
  6
Continuous
 62
     7
370
    25
100
AcDbLine
 10
795.1789320057
 20
42.5276019099
 30
0.0
 11
795.1789320057
 21
36.7702425971
 31
0.0
  0
ARC
  5
D5
330
1F
100
AcDbEntity
  8
0
  6
Continuous
 62
     7
370
    25
100
AcDbCircle
 10
793.0576116622
 20
44.6489222535
 30
0.0
 40
3.000000000000044
100
AcDbArc
 50
315.0
 51
135.0
  0
LINE
  5
D6
330
1F
100
AcDbEntity
  8
0
  6
Continuous
 62
     7
370
    25
100
AcDbLine
 10
759.4215726928
 20
46.7702425971
 30
0.0
 11
790.9362913186
 21
46.7702425971
 31
0.0
  0
ARC
  5
D7
330
1F
100
AcDbEntity
  8
0
  6
Continuous
 62
     7
370
    25
100
AcDbCircle
 10
757.3002523493
 20
44.6489222535
 30
0.0
 40
3.000000000000044
100
AcDbArc
 50
45.0
 51
225.0
  0
LINE
  5
D8
330
1F
100
AcDbEntity
  8
0
  6
Continuous
 62
     7
370
    25
100
AcDbLine
 10
755.1789320057
 20
36.7702425971
 30
0.0
 11
755.1789320057
 21
42.5276019099
 31
0.0
  0
LINE
  5
D9
330
1F
100
AcDbEntity
  8
0
  6
Continuous
 62
     7
370
    25
100
AcDbLine
 10
705.1789320057
 20
42.5276019099
 30
0.0
 11
705.1789320057
 21
36.7702425971
 31
0.0
  0
ARC
  5
DA
330
1F
100
AcDbEntity
  8
0
  6
Continuous
 62
     7
370
    25
100
AcDbCircle
 10
703.0576116622
 20
44.6489222535
 30
0.0
 40
3.000000000000009
100
AcDbArc
 50
315.0
 51
135.0
  0
LINE
  5
DB
330
1F
100
AcDbEntity
  8
0
  6
Continuous
 62
     7
370
    25
100
AcDbLine
 10
669.4215726928
 20
46.7702425971
 30
0.0
 11
700.9362913186
 21
46.7702425971
 31
0.0
  0
ARC
  5
DC
330
1F
100
AcDbEntity
  8
0
  6
Continuous
 62
     7
370
    25
100
AcDbCircle
 10
667.3002523493
 20
44.6489222535
 30
0.0
 40
3.000000000000009
100
AcDbArc
 50
45.0
 51
225.0
  0
LINE
  5
DD
330
1F
100
AcDbEntity
  8
0
  6
Continuous
 62
     7
370
    25
100
AcDbLine
 10
665.1789320057
 20
36.7702425971
 30
0.0
 11
665.1789320057
 21
42.5276019099
 31
0.0
  0
LINE
  5
DE
330
1F
100
AcDbEntity
  8
0
  6
Continuous
 62
     7
370
    25
100
AcDbLine
 10
1195.1789320057
 20
386.7702425971
 30
0.0
 11
1189.4215726928
 21
386.7702425971
 31
0.0
  0
ARC
  5
DF
330
1F
100
AcDbEntity
  8
0
  6
Continuous
 62
     7
370
    25
100
AcDbCircle
 10
1187.3002523493
 20
384.6489222535
 30
0.0
 40
3.000000000000064
100
AcDbArc
 50
45.0
 51
225.0
  0
LINE
  5
E0
330
1F
100
AcDbEntity
  8
0
  6
Continuous
 62
     7
370
    25
100
AcDbLine
 10
1185.1789320057
 20
351.0128832842
 30
0.0
 11
1185.1789320057
 21
382.5276019099
 31
0.0
  0
ARC
  5
E1
330
1F
100
AcDbEntity
  8
0
  6
Continuous
 62
     7
370
    25
100
AcDbCircle
 10
1187.3002523493
 20
348.8915629406
 30
0.0
 40
3.000000000000064
100
AcDbArc
 50
135.0
 51
315.0
  0
LINE
  5
E2
330
1F
100
AcDbEntity
  8
0
  6
Continuous
 62
     7
370
    25
100
AcDbLine
 10
1195.1789320057
 20
346.7702425971
 30
0.0
 11
1189.4215726928
 21
346.7702425971
 31
0.0
  0
LINE
  5
E3
330
1F
100
AcDbEntity
  8
0
  6
Continuous
 62
     7
370
    25
100
AcDbLine
 10
1195.1789320057
 20
296.7702425971
 30
0.0
 11
1189.4215726928
 21
296.7702425971
 31
0.0
  0
ARC
  5
E4
330
1F
100
AcDbEntity
  8
0
  6
Continuous
 62
     7
370
    25
100
AcDbCircle
 10
1187.3002523493
 20
294.6489222535
 30
0.0
 40
3.000000000000064
100
AcDbArc
 50
45.0
 51
225.0
  0
LINE
  5
E5
330
1F
100
AcDbEntity
  8
0
  6
Continuous
 62
     7
370
    25
100
AcDbLine
 10
1185.1789320057
 20
261.0128832842
 30
0.0
 11
1185.1789320057
 21
292.5276019099
 31
0.0
  0
ARC
  5
E6
330
1F
100
AcDbEntity
  8
0
  6
Continuous
 62
     7
370
    25
100
AcDbCircle
 10
1187.3002523493
 20
258.8915629406
 30
0.0
 40
3.000000000000064
100
AcDbArc
 50
135.0
 51
315.0
  0
LINE
  5
E7
330
1F
100
AcDbEntity
  8
0
  6
Continuous
 62
     7
370
    25
100
AcDbLine
 10
1195.1789320057
 20
256.7702425971
 30
0.0
 11
1189.4215726928
 21
256.7702425971
 31
0.0
  0
LINE
  5
E8
330
1F
100
AcDbEntity
  8
0
  6
Continuous
 62
     7
370
    25
100
AcDbLine
 10
1195.1789320057
 20
206.7702425971
 30
0.0
 11
1189.4215726928
 21
206.7702425971
 31
0.0
  0
ARC
  5
E9
330
1F
100
AcDbEntity
  8
0
  6
Continuous
 62
     7
370
    25
100
AcDbCircle
 10
1187.3002523493
 20
204.6489222535
 30
0.0
 40
3.000000000000064
100
AcDbArc
 50
45.0
 51
225.0
  0
LINE
  5
EA
330
1F
100
AcDbEntity
  8
0
  6
Continuous
 62
     7
370
    25
100
AcDbLine
 10
1185.1789320057
 20
171.0128832842
 30
0.0
 11
1185.1789320057
 21
202.5276019099
 31
0.0
  0
ARC
  5
EB
330
1F
100
AcDbEntity
  8
0
  6
Continuous
 62
     7
370
    25
100
AcDbCircle
 10
1187.3002523493
 20
168.8915629406
 30
0.0
 40
3.000000000000064
100
AcDbArc
 50
135.0
 51
315.0
  0
LINE
  5
EC
330
1F
100
AcDbEntity
  8
0
  6
Continuous
 62
     7
370
    25
100
AcDbLine
 10
1195.1789320057
 20
166.7702425971
 30
0.0
 11
1189.4215726928
 21
166.7702425971
 31
0.0
  0
LINE
  5
ED
330
1F
100
AcDbEntity
  8
0
  6
Continuous
 62
     7
370
    25
100
AcDbLine
 10
1195.1789320057
 20
116.7702425971
 30
0.0
 11
1189.4215726928
 21
116.7702425971
 31
0.0
  0
ARC
  5
EE
330
1F
100
AcDbEntity
  8
0
  6
Continuous
 62
     7
370
    25
100
AcDbCircle
 10
1187.3002523493
 20
114.6489222535
 30
0.0
 40
3.000000000000075
100
AcDbArc
 50
45.0
 51
225.0
  0
LINE
  5
EF
330
1F
100
AcDbEntity
  8
0
  6
Continuous
 62
     7
370
    25
100
AcDbLine
 10
1185.1789320057
 20
81.0128832842
 30
0.0
 11
1185.1789320057
 21
112.5276019099
 31
0.0
  0
ARC
  5
F0
330
1F
100
AcDbEntity
  8
0
  6
Continuous
 62
     7
370
    25
100
AcDbCircle
 10
1187.3002523493
 20
78.8915629406
 30
0.0
 40
3.000000000000064
100
AcDbArc
 50
135.0
 51
315.0
  0
LINE
  5
F1
330
1F
100
AcDbEntity
  8
0
  6
Continuous
 62
     7
370
    25
100
AcDbLine
 10
1195.1789320057
 20
76.7702425971
 30
0.0
 11
1189.4215726928
 21
76.7702425971
 31
0.0
  0
LINE
  5
F2
330
1F
100
AcDbEntity
  8
0
  6
Continuous
 62
     7
370
    25
100
AcDbLine
 10
1155.1789320057
 20
42.5276019099
 30
0.0
 11
1155.1789320057
 21
36.7702425971
 31
0.0
  0
ARC
  5
F3
330
1F
100
AcDbEntity
  8
0
  6
Continuous
 62
     7
370
    25
100
AcDbCircle
 10
1153.0576116622
 20
44.6489222535
 30
0.0
 40
2.999999999999929
100
AcDbArc
 50
315.0
 51
135.0
  0
LINE
  5
F4
330
1F
100
AcDbEntity
  8
0
  6
Continuous
 62
     7
370
    25
100
AcDbLine
 10
1119.4215726928
 20
46.7702425971
 30
0.0
 11
1150.9362913186
 21
46.7702425971
 31
0.0
  0
ARC
  5
F5
330
1F
100
AcDbEntity
  8
0
  6
Continuous
 62
     7
370
    25
100
AcDbCircle
 10
1117.3002523493
 20
44.6489222535
 30
0.0
 40
3.000000000000105
100
AcDbArc
 50
45.0
 51
225.0
  0
LINE
  5
F6
330
1F
100
AcDbEntity
  8
0
  6
Continuous
 62
     7
370
    25
100
AcDbLine
 10
1115.1789320057
 20
36.7702425971
 30
0.0
 11
1115.1789320057
 21
42.5276019099
 31
0.0
  0
LINE
  5
F7
330
1F
100
AcDbEntity
  8
0
  6
Continuous
 62
     7
370
    25
100
AcDbLine
 10
1065.1789320057
 20
42.5276019099
 30
0.0
 11
1065.1789320057
 21
36.7702425971
 31
0.0
  0
ARC
  5
F8
330
1F
100
AcDbEntity
  8
0
  6
Continuous
 62
     7
370
    25
100
AcDbCircle
 10
1063.0576116622
 20
44.6489222535
 30
0.0
 40
3.000000000000089
100
AcDbArc
 50
315.0
 51
135.0
  0
LINE
  5
F9
330
1F
100
AcDbEntity
  8
0
  6
Continuous
 62
     7
370
    25
100
AcDbLine
 10
1029.4215726928
 20
46.7702425971
 30
0.0
 11
1060.9362913186
 21
46.7702425971
 31
0.0
  0
ARC
  5
FA
330
1F
100
AcDbEntity
  8
0
  6
Continuous
 62
     7
370
    25
100
AcDbCircle
 10
1094.6889608326
 20
445.4754710681
 30
0.0
 40
2.999999999999722
100
AcDbArc
 50
32.0053832081
 51
122.0053832081
  0
LINE
  5
FB
330
1F
100
AcDbEntity
  8
0
  6
Continuous
 62
     7
370
    25
100
AcDbLine
 10
1093.0989640126
 20
448.0194659801
 30
0.0
 11
1092.6117684147
 21
448.1318957334
 31
0.0
  0
ARC
  5
FC
330
1F
100
AcDbEntity
  8
0
  6
Continuous
 62
     7
370
    25
100
AcDbCircle
 10
1094.6889608326
 20
445.4754710681
 30
0.0
 40
2.999999999999755
100
AcDbArc
 50
137.9055275057
 51
196.1052389104
  0
ARC
  5
FD
330
1F
100
AcDbEntity
  8
0
  6
Continuous
 62
     7
370
    25
100
AcDbCircle
 10
1093.3943638576
 20
439.8655508432
 30
0.0
 40
2.999999999999977
100
AcDbArc
 50
137.9055275057
 51
196.1052389104
  0
LINE
  5
FE
330
1F
100
AcDbEntity
  8
0
  6
Continuous
 62
     7
370
    25
100
AcDbLine
 10
1090.512102477
 20
439.0333433366
 30
0.0
 11
1090.3631733477
 21
438.3879837765
 31
0.0
  0
ARC
  5
FF
330
1F
100
AcDbEntity
  8
0
  6
Continuous
 62
     7
370
    25
100
AcDbCircle
 10
1093.3943638576
 20
439.8655508432
 30
0.0
 40
3.000000000000083
100
AcDbArc
 50
212.0053832081
 51
302.0053832081
  0
LINE
  5
100
330
1F
100
AcDbEntity
  8
0
  6
Continuous
 62
     7
370
    25
100
AcDbLine
 10
1094.9843606776
 20
437.3215559311
 30
0.0
 11
1113.6480275477
 21
433.0145558842
 31
0.0
  0
ARC
  5
101
330
1F
100
AcDbEntity
  8
0
  6
Continuous
 62
     7
370
    25
100
AcDbCircle
 10
1116.1920224597
 20
434.6045527042
 30
0.0
 40
2.999999999999999
100
AcDbArc
 50
212.0053832081
 51
32.8564652862
  0
LINE
  5
102
330
1F
100
AcDbEntity
  8
0
  6
Continuous
 62
     7
370
    25
100
AcDbLine
 10
1118.7121194772
 20
436.2321616936
 30
0.0
 11
1119.038653264
 21
437.6471414366
 31
0.0
  0
ARC
  5
103
330
1F
100
AcDbEntity
  8
0
  6
Continuous
 62
     7
370
    25
100
AcDbCircle
 10
1117.4866194347
 20
440.2144729291
 30
0.0
 40
3.000000000000083
100
AcDbArc
 50
301.15430113
 51
122.0053832081
  0
ARC
  5
104
330
1F
100
AcDbEntity
  8
0
  6
Continuous
 62
     7
370
    25
100
AcDbCircle
 10
1159.9731709441
 20
430.4098841193
 30
0.0
 40
2.999999999999915
100
AcDbArc
 50
32.0053832081
 51
212.0053832081
  0
LINE
  5
105
330
1F
100
AcDbEntity
  8
0
  6
Continuous
 62
     7
370
    25
100
AcDbLine
 10
1157.4291760321
 20
428.8198872992
 30
0.0
 11
1157.0885771491
 21
427.3439588064
 31
0.0
  0
ARC
  5
106
330
1F
100
AcDbEntity
  8
0
  6
Continuous
 62
     7
370
    25
100
AcDbCircle
 10
1158.6785739691
 20
424.7999638943
 30
0.0
 40
2.999999999999987
100
AcDbArc
 50
122.0053832081
 51
302.0053832081
  0
LINE
  5
107
330
1F
100
AcDbEntity
  8
0
  6
Continuous
 62
     7
370
    25
100
AcDbLine
 10
1160.2685707891
 20
422.2559689823
 30
0.0
 11
1178.9322376592
 21
417.9489689354
 31
0.0
  0
ARC
  5
108
330
1F
100
AcDbEntity
  8
0
  6
Continuous
 62
     7
370
    25
100
AcDbCircle
 10
1181.4762325712
 20
419.5389657554
 30
0.0
 40
3.000000000000162
100
AcDbArc
 50
212.0053832081
 51
32.0053832081
  0
LINE
  5
109
330
1F
100
AcDbEntity
  8
0
  6
Continuous
 62
     7
370
    25
100
AcDbLine
 10
1184.0202274832
 20
421.1289625754
 30
0.0
 11
1184.3608263662
 21
422.6048910683
 31
0.0
  0
ARC
  5
10A
330
1F
100
AcDbEntity
  8
0
  6
Continuous
 62
     7
370
    25
100
AcDbCircle
 10
1182.7708295462
 20
425.1488859803
 30
0.0
 40
3.000000000000011
100
AcDbArc
 50
302.0053832081
 51
122.0053832081
  0
LINE
  5
10B
330
1F
100
AcDbEntity
  8
0
  6
Continuous
 62
     7
370
    25
100
AcDbLine
 10
1181.1808327262
 20
427.6928808923
 30
0.0
 11
1162.5171658561
 21
431.9998809393
 31
0.0
  0
ARC
  5
10C
330
1F
100
AcDbEntity
  8
0
  6
Continuous
 62
     7
370
    25
100
AcDbCircle
 10
1073.9983934679
 20
402.5121700456
 30
0.0
 40
3.000000000000029
100
AcDbArc
 50
32.0053832081
 51
212.0053832081
  0
ARC
  5
10D
330
1F
100
AcDbEntity
  8
0
  6
Continuous
 62
     7
370
    25
100
AcDbCircle
 10
1055.3931072255
 20
321.8892629952
 30
0.0
 40
3.000000000000108
100
AcDbArc
 50
122.0053832081
 51
302.0053832081
  0
ARC
  5
10E
330
1F
100
AcDbEntity
  8
0
  6
Continuous
 62
     7
370
    25
100
AcDbCircle
 10
1061.0030274504
 20
320.5946660202
 30
0.0
 40
2.999999999999981
100
AcDbArc
 50
212.0053832081
 51
32.0053832081
  0
ARC
  5
10F
330
1F
100
AcDbEntity
  8
0
  6
Continuous
 62
     7
370
    25
100
AcDbCircle
 10
1079.6083136928
 20
401.2175730706
 30
0.0
 40
3.00000000000018
100
AcDbArc
 50
302.0053832081
 51
122.0053832081
  0
ARC
  5
110
330
1F
100
AcDbEntity
  8
0
  6
Continuous
 62
     7
370
    25
100
AcDbCircle
 10
987.8583401895
 20
254.0623382706
 30
0.0
 40
3.000000000000083
100
AcDbArc
 50
148.2426222464
 51
328.2426222464
  0
ARC
  5
111
330
1F
100
AcDbEntity
  8
0
  6
Continuous
 62
     7
370
    25
100
AcDbCircle
 10
1033.0361767558
 20
264.6941669455
 30
0.0
 40
2.999999999999986
100
AcDbArc
 50
238.2426222464
 51
58.2426222464
  0
ARC
  5
112
330
1F
100
AcDbEntity
  8
0
  6
Continuous
 62
     7
370
    25
100
AcDbCircle
 10
1031.7173093789
 20
270.298430956
 30
0.0
 40
3.000000000000179
100
AcDbArc
 50
328.2426222464
 51
148.2426222464
  0
ARC
  5
113
330
1F
100
AcDbEntity
  8
0
  6
Continuous
 62
     7
370
    25
100
AcDbCircle
 10
986.5394728125
 20
259.6666022812
 30
0.0
 40
3.000000000000034
100
AcDbArc
 50
58.2426222464
 51
238.2426222464
  0
ARC
  5
114
330
1F
100
AcDbEntity
  8
0
  6
Continuous
 62
     7
370
    25
100
AcDbCircle
 10
586.5333251871
 20
92.6133063275
 30
0.0
 40
3.000000000000029
100
AcDbArc
 50
159.2277453179
 51
339.227745318
  0
ARC
  5
115
330
1F
100
AcDbEntity
  8
0
  6
Continuous
 62
     7
370
    25
100
AcDbCircle
 10
591.7835849575
 20
94.9759232242
 30
0.0
 40
3.00000000000004
100
AcDbArc
 50
249.2277453179
 51
69.2277453179
  0
ARC
  5
116
330
1F
100
AcDbEntity
  8
0
  6
Continuous
 62
     7
370
    25
100
AcDbCircle
 10
560.6954406478
 20
164.0606883569
 30
0.0
 40
3.000000000000009
100
AcDbArc
 50
339.227745318
 51
159.227745318
  0
ARC
  5
117
330
1F
100
AcDbEntity
  8
0
  6
Continuous
 62
     7
370
    25
100
AcDbCircle
 10
555.4451808774
 20
161.6980714602
 30
0.0
 40
3.000000000000026
100
AcDbArc
 50
69.227745318
 51
249.227745318
  0
ARC
  5
118
330
1F
100
AcDbEntity
  8
0
  6
Continuous
 62
     7
370
    25
100
AcDbCircle
 10
565.7766457543
 20
211.8449679542
 30
0.0
 40
2.999999999999999
100
AcDbArc
 50
159.2277453179
 51
339.2277453179
  0
ARC
  5
119
330
1F
100
AcDbEntity
  8
0
  6
Continuous
 62
     7
370
    25
100
AcDbCircle
 10
598.2878544535
 20
226.4750118688
 30
0.0
 40
3.00000000000001
100
AcDbArc
 50
249.227745318
 51
69.227745318
  0
ARC
  5
11A
330
1F
100
AcDbEntity
  8
0
  6
Continuous
 62
     7
370
    25
100
AcDbCircle
 10
595.9252375568
 20
231.7252716393
 30
0.0
 40
3.00000000000004
100
AcDbArc
 50
339.227745318
 51
159.227745318
  0
ARC
  5
11B
330
1F
100
AcDbEntity
  8
0
  6
Continuous
 62
     7
370
    25
100
AcDbCircle
 10
563.4140288576
 20
217.0952277246
 30
0.0
 40
2.999999999999959
100
AcDbArc
 50
69.227745318
 51
249.227745318
  0
ARC
  5
11C
330
1F
100
AcDbEntity
  8
0
  6
Continuous
 62
     7
370
    25
100
AcDbCircle
 10
709.8551953706
 20
194.553704932
 30
0.0
 40
3.000000000000068
100
AcDbArc
 50
328.2426222464
 51
148.2426222464
  0
ARC
  5
11D
330
1F
100
AcDbEntity
  8
0
  6
Continuous
 62
     7
370
    25
100
AcDbCircle
 10
665.3145808149
 20
184.0718355239
 30
0.0
 40
3.000000000000034
100
AcDbArc
 50
58.2426222464
 51
238.2426222464
  0
ARC
  5
11E
330
1F
100
AcDbEntity
  8
0
  6
Continuous
 62
     7
370
    25
100
AcDbCircle
 10
666.7876776673
 20
177.812204102
 30
0.0
 40
3.000000000000053
100
AcDbArc
 50
148.2426222464
 51
328.2426222464
  0
ARC
  5
11F
330
1F
100
AcDbEntity
  8
0
  6
Continuous
 62
     7
370
    25
100
AcDbCircle
 10
711.328292223
 20
188.2940735101
 30
0.0
 40
3.00000000000001
100
AcDbArc
 50
238.2426222464
 51
58.2426222464
  0
ARC
  5
120
330
1F
100
AcDbEntity
  8
0
  6
Continuous
 62
     7
370
    25
100
AcDbCircle
 10
638.8886319178
 20
195.5853022539
 30
0.0
 40
2.999999999999979
100
AcDbArc
 50
159.227745318
 51
339.227745318
  0
ARC
  5
121
330
1F
100
AcDbEntity
  8
0
  6
Continuous
 62
     7
370
    25
100
AcDbCircle
 10
644.1388916882
 20
197.9479191506
 30
0.0
 40
3.000000000000053
100
AcDbArc
 50
249.227745318
 51
69.2277453179
  0
ARC
  5
122
330
1F
100
AcDbEntity
  8
0
  6
Continuous
 62
     7
370
    25
100
AcDbCircle
 10
629.4653344716
 20
230.5558240763
 30
0.0
 40
2.999999999999913
100
AcDbArc
 50
339.227745318
 51
159.227745318
  0
ARC
  5
123
330
1F
100
AcDbEntity
  8
0
  6
Continuous
 62
     7
370
    25
100
AcDbCircle
 10
624.2150747012
 20
228.1932071796
 30
0.0
 40
2.999999999999973
100
AcDbArc
 50
69.227745318
 51
249.227745318
  0
LINE
  5
124
330
1F
100
AcDbEntity
  8
0
  6
Continuous
 62
     7
370
    25
100
AcDbLine
 10
1195.1789320057
 20
36.7702425971
 30
0.0
 11
1155.1789320057
 21
36.7702425971
 31
0.0
  0
LINE
  5
125
330
1F
100
AcDbEntity
  8
0
  6
Continuous
 62
     7
370
    25
100
AcDbLine
 10
595.1789320057
 20
36.7702425971
 30
0.0
 11
527.9170611917
 21
193.7146078299
 31
0.0
  0
ARC
  5
126
330
1F
100
AcDbEntity
  8
0
  6
Continuous
 62
     7
370
    25
100
AcDbCircle
 10
546.299961792
 20
201.5929938014
 30
0.0
 40
20.00000000000001
100
AcDbArc
 50
114.227745318
 51
203.1985905136
  0
LINE
  5
127
330
1F
100
AcDbEntity
  8
0
  6
Continuous
 62
     7
370
    25
100
AcDbLine
 10
538.0926682454
 20
219.8314239049
 30
0.0
 11
612.2493089355
 21
253.2019122155
 31
0.0
  0
ARC
  5
128
330
1F
100
AcDbEntity
  8
0
  6
Continuous
 62
     7
370
    25
100
AcDbCircle
 10
620.4566024821
 20
234.963482112
 30
0.0
 40
20.00000000000004
100
AcDbArc
 50
67.8316561201
 51
114.227745318
  0
ARC
  5
129
330
1F
100
AcDbEntity
  8
0
  6
Continuous
 62
     7
370
    25
100
AcDbCircle
 10
778.9348590961
 20
623.9167468889
 30
0.0
 40
400.0000000000001
100
AcDbArc
 50
247.8316561201
 51
308.8087253016
  0
ARC
  5
12A
330
1F
100
AcDbEntity
  8
0
  6
Continuous
 62
     7
370
    25
100
AcDbCircle
 10
1017.0894036882
 20
327.8045842036
 30
0.0
 40
20.0
100
AcDbArc
 50
308.8087253016
 51
347.905242923
  0
LINE
  5
12B
330
1F
100
AcDbEntity
  8
0
  6
Continuous
 62
     7
370
    25
100
AcDbLine
 10
1060.9220126907
 20
436.9046191269
 30
0.0
 11
1036.6454519697
 21
323.614002429
 31
0.0
  0
ARC
  5
12C
330
1F
100
AcDbEntity
  8
0
  6
Continuous
 62
     7
370
    25
100
AcDbCircle
 10
1080.4780609722
 20
432.7140373523
 30
0.0
 40
20.00000000000005
100
AcDbArc
 50
77.0053832081
 51
167.905242923
  0
LINE
  5
12D
330
1F
100
AcDbEntity
  8
0
  6
Continuous
 62
     7
370
    25
100
AcDbLine
 10
1195.1789320057
 20
426.7702425971
 30
0.0
 11
1084.9752511062
 21
452.2018612662
 31
0.0
  0
LINE
  5
12E
330
1F
100
AcDbEntity
  8
0
  6
Continuous
 62
     7
370
    25
100
AcDbLine
 10
1195.1789320057
 20
76.7702425971
 30
0.0
 11
1195.1789320057
 21
36.7702425971
 31
0.0
  0
LINE
  5
12F
330
1F
100
AcDbEntity
  8
0
  6
Continuous
 62
     7
370
    25
100
AcDbLine
 10
1195.1789320057
 20
166.7702425971
 30
0.0
 11
1195.1789320057
 21
116.7702425971
 31
0.0
  0
LINE
  5
130
330
1F
100
AcDbEntity
  8
0
  6
Continuous
 62
     7
370
    25
100
AcDbLine
 10
1195.1789320057
 20
426.7702425971
 30
0.0
 11
1195.1789320057
 21
386.7702425971
 31
0.0
  0
LINE
  5
131
330
1F
100
AcDbEntity
  8
0
  6
Continuous
 62
     7
370
    25
100
AcDbLine
 10
1195.1789320057
 20
346.7702425971
 30
0.0
 11
1195.1789320057
 21
296.7702425971
 31
0.0
  0
LINE
  5
132
330
1F
100
AcDbEntity
  8
0
  6
Continuous
 62
     7
370
    25
100
AcDbLine
 10
1195.1789320057
 20
256.7702425971
 30
0.0
 11
1195.1789320057
 21
206.7702425971
 31
0.0
  0
LINE
  5
133
330
1F
100
AcDbEntity
  8
0
  6
Continuous
 62
     7
370
    25
100
AcDbLine
 10
1115.1789320057
 20
36.7702425971
 30
0.0
 11
1065.1789320057
 21
36.7702425971
 31
0.0
  0
LINE
  5
134
330
1F
100
AcDbEntity
  8
0
  6
Continuous
 62
     7
370
    25
100
AcDbLine
 10
665.1789320057
 20
36.7702425971
 30
0.0
 11
595.1789320057
 21
36.7702425971
 31
0.0
  0
LINE
  5
135
330
1F
100
AcDbEntity
  8
0
  6
Continuous
 62
     7
370
    25
100
AcDbLine
 10
755.1789320057
 20
36.7702425971
 30
0.0
 11
705.1789320057
 21
36.7702425971
 31
0.0
  0
LINE
  5
136
330
1F
100
AcDbEntity
  8
0
  6
Continuous
 62
     7
370
    25
100
AcDbLine
 10
845.1789320057
 20
36.7702425971
 30
0.0
 11
795.1789320057
 21
36.7702425971
 31
0.0
  0
LINE
  5
137
330
1F
100
AcDbEntity
  8
0
  6
Continuous
 62
     7
370
    25
100
AcDbLine
 10
935.1789320057
 20
36.7702425971
 30
0.0
 11
885.1789320057
 21
36.7702425971
 31
0.0
  0
LINE
  5
138
330
1F
100
AcDbEntity
  8
0
  6
Continuous
 62
     7
370
    25
100
AcDbLine
 10
1025.1789320057
 20
36.7702425971
 30
0.0
 11
975.1789320057
 21
36.7702425971
 31
0.0
  0
LINE
  5
139
330
1F
100
AcDbEntity
  8
0
  6
Continuous
 62
     7
370
    25
100
AcDbLine
 10
1115.8966226147
 20
442.7584678411
 30
0.0
 11
1097.2329557446
 21
447.0654678881
 31
0.0
  0
LINE
  5
13A
330
1F
100
AcDbEntity
  8
0
  6
Continuous
 62
     7
370
    25
100
AcDbLine
 10
1091.806699452
 20
444.6432635616
 30
0.0
 11
1091.1682423105
 21
441.8766159484
 31
0.0
  0
LINE
  5
13B
330
1F
100
AcDbEntity
  8
0
  6
Continuous
 62
     7
370
    25
100
AcDbLine
 10
1092.6117684147
 20
448.1318957334
 30
0.0
 11
1092.4628392855
 21
447.4865361733
 31
0.0
  0
LINE
  5
13C
330
1F
100
AcDbEntity
  8
0
  6
Continuous
 62
     7
370
    25
100
AcDbLine
 10
1090.3631733477
 20
438.3879837765
 30
0.0
 11
1090.8503689456
 21
438.2755540231
 31
0.0
  0
LINE
  5
13D
330
1F
100
AcDbEntity
  8
0
  6
Continuous
 62
     7
370
    25
100
AcDbLine
 10
1071.4543985559
 20
400.9221732256
 30
0.0
 11
1053.8031104055
 21
324.4332579072
 31
0.0
  0
LINE
  5
13E
330
1F
100
AcDbEntity
  8
0
  6
Continuous
 62
     7
370
    25
100
AcDbLine
 10
1056.9831040455
 20
319.3452680832
 30
0.0
 11
1058.4590325384
 21
319.0046692002
 31
0.0
  0
LINE
  5
13F
330
1F
100
AcDbEntity
  8
0
  6
Continuous
 62
     7
370
    25
100
AcDbLine
 10
1078.0183168728
 20
403.7615679827
 30
0.0
 11
1076.5423883799
 21
404.1021668656
 31
0.0
  0
LINE
  5
140
330
1F
100
AcDbEntity
  8
0
  6
Continuous
 62
     7
370
    25
100
AcDbLine
 10
1063.5470223624
 20
322.1846628402
 30
0.0
 11
1081.1983105128
 21
398.6735781586
 31
0.0
  0
LINE
  5
141
330
1F
100
AcDbEntity
  8
0
  6
Continuous
 62
     7
370
    25
100
AcDbLine
 10
1034.2681627572
 20
268.7194607086
 30
0.0
 11
1034.6151470033
 21
267.2450203238
 31
0.0
  0
LINE
  5
142
330
1F
100
AcDbEntity
  8
0
  6
Continuous
 62
     7
370
    25
100
AcDbLine
 10
1031.4572065083
 20
262.1433135672
 30
0.0
 11
990.4091935678
 21
252.4833680232
 31
0.0
  0
LINE
  5
143
330
1F
100
AcDbEntity
  8
0
  6
Continuous
 62
     7
370
    25
100
AcDbLine
 10
988.11844306
 20
262.2174556595
 30
0.0
 11
1029.1664560006
 21
271.8774012035
 31
0.0
  0
LINE
  5
144
330
1F
100
AcDbEntity
  8
0
  6
Continuous
 62
     7
370
    25
100
AcDbLine
 10
985.3074868112
 20
255.6413085181
 30
0.0
 11
984.9605025651
 21
257.1157489028
 31
0.0
  0
LINE
  5
145
330
1F
100
AcDbEntity
  8
0
  6
Continuous
 62
     7
370
    25
100
AcDbLine
 10
563.5004332268
 20
162.9967256546
 30
0.0
 11
592.8475476599
 21
97.7809158032
 31
0.0
  0
LINE
  5
146
330
1F
100
AcDbEntity
  8
0
  6
Continuous
 62
     7
370
    25
100
AcDbLine
 10
590.7196222551
 20
92.1709306453
 30
0.0
 11
589.338317766
 21
91.5493436252
 31
0.0
  0
LINE
  5
147
330
1F
100
AcDbEntity
  8
0
  6
Continuous
 62
     7
370
    25
100
AcDbLine
 10
556.5091435797
 20
164.5030640392
 30
0.0
 11
557.8904480688
 21
165.1246510593
 31
0.0
  0
LINE
  5
148
330
1F
100
AcDbEntity
  8
0
  6
Continuous
 62
     7
370
    25
100
AcDbLine
 10
583.7283326081
 20
93.6772690299
 30
0.0
 11
554.381218175
 21
158.8930788813
 31
0.0
  0
LINE
  5
149
330
1F
100
AcDbEntity
  8
0
  6
Continuous
 62
     7
370
    25
100
AcDbLine
 10
598.7302301358
 20
230.6613089369
 30
0.0
 11
599.3518171559
 21
229.2800044478
 31
0.0
  0
LINE
  5
14A
330
1F
100
AcDbEntity
  8
0
  6
Continuous
 62
     7
370
    25
100
AcDbLine
 10
597.2238917512
 20
223.6700192899
 30
0.0
 11
568.5816383332
 21
210.7810052518
 31
0.0
  0
LINE
  5
14B
330
1F
100
AcDbEntity
  8
0
  6
Continuous
 62
     7
370
    25
100
AcDbLine
 10
564.4779915599
 20
219.9002203036
 30
0.0
 11
593.1202449779
 21
232.7892343416
 31
0.0
  0
LINE
  5
14C
330
1F
100
AcDbEntity
  8
0
  6
Continuous
 62
     7
370
    25
100
AcDbLine
 10
562.9716531753
 20
212.9089306565
 30
0.0
 11
562.3500661552
 21
214.2902351457
 31
0.0
  0
LINE
  5
14D
330
1F
100
AcDbEntity
  8
0
  6
Continuous
 62
     7
370
    25
100
AcDbLine
 10
666.8935510623
 20
186.6226889022
 30
0.0
 11
707.3043419923
 21
196.1326751795
 31
0.0
  0
LINE
  5
14E
330
1F
100
AcDbEntity
  8
0
  6
Continuous
 62
     7
370
    25
100
AcDbLine
 10
664.236824289
 20
179.3911743495
 30
0.0
 11
663.7356105674
 21
181.5209821456
 31
0.0
  0
LINE
  5
14F
330
1F
100
AcDbEntity
  8
0
  6
Continuous
 62
     7
370
    25
100
AcDbLine
 10
709.7493219755
 20
185.7432201318
 30
0.0
 11
669.3385310456
 21
176.2332338545
 31
0.0
  0
LINE
  5
150
330
1F
100
AcDbEntity
  8
0
  6
Continuous
 62
     7
370
    25
100
AcDbLine
 10
712.4060487489
 20
192.9747346846
 30
0.0
 11
712.9072624705
 21
190.8449268884
 31
0.0
  0
LINE
  5
151
330
1F
100
AcDbEntity
  8
0
  6
Continuous
 62
     7
370
    25
100
AcDbLine
 10
645.2028543906
 20
200.7529117296
 30
0.0
 11
632.2703270506
 21
229.491861374
 31
0.0
  0
LINE
  5
152
330
1F
100
AcDbEntity
  8
0
  6
Continuous
 62
     7
370
    25
100
AcDbLine
 10
641.6936244967
 20
194.5213395516
 30
0.0
 11
643.0749289858
 21
195.1429265717
 31
0.0
  0
LINE
  5
153
330
1F
100
AcDbEntity
  8
0
  6
Continuous
 62
     7
370
    25
100
AcDbLine
 10
626.6603418927
 20
231.6197867787
 30
0.0
 11
625.2790374036
 21
230.9981997586
 31
0.0
  0
LINE
  5
154
330
1F
100
AcDbEntity
  8
0
  6
Continuous
 62
     7
370
    25
100
AcDbLine
 10
623.1511119988
 20
225.3882146007
 30
0.0
 11
636.0836393388
 21
196.6492649563
 31
0.0
  0
LINE
  5
155
330
1F
100
AcDbEntity
  8
0
  6
Continuous
 62
     7
370
    25
100
AcDbLine
 10
1086.9214695424
 20
1144.3996904728
 30
0.0
 11
1086.9214695424
 21
1150.1570497857
 31
0.0
  0
LINE
  5
156
330
1F
100
AcDbEntity
  8
0
  6
Continuous
 62
     7
370
    25
100
AcDbLine
 10
1136.9214695424
 20
1150.1570497857
 30
0.0
 11
1136.9214695424
 21
1144.3996904728
 31
0.0
  0
ARC
  5
157
330
1F
100
AcDbEntity
  8
0
  6
Continuous
 62
     7
370
    25
100
AcDbCircle
 10
1139.042789886
 20
1142.2783701292
 30
0.0
 40
3.000000000000185
100
AcDbArc
 50
135.0
 51
315.0
  0
LINE
  5
158
330
1F
100
AcDbEntity
  8
0
  6
Continuous
 62
     7
370
    25
100
AcDbLine
 10
1141.1641102296
 20
1140.1570497857
 30
0.0
 11
1172.6788288553
 21
1140.1570497857
 31
0.0
  0
ARC
  5
159
330
1F
100
AcDbEntity
  8
0
  6
Continuous
 62
     7
370
    25
100
AcDbCircle
 10
1174.8001491989
 20
1142.2783701292
 30
0.0
 40
3.000000000000185
100
AcDbArc
 50
225.0
 51
45.0
  0
LINE
  5
15A
330
1F
100
AcDbEntity
  8
0
  6
Continuous
 62
     7
370
    25
100
AcDbLine
 10
1176.9214695424
 20
1144.3996904728
 30
0.0
 11
1176.9214695424
 21
1150.1570497857
 31
0.0
  0
LINE
  5
15B
330
1F
100
AcDbEntity
  8
0
  6
Continuous
 62
     7
370
    25
100
AcDbLine
 10
1216.9214695424
 20
1110.1570497857
 30
0.0
 11
1211.1641102296
 21
1110.1570497857
 31
0.0
  0
ARC
  5
15C
330
1F
100
AcDbEntity
  8
0
  6
Continuous
 62
     7
370
    25
100
AcDbCircle
 10
1209.042789886
 20
1108.0357294421
 30
0.0
 40
3.000000000000024
100
AcDbArc
 50
45.0
 51
225.0
  0
LINE
  5
15D
330
1F
100
AcDbEntity
  8
0
  6
Continuous
 62
     7
370
    25
100
AcDbLine
 10
1206.9214695424
 20
1105.9144090985
 30
0.0
 11
1206.9214695424
 21
1074.3996904728
 31
0.0
  0
ARC
  5
15E
330
1F
100
AcDbEntity
  8
0
  6
Continuous
 62
     7
370
    25
100
AcDbCircle
 10
1209.042789886
 20
1072.2783701292
 30
0.0
 40
3.000000000000024
100
AcDbArc
 50
135.0
 51
315.0
  0
LINE
  5
15F
330
1F
100
AcDbEntity
  8
0
  6
Continuous
 62
     7
370
    25
100
AcDbLine
 10
1216.9214695424
 20
1070.1570497857
 30
0.0
 11
1211.1641102296
 21
1070.1570497857
 31
0.0
  0
LINE
  5
160
330
1F
100
AcDbEntity
  8
0
  6
Continuous
 62
     7
370
    25
100
AcDbLine
 10
1216.9214695424
 20
1020.1570497857
 30
0.0
 11
1211.1641102296
 21
1020.1570497857
 31
0.0
  0
ARC
  5
161
330
1F
100
AcDbEntity
  8
0
  6
Continuous
 62
     7
370
    25
100
AcDbCircle
 10
1209.042789886
 20
1018.0357294421
 30
0.0
 40
3.000000000000185
100
AcDbArc
 50
45.0
 51
225.0
  0
LINE
  5
162
330
1F
100
AcDbEntity
  8
0
  6
Continuous
 62
     7
370
    25
100
AcDbLine
 10
1206.9214695424
 20
1015.9144090985
 30
0.0
 11
1206.9214695424
 21
984.3996904728
 31
0.0
  0
ARC
  5
163
330
1F
100
AcDbEntity
  8
0
  6
Continuous
 62
     7
370
    25
100
AcDbCircle
 10
1209.042789886
 20
982.2783701292
 30
0.0
 40
3.000000000000185
100
AcDbArc
 50
135.0
 51
315.0
  0
LINE
  5
164
330
1F
100
AcDbEntity
  8
0
  6
Continuous
 62
     7
370
    25
100
AcDbLine
 10
1216.9214695424
 20
980.1570497857
 30
0.0
 11
1211.1641102296
 21
980.1570497857
 31
0.0
  0
LINE
  5
165
330
1F
100
AcDbEntity
  8
0
  6
Continuous
 62
     7
370
    25
100
AcDbLine
 10
1216.9214695424
 20
930.1570497857
 30
0.0
 11
1211.1641102296
 21
930.1570497857
 31
0.0
  0
ARC
  5
166
330
1F
100
AcDbEntity
  8
0
  6
Continuous
 62
     7
370
    25
100
AcDbCircle
 10
1209.042789886
 20
928.0357294421
 30
0.0
 40
3.000000000000105
100
AcDbArc
 50
45.0
 51
225.0
  0
LINE
  5
167
330
1F
100
AcDbEntity
  8
0
  6
Continuous
 62
     7
370
    25
100
AcDbLine
 10
1206.9214695424
 20
925.9144090985
 30
0.0
 11
1206.9214695424
 21
894.3996904728
 31
0.0
  0
ARC
  5
168
330
1F
100
AcDbEntity
  8
0
  6
Continuous
 62
     7
370
    25
100
AcDbCircle
 10
1209.042789886
 20
892.2783701292
 30
0.0
 40
3.000000000000105
100
AcDbArc
 50
135.0
 51
315.0
  0
LINE
  5
169
330
1F
100
AcDbEntity
  8
0
  6
Continuous
 62
     7
370
    25
100
AcDbLine
 10
1216.9214695424
 20
890.1570497857
 30
0.0
 11
1211.1641102296
 21
890.1570497857
 31
0.0
  0
LINE
  5
16A
330
1F
100
AcDbEntity
  8
0
  6
Continuous
 62
     7
370
    25
100
AcDbLine
 10
1216.9214695424
 20
840.1570497857
 30
0.0
 11
1211.1641102296
 21
840.1570497857
 31
0.0
  0
ARC
  5
16B
330
1F
100
AcDbEntity
  8
0
  6
Continuous
 62
     7
370
    25
100
AcDbCircle
 10
1209.042789886
 20
838.0357294421
 30
0.0
 40
3.000000000000024
100
AcDbArc
 50
45.0
 51
225.0
  0
LINE
  5
16C
330
1F
100
AcDbEntity
  8
0
  6
Continuous
 62
     7
370
    25
100
AcDbLine
 10
1206.9214695424
 20
835.9144090985
 30
0.0
 11
1206.9214695424
 21
804.3996904728
 31
0.0
  0
ARC
  5
16D
330
1F
100
AcDbEntity
  8
0
  6
Continuous
 62
     7
370
    25
100
AcDbCircle
 10
1209.042789886
 20
802.2783701292
 30
0.0
 40
3.000000000000105
100
AcDbArc
 50
135.0
 51
315.0
  0
LINE
  5
16E
330
1F
100
AcDbEntity
  8
0
  6
Continuous
 62
     7
370
    25
100
AcDbLine
 10
1216.9214695424
 20
800.1570497857
 30
0.0
 11
1211.1641102296
 21
800.1570497857
 31
0.0
  0
LINE
  5
16F
330
1F
100
AcDbEntity
  8
0
  6
Continuous
 62
     7
370
    25
100
AcDbLine
 10
686.9214695424
 20
1150.1570497857
 30
0.0
 11
686.9214695424
 21
1144.3996904728
 31
0.0
  0
ARC
  5
170
330
1F
100
AcDbEntity
  8
0
  6
Continuous
 62
     7
370
    25
100
AcDbCircle
 10
689.042789886
 20
1142.2783701292
 30
0.0
 40
3.000000000000105
100
AcDbArc
 50
135.0
 51
315.0
  0
LINE
  5
171
330
1F
100
AcDbEntity
  8
0
  6
Continuous
 62
     7
370
    25
100
AcDbLine
 10
691.1641102296
 20
1140.1570497857
 30
0.0
 11
722.6788288553
 21
1140.1570497857
 31
0.0
  0
ARC
  5
172
330
1F
100
AcDbEntity
  8
0
  6
Continuous
 62
     7
370
    25
100
AcDbCircle
 10
724.8001491989
 20
1142.2783701292
 30
0.0
 40
3.000000000000024
100
AcDbArc
 50
225.0
 51
45.0
  0
LINE
  5
173
330
1F
100
AcDbEntity
  8
0
  6
Continuous
 62
     7
370
    25
100
AcDbLine
 10
726.9214695424
 20
1144.3996904728
 30
0.0
 11
726.9214695424
 21
1150.1570497857
 31
0.0
  0
LINE
  5
174
330
1F
100
AcDbEntity
  8
0
  6
Continuous
 62
     7
370
    25
100
AcDbLine
 10
776.9214695424
 20
1150.1570497857
 30
0.0
 11
776.9214695424
 21
1144.3996904728
 31
0.0
  0
ARC
  5
175
330
1F
100
AcDbEntity
  8
0
  6
Continuous
 62
     7
370
    25
100
AcDbCircle
 10
779.042789886
 20
1142.2783701292
 30
0.0
 40
3.000000000000105
100
AcDbArc
 50
135.0
 51
315.0
  0
LINE
  5
176
330
1F
100
AcDbEntity
  8
0
  6
Continuous
 62
     7
370
    25
100
AcDbLine
 10
781.1641102296
 20
1140.1570497857
 30
0.0
 11
812.6788288553
 21
1140.1570497857
 31
0.0
  0
ARC
  5
177
330
1F
100
AcDbEntity
  8
0
  6
Continuous
 62
     7
370
    25
100
AcDbCircle
 10
814.8001491989
 20
1142.2783701292
 30
0.0
 40
3.000000000000185
100
AcDbArc
 50
225.0
 51
45.0
  0
LINE
  5
178
330
1F
100
AcDbEntity
  8
0
  6
Continuous
 62
     7
370
    25
100
AcDbLine
 10
816.9214695424
 20
1144.3996904728
 30
0.0
 11
816.9214695424
 21
1150.1570497857
 31
0.0
  0
LINE
  5
179
330
1F
100
AcDbEntity
  8
0
  6
Continuous
 62
     7
370
    25
100
AcDbLine
 10
866.9214695424
 20
1150.1570497857
 30
0.0
 11
866.9214695424
 21
1144.3996904728
 31
0.0
  0
ARC
  5
17A
330
1F
100
AcDbEntity
  8
0
  6
Continuous
 62
     7
370
    25
100
AcDbCircle
 10
869.042789886
 20
1142.2783701292
 30
0.0
 40
3.000000000000185
100
AcDbArc
 50
135.0
 51
315.0
  0
LINE
  5
17B
330
1F
100
AcDbEntity
  8
0
  6
Continuous
 62
     7
370
    25
100
AcDbLine
 10
871.1641102296
 20
1140.1570497857
 30
0.0
 11
902.6788288553
 21
1140.1570497857
 31
0.0
  0
ARC
  5
17C
330
1F
100
AcDbEntity
  8
0
  6
Continuous
 62
     7
370
    25
100
AcDbCircle
 10
904.8001491989
 20
1142.2783701292
 30
0.0
 40
3.000000000000105
100
AcDbArc
 50
225.0
 51
45.0
  0
LINE
  5
17D
330
1F
100
AcDbEntity
  8
0
  6
Continuous
 62
     7
370
    25
100
AcDbLine
 10
906.9214695424
 20
1144.3996904728
 30
0.0
 11
906.9214695424
 21
1150.1570497857
 31
0.0
  0
LINE
  5
17E
330
1F
100
AcDbEntity
  8
0
  6
Continuous
 62
     7
370
    25
100
AcDbLine
 10
956.9214695424
 20
1150.1570497857
 30
0.0
 11
956.9214695424
 21
1144.3996904728
 31
0.0
  0
ARC
  5
17F
330
1F
100
AcDbEntity
  8
0
  6
Continuous
 62
     7
370
    25
100
AcDbCircle
 10
959.042789886
 20
1142.2783701292
 30
0.0
 40
3.000000000000185
100
AcDbArc
 50
135.0
 51
315.0
  0
LINE
  5
180
330
1F
100
AcDbEntity
  8
0
  6
Continuous
 62
     7
370
    25
100
AcDbLine
 10
961.1641102296
 20
1140.1570497857
 30
0.0
 11
992.6788288553
 21
1140.1570497857
 31
0.0
  0
ARC
  5
181
330
1F
100
AcDbEntity
  8
0
  6
Continuous
 62
     7
370
    25
100
AcDbCircle
 10
994.8001491989
 20
1142.2783701292
 30
0.0
 40
3.000000000000185
100
AcDbArc
 50
225.0
 51
45.0
  0
LINE
  5
182
330
1F
100
AcDbEntity
  8
0
  6
Continuous
 62
     7
370
    25
100
AcDbLine
 10
996.9214695424
 20
1144.3996904728
 30
0.0
 11
996.9214695424
 21
1150.1570497857
 31
0.0
  0
LINE
  5
183
330
1F
100
AcDbEntity
  8
0
  6
Continuous
 62
     7
370
    25
100
AcDbLine
 10
1046.9214695424
 20
1150.1570497857
 30
0.0
 11
1046.9214695424
 21
1144.3996904728
 31
0.0
  0
ARC
  5
184
330
1F
100
AcDbEntity
  8
0
  6
Continuous
 62
     7
370
    25
100
AcDbCircle
 10
1049.042789886
 20
1142.2783701292
 30
0.0
 40
3.000000000000185
100
AcDbArc
 50
135.0
 51
315.0
  0
LINE
  5
185
330
1F
100
AcDbEntity
  8
0
  6
Continuous
 62
     7
370
    25
100
AcDbLine
 10
1051.1641102296
 20
1140.1570497857
 30
0.0
 11
1082.6788288553
 21
1140.1570497857
 31
0.0
  0
ARC
  5
186
330
1F
100
AcDbEntity
  8
0
  6
Continuous
 62
     7
370
    25
100
AcDbCircle
 10
1084.8001491989
 20
1142.2783701292
 30
0.0
 40
3.000000000000024
100
AcDbArc
 50
225.0
 51
45.0
  0
LINE
  5
187
330
1F
100
AcDbEntity
  8
0
  6
Continuous
 62
     7
370
    25
100
AcDbLine
 10
1205.76276502
 20
765.7983298073
 30
0.0
 11
1206.103363903
 21
764.3224013144
 31
0.0
  0
ARC
  5
188
330
1F
100
AcDbEntity
  8
0
  6
Continuous
 62
     7
370
    25
100
AcDbCircle
 10
1203.218770108
 20
767.3883266273
 30
0.0
 40
2.999999999999999
100
AcDbArc
 50
327.9946167919
 51
147.9946167919
  0
LINE
  5
189
330
1F
100
AcDbEntity
  8
0
  6
Continuous
 62
     7
370
    25
100
AcDbLine
 10
1182.0111083259
 20
764.6713234004
 30
0.0
 11
1200.6747751959
 21
768.9783234473
 31
0.0
  0
ARC
  5
18A
330
1F
100
AcDbEntity
  8
0
  6
Continuous
 62
     7
370
    25
100
AcDbCircle
 10
1180.4211115059
 20
762.1273284884
 30
0.0
 40
2.999999999999939
100
AcDbArc
 50
57.9946167919
 51
237.9946167919
  0
LINE
  5
18B
330
1F
100
AcDbEntity
  8
0
  6
Continuous
 62
     7
370
    25
100
AcDbLine
 10
1179.1717135688
 20
758.1074050835
 30
0.0
 11
1178.8311146859
 21
759.5833335764
 31
0.0
  0
ARC
  5
18C
330
1F
100
AcDbEntity
  8
0
  6
Continuous
 62
     7
370
    25
100
AcDbCircle
 10
1181.7157084809
 20
756.5174082635
 30
0.0
 40
2.999999999999818
100
AcDbArc
 50
147.9946167919
 51
327.9946167919
  0
LINE
  5
18D
330
1F
100
AcDbEntity
  8
0
  6
Continuous
 62
     7
370
    25
100
AcDbLine
 10
1202.9233702629
 20
759.2344114904
 30
0.0
 11
1184.2597033929
 21
754.9274114434
 31
0.0
  0
ARC
  5
18E
330
1F
100
AcDbEntity
  8
0
  6
Continuous
 62
     7
370
    25
100
AcDbCircle
 10
1204.5133670829
 20
761.7784064024
 30
0.0
 40
2.999999999999939
100
AcDbArc
 50
237.9946167919
 51
57.9946167919
  0
LINE
  5
18F
330
1F
100
AcDbEntity
  8
0
  6
Continuous
 62
     7
370
    25
100
AcDbLine
 10
1140.4546570139
 20
750.6951306891
 30
0.0
 11
1140.7811908007
 21
749.2801509461
 31
0.0
  0
ARC
  5
190
330
1F
100
AcDbEntity
  8
0
  6
Continuous
 62
     7
370
    25
100
AcDbCircle
 10
1137.9345599964
 20
752.3227396785
 30
0.0
 40
2.999999999999999
100
AcDbArc
 50
327.1435347138
 51
147.9946167919
  0
LINE
  5
191
330
1F
100
AcDbEntity
  8
0
  6
Continuous
 62
     7
370
    25
100
AcDbLine
 10
1116.7268982143
 20
749.6057364516
 30
0.0
 11
1135.3905650844
 21
753.9127364985
 31
0.0
  0
ARC
  5
192
330
1F
100
AcDbEntity
  8
0
  6
Continuous
 62
     7
370
    25
100
AcDbCircle
 10
1115.1369013943
 20
747.0617415396
 30
0.0
 40
3.00000000000006
100
AcDbArc
 50
57.9946167919
 51
147.9946167919
  0
LINE
  5
193
330
1F
100
AcDbEntity
  8
0
  6
Continuous
 62
     7
370
    25
100
AcDbLine
 10
1112.2546400137
 20
747.8939490461
 30
0.0
 11
1112.1057108845
 21
748.5393086062
 31
0.0
  0
ARC
  5
194
330
1F
100
AcDbEntity
  8
0
  6
Continuous
 62
     7
370
    25
100
AcDbCircle
 10
1115.1369013943
 20
747.0617415396
 30
0.0
 40
3.000000000000136
100
AcDbArc
 50
163.8947610896
 51
222.0944724943
  0
ARC
  5
195
330
1F
100
AcDbEntity
  8
0
  6
Continuous
 62
     7
370
    25
100
AcDbCircle
 10
1116.4314983693
 20
741.4518213146
 30
0.0
 40
2.999999999999665
100
AcDbArc
 50
163.8947610896
 51
222.0944724943
  0
LINE
  5
196
330
1F
100
AcDbEntity
  8
0
  6
Continuous
 62
     7
370
    25
100
AcDbLine
 10
1114.8415015493
 20
738.9078264026
 30
0.0
 11
1114.3543059515
 21
738.7953966493
 31
0.0
  0
ARC
  5
197
330
1F
100
AcDbEntity
  8
0
  6
Continuous
 62
     7
370
    25
100
AcDbCircle
 10
1116.4314983693
 20
741.4518213146
 30
0.0
 40
2.999999999999782
100
AcDbArc
 50
237.9946167919
 51
327.9946167919
  0
ARC
  5
198
330
1F
100
AcDbEntity
  8
0
  6
Continuous
 62
     7
370
    25
100
AcDbCircle
 10
1139.2291569714
 20
746.7128194536
 30
0.0
 40
3.000000000000095
100
AcDbArc
 50
237.9946167919
 51
58.84569887
  0
ARC
  5
199
330
1F
100
AcDbEntity
  8
0
  6
Continuous
 62
     7
370
    25
100
AcDbCircle
 10
1082.7455649872
 20
866.3326263625
 30
0.0
 40
3.000000000000204
100
AcDbArc
 50
327.9946167919
 51
147.9946167919
  0
ARC
  5
19A
330
1F
100
AcDbEntity
  8
0
  6
Continuous
 62
     7
370
    25
100
AcDbCircle
 10
1095.7409310047
 20
784.4151223371
 30
0.0
 40
3.00000000000006
100
AcDbArc
 50
147.9946167919
 51
327.9946167919
  0
ARC
  5
19B
330
1F
100
AcDbEntity
  8
0
  6
Continuous
 62
     7
370
    25
100
AcDbCircle
 10
1101.3508512296
 20
785.7097193121
 30
0.0
 40
3.000000000000156
100
AcDbArc
 50
237.9946167919
 51
57.9946167919
  0
ARC
  5
19C
330
1F
100
AcDbEntity
  8
0
  6
Continuous
 62
     7
370
    25
100
AcDbCircle
 10
1053.4598469156
 20
916.6288614267
 30
0.0
 40
2.999999999999986
100
AcDbArc
 50
211.7573777536
 51
31.7573777536
  0
ARC
  5
19D
330
1F
100
AcDbEntity
  8
0
  6
Continuous
 62
     7
370
    25
100
AcDbCircle
 10
1054.7787142925
 20
922.2331254372
 30
0.0
 40
3.00000000000006
100
AcDbArc
 50
301.7573777536
 51
121.7573777536
  0
ARC
  5
19E
330
1F
100
AcDbEntity
  8
0
  6
Continuous
 62
     7
370
    25
100
AcDbCircle
 10
1009.6008777262
 20
932.8649541121
 30
0.0
 40
2.999999999999986
100
AcDbArc
 50
31.7573777536
 51
211.7573777536
  0
ARC
  5
19F
330
1F
100
AcDbEntity
  8
0
  6
Continuous
 62
     7
370
    25
100
AcDbCircle
 10
1008.2820103493
 20
927.2606901016
 30
0.0
 40
2.999999999999986
100
AcDbArc
 50
121.7573777536
 51
301.7573777536
  0
ARC
  5
1A0
330
1F
100
AcDbEntity
  8
0
  6
Continuous
 62
     7
370
    25
100
AcDbCircle
 10
582.4379781845
 20
1022.8666040258
 30
0.0
 40
3.00000000000004
100
AcDbArc
 50
200.772254682
 51
20.772254682
  0
ARC
  5
1A1
330
1F
100
AcDbEntity
  8
0
  6
Continuous
 62
     7
370
    25
100
AcDbCircle
 10
613.5261224942
 20
1091.9513691585
 30
0.0
 40
3.000000000000083
100
AcDbArc
 50
290.7722546821
 51
110.7722546821
  0
ARC
  5
1A2
330
1F
100
AcDbEntity
  8
0
  6
Continuous
 62
     7
370
    25
100
AcDbCircle
 10
608.2758627238
 20
1094.3139860552
 30
0.0
 40
3.000000000000029
100
AcDbArc
 50
20.772254682
 51
200.7722546821
  0
ARC
  5
1A3
330
1F
100
AcDbEntity
  8
0
  6
Continuous
 62
     7
370
    25
100
AcDbCircle
 10
577.1877184141
 20
1025.2292209225
 30
0.0
 40
3.000000000000117
100
AcDbArc
 50
110.772254682
 51
290.772254682
  0
ARC
  5
1A4
330
1F
100
AcDbEntity
  8
0
  6
Continuous
 62
     7
370
    25
100
AcDbCircle
 10
617.6677750936
 20
955.2020207434
 30
0.0
 40
3.00000000000004
100
AcDbArc
 50
200.772254682
 51
20.772254682
  0
ARC
  5
1A5
330
1F
100
AcDbEntity
  8
0
  6
Continuous
 62
     7
370
    25
100
AcDbCircle
 10
620.0303919903
 20
960.4522805139
 30
0.0
 40
3.00000000000001
100
AcDbArc
 50
290.772254682
 51
110.772254682
  0
ARC
  5
1A6
330
1F
100
AcDbEntity
  8
0
  6
Continuous
 62
     7
370
    25
100
AcDbCircle
 10
587.519183291
 20
975.0823244285
 30
0.0
 40
2.999999999999988
100
AcDbArc
 50
20.7722546821
 51
200.7722546821
  0
ARC
  5
1A7
330
1F
100
AcDbEntity
  8
0
  6
Continuous
 62
     7
370
    25
100
AcDbCircle
 10
585.1565663943
 20
969.8320646581
 30
0.0
 40
3.0
100
AcDbArc
 50
110.772254682
 51
290.772254682
  0
ARC
  5
1A8
330
1F
100
AcDbEntity
  8
0
  6
Continuous
 62
     7
370
    25
100
AcDbCircle
 10
688.530215204
 20
1009.1150882807
 30
0.0
 40
3.000000000000037
100
AcDbArc
 50
31.7573777536
 51
211.7573777536
  0
ARC
  5
1A9
330
1F
100
AcDbEntity
  8
0
  6
Continuous
 62
     7
370
    25
100
AcDbCircle
 10
687.0571183516
 20
1002.8554568588
 30
0.0
 40
3.000000000000179
100
AcDbArc
 50
121.7573777536
 51
301.7573777536
  0
ARC
  5
1AA
330
1F
100
AcDbEntity
  8
0
  6
Continuous
 62
     7
370
    25
100
AcDbCircle
 10
731.5977329073
 20
992.3735874507
 30
0.0
 40
3.000000000000083
100
AcDbArc
 50
211.7573777536
 51
31.7573777536
  0
ARC
  5
1AB
330
1F
100
AcDbEntity
  8
0
  6
Continuous
 62
     7
370
    25
100
AcDbCircle
 10
733.0708297597
 20
998.6332188726
 30
0.0
 40
2.999999999999986
100
AcDbArc
 50
301.7573777536
 51
121.7573777536
  0
ARC
  5
1AC
330
1F
100
AcDbEntity
  8
0
  6
Continuous
 62
     7
370
    25
100
AcDbCircle
 10
651.2078720084
 20
956.3714683064
 30
0.0
 40
3.00000000000004
100
AcDbArc
 50
200.772254682
 51
20.772254682
  0
ARC
  5
1AD
330
1F
100
AcDbEntity
  8
0
  6
Continuous
 62
     7
370
    25
100
AcDbCircle
 10
665.8814292249
 20
988.9793732321
 30
0.0
 40
3.000000000000146
100
AcDbArc
 50
290.7722546821
 51
110.772254682
  0
ARC
  5
1AE
330
1F
100
AcDbEntity
  8
0
  6
Continuous
 62
     7
370
    25
100
AcDbCircle
 10
660.6311694545
 20
991.3419901288
 30
0.0
 40
3.00000000000008
100
AcDbArc
 50
20.772254682
 51
200.772254682
  0
ARC
  5
1AF
330
1F
100
AcDbEntity
  8
0
  6
Continuous
 62
     7
370
    25
100
AcDbCircle
 10
645.9576122379
 20
958.7340852031
 30
0.0
 40
3.000000000000065
100
AcDbArc
 50
110.772254682
 51
290.772254682
  0
ARC
  5
1B0
330
1F
100
AcDbEntity
  8
0
  6
Continuous
 62
     7
370
    25
100
AcDbCircle
 10
1077.1356447622
 20
865.0380293875
 30
0.0
 40
3.00000000000006
100
AcDbArc
 50
57.9946167919
 51
237.9946167919
  0
LINE
  5
1B1
330
1F
100
AcDbEntity
  8
0
  6
Continuous
 62
     7
370
    25
100
AcDbLine
 10
1216.9214695424
 20
1150.1570497857
 30
0.0
 11
1176.9214695424
 21
1150.1570497857
 31
0.0
  0
LINE
  5
1B2
330
1F
100
AcDbEntity
  8
0
  6
Continuous
 62
     7
370
    25
100
AcDbLine
 10
616.9214695424
 20
1150.1570497857
 30
0.0
 11
549.6595987284
 21
993.2126845529
 31
0.0
  0
ARC
  5
1B3
330
1F
100
AcDbEntity
  8
0
  6
Continuous
 62
     7
370
    25
100
AcDbCircle
 10
568.0424993288
 20
985.3342985813
 30
0.0
 40
20.00000000000001
100
AcDbArc
 50
156.8014094864
 51
245.772254682
  0
LINE
  5
1B4
330
1F
100
AcDbEntity
  8
0
  6
Continuous
 62
     7
370
    25
100
AcDbLine
 10
559.8352057822
 20
967.0958684778
 30
0.0
 11
633.9918464723
 21
933.7253801672
 31
0.0
  0
ARC
  5
1B5
330
1F
100
AcDbEntity
  8
0
  6
Continuous
 62
     7
370
    25
100
AcDbCircle
 10
642.1991400188
 20
951.9638102707
 30
0.0
 40
20.00000000000004
100
AcDbArc
 50
245.772254682
 51
292.1683438799
  0
ARC
  5
1B6
330
1F
100
AcDbEntity
  8
0
  6
Continuous
 62
     7
370
    25
100
AcDbCircle
 10
800.6773966328
 20
563.0105454939
 30
0.0
 40
400.0000000000001
100
AcDbArc
 50
51.1912746984
 51
112.1683438799
  0
ARC
  5
1B7
330
1F
100
AcDbEntity
  8
0
  6
Continuous
 62
     7
370
    25
100
AcDbCircle
 10
1038.8319412249
 20
859.1227081791
 30
0.0
 40
19.99999999999992
100
AcDbArc
 50
12.094757077
 51
51.1912746984
  0
LINE
  5
1B8
330
1F
100
AcDbEntity
  8
0
  6
Continuous
 62
     7
370
    25
100
AcDbLine
 10
1082.6645502274
 20
750.0226732558
 30
0.0
 11
1058.3879895064
 21
863.3132899537
 31
0.0
  0
ARC
  5
1B9
330
1F
100
AcDbEntity
  8
0
  6
Continuous
 62
     7
370
    25
100
AcDbCircle
 10
1102.220598509
 20
754.2132550304
 30
0.0
 40
20.00000000000009
100
AcDbArc
 50
192.094757077
 51
282.9946167919
  0
LINE
  5
1BA
330
1F
100
AcDbEntity
  8
0
  6
Continuous
 62
     7
370
    25
100
AcDbLine
 10
1216.9214695424
 20
760.1570497857
 30
0.0
 11
1106.7177886429
 21
734.7254311165
 31
0.0
  0
LINE
  5
1BB
330
1F
100
AcDbEntity
  8
0
  6
Continuous
 62
     7
370
    25
100
AcDbLine
 10
1216.9214695424
 20
1110.1570497857
 30
0.0
 11
1216.9214695424
 21
1150.1570497857
 31
0.0
  0
LINE
  5
1BC
330
1F
100
AcDbEntity
  8
0
  6
Continuous
 62
     7
370
    25
100
AcDbLine
 10
1216.9214695424
 20
1020.1570497857
 30
0.0
 11
1216.9214695424
 21
1070.1570497857
 31
0.0
  0
LINE
  5
1BD
330
1F
100
AcDbEntity
  8
0
  6
Continuous
 62
     7
370
    25
100
AcDbLine
 10
1216.9214695424
 20
760.1570497857
 30
0.0
 11
1216.9214695424
 21
800.1570497857
 31
0.0
  0
LINE
  5
1BE
330
1F
100
AcDbEntity
  8
0
  6
Continuous
 62
     7
370
    25
100
AcDbLine
 10
1216.9214695424
 20
840.1570497857
 30
0.0
 11
1216.9214695424
 21
890.1570497857
 31
0.0
  0
LINE
  5
1BF
330
1F
100
AcDbEntity
  8
0
  6
Continuous
 62
     7
370
    25
100
AcDbLine
 10
1216.9214695424
 20
930.1570497857
 30
0.0
 11
1216.9214695424
 21
980.1570497857
 31
0.0
  0
LINE
  5
1C0
330
1F
100
AcDbEntity
  8
0
  6
Continuous
 62
     7
370
    25
100
AcDbLine
 10
1136.9214695424
 20
1150.1570497857
 30
0.0
 11
1086.9214695424
 21
1150.1570497857
 31
0.0
  0
LINE
  5
1C1
330
1F
100
AcDbEntity
  8
0
  6
Continuous
 62
     7
370
    25
100
AcDbLine
 10
686.9214695424
 20
1150.1570497857
 30
0.0
 11
616.9214695424
 21
1150.1570497857
 31
0.0
  0
LINE
  5
1C2
330
1F
100
AcDbEntity
  8
0
  6
Continuous
 62
     7
370
    25
100
AcDbLine
 10
776.9214695424
 20
1150.1570497857
 30
0.0
 11
726.9214695424
 21
1150.1570497857
 31
0.0
  0
LINE
  5
1C3
330
1F
100
AcDbEntity
  8
0
  6
Continuous
 62
     7
370
    25
100
AcDbLine
 10
866.9214695424
 20
1150.1570497857
 30
0.0
 11
816.9214695424
 21
1150.1570497857
 31
0.0
  0
LINE
  5
1C4
330
1F
100
AcDbEntity
  8
0
  6
Continuous
 62
     7
370
    25
100
AcDbLine
 10
956.9214695424
 20
1150.1570497857
 30
0.0
 11
906.9214695424
 21
1150.1570497857
 31
0.0
  0
LINE
  5
1C5
330
1F
100
AcDbEntity
  8
0
  6
Continuous
 62
     7
370
    25
100
AcDbLine
 10
1046.9214695424
 20
1150.1570497857
 30
0.0
 11
996.9214695424
 21
1150.1570497857
 31
0.0
  0
LINE
  5
1C6
330
1F
100
AcDbEntity
  8
0
  6
Continuous
 62
     7
370
    25
100
AcDbLine
 10
1137.6391601514
 20
744.1688245416
 30
0.0
 11
1118.9754932813
 21
739.8618244946
 31
0.0
  0
LINE
  5
1C7
330
1F
100
AcDbEntity
  8
0
  6
Continuous
 62
     7
370
    25
100
AcDbLine
 10
1113.5492369887
 20
742.2840288212
 30
0.0
 11
1112.9107798472
 21
745.0506764343
 31
0.0
  0
LINE
  5
1C8
330
1F
100
AcDbEntity
  8
0
  6
Continuous
 62
     7
370
    25
100
AcDbLine
 10
1114.3543059515
 20
738.7953966493
 30
0.0
 11
1114.2053768222
 21
739.4407562094
 31
0.0
  0
LINE
  5
1C9
330
1F
100
AcDbEntity
  8
0
  6
Continuous
 62
     7
370
    25
100
AcDbLine
 10
1112.1057108845
 20
748.5393086062
 30
0.0
 11
1112.5929064823
 21
748.6517383596
 31
0.0
  0
LINE
  5
1CA
330
1F
100
AcDbEntity
  8
0
  6
Continuous
 62
     7
370
    25
100
AcDbLine
 10
1093.1969360926
 20
786.0051191571
 30
0.0
 11
1075.5456479422
 21
862.4940344755
 31
0.0
  0
LINE
  5
1CB
330
1F
100
AcDbEntity
  8
0
  6
Continuous
 62
     7
370
    25
100
AcDbLine
 10
1078.7256415823
 20
867.5820242995
 30
0.0
 11
1080.2015700751
 21
867.9226231825
 31
0.0
  0
LINE
  5
1CC
330
1F
100
AcDbEntity
  8
0
  6
Continuous
 62
     7
370
    25
100
AcDbLine
 10
1099.7608544096
 20
783.1657244001
 30
0.0
 11
1098.2849259167
 21
782.8251255171
 31
0.0
  0
LINE
  5
1CD
330
1F
100
AcDbEntity
  8
0
  6
Continuous
 62
     7
370
    25
100
AcDbLine
 10
1085.2895598992
 20
864.7426295425
 30
0.0
 11
1102.9408480496
 21
788.2537142241
 31
0.0
  0
LINE
  5
1CE
330
1F
100
AcDbEntity
  8
0
  6
Continuous
 62
     7
370
    25
100
AcDbLine
 10
1056.35768454
 20
919.6822720589
 30
0.0
 11
1056.0107002939
 21
918.2078316741
 31
0.0
  0
LINE
  5
1CF
330
1F
100
AcDbEntity
  8
0
  6
Continuous
 62
     7
370
    25
100
AcDbLine
 10
1012.1517311045
 20
934.4439243595
 30
0.0
 11
1053.1997440451
 21
924.7839788155
 31
0.0
  0
LINE
  5
1D0
330
1F
100
AcDbEntity
  8
0
  6
Continuous
 62
     7
370
    25
100
AcDbLine
 10
1050.9089935373
 20
915.0498911792
 30
0.0
 11
1009.8609805968
 21
924.7098367233
 31
0.0
  0
LINE
  5
1D1
330
1F
100
AcDbEntity
  8
0
  6
Continuous
 62
     7
370
    25
100
AcDbLine
 10
1006.7030401018
 20
929.8115434799
 30
0.0
 11
1007.0500243479
 21
931.2859838646
 31
0.0
  0
LINE
  5
1D2
330
1F
100
AcDbEntity
  8
0
  6
Continuous
 62
     7
370
    25
100
AcDbLine
 10
614.5900851966
 20
1089.1463765795
 30
0.0
 11
585.2429707635
 21
1023.9305667282
 31
0.0
  0
LINE
  5
1D3
330
1F
100
AcDbEntity
  8
0
  6
Continuous
 62
     7
370
    25
100
AcDbLine
 10
611.0808553028
 20
1095.3779487575
 30
0.0
 11
612.4621597919
 21
1094.7563617374
 31
0.0
  0
LINE
  5
1D4
330
1F
100
AcDbEntity
  8
0
  6
Continuous
 62
     7
370
    25
100
AcDbLine
 10
579.6329856056
 20
1021.8026413234
 30
0.0
 11
578.2516811165
 21
1022.4242283435
 31
0.0
  0
LINE
  5
1D5
330
1F
100
AcDbEntity
  8
0
  6
Continuous
 62
     7
370
    25
100
AcDbLine
 10
576.1237557117
 20
1028.0342135014
 30
0.0
 11
605.4708701449
 21
1093.2500233528
 31
0.0
  0
LINE
  5
1D6
330
1F
100
AcDbEntity
  8
0
  6
Continuous
 62
     7
370
    25
100
AcDbLine
 10
621.0943546926
 20
957.6472879349
 30
0.0
 11
620.4727676725
 21
956.2659834458
 31
0.0
  0
LINE
  5
1D7
330
1F
100
AcDbEntity
  8
0
  6
Continuous
 62
     7
370
    25
100
AcDbLine
 10
590.32417587
 20
976.1462871309
 30
0.0
 11
618.9664292879
 21
963.2572730928
 31
0.0
  0
LINE
  5
1D8
330
1F
100
AcDbEntity
  8
0
  6
Continuous
 62
     7
370
    25
100
AcDbLine
 10
614.8627825146
 20
954.1380580411
 30
0.0
 11
586.2205290967
 21
967.0270720792
 31
0.0
  0
LINE
  5
1D9
330
1F
100
AcDbEntity
  8
0
  6
Continuous
 62
     7
370
    25
100
AcDbLine
 10
584.092603692
 20
972.6370572371
 30
0.0
 11
584.7141907121
 21
974.0183617262
 31
0.0
  0
LINE
  5
1DA
330
1F
100
AcDbEntity
  8
0
  6
Continuous
 62
     7
370
    25
100
AcDbLine
 10
729.046879529
 20
990.7946172032
 30
0.0
 11
688.6360885991
 21
1000.3046034805
 31
0.0
  0
LINE
  5
1DB
330
1F
100
AcDbEntity
  8
0
  6
Continuous
 62
     7
370
    25
100
AcDbLine
 10
685.4781481042
 20
1005.4063102371
 30
0.0
 11
685.9793618257
 21
1007.5361180333
 31
0.0
  0
LINE
  5
1DC
330
1F
100
AcDbEntity
  8
0
  6
Continuous
 62
     7
370
    25
100
AcDbLine
 10
691.0810685824
 20
1010.6940585282
 30
0.0
 11
731.4918595123
 21
1001.1840722509
 31
0.0
  0
LINE
  5
1DD
330
1F
100
AcDbEntity
  8
0
  6
Continuous
 62
     7
370
    25
100
AcDbLine
 10
734.6498000072
 20
996.0823654943
 30
0.0
 11
734.1485862856
 21
993.9525576982
 31
0.0
  0
LINE
  5
1DE
330
1F
100
AcDbEntity
  8
0
  6
Continuous
 62
     7
370
    25
100
AcDbLine
 10
666.9453919273
 20
986.1743806531
 30
0.0
 11
654.0128645873
 21
957.4354310088
 31
0.0
  0
LINE
  5
1DF
330
1F
100
AcDbEntity
  8
0
  6
Continuous
 62
     7
370
    25
100
AcDbLine
 10
663.4361620335
 20
992.4059528311
 30
0.0
 11
664.8174665226
 21
991.784365811
 31
0.0
  0
LINE
  5
1E0
330
1F
100
AcDbEntity
  8
0
  6
Continuous
 62
     7
370
    25
100
AcDbLine
 10
648.4028794294
 20
955.307505604
 30
0.0
 11
647.0215749403
 21
955.9290926241
 31
0.0
  0
LINE
  5
1E1
330
1F
100
AcDbEntity
  8
0
  6
Continuous
 62
     7
370
    25
100
AcDbLine
 10
644.8936495356
 20
961.539077782
 30
0.0
 11
657.8261768756
 21
990.2780274264
 31
0.0
  0
LINE
  5
1E2
330
1F
100
AcDbEntity
  8
0
  6
Continuous
 62
     7
370
    25
100
AcDbLine
 10
1717.1393238175
 20
1097.0935251799
 30
0.0
 11
1717.1393238175
 21
797.0935251799
 31
0.0
  0
LINE
  5
1E3
330
1F
100
AcDbEntity
  8
0
  6
Continuous
 62
     7
370
    25
100
AcDbLine
 10
1337.1393238175
 20
1097.0935251799
 30
0.0
 11
1717.1393238175
 21
1097.0935251799
 31
0.0
  0
LINE
  5
1E4
330
1F
100
AcDbEntity
  8
0
  6
Continuous
 62
     7
370
    25
100
AcDbLine
 10
1337.1393238175
 20
797.0935251799
 30
0.0
 11
1337.1393238175
 21
1097.0935251799
 31
0.0
  0
LINE
  5
1E5
330
1F
100
AcDbEntity
  8
0
  6
Continuous
 62
     7
370
    25
100
AcDbLine
 10
1717.1393238175
 20
797.0935251799
 30
0.0
 11
1337.1393238175
 21
797.0935251799
 31
0.0
  0
LINE
  5
1E6
330
1F
100
AcDbEntity
  8
0
  6
Continuous
 62
     7
370
    25
100
AcDbLine
 10
1777.1393238175
 20
747.0935251799
 30
0.0
 11
1277.1393238175
 21
747.0935251799
 31
0.0
  0
LINE
  5
1E7
330
1F
100
AcDbEntity
  8
0
  6
Continuous
 62
     7
370
    25
100
AcDbLine
 10
1277.1393238175
 20
752.8508844927
 30
0.0
 11
1277.1393238175
 21
747.0935251799
 31
0.0
  0
ARC
  5
1E8
330
1F
100
AcDbEntity
  8
0
  6
Continuous
 62
     7
370
    25
100
AcDbCircle
 10
1275.0180034739
 20
754.9722048363
 30
0.0
 40
3.000000000000185
100
AcDbArc
 50
315.0
 51
135.0
  0
LINE
  5
1E9
330
1F
100
AcDbEntity
  8
0
  6
Continuous
 62
     7
370
    25
100
AcDbLine
 10
1267.1393238175
 20
757.0935251799
 30
0.0
 11
1272.8966831304
 21
757.0935251799
 31
0.0
  0
LINE
  5
1EA
330
1F
100
AcDbEntity
  8
0
  6
Continuous
 62
     7
370
    25
100
AcDbLine
 10
1267.1393238175
 20
807.0935251799
 30
0.0
 11
1267.1393238175
 21
757.0935251799
 31
0.0
  0
LINE
  5
1EB
330
1F
100
AcDbEntity
  8
0
  6
Continuous
 62
     7
370
    25
100
AcDbLine
 10
1272.8966831304
 20
807.0935251799
 30
0.0
 11
1267.1393238175
 21
807.0935251799
 31
0.0
  0
ARC
  5
1EC
330
1F
100
AcDbEntity
  8
0
  6
Continuous
 62
     7
370
    25
100
AcDbCircle
 10
1275.0180034739
 20
809.2148455234
 30
0.0
 40
3.000000000000105
100
AcDbArc
 50
225.0
 51
45.0
  0
LINE
  5
1ED
330
1F
100
AcDbEntity
  8
0
  6
Continuous
 62
     7
370
    25
100
AcDbLine
 10
1277.1393238175
 20
1082.8508844927
 30
0.0
 11
1277.1393238175
 21
811.336165867
 31
0.0
  0
ARC
  5
1EE
330
1F
100
AcDbEntity
  8
0
  6
Continuous
 62
     7
370
    25
100
AcDbCircle
 10
1275.0180034739
 20
1084.9722048363
 30
0.0
 40
3.000000000000185
100
AcDbArc
 50
315.0
 51
135.0
  0
LINE
  5
1EF
330
1F
100
AcDbEntity
  8
0
  6
Continuous
 62
     7
370
    25
100
AcDbLine
 10
1272.8966831304
 20
1087.0935251799
 30
0.0
 11
1267.1393238175
 21
1087.0935251799
 31
0.0
  0
LINE
  5
1F0
330
1F
100
AcDbEntity
  8
0
  6
Continuous
 62
     7
370
    25
100
AcDbLine
 10
1267.1393238175
 20
1087.0935251799
 30
0.0
 11
1267.1393238175
 21
1137.0935251799
 31
0.0
  0
LINE
  5
1F1
330
1F
100
AcDbEntity
  8
0
  6
Continuous
 62
     7
370
    25
100
AcDbLine
 10
1267.1393238175
 20
1137.0935251799
 30
0.0
 11
1272.8966831304
 21
1137.0935251799
 31
0.0
  0
ARC
  5
1F2
330
1F
100
AcDbEntity
  8
0
  6
Continuous
 62
     7
370
    25
100
AcDbCircle
 10
1275.0180034739
 20
1139.2148455234
 30
0.0
 40
3.000000000000024
100
AcDbArc
 50
225.0
 51
45.0
  0
LINE
  5
1F3
330
1F
100
AcDbEntity
  8
0
  6
Continuous
 62
     7
370
    25
100
AcDbLine
 10
1277.1393238175
 20
1147.0935251799
 30
0.0
 11
1277.1393238175
 21
1141.336165867
 31
0.0
  0
LINE
  5
1F4
330
1F
100
AcDbEntity
  8
0
  6
Continuous
 62
     7
370
    25
100
AcDbLine
 10
1777.1393238175
 20
1147.0935251799
 30
0.0
 11
1277.1393238175
 21
1147.0935251799
 31
0.0
  0
LINE
  5
1F5
330
1F
100
AcDbEntity
  8
0
  6
Continuous
 62
     7
370
    25
100
AcDbLine
 10
1777.1393238175
 20
1147.0935251799
 30
0.0
 11
1777.1393238175
 21
1141.336165867
 31
0.0
  0
ARC
  5
1F6
330
1F
100
AcDbEntity
  8
0
  6
Continuous
 62
     7
370
    25
100
AcDbCircle
 10
1779.2606441611
 20
1139.2148455234
 30
0.0
 40
3.000000000000024
100
AcDbArc
 50
135.0
 51
315.0
  0
LINE
  5
1F7
330
1F
100
AcDbEntity
  8
0
  6
Continuous
 62
     7
370
    25
100
AcDbLine
 10
1787.1393238175
 20
1137.0935251799
 30
0.0
 11
1781.3819645046
 21
1137.0935251799
 31
0.0
  0
LINE
  5
1F8
330
1F
100
AcDbEntity
  8
0
  6
Continuous
 62
     7
370
    25
100
AcDbLine
 10
1787.1393238175
 20
1087.0935251799
 30
0.0
 11
1787.1393238175
 21
1137.0935251799
 31
0.0
  0
LINE
  5
1F9
330
1F
100
AcDbEntity
  8
0
  6
Continuous
 62
     7
370
    25
100
AcDbLine
 10
1781.3819645046
 20
1087.0935251799
 30
0.0
 11
1787.1393238175
 21
1087.0935251799
 31
0.0
  0
ARC
  5
1FA
330
1F
100
AcDbEntity
  8
0
  6
Continuous
 62
     7
370
    25
100
AcDbCircle
 10
1779.2606441611
 20
1084.9722048363
 30
0.0
 40
3.000000000000024
100
AcDbArc
 50
45.0
 51
225.0
  0
LINE
  5
1FB
330
1F
100
AcDbEntity
  8
0
  6
Continuous
 62
     7
370
    25
100
AcDbLine
 10
1777.1393238175
 20
1082.8508844927
 30
0.0
 11
1777.1393238175
 21
811.336165867
 31
0.0
  0
ARC
  5
1FC
330
1F
100
AcDbEntity
  8
0
  6
Continuous
 62
     7
370
    25
100
AcDbCircle
 10
1779.2606441611
 20
809.2148455234
 30
0.0
 40
2.999999999999944
100
AcDbArc
 50
135.0
 51
315.0
  0
LINE
  5
1FD
330
1F
100
AcDbEntity
  8
0
  6
Continuous
 62
     7
370
    25
100
AcDbLine
 10
1781.3819645046
 20
807.0935251799
 30
0.0
 11
1787.1393238175
 21
807.0935251799
 31
0.0
  0
LINE
  5
1FE
330
1F
100
AcDbEntity
  8
0
  6
Continuous
 62
     7
370
    25
100
AcDbLine
 10
1787.1393238175
 20
807.0935251799
 30
0.0
 11
1787.1393238175
 21
757.0935251799
 31
0.0
  0
LINE
  5
1FF
330
1F
100
AcDbEntity
  8
0
  6
Continuous
 62
     7
370
    25
100
AcDbLine
 10
1787.1393238175
 20
757.0935251799
 30
0.0
 11
1781.3819645046
 21
757.0935251799
 31
0.0
  0
ARC
  5
200
330
1F
100
AcDbEntity
  8
0
  6
Continuous
 62
     7
370
    25
100
AcDbCircle
 10
1779.2606441611
 20
754.9722048363
 30
0.0
 40
3.000000000000024
100
AcDbArc
 50
45.0
 51
225.0
  0
LINE
  5
201
330
1F
100
AcDbEntity
  8
0
  6
Continuous
 62
     7
370
    25
100
AcDbLine
 10
1777.1393238175
 20
752.8508844927
 30
0.0
 11
1777.1393238175
 21
747.0935251799
 31
0.0
  0
LINE
  5
202
330
1F
100
AcDbEntity
  8
0
  6
Continuous
 62
     7
370
    25
100
AcDbLine
 10
2115.9856115108
 20
38.4058630378
 30
0.0
 11
2115.9856115108
 21
32.6485037249
 31
0.0
  0
LINE
  5
203
330
1F
100
AcDbEntity
  8
0
  6
Continuous
 62
     7
370
    25
100
AcDbLine
 10
2065.9856115108
 20
32.6485037249
 30
0.0
 11
2065.9856115108
 21
38.4058630378
 31
0.0
  0
ARC
  5
204
330
1F
100
AcDbEntity
  8
0
  6
Continuous
 62
     7
370
    25
100
AcDbCircle
 10
2063.8642911672
 20
40.5271833813
 30
0.0
 40
2.999999999999949
100
AcDbArc
 50
315.0
 51
135.0
  0
LINE
  5
205
330
1F
100
AcDbEntity
  8
0
  6
Continuous
 62
     7
370
    25
100
AcDbLine
 10
2061.7429708237
 20
42.6485037249
 30
0.0
 11
2030.2282521979
 21
42.6485037249
 31
0.0
  0
ARC
  5
206
330
1F
100
AcDbEntity
  8
0
  6
Continuous
 62
     7
370
    25
100
AcDbCircle
 10
2028.1069318544
 20
40.5271833813
 30
0.0
 40
2.999999999999949
100
AcDbArc
 50
45.0
 51
225.0
  0
LINE
  5
207
330
1F
100
AcDbEntity
  8
0
  6
Continuous
 62
     7
370
    25
100
AcDbLine
 10
2025.9856115108
 20
38.4058630378
 30
0.0
 11
2025.9856115108
 21
32.6485037249
 31
0.0
  0
LINE
  5
208
330
1F
100
AcDbEntity
  8
0
  6
Continuous
 62
     7
370
    25
100
AcDbLine
 10
1975.9856115108
 20
32.6485037249
 30
0.0
 11
1975.9856115108
 21
38.4058630378
 31
0.0
  0
ARC
  5
209
330
1F
100
AcDbEntity
  8
0
  6
Continuous
 62
     7
370
    25
100
AcDbCircle
 10
1973.8642911672
 20
40.5271833813
 30
0.0
 40
2.999999999999949
100
AcDbArc
 50
315.0
 51
135.0
  0
LINE
  5
20A
330
1F
100
AcDbEntity
  8
0
  6
Continuous
 62
     7
370
    25
100
AcDbLine
 10
1971.7429708237
 20
42.6485037249
 30
0.0
 11
1940.2282521979
 21
42.6485037249
 31
0.0
  0
ARC
  5
20B
330
1F
100
AcDbEntity
  8
0
  6
Continuous
 62
     7
370
    25
100
AcDbCircle
 10
1938.1069318544
 20
40.5271833813
 30
0.0
 40
3.00000000000011
100
AcDbArc
 50
45.0
 51
225.0
  0
LINE
  5
20C
330
1F
100
AcDbEntity
  8
0
  6
Continuous
 62
     7
370
    25
100
AcDbLine
 10
1935.9856115108
 20
38.4058630378
 30
0.0
 11
1935.9856115108
 21
32.6485037249
 31
0.0
  0
LINE
  5
20D
330
1F
100
AcDbEntity
  8
0
  6
Continuous
 62
     7
370
    25
100
AcDbLine
 10
1885.9856115108
 20
32.6485037249
 30
0.0
 11
1885.9856115108
 21
38.4058630378
 31
0.0
  0
ARC
  5
20E
330
1F
100
AcDbEntity
  8
0
  6
Continuous
 62
     7
370
    25
100
AcDbCircle
 10
1883.8642911672
 20
40.5271833813
 30
0.0
 40
3.00000000000011
100
AcDbArc
 50
315.0
 51
135.0
  0
LINE
  5
20F
330
1F
100
AcDbEntity
  8
0
  6
Continuous
 62
     7
370
    25
100
AcDbLine
 10
1881.7429708237
 20
42.6485037249
 30
0.0
 11
1850.2282521979
 21
42.6485037249
 31
0.0
  0
LINE
  5
210
330
1F
100
AcDbEntity
  8
0
  6
Continuous
 62
     7
370
    25
100
AcDbLine
 10
1845.9856115108
 20
42.6485037249
 30
0.0
 11
1845.9856115108
 21
68.4058630378
 31
0.0
  0
ARC
  5
211
330
1F
100
AcDbEntity
  8
0
  6
Continuous
 62
     7
370
    25
100
AcDbCircle
 10
1843.8642911672
 20
70.5271833813
 30
0.0
 40
3.000000000000105
100
AcDbArc
 50
315.0
 51
135.0
  0
LINE
  5
212
330
1F
100
AcDbEntity
  8
0
  6
Continuous
 62
     7
370
    25
100
AcDbLine
 10
1835.9856115108
 20
72.6485037249
 30
0.0
 11
1841.7429708237
 21
72.6485037249
 31
0.0
  0
LINE
  5
213
330
1F
100
AcDbEntity
  8
0
  6
Continuous
 62
     7
370
    25
100
AcDbLine
 10
1835.9856115108
 20
112.6485037249
 30
0.0
 11
1835.9856115108
 21
72.6485037249
 31
0.0
  0
LINE
  5
214
330
1F
100
AcDbEntity
  8
0
  6
Continuous
 62
     7
370
    25
100
AcDbLine
 10
1841.7429708237
 20
112.6485037249
 30
0.0
 11
1835.9856115108
 21
112.6485037249
 31
0.0
  0
ARC
  5
215
330
1F
100
AcDbEntity
  8
0
  6
Continuous
 62
     7
370
    25
100
AcDbCircle
 10
1843.8642911672
 20
114.7698240685
 30
0.0
 40
3.000000000000105
100
AcDbArc
 50
225.0
 51
45.0
  0
ARC
  5
216
330
1F
100
AcDbEntity
  8
0
  6
Continuous
 62
     7
370
    25
100
AcDbCircle
 10
1843.8642911672
 20
160.5271833813
 30
0.0
 40
3.000000000000105
100
AcDbArc
 50
315.0
 51
135.0
  0
LINE
  5
217
330
1F
100
AcDbEntity
  8
0
  6
Continuous
 62
     7
370
    25
100
AcDbLine
 10
1835.9856115108
 20
162.6485037249
 30
0.0
 11
1841.7429708237
 21
162.6485037249
 31
0.0
  0
LINE
  5
218
330
1F
100
AcDbEntity
  8
0
  6
Continuous
 62
     7
370
    25
100
AcDbLine
 10
1835.9856115108
 20
202.6485037249
 30
0.0
 11
1835.9856115108
 21
162.6485037249
 31
0.0
  0
LINE
  5
219
330
1F
100
AcDbEntity
  8
0
  6
Continuous
 62
     7
370
    25
100
AcDbLine
 10
1841.7429708237
 20
202.6485037249
 30
0.0
 11
1835.9856115108
 21
202.6485037249
 31
0.0
  0
ARC
  5
21A
330
1F
100
AcDbEntity
  8
0
  6
Continuous
 62
     7
370
    25
100
AcDbCircle
 10
1843.8642911672
 20
204.7698240685
 30
0.0
 40
3.000000000000105
100
AcDbArc
 50
225.0
 51
45.0
  0
ARC
  5
21B
330
1F
100
AcDbEntity
  8
0
  6
Continuous
 62
     7
370
    25
100
AcDbCircle
 10
1843.8642911672
 20
250.5271833813
 30
0.0
 40
3.000000000000105
100
AcDbArc
 50
315.0
 51
135.0
  0
LINE
  5
21C
330
1F
100
AcDbEntity
  8
0
  6
Continuous
 62
     7
370
    25
100
AcDbLine
 10
1835.9856115108
 20
252.6485037249
 30
0.0
 11
1841.7429708237
 21
252.6485037249
 31
0.0
  0
LINE
  5
21D
330
1F
100
AcDbEntity
  8
0
  6
Continuous
 62
     7
370
    25
100
AcDbLine
 10
1835.9856115108
 20
292.6485037249
 30
0.0
 11
1835.9856115108
 21
252.6485037249
 31
0.0
  0
LINE
  5
21E
330
1F
100
AcDbEntity
  8
0
  6
Continuous
 62
     7
370
    25
100
AcDbLine
 10
1841.7429708237
 20
292.6485037249
 30
0.0
 11
1835.9856115108
 21
292.6485037249
 31
0.0
  0
ARC
  5
21F
330
1F
100
AcDbEntity
  8
0
  6
Continuous
 62
     7
370
    25
100
AcDbCircle
 10
1843.8642911672
 20
294.7698240685
 30
0.0
 40
3.000000000000105
100
AcDbArc
 50
225.0
 51
45.0
  0
ARC
  5
220
330
1F
100
AcDbEntity
  8
0
  6
Continuous
 62
     7
370
    25
100
AcDbCircle
 10
1843.8642911672
 20
340.5271833813
 30
0.0
 40
3.000000000000105
100
AcDbArc
 50
315.0
 51
135.0
  0
LINE
  5
221
330
1F
100
AcDbEntity
  8
0
  6
Continuous
 62
     7
370
    25
100
AcDbLine
 10
1835.9856115108
 20
342.6485037249
 30
0.0
 11
1841.7429708237
 21
342.6485037249
 31
0.0
  0
LINE
  5
222
330
1F
100
AcDbEntity
  8
0
  6
Continuous
 62
     7
370
    25
100
AcDbLine
 10
1835.9856115108
 20
382.6485037249
 30
0.0
 11
1835.9856115108
 21
342.6485037249
 31
0.0
  0
LINE
  5
223
330
1F
100
AcDbEntity
  8
0
  6
Continuous
 62
     7
370
    25
100
AcDbLine
 10
1841.7429708237
 20
382.6485037249
 30
0.0
 11
1835.9856115108
 21
382.6485037249
 31
0.0
  0
ARC
  5
224
330
1F
100
AcDbEntity
  8
0
  6
Continuous
 62
     7
370
    25
100
AcDbCircle
 10
1843.8642911672
 20
384.7698240685
 30
0.0
 40
3.000000000000105
100
AcDbArc
 50
225.0
 51
45.0
  0
ARC
  5
225
330
1F
100
AcDbEntity
  8
0
  6
Continuous
 62
     7
370
    25
100
AcDbCircle
 10
1843.8642911672
 20
430.5271833813
 30
0.0
 40
3.000000000000105
100
AcDbArc
 50
315.0
 51
135.0
  0
LINE
  5
226
330
1F
100
AcDbEntity
  8
0
  6
Continuous
 62
     7
370
    25
100
AcDbLine
 10
1835.9856115108
 20
432.6485037249
 30
0.0
 11
1841.7429708237
 21
432.6485037249
 31
0.0
  0
LINE
  5
227
330
1F
100
AcDbEntity
  8
0
  6
Continuous
 62
     7
370
    25
100
AcDbLine
 10
1835.9856115108
 20
472.6485037249
 30
0.0
 11
1835.9856115108
 21
432.6485037249
 31
0.0
  0
LINE
  5
228
330
1F
100
AcDbEntity
  8
0
  6
Continuous
 62
     7
370
    25
100
AcDbLine
 10
1841.7429708237
 20
472.6485037249
 30
0.0
 11
1835.9856115108
 21
472.6485037249
 31
0.0
  0
ARC
  5
229
330
1F
100
AcDbEntity
  8
0
  6
Continuous
 62
     7
370
    25
100
AcDbCircle
 10
1843.8642911672
 20
474.7698240685
 30
0.0
 40
3.000000000000105
100
AcDbArc
 50
225.0
 51
45.0
  0
ARC
  5
22A
330
1F
100
AcDbEntity
  8
0
  6
Continuous
 62
     7
370
    25
100
AcDbCircle
 10
1843.8642911672
 20
520.5271833813
 30
0.0
 40
3.000000000000105
100
AcDbArc
 50
315.0
 51
135.0
  0
LINE
  5
22B
330
1F
100
AcDbEntity
  8
0
  6
Continuous
 62
     7
370
    25
100
AcDbLine
 10
1835.9856115108
 20
522.6485037249
 30
0.0
 11
1841.7429708237
 21
522.6485037249
 31
0.0
  0
LINE
  5
22C
330
1F
100
AcDbEntity
  8
0
  6
Continuous
 62
     7
370
    25
100
AcDbLine
 10
1835.9856115108
 20
562.6485037249
 30
0.0
 11
1835.9856115108
 21
522.6485037249
 31
0.0
  0
LINE
  5
22D
330
1F
100
AcDbEntity
  8
0
  6
Continuous
 62
     7
370
    25
100
AcDbLine
 10
1841.7429708237
 20
562.6485037249
 30
0.0
 11
1835.9856115108
 21
562.6485037249
 31
0.0
  0
ARC
  5
22E
330
1F
100
AcDbEntity
  8
0
  6
Continuous
 62
     7
370
    25
100
AcDbCircle
 10
1843.8642911672
 20
564.7698240685
 30
0.0
 40
3.000000000000024
100
AcDbArc
 50
225.0
 51
45.0
  0
LINE
  5
22F
330
1F
100
AcDbEntity
  8
0
  6
Continuous
 62
     7
370
    25
100
AcDbLine
 10
1845.9856115108
 20
622.862287642
 30
0.0
 11
2345.9856115108
 21
622.862287642
 31
0.0
  0
ARC
  5
230
330
1F
100
AcDbEntity
  8
0
  6
Continuous
 62
     7
370
    25
100
AcDbCircle
 10
2348.1069318544
 20
564.7698240685
 30
0.0
 40
3.000000000000265
100
AcDbArc
 50
135.0
 51
315.0
  0
LINE
  5
231
330
1F
100
AcDbEntity
  8
0
  6
Continuous
 62
     7
370
    25
100
AcDbLine
 10
2355.9856115108
 20
562.6485037249
 30
0.0
 11
2355.9856115108
 21
522.6485037249
 31
0.0
  0
ARC
  5
232
330
1F
100
AcDbEntity
  8
0
  6
Continuous
 62
     7
370
    25
100
AcDbCircle
 10
2348.1069318544
 20
520.5271833813
 30
0.0
 40
3.000000000000265
100
AcDbArc
 50
45.0
 51
225.0
  0
ARC
  5
233
330
1F
100
AcDbEntity
  8
0
  6
Continuous
 62
     7
370
    25
100
AcDbCircle
 10
2348.1069318544
 20
474.7698240685
 30
0.0
 40
3.000000000000265
100
AcDbArc
 50
135.0
 51
315.0
  0
LINE
  5
234
330
1F
100
AcDbEntity
  8
0
  6
Continuous
 62
     7
370
    25
100
AcDbLine
 10
2355.9856115108
 20
472.6485037249
 30
0.0
 11
2355.9856115108
 21
432.6485037249
 31
0.0
  0
ARC
  5
235
330
1F
100
AcDbEntity
  8
0
  6
Continuous
 62
     7
370
    25
100
AcDbCircle
 10
2348.1069318544
 20
430.5271833813
 30
0.0
 40
3.000000000000225
100
AcDbArc
 50
45.0
 51
225.0
  0
ARC
  5
236
330
1F
100
AcDbEntity
  8
0
  6
Continuous
 62
     7
370
    25
100
AcDbCircle
 10
2348.1069318544
 20
384.7698240685
 30
0.0
 40
3.000000000000265
100
AcDbArc
 50
135.0
 51
315.0
  0
LINE
  5
237
330
1F
100
AcDbEntity
  8
0
  6
Continuous
 62
     7
370
    25
100
AcDbLine
 10
2355.9856115108
 20
382.6485037249
 30
0.0
 11
2355.9856115108
 21
342.6485037249
 31
0.0
  0
ARC
  5
238
330
1F
100
AcDbEntity
  8
0
  6
Continuous
 62
     7
370
    25
100
AcDbCircle
 10
2348.1069318544
 20
340.5271833813
 30
0.0
 40
3.000000000000225
100
AcDbArc
 50
45.0
 51
225.0
  0
ARC
  5
239
330
1F
100
AcDbEntity
  8
0
  6
Continuous
 62
     7
370
    25
100
AcDbCircle
 10
2348.1069318544
 20
294.7698240685
 30
0.0
 40
3.000000000000225
100
AcDbArc
 50
135.0
 51
315.0
  0
LINE
  5
23A
330
1F
100
AcDbEntity
  8
0
  6
Continuous
 62
     7
370
    25
100
AcDbLine
 10
2355.9856115108
 20
292.6485037249
 30
0.0
 11
2355.9856115108
 21
252.6485037249
 31
0.0
  0
ARC
  5
23B
330
1F
100
AcDbEntity
  8
0
  6
Continuous
 62
     7
370
    25
100
AcDbCircle
 10
2348.1069318544
 20
250.5271833813
 30
0.0
 40
3.000000000000265
100
AcDbArc
 50
45.0
 51
225.0
  0
ARC
  5
23C
330
1F
100
AcDbEntity
  8
0
  6
Continuous
 62
     7
370
    25
100
AcDbCircle
 10
2348.1069318544
 20
204.7698240685
 30
0.0
 40
3.000000000000265
100
AcDbArc
 50
135.0
 51
315.0
  0
LINE
  5
23D
330
1F
100
AcDbEntity
  8
0
  6
Continuous
 62
     7
370
    25
100
AcDbLine
 10
2355.9856115108
 20
202.6485037249
 30
0.0
 11
2355.9856115108
 21
162.6485037249
 31
0.0
  0
ARC
  5
23E
330
1F
100
AcDbEntity
  8
0
  6
Continuous
 62
     7
370
    25
100
AcDbCircle
 10
2348.1069318544
 20
160.5271833813
 30
0.0
 40
3.000000000000265
100
AcDbArc
 50
45.0
 51
225.0
  0
ARC
  5
23F
330
1F
100
AcDbEntity
  8
0
  6
Continuous
 62
     7
370
    25
100
AcDbCircle
 10
2348.1069318544
 20
114.7698240685
 30
0.0
 40
3.000000000000245
100
AcDbArc
 50
135.0
 51
315.0
  0
LINE
  5
240
330
1F
100
AcDbEntity
  8
0
  6
Continuous
 62
     7
370
    25
100
AcDbLine
 10
2355.9856115108
 20
112.6485037249
 30
0.0
 11
2355.9856115108
 21
72.6485037249
 31
0.0
  0
ARC
  5
241
330
1F
100
AcDbEntity
  8
0
  6
Continuous
 62
     7
370
    25
100
AcDbCircle
 10
2348.1069318544
 20
70.5271833813
 30
0.0
 40
3.000000000000225
100
AcDbArc
 50
45.0
 51
225.0
  0
LINE
  5
242
330
1F
100
AcDbEntity
  8
0
  6
Continuous
 62
     7
370
    25
100
AcDbLine
 10
2335.9856115108
 20
32.6485037249
 30
0.0
 11
2335.9856115108
 21
38.4058630378
 31
0.0
  0
ARC
  5
243
330
1F
100
AcDbEntity
  8
0
  6
Continuous
 62
     7
370
    25
100
AcDbCircle
 10
2333.8642911672
 20
40.5271833813
 30
0.0
 40
2.999999999999949
100
AcDbArc
 50
315.0
 51
135.0
  0
LINE
  5
244
330
1F
100
AcDbEntity
  8
0
  6
Continuous
 62
     7
370
    25
100
AcDbLine
 10
2331.7429708237
 20
42.6485037249
 30
0.0
 11
2300.2282521979
 21
42.6485037249
 31
0.0
  0
ARC
  5
245
330
1F
100
AcDbEntity
  8
0
  6
Continuous
 62
     7
370
    25
100
AcDbCircle
 10
2298.1069318544
 20
40.5271833813
 30
0.0
 40
3.000000000000225
100
AcDbArc
 50
45.0
 51
225.0
  0
LINE
  5
246
330
1F
100
AcDbEntity
  8
0
  6
Continuous
 62
     7
370
    25
100
AcDbLine
 10
2295.9856115108
 20
38.4058630378
 30
0.0
 11
2295.9856115108
 21
32.6485037249
 31
0.0
  0
LINE
  5
247
330
1F
100
AcDbEntity
  8
0
  6
Continuous
 62
     7
370
    25
100
AcDbLine
 10
2245.9856115108
 20
32.6485037249
 30
0.0
 11
2245.9856115108
 21
38.4058630378
 31
0.0
  0
ARC
  5
248
330
1F
100
AcDbEntity
  8
0
  6
Continuous
 62
     7
370
    25
100
AcDbCircle
 10
2243.8642911672
 20
40.5271833813
 30
0.0
 40
3.00000000000027
100
AcDbArc
 50
315.0
 51
135.0
  0
LINE
  5
249
330
1F
100
AcDbEntity
  8
0
  6
Continuous
 62
     7
370
    25
100
AcDbLine
 10
2241.7429708237
 20
42.6485037249
 30
0.0
 11
2210.2282521979
 21
42.6485037249
 31
0.0
  0
ARC
  5
24A
330
1F
100
AcDbEntity
  8
0
  6
Continuous
 62
     7
370
    25
100
AcDbCircle
 10
2208.1069318544
 20
40.5271833813
 30
0.0
 40
3.00000000000027
100
AcDbArc
 50
45.0
 51
225.0
  0
LINE
  5
24B
330
1F
100
AcDbEntity
  8
0
  6
Continuous
 62
     7
370
    25
100
AcDbLine
 10
2205.9856115108
 20
38.4058630378
 30
0.0
 11
2205.9856115108
 21
32.6485037249
 31
0.0
  0
LINE
  5
24C
330
1F
100
AcDbEntity
  8
0
  6
Continuous
 62
     7
370
    25
100
AcDbLine
 10
2155.9856115108
 20
32.6485037249
 30
0.0
 11
2155.9856115108
 21
38.4058630378
 31
0.0
  0
ARC
  5
24D
330
1F
100
AcDbEntity
  8
0
  6
Continuous
 62
     7
370
    25
100
AcDbCircle
 10
2153.8642911672
 20
40.5271833813
 30
0.0
 40
3.00000000000027
100
AcDbArc
 50
315.0
 51
135.0
  0
LINE
  5
24E
330
1F
100
AcDbEntity
  8
0
  6
Continuous
 62
     7
370
    25
100
AcDbLine
 10
2151.7429708237
 20
42.6485037249
 30
0.0
 11
2120.2282521979
 21
42.6485037249
 31
0.0
  0
ARC
  5
24F
330
1F
100
AcDbEntity
  8
0
  6
Continuous
 62
     7
370
    25
100
AcDbCircle
 10
2118.1069318544
 20
40.5271833813
 30
0.0
 40
3.00000000000027
100
AcDbArc
 50
45.0
 51
225.0
  0
LINE
  5
250
330
1F
100
AcDbEntity
  8
0
  6
Continuous
 62
     7
370
    25
100
AcDbLine
 10
2335.9856115108
 20
32.6485037249
 30
0.0
 11
2345.9856115108
 21
32.6485037249
 31
0.0
  0
ARC
  5
251
330
1F
100
AcDbEntity
  8
0
  6
Continuous
 62
     7
370
    25
100
AcDbCircle
 10
1848.1069318544
 20
40.5271833813
 30
0.0
 40
3.00000000000011
100
AcDbArc
 50
45.0
 51
135.0
  0
LINE
  5
252
330
1F
100
AcDbEntity
  8
0
  6
Continuous
 62
     7
370
    25
100
AcDbLine
 10
1845.9856115108
 20
566.891144412
 30
0.0
 11
1845.9856115108
 21
622.862287642
 31
0.0
  0
LINE
  5
253
330
1F
100
AcDbEntity
  8
0
  6
Continuous
 62
     7
370
    25
100
AcDbLine
 10
1845.9856115108
 20
116.891144412
 30
0.0
 11
1845.9856115108
 21
158.4058630378
 31
0.0
  0
LINE
  5
254
330
1F
100
AcDbEntity
  8
0
  6
Continuous
 62
     7
370
    25
100
AcDbLine
 10
1845.9856115108
 20
206.891144412
 30
0.0
 11
1845.9856115108
 21
248.4058630378
 31
0.0
  0
LINE
  5
255
330
1F
100
AcDbEntity
  8
0
  6
Continuous
 62
     7
370
    25
100
AcDbLine
 10
1845.9856115108
 20
296.891144412
 30
0.0
 11
1845.9856115108
 21
338.4058630378
 31
0.0
  0
LINE
  5
256
330
1F
100
AcDbEntity
  8
0
  6
Continuous
 62
     7
370
    25
100
AcDbLine
 10
1845.9856115108
 20
386.891144412
 30
0.0
 11
1845.9856115108
 21
428.4058630378
 31
0.0
  0
LINE
  5
257
330
1F
100
AcDbEntity
  8
0
  6
Continuous
 62
     7
370
    25
100
AcDbLine
 10
1845.9856115108
 20
476.891144412
 30
0.0
 11
1845.9856115108
 21
518.4058630378
 31
0.0
  0
LINE
  5
258
330
1F
100
AcDbEntity
  8
0
  6
Continuous
 62
     7
370
    25
100
AcDbLine
 10
2355.9856115108
 20
522.6485037249
 30
0.0
 11
2350.2282521979
 21
522.6485037249
 31
0.0
  0
LINE
  5
259
330
1F
100
AcDbEntity
  8
0
  6
Continuous
 62
     7
370
    25
100
AcDbLine
 10
2350.2282521979
 20
562.6485037249
 30
0.0
 11
2355.9856115108
 21
562.6485037249
 31
0.0
  0
LINE
  5
25A
330
1F
100
AcDbEntity
  8
0
  6
Continuous
 62
     7
370
    25
100
AcDbLine
 10
2355.9856115108
 20
432.6485037249
 30
0.0
 11
2350.2282521979
 21
432.6485037249
 31
0.0
  0
LINE
  5
25B
330
1F
100
AcDbEntity
  8
0
  6
Continuous
 62
     7
370
    25
100
AcDbLine
 10
2350.2282521979
 20
472.6485037249
 30
0.0
 11
2355.9856115108
 21
472.6485037249
 31
0.0
  0
LINE
  5
25C
330
1F
100
AcDbEntity
  8
0
  6
Continuous
 62
     7
370
    25
100
AcDbLine
 10
2355.9856115108
 20
342.6485037249
 30
0.0
 11
2350.2282521979
 21
342.6485037249
 31
0.0
  0
LINE
  5
25D
330
1F
100
AcDbEntity
  8
0
  6
Continuous
 62
     7
370
    25
100
AcDbLine
 10
2350.2282521979
 20
382.6485037249
 30
0.0
 11
2355.9856115108
 21
382.6485037249
 31
0.0
  0
LINE
  5
25E
330
1F
100
AcDbEntity
  8
0
  6
Continuous
 62
     7
370
    25
100
AcDbLine
 10
2355.9856115108
 20
252.6485037249
 30
0.0
 11
2350.2282521979
 21
252.6485037249
 31
0.0
  0
LINE
  5
25F
330
1F
100
AcDbEntity
  8
0
  6
Continuous
 62
     7
370
    25
100
AcDbLine
 10
2350.2282521979
 20
292.6485037249
 30
0.0
 11
2355.9856115108
 21
292.6485037249
 31
0.0
  0
LINE
  5
260
330
1F
100
AcDbEntity
  8
0
  6
Continuous
 62
     7
370
    25
100
AcDbLine
 10
2355.9856115108
 20
162.6485037249
 30
0.0
 11
2350.2282521979
 21
162.6485037249
 31
0.0
  0
LINE
  5
261
330
1F
100
AcDbEntity
  8
0
  6
Continuous
 62
     7
370
    25
100
AcDbLine
 10
2350.2282521979
 20
202.6485037249
 30
0.0
 11
2355.9856115108
 21
202.6485037249
 31
0.0
  0
LINE
  5
262
330
1F
100
AcDbEntity
  8
0
  6
Continuous
 62
     7
370
    25
100
AcDbLine
 10
2355.9856115108
 20
72.6485037249
 30
0.0
 11
2350.2282521979
 21
72.6485037249
 31
0.0
  0
LINE
  5
263
330
1F
100
AcDbEntity
  8
0
  6
Continuous
 62
     7
370
    25
100
AcDbLine
 10
2350.2282521979
 20
112.6485037249
 30
0.0
 11
2355.9856115108
 21
112.6485037249
 31
0.0
  0
LINE
  5
264
330
1F
100
AcDbEntity
  8
0
  6
Continuous
 62
     7
370
    25
100
AcDbLine
 10
2345.9856115108
 20
32.6485037249
 30
0.0
 11
2345.9856115108
 21
68.4058630378
 31
0.0
  0
LINE
  5
265
330
1F
100
AcDbEntity
  8
0
  6
Continuous
 62
     7
370
    25
100
AcDbLine
 10
2345.9856115108
 20
116.891144412
 30
0.0
 11
2345.9856115108
 21
158.4058630378
 31
0.0
  0
LINE
  5
266
330
1F
100
AcDbEntity
  8
0
  6
Continuous
 62
     7
370
    25
100
AcDbLine
 10
2345.9856115108
 20
206.891144412
 30
0.0
 11
2345.9856115108
 21
248.4058630378
 31
0.0
  0
LINE
  5
267
330
1F
100
AcDbEntity
  8
0
  6
Continuous
 62
     7
370
    25
100
AcDbLine
 10
2345.9856115108
 20
296.891144412
 30
0.0
 11
2345.9856115108
 21
338.4058630378
 31
0.0
  0
LINE
  5
268
330
1F
100
AcDbEntity
  8
0
  6
Continuous
 62
     7
370
    25
100
AcDbLine
 10
2345.9856115108
 20
386.891144412
 30
0.0
 11
2345.9856115108
 21
428.4058630378
 31
0.0
  0
LINE
  5
269
330
1F
100
AcDbEntity
  8
0
  6
Continuous
 62
     7
370
    25
100
AcDbLine
 10
2345.9856115108
 20
476.891144412
 30
0.0
 11
2345.9856115108
 21
518.4058630378
 31
0.0
  0
LINE
  5
26A
330
1F
100
AcDbEntity
  8
0
  6
Continuous
 62
     7
370
    25
100
AcDbLine
 10
2345.9856115108
 20
566.891144412
 30
0.0
 11
2345.9856115108
 21
622.862287642
 31
0.0
  0
LINE
  5
26B
330
1F
100
AcDbEntity
  8
0
  6
Continuous
 62
     7
370
    25
100
AcDbLine
 10
2245.9856115108
 20
32.6485037249
 30
0.0
 11
2295.9856115108
 21
32.6485037249
 31
0.0
  0
LINE
  5
26C
330
1F
100
AcDbEntity
  8
0
  6
Continuous
 62
     7
370
    25
100
AcDbLine
 10
2155.9856115108
 20
32.6485037249
 30
0.0
 11
2205.9856115108
 21
32.6485037249
 31
0.0
  0
LINE
  5
26D
330
1F
100
AcDbEntity
  8
0
  6
Continuous
 62
     7
370
    25
100
AcDbLine
 10
2065.9856115108
 20
32.6485037249
 30
0.0
 11
2115.9856115108
 21
32.6485037249
 31
0.0
  0
LINE
  5
26E
330
1F
100
AcDbEntity
  8
0
  6
Continuous
 62
     7
370
    25
100
AcDbLine
 10
1975.9856115108
 20
32.6485037249
 30
0.0
 11
2025.9856115108
 21
32.6485037249
 31
0.0
  0
LINE
  5
26F
330
1F
100
AcDbEntity
  8
0
  6
Continuous
 62
     7
370
    25
100
AcDbLine
 10
1885.9856115108
 20
32.6485037249
 30
0.0
 11
1935.9856115108
 21
32.6485037249
 31
0.0
  0
LINE
  5
270
330
1F
100
AcDbEntity
  8
0
  6
Continuous
 62
     7
370
    25
100
AcDbLine
 10
2348.7606262986
 20
1008.1870503597
 30
0.0
 11
2354.5179856115
 21
1008.1870503597
 31
0.0
  0
LINE
  5
271
330
1F
100
AcDbEntity
  8
0
  6
Continuous
 62
     7
370
    25
100
AcDbLine
 10
2354.5179856115
 20
1008.1870503597
 30
0.0
 11
2354.5179856115
 21
968.1870503597
 31
0.0
  0
LINE
  5
272
330
1F
100
AcDbEntity
  8
0
  6
Continuous
 62
     7
370
    25
100
AcDbLine
 10
2354.5179856115
 20
968.1870503597
 30
0.0
 11
2348.7606262986
 21
968.1870503597
 31
0.0
  0
ARC
  5
273
330
1F
100
AcDbEntity
  8
0
  6
Continuous
 62
     7
370
    25
100
AcDbCircle
 10
2346.6393059551
 20
966.0657300162
 30
0.0
 40
3.000000000000024
100
AcDbArc
 50
45.0
 51
225.0
  0
LINE
  5
274
330
1F
100
AcDbEntity
  8
0
  6
Continuous
 62
     7
370
    25
100
AcDbLine
 10
2344.5179856115
 20
953.3569349299
 30
0.0
 11
2344.5179856115
 21
963.9444096726
 31
0.0
  0
LINE
  5
275
330
1F
100
AcDbEntity
  8
0
  6
Continuous
 62
     7
370
    25
100
AcDbLine
 10
2344.5179856115
 20
953.3569349299
 30
0.0
 11
1844.5179856115
 21
953.3569349299
 31
0.0
  0
LINE
  5
276
330
1F
100
AcDbEntity
  8
0
  6
Continuous
 62
     7
370
    25
100
AcDbLine
 10
1844.5179856115
 20
963.9444096726
 30
0.0
 11
1844.5179856115
 21
953.3569349299
 31
0.0
  0
ARC
  5
277
330
1F
100
AcDbEntity
  8
0
  6
Continuous
 62
     7
370
    25
100
AcDbCircle
 10
1842.396665268
 20
966.0657300162
 30
0.0
 40
3.000000000000024
100
AcDbArc
 50
315.0
 51
135.0
  0
LINE
  5
278
330
1F
100
AcDbEntity
  8
0
  6
Continuous
 62
     7
370
    25
100
AcDbLine
 10
1834.5179856115
 20
968.1870503597
 30
0.0
 11
1840.2753449244
 21
968.1870503597
 31
0.0
  0
LINE
  5
279
330
1F
100
AcDbEntity
  8
0
  6
Continuous
 62
     7
370
    25
100
AcDbLine
 10
1834.5179856115
 20
1008.1870503597
 30
0.0
 11
1834.5179856115
 21
968.1870503597
 31
0.0
  0
LINE
  5
27A
330
1F
100
AcDbEntity
  8
0
  6
Continuous
 62
     7
370
    25
100
AcDbLine
 10
1840.2753449244
 20
1008.1870503597
 30
0.0
 11
1834.5179856115
 21
1008.1870503597
 31
0.0
  0
ARC
  5
27B
330
1F
100
AcDbEntity
  8
0
  6
Continuous
 62
     7
370
    25
100
AcDbCircle
 10
1842.396665268
 20
1010.3083707033
 30
0.0
 40
2.999999999999944
100
AcDbArc
 50
225.0
 51
45.0
  0
LINE
  5
27C
330
1F
100
AcDbEntity
  8
0
  6
Continuous
 62
     7
370
    25
100
AcDbLine
 10
1844.5179856115
 20
1023.0171657896
 30
0.0
 11
1844.5179856115
 21
1012.4296910468
 31
0.0
  0
LINE
  5
27D
330
1F
100
AcDbEntity
  8
0
  6
Continuous
 62
     7
370
    25
100
AcDbLine
 10
2344.5179856115
 20
1023.0171657896
 30
0.0
 11
1844.5179856115
 21
1023.0171657896
 31
0.0
  0
LINE
  5
27E
330
1F
100
AcDbEntity
  8
0
  6
Continuous
 62
     7
370
    25
100
AcDbLine
 10
2344.5179856115
 20
1012.4296910468
 30
0.0
 11
2344.5179856115
 21
1023.0171657896
 31
0.0
  0
ARC
  5
27F
330
1F
100
AcDbEntity
  8
0
  6
Continuous
 62
     7
370
    25
100
AcDbCircle
 10
2346.6393059551
 20
1010.3083707033
 30
0.0
 40
2.999999999999864
100
AcDbArc
 50
135.0
 51
315.0
  0
LINE
  5
280
330
1F
100
AcDbEntity
  8
0
  6
Continuous
 62
     7
370
    25
100
AcDbLine
 10
2355.9856112873
 20
703.0935254707
 30
0.0
 11
2355.9856112873
 21
783.0935311331
 31
0.0
  0
LINE
  5
281
330
1F
100
AcDbEntity
  8
0
  6
Continuous
 62
     7
370
    25
100
AcDbLine
 10
2355.9856112873
 20
703.0935254707
 30
0.0
 11
2350.2282519651
 21
703.0935254707
 31
0.0
  0
ARC
  5
282
330
1F
100
AcDbEntity
  8
0
  6
Continuous
 62
     7
370
    25
100
AcDbCircle
 10
2348.1069318544
 20
700.9722048363
 30
0.0
 40
3.000000000000265
100
AcDbArc
 50
45.0
 51
225.0
  0
LINE
  5
283
330
1F
100
AcDbEntity
  8
0
  6
Continuous
 62
     7
370
    25
100
AcDbLine
 10
1835.9856210475
 20
703.0935254707
 30
0.0
 11
1841.7429528957
 21
703.0935254707
 31
0.0
  0
LINE
  5
284
330
1F
100
AcDbEntity
  8
0
  6
Continuous
 62
     7
370
    25
100
AcDbLine
 10
1835.9856210475
 20
703.0935254707
 30
0.0
 11
1835.9856210475
 21
783.0935311331
 31
0.0
  0
LINE
  5
285
330
1F
100
AcDbEntity
  8
0
  6
Continuous
 62
     7
370
    25
100
AcDbLine
 10
1835.9856210475
 20
783.0935311331
 30
0.0
 11
1841.7429528957
 21
783.0935311331
 31
0.0
  0
ARC
  5
286
330
1F
100
AcDbEntity
  8
0
  6
Continuous
 62
     7
370
    25
100
AcDbCircle
 10
1843.8642911672
 20
785.2148455234
 30
0.0
 40
3.000000000000185
100
AcDbArc
 50
225.0
 51
45.0
  0
ARC
  5
287
330
1F
100
AcDbEntity
  8
0
  6
Continuous
 62
     7
370
    25
100
AcDbCircle
 10
2348.1069318544
 20
785.2148455234
 30
0.0
 40
3.000000000000185
100
AcDbArc
 50
135.0
 51
315.0
  0
LINE
  5
288
330
1F
100
AcDbEntity
  8
0
  6
Continuous
 62
     7
370
    25
100
AcDbLine
 10
2355.9856112873
 20
783.0935311331
 30
0.0
 11
2350.2282519651
 21
783.0935311331
 31
0.0
  0
ARC
  5
289
330
1F
100
AcDbEntity
  8
0
  6
Continuous
 62
     7
370
    25
100
AcDbCircle
 10
1843.8642911672
 20
700.9722048363
 30
0.0
 40
3.000000000000265
100
AcDbArc
 50
315.0
 51
135.0
  0
LINE
  5
28A
330
1F
100
AcDbEntity
  8
0
  6
Continuous
 62
     7
370
    25
100
AcDbLine
 10
1845.9856115108
 20
698.850885482
 30
0.0
 11
1845.9856115108
 21
655.8458008049
 31
0.0
  0
LINE
  5
28B
330
1F
100
AcDbEntity
  8
0
  6
Continuous
 62
     7
370
    25
100
AcDbLine
 10
1845.9856115108
 20
830.3412538781
 30
0.0
 11
1845.9856115108
 21
787.3361599459
 31
0.0
  0
LINE
  5
28C
330
1F
100
AcDbEntity
  8
0
  6
Continuous
 62
     7
370
    25
100
AcDbLine
 10
1845.9856115108
 20
655.8458008049
 30
0.0
 11
2345.9856115108
 21
655.8458008049
 31
0.0
  0
LINE
  5
28D
330
1F
100
AcDbEntity
  8
0
  6
Continuous
 62
     7
370
    25
100
AcDbLine
 10
2345.9856115108
 20
830.3412538781
 30
0.0
 11
1845.9856115108
 21
830.3412538781
 31
0.0
  0
LINE
  5
28E
330
1F
100
AcDbEntity
  8
0
  6
Continuous
 62
     7
370
    25
100
AcDbLine
 10
2345.9856115108
 20
787.3361599459
 30
0.0
 11
2345.9856115108
 21
830.3412538781
 31
0.0
  0
LINE
  5
28F
330
1F
100
AcDbEntity
  8
0
  6
Continuous
 62
     7
370
    25
100
AcDbLine
 10
2345.9856115108
 20
655.8458008049
 30
0.0
 11
2345.9856115108
 21
698.850885482
 31
0.0
  0
ARC
  5
290
330
1F
100
AcDbEntity
  8
0
  6
Continuous
 62
     7
370
    25
100
AcDbCircle
 10
2348.1069318544
 20
870.6700465629
 30
0.0
 40
3.000000000000265
100
AcDbArc
 50
45.0
 51
225.0
  0
LINE
  5
291
330
1F
100
AcDbEntity
  8
0
  6
Continuous
 62
     7
370
    25
100
AcDbLine
 10
2345.9856115108
 20
852.7913686946
 30
0.0
 11
2345.9856115108
 21
868.5487282589
 31
0.0
  0
LINE
  5
292
330
1F
100
AcDbEntity
  8
0
  6
Continuous
 62
     7
370
    25
100
AcDbLine
 10
2345.9856115108
 20
852.7913686946
 30
0.0
 11
1845.9856115108
 21
852.7913686946
 31
0.0
  0
LINE
  5
293
330
1F
100
AcDbEntity
  8
0
  6
Continuous
 62
     7
370
    25
100
AcDbLine
 10
1845.9856115108
 20
852.7913686946
 30
0.0
 11
1845.9856115108
 21
868.5487282589
 31
0.0
  0
ARC
  5
294
330
1F
100
AcDbEntity
  8
0
  6
Continuous
 62
     7
370
    25
100
AcDbCircle
 10
1843.8642911672
 20
870.6700465629
 30
0.0
 40
3.000000000000105
100
AcDbArc
 50
315.0
 51
135.0
  0
LINE
  5
295
330
1F
100
AcDbEntity
  8
0
  6
Continuous
 62
     7
370
    25
100
AcDbLine
 10
1835.9856210475
 20
872.7913682476
 30
0.0
 11
1841.7429528957
 21
872.7913682476
 31
0.0
  0
LINE
  5
296
330
1F
100
AcDbEntity
  8
0
  6
Continuous
 62
     7
370
    25
100
AcDbLine
 10
1835.9856210475
 20
912.7913673535
 30
0.0
 11
1835.9856210475
 21
872.7913682476
 31
0.0
  0
LINE
  5
297
330
1F
100
AcDbEntity
  8
0
  6
Continuous
 62
     7
370
    25
100
AcDbLine
 10
1841.7429528957
 20
912.7913673535
 30
0.0
 11
1835.9856210475
 21
912.7913673535
 31
0.0
  0
ARC
  5
298
330
1F
100
AcDbEntity
  8
0
  6
Continuous
 62
     7
370
    25
100
AcDbCircle
 10
1843.8642911672
 20
914.91268725
 30
0.0
 40
3.000000000000105
100
AcDbArc
 50
225.0
 51
45.0
  0
LINE
  5
299
330
1F
100
AcDbEntity
  8
0
  6
Continuous
 62
     7
370
    25
100
AcDbLine
 10
1845.9856115108
 20
917.0340073422
 30
0.0
 11
1845.9856115108
 21
932.7913669065
 31
0.0
  0
LINE
  5
29A
330
1F
100
AcDbEntity
  8
0
  6
Continuous
 62
     7
370
    25
100
AcDbLine
 10
2345.9856115108
 20
932.7913669065
 30
0.0
 11
1845.9856115108
 21
932.7913669065
 31
0.0
  0
LINE
  5
29B
330
1F
100
AcDbEntity
  8
0
  6
Continuous
 62
     7
370
    25
100
AcDbLine
 10
2345.9856115108
 20
917.0340073422
 30
0.0
 11
2345.9856115108
 21
932.7913669065
 31
0.0
  0
ARC
  5
29C
330
1F
100
AcDbEntity
  8
0
  6
Continuous
 62
     7
370
    25
100
AcDbCircle
 10
2348.1069318544
 20
914.91268725
 30
0.0
 40
3.000000000000265
100
AcDbArc
 50
135.0
 51
315.0
  0
LINE
  5
29D
330
1F
100
AcDbEntity
  8
0
  6
Continuous
 62
     7
370
    25
100
AcDbLine
 10
2355.9856112873
 20
912.7913673535
 30
0.0
 11
2355.9856112873
 21
872.7913682476
 31
0.0
  0
LINE
  5
29E
330
1F
100
AcDbEntity
  8
0
  6
Continuous
 62
     7
370
    25
100
AcDbLine
 10
2355.9856112873
 20
872.7913682476
 30
0.0
 11
2350.2282519651
 21
872.7913682476
 31
0.0
  0
LINE
  5
29F
330
1F
100
AcDbEntity
  8
0
  6
Continuous
 62
     7
370
    25
100
AcDbLine
 10
2350.2282519651
 20
912.7913673535
 30
0.0
 11
2355.9856112873
 21
912.7913673535
 31
0.0
  0
ARC
  5
2A0
330
1F
100
AcDbEntity
  8
0
  6
Continuous
 62
     7
370
    25
100
AcDbCircle
 10
1843.1304782176
 20
1123.4758019586
 30
0.0
 40
3.000000000000024
100
AcDbArc
 50
315.0
 51
135.0
  0
LINE
  5
2A1
330
1F
100
AcDbEntity
  8
0
  6
Continuous
 62
     7
370
    25
100
AcDbLine
 10
1841.009157874
 20
1125.5971223022
 30
0.0
 11
1835.2517985611
 21
1125.5971223022
 31
0.0
  0
LINE
  5
2A2
330
1F
100
AcDbEntity
  8
0
  6
Continuous
 62
     7
370
    25
100
AcDbLine
 10
1835.2517985611
 20
1125.5971223022
 30
0.0
 11
1835.2517985611
 21
1153.0971223022
 31
0.0
  0
LINE
  5
2A3
330
1F
100
AcDbEntity
  8
0
  6
Continuous
 62
     7
370
    25
100
AcDbLine
 10
1835.2517985611
 20
1153.0971223022
 30
0.0
 11
2355.2517985611
 21
1153.0971223022
 31
0.0
  0
LINE
  5
2A4
330
1F
100
AcDbEntity
  8
0
  6
Continuous
 62
     7
370
    25
100
AcDbLine
 10
2355.2517985611
 20
1125.5971223022
 30
0.0
 11
2355.2517985611
 21
1153.0971223022
 31
0.0
  0
LINE
  5
2A5
330
1F
100
AcDbEntity
  8
0
  6
Continuous
 62
     7
370
    25
100
AcDbLine
 10
2349.4944392483
 20
1125.5971223022
 30
0.0
 11
2355.2517985611
 21
1125.5971223022
 31
0.0
  0
ARC
  5
2A6
330
1F
100
AcDbEntity
  8
0
  6
Continuous
 62
     7
370
    25
100
AcDbCircle
 10
2347.3731189047
 20
1123.4758019586
 30
0.0
 40
3.000000000000346
100
AcDbArc
 50
45.0
 51
225.0
  0
LINE
  5
2A7
330
1F
100
AcDbEntity
  8
0
  6
Continuous
 62
     7
370
    25
100
AcDbLine
 10
2345.2517985611
 20
1089.8397629893
 30
0.0
 11
2345.2517985611
 21
1121.354481615
 31
0.0
  0
ARC
  5
2A8
330
1F
100
AcDbEntity
  8
0
  6
Continuous
 62
     7
370
    25
100
AcDbCircle
 10
2347.3731189047
 20
1087.7184426457
 30
0.0
 40
3.000000000000185
100
AcDbArc
 50
135.0
 51
315.0
  0
LINE
  5
2A9
330
1F
100
AcDbEntity
  8
0
  6
Continuous
 62
     7
370
    25
100
AcDbLine
 10
2355.2517985611
 20
1085.5971223022
 30
0.0
 11
2349.4944392483
 21
1085.5971223022
 31
0.0
  0
LINE
  5
2AA
330
1F
100
AcDbEntity
  8
0
  6
Continuous
 62
     7
370
    25
100
AcDbLine
 10
2355.2517985611
 20
1058.0971223022
 30
0.0
 11
2355.2517985611
 21
1085.5971223022
 31
0.0
  0
LINE
  5
2AB
330
1F
100
AcDbEntity
  8
0
  6
Continuous
 62
     7
370
    25
100
AcDbLine
 10
1835.2517985611
 20
1058.0971223022
 30
0.0
 11
2355.2517985611
 21
1058.0971223022
 31
0.0
  0
LINE
  5
2AC
330
1F
100
AcDbEntity
  8
0
  6
Continuous
 62
     7
370
    25
100
AcDbLine
 10
1835.2517985611
 20
1058.0971223022
 30
0.0
 11
1835.2517985611
 21
1085.5971223022
 31
0.0
  0
LINE
  5
2AD
330
1F
100
AcDbEntity
  8
0
  6
Continuous
 62
     7
370
    25
100
AcDbLine
 10
1835.2517985611
 20
1085.5971223022
 30
0.0
 11
1841.009157874
 21
1085.5971223022
 31
0.0
  0
ARC
  5
2AE
330
1F
100
AcDbEntity
  8
0
  6
Continuous
 62
     7
370
    25
100
AcDbCircle
 10
1843.1304782176
 20
1087.7184426457
 30
0.0
 40
3.000000000000024
100
AcDbArc
 50
225.0
 51
45.0
  0
LINE
  5
2AF
330
1F
100
AcDbEntity
  8
0
  6
Continuous
 62
     7
370
    25
100
AcDbLine
 10
1845.2517985611
 20
1089.8397629893
 30
0.0
 11
1845.2517985611
 21
1121.354481615
 31
0.0
  0
CIRCLE
  5
2B0
330
1F
100
AcDbEntity
  8
0
  6
Continuous
 62
     7
370
    25
100
AcDbCircle
 10
1430.2101806485
 20
128.0243187134
 30
0.0
 40
15.00000000000001
  0
CIRCLE
  5
2B1
330
1F
100
AcDbEntity
  8
0
  6
Continuous
 62
     7
370
    25
100
AcDbCircle
 10
1463.7101806485
 20
178.7743187134
 30
0.0
 40
15.00000000000006
  0
CIRCLE
  5
2B2
330
1F
100
AcDbEntity
  8
0
  6
Continuous
 62
     7
370
    25
100
AcDbCircle
 10
1430.2101806485
 20
164.5243187134
 30
0.0
 40
15.0
  0
CIRCLE
  5
2B3
330
1F
100
AcDbEntity
  8
0
  6
Continuous
 62
     7
370
    25
100
AcDbCircle
 10
1396.7101806485
 20
150.2743187134
 30
0.0
 40
15.0
  0
CIRCLE
  5
2B4
330
1F
100
AcDbEntity
  8
0
  6
Continuous
 62
     7
370
    25
100
AcDbCircle
 10
1463.7101806485
 20
142.2743187134
 30
0.0
 40
15.00000000000001
  0
CIRCLE
  5
2B5
330
1F
100
AcDbEntity
  8
0
  6
Continuous
 62
     7
370
    25
100
AcDbCircle
 10
1396.7101806485
 20
113.7743187134
 30
0.0
 40
14.99999999999999
  0
CIRCLE
  5
2B6
330
1F
100
AcDbEntity
  8
0
  6
Continuous
 62
     7
370
    25
100
AcDbCircle
 10
1321.7101806485
 20
142.2743187134
 30
0.0
 40
15.00000000000001
  0
CIRCLE
  5
2B7
330
1F
100
AcDbEntity
  8
0
  6
Continuous
 62
     7
370
    25
100
AcDbCircle
 10
1680.2101806485
 20
128.0243187134
 30
0.0
 40
14.99999999999999
  0
CIRCLE
  5
2B8
330
1F
100
AcDbEntity
  8
0
  6
Continuous
 62
     7
370
    25
100
AcDbCircle
 10
1713.7101806485
 20
178.7743187134
 30
0.0
 40
15.0
  0
CIRCLE
  5
2B9
330
1F
100
AcDbEntity
  8
0
  6
Continuous
 62
     7
370
    25
100
AcDbCircle
 10
1680.2101806485
 20
164.5243187134
 30
0.0
 40
15.00000000000003
  0
CIRCLE
  5
2BA
330
1F
100
AcDbEntity
  8
0
  6
Continuous
 62
     7
370
    25
100
AcDbCircle
 10
1646.7101806485
 20
150.2743187134
 30
0.0
 40
14.99999999999997
  0
CIRCLE
  5
2BB
330
1F
100
AcDbEntity
  8
0
  6
Continuous
 62
     7
370
    25
100
AcDbCircle
 10
1713.7101806485
 20
142.2743187134
 30
0.0
 40
14.99999999999999
  0
CIRCLE
  5
2BC
330
1F
100
AcDbEntity
  8
0
  6
Continuous
 62
     7
370
    25
100
AcDbCircle
 10
1646.7101806485
 20
113.7743187134
 30
0.0
 40
14.99999999999999
  0
CIRCLE
  5
2BD
330
1F
100
AcDbEntity
  8
0
  6
Continuous
 62
     7
370
    25
100
AcDbCircle
 10
1571.7101806485
 20
142.2743187134
 30
0.0
 40
14.99999999999999
  0
LINE
  5
2BE
330
1F
100
AcDbEntity
  8
0
  6
Continuous
 62
     7
370
    25
100
AcDbLine
 10
1777.7101711118
 20
98.7743198161
 30
0.0
 11
1777.7101711118
 21
185.7743135874
 31
0.0
  0
LINE
  5
2BF
330
1F
100
AcDbEntity
  8
0
  6
Continuous
 62
     7
370
    25
100
AcDbLine
 10
1777.7101711118
 20
98.7743198161
 30
0.0
 11
1771.9528392636
 21
98.7743198161
 31
0.0
  0
ARC
  5
2C0
330
1F
100
AcDbEntity
  8
0
  6
Continuous
 62
     7
370
    25
100
AcDbCircle
 10
1769.8315009921
 20
96.6529983698
 30
0.0
 40
3.000000000000115
100
AcDbArc
 50
45.0
 51
225.0
  0
LINE
  5
2C1
330
1F
100
AcDbEntity
  8
0
  6
Continuous
 62
     7
370
    25
100
AcDbLine
 10
1767.7101806485
 20
52.2743187134
 30
0.0
 11
1767.7101806485
 21
94.5316798274
 31
0.0
  0
LINE
  5
2C2
330
1F
100
AcDbEntity
  8
0
  6
Continuous
 62
     7
370
    25
100
AcDbLine
 10
1267.7101806485
 20
52.2743187134
 30
0.0
 11
1767.7101806485
 21
52.2743187134
 31
0.0
  0
LINE
  5
2C3
330
1F
100
AcDbEntity
  8
0
  6
Continuous
 62
     7
370
    25
100
AcDbLine
 10
1267.7101806485
 20
94.5316798274
 30
0.0
 11
1267.7101806485
 21
52.2743187134
 31
0.0
  0
ARC
  5
2C4
330
1F
100
AcDbEntity
  8
0
  6
Continuous
 62
     7
370
    25
100
AcDbCircle
 10
1265.588860305
 20
96.6529983698
 30
0.0
 40
3.000000000000085
100
AcDbArc
 50
315.0
 51
135.0
  0
LINE
  5
2C5
330
1F
100
AcDbEntity
  8
0
  6
Continuous
 62
     7
370
    25
100
AcDbLine
 10
1257.710180872
 20
98.7743198161
 30
0.0
 11
1263.4675401942
 21
98.7743198161
 31
0.0
  0
LINE
  5
2C6
330
1F
100
AcDbEntity
  8
0
  6
Continuous
 62
     7
370
    25
100
AcDbLine
 10
1257.710180872
 20
98.7743198161
 30
0.0
 11
1257.710180872
 21
185.7743135874
 31
0.0
  0
LINE
  5
2C7
330
1F
100
AcDbEntity
  8
0
  6
Continuous
 62
     7
370
    25
100
AcDbLine
 10
1257.710180872
 20
185.7743135874
 30
0.0
 11
1263.4675401942
 21
185.7743135874
 31
0.0
  0
ARC
  5
2C8
330
1F
100
AcDbEntity
  8
0
  6
Continuous
 62
     7
370
    25
100
AcDbCircle
 10
1265.588860305
 20
187.8956390569
 30
0.0
 40
3.000000000000125
100
AcDbArc
 50
225.0
 51
45.0
  0
LINE
  5
2C9
330
1F
100
AcDbEntity
  8
0
  6
Continuous
 62
     7
370
    25
100
AcDbLine
 10
1267.7101806485
 20
232.2743258659
 30
0.0
 11
1267.7101806485
 21
190.0169573013
 31
0.0
  0
LINE
  5
2CA
330
1F
100
AcDbEntity
  8
0
  6
Continuous
 62
     7
370
    25
100
AcDbLine
 10
1767.7101806485
 20
232.2743258659
 30
0.0
 11
1267.7101806485
 21
232.2743258659
 31
0.0
  0
LINE
  5
2CB
330
1F
100
AcDbEntity
  8
0
  6
Continuous
 62
     7
370
    25
100
AcDbLine
 10
1767.7101806485
 20
190.0169573013
 30
0.0
 11
1767.7101806485
 21
232.2743258659
 31
0.0
  0
ARC
  5
2CC
330
1F
100
AcDbEntity
  8
0
  6
Continuous
 62
     7
370
    25
100
AcDbCircle
 10
1769.8315009921
 20
187.8956390569
 30
0.0
 40
3.000000000000125
100
AcDbArc
 50
135.0
 51
315.0
  0
LINE
  5
2CD
330
1F
100
AcDbEntity
  8
0
  6
Continuous
 62
     7
370
    25
100
AcDbLine
 10
1777.7101711118
 20
185.7743135874
 30
0.0
 11
1771.9528392636
 21
185.7743135874
 31
0.0
  0
ENDSEC
  0
SECTION
  2
OBJECTS
  0
DICTIONARY
  5
C
330
0
100
AcDbDictionary
281
     1
  3
ACAD_GROUP
350
D
  3
ACAD_LAYOUT
350
1A
  3
ACAD_MLINESTYLE
350
17
  3
ACAD_PLOTSETTINGS
350
19
  3
ACAD_PLOTSTYLENAME
350
E
  3
ACAD_SCALELIST
350
47
  0
DICTIONARY
  5
D
102
{ACAD_REACTORS
330
C
102
}
330
C
100
AcDbDictionary
281
     1
  0
DICTIONARY
  5
1A
102
{ACAD_REACTORS
330
C
102
}
330
C
100
AcDbDictionary
281
     1
  3
Layout1
350
1E
  3
Layout2
350
26
  3
Model
350
22
  0
DICTIONARY
  5
17
102
{ACAD_REACTORS
330
C
102
}
330
C
100
AcDbDictionary
281
     1
  3
Standard
350
18
  0
DICTIONARY
  5
19
102
{ACAD_REACTORS
330
C
102
}
330
C
100
AcDbDictionary
281
     1
  0
ACDBDICTIONARYWDFLT
  5
E
102
{ACAD_REACTORS
330
C
102
}
330
C
100
AcDbDictionary
281
     1
  3
Normal
350
F
100
AcDbDictionaryWithDefault
340
F
  0
DICTIONARY
  5
47
102
{ACAD_REACTORS
330
C
102
}
330
C
100
AcDbDictionary
281
     1
  3
A0
350
48
  3
A1
350
49
  3
A2
350
4A
  3
A3
350
4B
  3
A4
350
4C
  3
A5
350
4D
  3
A6
350
4E
  3
A7
350
4F
  3
A8
350
50
  3
A9
350
51
  3
B0
350
52
  3
B1
350
53
  3
B2
350
54
  3
B3
350
55
  3
B4
350
56
  3
B5
350
57
  3
B6
350
58
  3
B7
350
59
  3
B8
350
5A
  3
B9
350
5B
  3
C0
350
5C
  3
C1
350
5D
  3
C2
350
5E
  3
C3
350
5F
  3
C4
350
60
  3
C5
350
61
  3
C6
350
62
  3
C7
350
63
  3
C8
350
64
  3
C9
350
65
  3
D0
350
66
  3
D1
350
67
  3
D2
350
68
  0
LAYOUT
  5
1E
102
{ACAD_REACTORS
330
1A
102
}
330
1A
100
AcDbPlotSettings
  1

  2
none_device
  4

  6

 40
0.0
 41
0.0
 42
0.0
 43
0.0
 44
0.0
 45
0.0
 46
0.0
 47
0.0
 48
0.0
 49
0.0
140
0.0
141
0.0
142
1.0
143
1.0
 70
   688
 72
     1
 73
     0
 74
     5
  7

 75
    16
147
1.0
148
0.0
149
0.0
100
AcDbLayout
  1
Layout1
 70
     1
 71
     1
 10
0.0
 20
0.0
 11
420.0
 21
297.0
 12
0.0
 22
0.0
 32
0.0
 14
1.0000000000E+20
 24
1.0000000000E+20
 34
1.0000000000E+20
 15
-1.0000000000E+20
 25
-1.0000000000E+20
 35
-1.0000000000E+20
146
0.0
 13
0.0
 23
0.0
 33
0.0
 16
1.0
 26
0.0
 36
0.0
 17
0.0
 27
1.0
 37
0.0
 76
     0
330
1B
  0
LAYOUT
  5
26
102
{ACAD_REACTORS
330
1A
102
}
330
1A
100
AcDbPlotSettings
  1

  2
none_device
  4

  6

 40
0.0
 41
0.0
 42
0.0
 43
0.0
 44
0.0
 45
0.0
 46
0.0
 47
0.0
 48
0.0
 49
0.0
140
0.0
141
0.0
142
1.0
143
1.0
 70
   688
 72
     1
 73
     0
 74
     5
  7

 75
    16
147
1.0
148
0.0
149
0.0
100
AcDbLayout
  1
Layout2
 70
     1
 71
     2
 10
0.0
 20
0.0
 11
0.0
 21
0.0
 12
0.0
 22
0.0
 32
0.0
 14
0.0
 24
0.0
 34
0.0
 15
0.0
 25
0.0
 35
0.0
146
0.0
 13
0.0
 23
0.0
 33
0.0
 16
1.0
 26
0.0
 36
0.0
 17
0.0
 27
1.0
 37
0.0
 76
     0
330
23
  0
LAYOUT
  5
22
102
{ACAD_REACTORS
330
1A
102
}
330
1A
100
AcDbPlotSettings
  1

  2
none_device
  4
Letter_(8.50_x_11.00_Inches)
  6

 40
6.35
 41
6.35
 42
6.35000508
 43
6.35000508
 44
215.9
 45
279.4
 46
0.0
 47
0.0
 48
0.0
 49
0.0
140
0.0
141
0.0
142
1.0
143
1.0
 70
  1712
 72
     1
 73
     0
 74
     0
  7

 75
     0
147
1.0
148
0.0
149
0.0
100
AcDbLayout
  1
Model
 70
     1
 71
     0
 10
0.0
 20
0.0
 11
2400.0
 21
1200.0
 12
0.0
 22
0.0
 32
0.0
 14
0.0
 24
0.0
 34
0.0
 15
2400.0
 25
1200.0
 35
0.0
146
0.0
 13
0.0
 23
0.0
 33
0.0
 16
1.0
 26
0.0
 36
0.0
 17
0.0
 27
1.0
 37
0.0
 76
     0
330
1F
331
29
  0
MLINESTYLE
  5
18
102
{ACAD_REACTORS
330
17
102
}
330
17
100
AcDbMlineStyle
  2
Standard
 70
     0
  3

 62
   256
 51
90.0
 52
90.0
 71
     2
 49
0.5
 62
   256
  6
BYLAYER
 49
-0.5
 62
   256
  6
BYLAYER
  0
ACDBPLACEHOLDER
  5
F
102
{ACAD_REACTORS
330
E
102
}
330
E
  0
SCALE
  5
48
102
{ACAD_REACTORS
330
47
102
}
330
47
100
AcDbScale
 70
     0
300
1:1
140
1.0
141
1.0
290
     1
  0
SCALE
  5
49
102
{ACAD_REACTORS
330
47
102
}
330
47
100
AcDbScale
 70
     0
300
1:2
140
1.0
141
2.0
290
     0
  0
SCALE
  5
4A
102
{ACAD_REACTORS
330
47
102
}
330
47
100
AcDbScale
 70
     0
300
1:4
140
1.0
141
4.0
290
     0
  0
SCALE
  5
4B
102
{ACAD_REACTORS
330
47
102
}
330
47
100
AcDbScale
 70
     0
300
1:5
140
1.0
141
5.0
290
     0
  0
SCALE
  5
4C
102
{ACAD_REACTORS
330
47
102
}
330
47
100
AcDbScale
 70
     0
300
1:8
140
1.0
141
8.0
290
     0
  0
SCALE
  5
4D
102
{ACAD_REACTORS
330
47
102
}
330
47
100
AcDbScale
 70
     0
300
1:10
140
1.0
141
10.0
290
     0
  0
SCALE
  5
4E
102
{ACAD_REACTORS
330
47
102
}
330
47
100
AcDbScale
 70
     0
300
1:16
140
1.0
141
16.0
290
     0
  0
SCALE
  5
4F
102
{ACAD_REACTORS
330
47
102
}
330
47
100
AcDbScale
 70
     0
300
1:20
140
1.0
141
20.0
290
     0
  0
SCALE
  5
50
102
{ACAD_REACTORS
330
47
102
}
330
47
100
AcDbScale
 70
     0
300
1:30
140
1.0
141
30.0
290
     0
  0
SCALE
  5
51
102
{ACAD_REACTORS
330
47
102
}
330
47
100
AcDbScale
 70
     0
300
1:40
140
1.0
141
40.0
290
     0
  0
SCALE
  5
52
102
{ACAD_REACTORS
330
47
102
}
330
47
100
AcDbScale
 70
     0
300
1:50
140
1.0
141
50.0
290
     0
  0
SCALE
  5
53
102
{ACAD_REACTORS
330
47
102
}
330
47
100
AcDbScale
 70
     0
300
1:100
140
1.0
141
100.0
290
     0
  0
SCALE
  5
54
102
{ACAD_REACTORS
330
47
102
}
330
47
100
AcDbScale
 70
     0
300
2:1
140
2.0
141
1.0
290
     0
  0
SCALE
  5
55
102
{ACAD_REACTORS
330
47
102
}
330
47
100
AcDbScale
 70
     0
300
4:1
140
4.0
141
1.0
290
     0
  0
SCALE
  5
56
102
{ACAD_REACTORS
330
47
102
}
330
47
100
AcDbScale
 70
     0
300
8:1
140
8.0
141
1.0
290
     0
  0
SCALE
  5
57
102
{ACAD_REACTORS
330
47
102
}
330
47
100
AcDbScale
 70
     0
300
10:1
140
10.0
141
1.0
290
     0
  0
SCALE
  5
58
102
{ACAD_REACTORS
330
47
102
}
330
47
100
AcDbScale
 70
     0
300
100:1
140
100.0
141
1.0
290
     0
  0
SCALE
  5
59
102
{ACAD_REACTORS
330
47
102
}
330
47
100
AcDbScale
 70
     0
300
1/128" = 1'-0"
140
0.0078125
141
12.0
290
     0
  0
SCALE
  5
5A
102
{ACAD_REACTORS
330
47
102
}
330
47
100
AcDbScale
 70
     0
300
1/64" = 1'-0"
140
0.015625
141
12.0
290
     0
  0
SCALE
  5
5B
102
{ACAD_REACTORS
330
47
102
}
330
47
100
AcDbScale
 70
     0
300
1/32" = 1'-0"
140
0.03125
141
12.0
290
     0
  0
SCALE
  5
5C
102
{ACAD_REACTORS
330
47
102
}
330
47
100
AcDbScale
 70
     0
300
1/16" = 1'-0"
140
0.0625
141
12.0
290
     0
  0
SCALE
  5
5D
102
{ACAD_REACTORS
330
47
102
}
330
47
100
AcDbScale
 70
     0
300
3/32" = 1'-0"
140
0.09375
141
12.0
290
     0
  0
SCALE
  5
5E
102
{ACAD_REACTORS
330
47
102
}
330
47
100
AcDbScale
 70
     0
300
1/8" = 1'-0"
140
0.125
141
12.0
290
     0
  0
SCALE
  5
5F
102
{ACAD_REACTORS
330
47
102
}
330
47
100
AcDbScale
 70
     0
300
3/16" = 1'-0"
140
0.1875
141
12.0
290
     0
  0
SCALE
  5
60
102
{ACAD_REACTORS
330
47
102
}
330
47
100
AcDbScale
 70
     0
300
1/4" = 1'-0"
140
0.25
141
12.0
290
     0
  0
SCALE
  5
61
102
{ACAD_REACTORS
330
47
102
}
330
47
100
AcDbScale
 70
     0
300
3/8" = 1'-0"
140
0.375
141
12.0
290
     0
  0
SCALE
  5
62
102
{ACAD_REACTORS
330
47
102
}
330
47
100
AcDbScale
 70
     0
300
1/2" = 1'-0"
140
0.5
141
12.0
290
     0
  0
SCALE
  5
63
102
{ACAD_REACTORS
330
47
102
}
330
47
100
AcDbScale
 70
     0
300
3/4" = 1'-0"
140
0.75
141
12.0
290
     0
  0
SCALE
  5
64
102
{ACAD_REACTORS
330
47
102
}
330
47
100
AcDbScale
 70
     0
300
1" = 1'-0"
140
1.0
141
12.0
290
     0
  0
SCALE
  5
65
102
{ACAD_REACTORS
330
47
102
}
330
47
100
AcDbScale
 70
     0
300
1-1/2" = 1'-0"
140
1.5
141
12.0
290
     0
  0
SCALE
  5
66
102
{ACAD_REACTORS
330
47
102
}
330
47
100
AcDbScale
 70
     0
300
3" = 1'-0"
140
3.0
141
12.0
290
     0
  0
SCALE
  5
67
102
{ACAD_REACTORS
330
47
102
}
330
47
100
AcDbScale
 70
     0
300
6" = 1'-0"
140
6.0
141
12.0
290
     0
  0
SCALE
  5
68
102
{ACAD_REACTORS
330
47
102
}
330
47
100
AcDbScale
 70
     0
300
1'-0" = 1'-0"
140
12.0
141
12.0
290
     0
  0
ENDSEC
  0
EOF
