  0
SECTION
  2
HEADER
  9
$ACADVER
  1
AC1014
  9
$HANDSEED
  5
FFFF
  9
$MEASUREMENT
 70
     1
  0
ENDSEC
  0
SECTION
  2
TABLES
  0
TABLE
  2
VPORT
  5
8
330
0
100
AcDbSymbolTable
 70
     4
  0
VPORT
  5
2E
330
8
100
AcDbSymbolTableRecord
100
AcDbViewportTableRecord
  2
*ACTIVE
 70
     0
 10
0.0
 20
0.0
 11
1.0
 21
1.0
 12
210.0
 22
148.5
 13
0.0
 23
0.0
 14
10.0
 24
10.0
 15
10.0
 25
10.0
 16
0.0
 26
0.0
 36
1.0
 17
0.0
 27
0.0
 37
0.0
 40
341.0
 41
1.24
 42
50.0
 43
0.0
 44
0.0
 50
0.0
 51
0.0
 71
     0
 72
   100
 73
     1
 74
     3
 75
     0
 76
     0
 77
     0
 78
     0
  0
ENDTAB
  0
TABLE
  2
LTYPE
  5
5
330
0
100
AcDbSymbolTable
 70
     1
  0
LTYPE
  5
14
330
5
100
AcDbSymbolTableRecord
100
AcDbLinetypeTableRecord
  2
BYBLOCK
 70
     0
  3

 72
    65
 73
     0
 40
0.0
  0
LTYPE
  5
15
330
5
100
AcDbSymbolTableRecord
100
AcDbLinetypeTableRecord
  2
BYLAYER
 70
     0
  3

 72
    65
 73
     0
 40
0.0
  0
LTYPE
  5
16
330
5
100
AcDbSymbolTableRecord
100
AcDbLinetypeTableRecord
  2
CONTINUOUS
 70
     0
  3
Solid line
 72
    65
 73
     0
 40
0.0
  0
ENDTAB
  0
TABLE
  2
LAYER
  5
2
100
AcDbSymbolTable
 70
3
  0
LAYER
  5
50
100
AcDbSymbolTableRecord
100
AcDbLayerTableRecord
  2
0
 70
0
  6
CONTINUOUS
  0
LAYER
  5
51
100
AcDbSymbolTableRecord
100
AcDbLayerTableRecord
  2
antiguos
 70
0
  6
CONTINUOUS
  0
LAYER
  5
52
100
AcDbSymbolTableRecord
100
AcDbLayerTableRecord
  2
actuales
 70
0
  6
CONTINUOUS
  0
ENDTAB
  0
TABLE
  2
STYLE
  5
3
330
0
100
AcDbSymbolTable
 70
     1
  0
STYLE
  5
11
330
3
100
AcDbSymbolTableRecord
100
AcDbTextStyleTableRecord
  2
STANDARD
 70
     0
 40
0.0
 41
1.0
 50
0.0
 71
     0
 42
2.5
  3
txt
  4

  0
ENDTAB
  0
TABLE
  2
VIEW
  5
6
330
0
100
AcDbSymbolTable
 70
     0
  0
ENDTAB
  0
TABLE
  2
UCS
  5
7
330
0
100
AcDbSymbolTable
 70
     0
  0
ENDTAB
  0
TABLE
  2
APPID
  5
9
330
0
100
AcDbSymbolTable
 70
     2
  0
APPID
  5
12
330
9
100
AcDbSymbolTableRecord
100
AcDbRegAppTableRecord
  2
ACAD
 70
     0
  0
ENDTAB
  0
TABLE
  2
DIMSTYLE
  5
A
330
0
100
AcDbSymbolTable
 70
     1
  0
DIMSTYLE
105
27
330
A
100
AcDbSymbolTableRecord
100
AcDbDimStyleTableRecord
  2
ISO-25
 70
     0
  3

  4

  5

  6

  7

 40
1.0
 41
2.5
 42
0.625
 43
3.75
 44
1.25
 45
0.0
 46
0.0
 47
0.0
 48
0.0
140
2.5
141
2.5
142
0.0
143
0.03937007874016
144
1.0
145
0.0
146
1.0
147
0.625
 71
     0
 72
     0
 73
     0
 74
     0
 75
     0
 76
     0
 77
     1
 78
     8
170
     0
171
     3
172
     1
173
     0
174
     0
175
     0
176
     0
177
     0
178
     0
270
     2
271
     2
272
     2
273
     2
274
     3
340
11
275
     0
280
     0
281
     0
282
     0
283
     0
284
     8
285
     0
286
     0
287
     3
288
     0
  0
ENDTAB
  0
TABLE
  2
BLOCK_RECORD
  5
1
330
0
100
AcDbSymbolTable
 70
     1
  0
BLOCK_RECORD
  5
1F
330
1
100
AcDbSymbolTableRecord
100
AcDbBlockTableRecord
  2
*MODEL_SPACE
  0
BLOCK_RECORD
  5
1B
330
1
100
AcDbSymbolTableRecord
100
AcDbBlockTableRecord
  2
*PAPER_SPACE
  0
ENDTAB
  0
ENDSEC
  0
SECTION
  2
BLOCKS
  0
BLOCK
  5
20
330
1F
100
AcDbEntity
  8
0
100
AcDbBlockBegin
  2
*MODEL_SPACE
 70
     0
 10
0.0
 20
0.0
 30
0.0
  3
*MODEL_SPACE
  1

  0
ENDBLK
  5
21
330
1F
100
AcDbEntity
  8
0
100
AcDbBlockEnd
  0
BLOCK
  5
1C
330
1B
100
AcDbEntity
 67
     1
  8
0
100
AcDbBlockBegin
  2
*PAPER_SPACE
  1

  0
ENDBLK
  5
1D
330
1B
100
AcDbEntity
 67
     1
  8
0
100
AcDbBlockEnd
  0
ENDSEC
  0
SECTION
  2
ENTITIES
  0
SPLINE
  5
100
100
AcDbEntity
  8
0
 62
7
100
AcDbSpline
 70
8
 71
3
 72
8
 73
4
 74
0
 40
0
 40
0
 40
0
 40
0
 40
1
 40
1
 40
1
 40
1
 10
168.840785
 20
17.045245
 30
0.0
 10
168.840785
 20
16.320380
 30
0.0
 10
168.469887
 20
15.650577
 30
0.0
 10
167.867805
 20
15.288145
 30
0.0
  0
SPLINE
  5
101
100
AcDbEntity
  8
0
 62
7
100
AcDbSpline
 70
8
 71
3
 72
8
 73
4
 74
0
 40
0
 40
0
 40
0
 40
0
 40
1
 40
1
 40
1
 40
1
 10
167.867805
 20
15.288145
 30
0.0
 10
167.265722
 20
14.925712
 30
0.0
 10
166.523926
 20
14.925712
 30
0.0
 10
165.921843
 20
15.288145
 30
0.0
  0
SPLINE
  5
102
100
AcDbEntity
  8
0
 62
7
100
AcDbSpline
 70
8
 71
3
 72
8
 73
4
 74
0
 40
0
 40
0
 40
0
 40
0
 40
1
 40
1
 40
1
 40
1
 10
165.921843
 20
15.288145
 30
0.0
 10
165.319760
 20
15.650577
 30
0.0
 10
164.948862
 20
16.320380
 30
0.0
 10
164.948862
 20
17.045245
 30
0.0
  0
SPLINE
  5
103
100
AcDbEntity
  8
0
 62
7
100
AcDbSpline
 70
8
 71
3
 72
8
 73
4
 74
0
 40
0
 40
0
 40
0
 40
0
 40
1
 40
1
 40
1
 40
1
 10
164.948862
 20
17.045245
 30
0.0
 10
164.948862
 20
17.770109
 30
0.0
 10
165.319760
 20
18.439912
 30
0.0
 10
165.921843
 20
18.802344
 30
0.0
  0
SPLINE
  5
104
100
AcDbEntity
  8
0
 62
7
100
AcDbSpline
 70
8
 71
3
 72
8
 73
4
 74
0
 40
0
 40
0
 40
0
 40
0
 40
1
 40
1
 40
1
 40
1
 10
165.921843
 20
18.802344
 30
0.0
 10
166.523926
 20
19.164777
 30
0.0
 10
167.265722
 20
19.164777
 30
0.0
 10
167.867805
 20
18.802344
 30
0.0
  0
SPLINE
  5
105
100
AcDbEntity
  8
0
 62
7
100
AcDbSpline
 70
8
 71
3
 72
8
 73
4
 74
0
 40
0
 40
0
 40
0
 40
0
 40
1
 40
1
 40
1
 40
1
 10
167.867805
 20
18.802344
 30
0.0
 10
168.469887
 20
18.439912
 30
0.0
 10
168.840785
 20
17.770109
 30
0.0
 10
168.840785
 20
17.045245
 30
0.0
  0
LWPOLYLINE
  5
106
100
AcDbEntity
  8
0
 62
7
100
AcDbPolyline
 90
1
 70
1
 10
168.840785
 20
17.045245
 30
0.0
  0
LWPOLYLINE
  5
107
100
AcDbEntity
  8
0
 62
7
100
AcDbPolyline
 90
4
 70
1
 10
177.410736
 20
22.145596
 30
0.0
 10
185.292181
 20
22.145596
 30
0.0
 10
185.292181
 20
16.006366
 30
0.0
 10
177.410736
 20
16.006366
 30
0.0
  0
LWPOLYLINE
  5
108
100
AcDbEntity
  8
actuales
 62
7
100
AcDbPolyline
 90
26
 70
1
 10
192.988697
 20
5.032616
 30
0.0
 10
189.081798
 20
5.032616
 30
0.0
 10
189.081798
 20
6.820519
 30
0.0
 10
186.764146
 20
6.820519
 30
0.0
 10
186.764146
 20
5.165053
 30
0.0
 10
176.036728
 20
5.165053
 30
0.0
 10
176.036728
 20
6.820519
 30
0.0
 10
173.719076
 20
6.820519
 30
0.0
 10
173.719076
 20
5.098833
 30
0.0
 10
163.918719
 20
5.098833
 30
0.0
 10
155.177862
 20
13.839693
 30
0.0
 10
155.177862
 20
39.135210
 30
0.0
 10
169.779068
 20
53.736416
 30
0.0
 10
169.779068
 20
91.249269
 30
0.0
 10
173.652859
 20
91.249269
 30
0.0
 10
173.652859
 20
69.529560
 30
0.0
 10
175.970511
 20
69.529560
 30
0.0
 10
175.970511
 20
91.249269
 30
0.0
 10
186.565492
 20
91.249269
 30
0.0
 10
186.565492
 20
69.794434
 30
0.0
 10
188.816924
 20
69.794434
 30
0.0
 10
188.816924
 20
91.315488
 30
0.0
 10
192.856260
 20
91.315488
 30
0.0
 10
192.856260
 20
48.736910
 30
0.0
 10
204.345193
 20
37.247976
 30
0.0
 10
204.345193
 20
16.620874
 30
0.0
  0
LWPOLYLINE
  5
109
100
AcDbEntity
  8
actuales
 62
7
100
AcDbPolyline
 90
26
 70
1
 10
235.878416
 20
90.873581
 30
0.0
 10
231.971517
 20
90.873581
 30
0.0
 10
231.971517
 20
89.085677
 30
0.0
 10
229.653865
 20
89.085677
 30
0.0
 10
229.653865
 20
90.741143
 30
0.0
 10
218.926447
 20
90.741143
 30
0.0
 10
218.926447
 20
89.085677
 30
0.0
 10
216.608795
 20
89.085677
 30
0.0
 10
216.608795
 20
90.807363
 30
0.0
 10
206.808438
 20
90.807363
 30
0.0
 10
198.067580
 20
82.066504
 30
0.0
 10
198.067580
 20
56.770986
 30
0.0
 10
212.668787
 20
42.169780
 30
0.0
 10
212.668787
 20
4.656926
 30
0.0
 10
216.542578
 20
4.656926
 30
0.0
 10
216.542578
 20
26.376636
 30
0.0
 10
218.860230
 20
26.376636
 30
0.0
 10
218.860230
 20
4.656926
 30
0.0
 10
229.455211
 20
4.656926
 30
0.0
 10
229.455211
 20
26.111762
 30
0.0
 10
231.706643
 20
26.111762
 30
0.0
 10
231.706643
 20
4.590709
 30
0.0
 10
235.745978
 20
4.590709
 30
0.0
 10
235.745978
 20
47.169285
 30
0.0
 10
247.234912
 20
58.658219
 30
0.0
 10
247.234912
 20
79.285323
 30
0.0
  0
LWPOLYLINE
  5
10a
100
AcDbEntity
  8
actuales
 62
7
100
AcDbPolyline
 90
16
 70
1
 10
80.652659
 20
89.888732
 30
0.0
 10
79.090281
 20
92.492693
 30
0.0
 10
63.987309
 20
92.492693
 30
0.0
 10
63.987309
 20
4.687128
 30
0.0
 10
103.463357
 20
4.687128
 30
0.0
 10
103.463357
 20
92.596852
 30
0.0
 10
88.152067
 20
92.596852
 30
0.0
 10
86.589690
 20
89.992891
 30
0.0
 10
88.568699
 20
89.992891
 30
0.0
 10
88.568699
 20
25.831293
 30
0.0
 10
86.277214
 20
25.831293
 30
0.0
 10
86.277214
 20
42.496643
 30
0.0
 10
81.173452
 20
42.496643
 30
0.0
 10
81.173452
 20
25.727134
 30
0.0
 10
79.298598
 20
25.727134
 30
0.0
 10
79.298598
 20
90.001690
 30
0.0
  0
LWPOLYLINE
  5
10b
100
AcDbEntity
  8
actuales
 62
7
100
AcDbPolyline
 90
16
 70
1
 10
126.690160
 20
89.888732
 30
0.0
 10
125.127782
 20
92.492693
 30
0.0
 10
110.024810
 20
92.492693
 30
0.0
 10
110.024810
 20
4.687128
 30
0.0
 10
149.500858
 20
4.687128
 30
0.0
 10
149.500858
 20
92.596852
 30
0.0
 10
134.189569
 20
92.596852
 30
0.0
 10
132.627191
 20
89.992891
 30
0.0
 10
134.606200
 20
89.992891
 30
0.0
 10
134.606200
 20
25.831293
 30
0.0
 10
132.314715
 20
25.831293
 30
0.0
 10
132.314715
 20
42.496643
 30
0.0
 10
127.210953
 20
42.496643
 30
0.0
 10
127.210953
 20
25.727134
 30
0.0
 10
125.336099
 20
25.727134
 30
0.0
 10
125.336099
 20
90.001690
 30
0.0
  0
LWPOLYLINE
  5
10c
100
AcDbEntity
  8
actuales
 62
7
100
AcDbPolyline
 90
24
 70
1
 10
28.119939
 20
98.733898
 30
0.0
 10
22.735220
 20
98.733898
 30
0.0
 10
12.808609
 20
88.807287
 30
0.0
 10
12.808609
 20
66.238291
 30
0.0
 10
17.631445
 20
61.415455
 30
0.0
 10
43.431271
 20
61.415455
 30
0.0
 10
51.086934
 20
69.071121
 30
0.0
 10
51.086934
 20
73.074542
 30
0.0
 10
56.448242
 20
73.074542
 30
0.0
 10
56.448242
 20
67.736648
 30
0.0
 10
44.859391
 20
56.147797
 30
0.0
 10
40.855970
 20
56.147797
 30
0.0
 10
40.855970
 20
57.997330
 30
0.0
 10
38.748905
 20
57.997330
 30
0.0
 10
38.748905
 20
56.171207
 30
0.0
 10
28.026292
 20
56.171207
 30
0.0
 10
28.026292
 20
58.090976
 30
0.0
 10
25.778757
 20
58.090976
 30
0.0
 10
25.778757
 20
56.218030
 30
0.0
 10
15.758499
 20
56.218030
 30
0.0
 10
7.002479
 20
65.020877
 30
0.0
 10
7.236595
 20
90.492937
 30
0.0
 10
21.517806
 20
104.774148
 30
0.0
 10
28.073115
 20
104.774148
 30
0.0
  0
LWPOLYLINE
  5
10d
100
AcDbEntity
  8
actuales
 62
7
100
AcDbPolyline
 90
5
 70
1
 10
56.401418
 20
86.606575
 30
0.0
 10
56.401418
 20
88.526344
 30
0.0
 10
41.792441
 20
103.135319
 30
0.0
 10
41.792441
 20
96.018128
 30
0.0
 10
51.227407
 20
86.583162
 30
0.0
  0
LWPOLYLINE
  5
10e
100
AcDbEntity
  8
actuales
 62
7
100
AcDbPolyline
 90
16
 70
1
 10
44.857049
 20
4.859200
 30
0.0
 10
41.017509
 20
4.859200
 30
0.0
 10
41.017509
 20
6.685323
 30
0.0
 10
38.629504
 20
6.685323
 30
0.0
 10
38.629504
 20
4.812377
 30
0.0
 10
28.094184
 20
4.812377
 30
0.0
 10
28.094184
 20
6.778969
 30
0.0
 10
25.753002
 20
6.778969
 30
0.0
 10
25.753002
 20
4.859200
 30
0.0
 10
15.592272
 20
4.859200
 30
0.0
 10
6.976722
 20
13.849340
 30
0.0
 10
6.976722
 20
39.227753
 30
0.0
 10
21.328169
 20
53.579198
 30
0.0
 10
39.846918
 20
53.579198
 30
0.0
 10
56.293722
 20
37.132396
 30
0.0
 10
56.293722
 20
16.330994
 30
0.0
  0
LWPOLYLINE
  5
10f
100
AcDbEntity
  8
actuales
 62
7
100
AcDbPolyline
 90
8
 70
1
 10
43.311867
 20
10.150272
 30
0.0
 10
17.465218
 20
10.150272
 30
0.0
 10
12.759442
 20
14.856048
 30
0.0
 10
12.759442
 20
37.495277
 30
0.0
 10
22.721172
 20
47.457007
 30
0.0
 10
38.723150
 20
47.457007
 30
0.0
 10
51.406506
 20
34.773654
 30
0.0
 10
51.406506
 20
18.016644
 30
0.0
  0
ENDSEC
  0
SECTION
  2
OBJECTS
  0
DICTIONARY
  5
C
330
0
100
AcDbDictionary
  3
ACAD_GROUP
350
D
  3
ACAD_MLINESTYLE
350
17
  0
DICTIONARY
  5
D
330
C
100
AcDbDictionary
  0
DICTIONARY
  5
1A
330
C
100
AcDbDictionary
  0
DICTIONARY
  5
17
330
C
100
AcDbDictionary
  3
STANDARD
350
18
  0
DICTIONARY
  5
19
330
C
100
AcDbDictionary
  0
ENDSEC
  0
EOF
