  0
SECTION
  2
HEADER
  9
$ACADVER
  1
AC1015
  9
$ACADMAINTVER
 70
     6
  9
$DWGCODEPAGE
  3
ANSI_1252
  9
$INSBASE
 10
0.0
 20
0.0
 30
0.0
  9
$EXTMIN
 10
0.0
 20
0.0
 30
0.0
  9
$EXTMAX
 10
600.0
 20
300.0
 30
0.0
  9
$LIMMIN
 10
0.0
 20
0.0
  9
$LIMMAX
 10
600.0
 20
300.0
  9
$ORTHOMODE
 70
     0
  9
$REGENMODE
 70
     1
  9
$FILLMODE
 70
     1
  9
$QTEXTMODE
 70
     0
  9
$MIRRTEXT
 70
     1
  9
$LTSCALE
 40
1.0
  9
$ATTMODE
 70
     1
  9
$TEXTSIZE
 40
3.5
  9
$TRACEWID
 40
1.0
  9
$TEXTSTYLE
  7
Standard
  9
$CLAYER
  8
0
  9
$CELTYPE
  6
ByLayer
  9
$CECOLOR
 62
   256
  9
$CELTSCALE
 40
1.0
  9
$DISPSILH
 70
     0
  9
$DIMSCALE
 40
1.0
  9
$DIMASZ
 40
3.302
  9
$DIMEXO
 40
1.0
  9
$DIMDLI
 40
3.75
  9
$DIMRND
 40
0.0
  9
$DIMDLE
 40
0.0
  9
$DIMEXE
 40
1.0
  9
$DIMTP
 40
0.0
  9
$DIMTM
 40
0.0
  9
$DIMTXT
 40
3.5
  9
$DIMCEN
 40
2.5
  9
$DIMTSZ
 40
0.0
  9
$DIMTOL
 70
     0
  9
$DIMLIM
 70
     0
  9
$DIMTIH
 70
     1
  9
$DIMTOH
 70
     1
  9
$DIMSE1
 70
     0
  9
$DIMSE2
 70
     0
  9
$DIMTAD
 70
     1
  9
$DIMZIN
 70
     0
  9
$DIMBLK
  1

  9
$DIMASO
 70
     1
  9
$DIMSHO
 70
     1
  9
$DIMPOST
  1

  9
$DIMAPOST
  1

  9
$DIMALT
 70
     0
  9
$DIMALTD
 70
     3
  9
$DIMALTF
 40
0.0393700787
  9
$DIMLFAC
 40
1.0
  9
$DIMTOFL
 70
     1
  9
$DIMTVP
 40
0.0
  9
$DIMTIX
 70
     0
  9
$DIMSOXD
 70
     0
  9
$DIMSAH
 70
     0
  9
$DIMBLK1
  1

  9
$DIMBLK2
  1

  9
$DIMSTYLE
  2
ISO-25
  9
$DIMCLRD
 70
     0
  9
$DIMCLRE
 70
     0
  9
$DIMCLRT
 70
     0
  9
$DIMTFAC
 40
1.0
  9
$DIMGAP
 40
1.524
  9
$DIMJUST
 70
     0
  9
$DIMSD1
 70
     0
  9
$DIMSD2
 70
     0
  9
$DIMTOLJ
 70
     0
  9
$DIMTZIN
 70
     0
  9
$DIMALTZ
 70
     0
  9
$DIMALTTZ
 70
     0
  9
$DIMUPT
 70
     0
  9
$DIMDEC
 70
     2
  9
$DIMTDEC
 70
     2
  9
$DIMALTU
 70
     2
  9
$DIMALTTD
 70
     3
  9
$DIMTXSTY
  7
Standard
  9
$DIMAUNIT
 70
     0
  9
$DIMADEC
 70
     2
  9
$DIMALTRND
 40
0.0
  9
$DIMAZIN
 70
     0
  9
$DIMDSEP
 70
    44
  9
$DIMATFIT
 70
     3
  9
$DIMFRAC
 70
     0
  9
$DIMLDRBLK
  1

  9
$DIMLUNIT
 70
     2
  9
$DIMLWD
 70
    -2
  9
$DIMLWE
 70
    -2
  9
$DIMTMOVE
 70
     0
  9
$LUNITS
 70
     2
  9
$LUPREC
 70
     2
  9
$SKETCHINC
 40
1.0
  9
$FILLETRAD
 40
10.0
  9
$AUNITS
 70
     0
  9
$AUPREC
 70
     2
  9
$MENU
  1
.
  9
$ELEVATION
 40
0.0
  9
$PELEVATION
 40
0.0
  9
$THICKNESS
 40
0.0
  9
$LIMCHECK
 70
     0
  9
$CHAMFERA
 40
0.0
  9
$CHAMFERB
 40
0.0
  9
$CHAMFERC
 40
0.0
  9
$CHAMFERD
 40
0.0
  9
$SKPOLY
 70
     0
  9
$TDCREATE
 40
2458198.616264282
  9
$TDUCREATE
 40
2458198.824597616
  9
$TDUPDATE
 40
2458198.616265729
  9
$TDUUPDATE
 40
2458198.824599063
  9
$TDINDWG
 40
0.0000000116
  9
$TDUSRTIMER
 40
0.0000000116
  9
$USRTIMER
 70
     1
  9
$ANGBASE
 50
0.0
  9
$ANGDIR
 70
     0
  9
$PDMODE
 70
     0
  9
$PDSIZE
 40
-1.0
  9
$PLINEWID
 40
0.0
  9
$SPLFRAME
 70
     0
  9
$SPLINETYPE
 70
     6
  9
$SPLINESEGS
 70
     8
  9
$HANDSEED
  5
357
  9
$SURFTAB1
 70
     6
  9
$SURFTAB2
 70
     6
  9
$SURFTYPE
 70
     6
  9
$SURFU
 70
     6
  9
$SURFV
 70
     6
  9
$UCSBASE
  2

  9
$UCSNAME
  2

  9
$UCSORG
 10
0.0
 20
0.0
 30
0.0
  9
$UCSXDIR
 10
1.0
 20
0.0
 30
0.0
  9
$UCSYDIR
 10
0.0
 20
1.0
 30
0.0
  9
$UCSORTHOREF
  2

  9
$UCSORTHOVIEW
 70
     0
  9
$UCSORGTOP
 10
0.0
 20
0.0
 30
0.0
  9
$UCSORGBOTTOM
 10
0.0
 20
0.0
 30
0.0
  9
$UCSORGLEFT
 10
0.0
 20
0.0
 30
0.0
  9
$UCSORGRIGHT
 10
0.0
 20
0.0
 30
0.0
  9
$UCSORGFRONT
 10
0.0
 20
0.0
 30
0.0
  9
$UCSORGBACK
 10
0.0
 20
0.0
 30
0.0
  9
$PUCSBASE
  2

  9
$PUCSNAME
  2

  9
$PUCSORG
 10
0.0
 20
0.0
 30
0.0
  9
$PUCSXDIR
 10
1.0
 20
0.0
 30
0.0
  9
$PUCSYDIR
 10
0.0
 20
1.0
 30
0.0
  9
$PUCSORTHOREF
  2

  9
$PUCSORTHOVIEW
 70
     0
  9
$PUCSORGTOP
 10
0.0
 20
0.0
 30
0.0
  9
$PUCSORGBOTTOM
 10
0.0
 20
0.0
 30
0.0
  9
$PUCSORGLEFT
 10
0.0
 20
0.0
 30
0.0
  9
$PUCSORGRIGHT
 10
0.0
 20
0.0
 30
0.0
  9
$PUCSORGFRONT
 10
0.0
 20
0.0
 30
0.0
  9
$PUCSORGBACK
 10
0.0
 20
0.0
 30
0.0
  9
$USERI1
 70
     0
  9
$USERI2
 70
     0
  9
$USERI3
 70
     0
  9
$USERI4
 70
     0
  9
$USERI5
 70
     0
  9
$USERR1
 40
0.0
  9
$USERR2
 40
0.0
  9
$USERR3
 40
0.0
  9
$USERR4
 40
0.0
  9
$USERR5
 40
0.0
  9
$WORLDVIEW
 70
     1
  9
$SHADEDGE
 70
     3
  9
$SHADEDIF
 70
    70
  9
$TILEMODE
 70
     1
  9
$MAXACTVP
 70
    64
  9
$PINSBASE
 10
0.0
 20
0.0
 30
0.0
  9
$PLIMCHECK
 70
     0
  9
$PEXTMIN
 10
1.0000000000E+20
 20
1.0000000000E+20
 30
1.0000000000E+20
  9
$PEXTMAX
 10
-1.0000000000E+20
 20
-1.0000000000E+20
 30
-1.0000000000E+20
  9
$PLIMMIN
 10
0.0
 20
0.0
  9
$PLIMMAX
 10
420.0
 20
297.0
  9
$UNITMODE
 70
     0
  9
$VISRETAIN
 70
     1
  9
$PLINEGEN
 70
     0
  9
$PSLTSCALE
 70
     1
  9
$TREEDEPTH
 70
  3020
  9
$CMLSTYLE
  2
Standard
  9
$CMLJUST
 70
     0
  9
$CMLSCALE
 40
20.0
  9
$PROXYGRAPHICS
 70
     1
  9
$MEASUREMENT
 70
     1
  9
$CELWEIGHT
370
    -1
  9
$ENDCAPS
280
     0
  9
$JOINSTYLE
280
     0
  9
$LWDISPLAY
290
     1
  9
$INSUNITS
 70
     4
  9
$HYPERLINKBASE
  1

  9
$STYLESHEET
  1

  9
$XEDIT
290
     1
  9
$CEPSNTYPE
380
     0
  9
$PSTYLEMODE
290
     1
  9
$FINGERPRINTGUID
  2
{8F43DA3B-D10A-459A-81FD-6585FB14BD31}
  9
$VERSIONGUID
  2
{FAEB1C32-E019-11D5-929B-00C0DF256EC4}
  9
$EXTNAMES
290
     1
  9
$PSVPSCALE
 40
0.0
  9
$OLESTARTUP
290
     0
  0
ENDSEC
  0
SECTION
  2
CLASSES
  0
CLASS
  1
ACDBDICTIONARYWDFLT
  2
AcDbDictionaryWithDefault
  3
ObjectDBX Classes
 90
        0
280
     0
281
     0
  0
CLASS
  1
VISUALSTYLE
  2
AcDbVisualStyle
  3
ObjectDBX Classes
 90
     4095
280
     0
281
     0
  0
CLASS
  1
MATERIAL
  2
AcDbMaterial
  3
ObjectDBX Classes
 90
     1153
280
     0
281
     0
  0
CLASS
  1
SCALE
  2
AcDbScale
  3
ObjectDBX Classes
 90
     1153
280
     0
281
     0
  0
CLASS
  1
TABLESTYLE
  2
AcDbTableStyle
  3
ObjectDBX Classes
 90
     4095
280
     0
281
     0
  0
CLASS
  1
MLEADERSTYLE
  2
AcDbMLeaderStyle
  3
ACDB_MLEADERSTYLE_CLASS
 90
     4095
280
     0
281
     0
  0
CLASS
  1
SUN
  2
AcDbSun
  3
SCENEOE
 90
     1153
280
     0
281
     0
  0
CLASS
  1
ACDBPLACEHOLDER
  2
AcDbPlaceHolder
  3
ObjectDBX Classes
 90
        0
280
     0
281
     0
  0
CLASS
  1
LAYOUT
  2
AcDbLayout
  3
ObjectDBX Classes
 90
        0
280
     0
281
     0
  0
ENDSEC
  0
SECTION
  2
TABLES
  0
TABLE
  2
VPORT
  5
8
330
0
100
AcDbSymbolTable
 70
     1
  0
VPORT
  5
29
330
8
100
AcDbSymbolTableRecord
100
AcDbViewportTableRecord
  2
*Active
 70
     0
 10
0.0
 20
0.0
 11
1.0
 21
1.0
 12
300.0
 22
150.0
 13
0.0
 23
0.0
 14
10.0
 24
10.0
 15
10.0
 25
10.0
 16
0.0
 26
0.0
 36
1.0
 17
0.0
 27
0.0
 37
0.0
 40
300.0
 41
2.0
 42
50.0
 43
0.0
 44
0.0
 50
0.0
 51
0.0
 71
     0
 72
  2000
 73
     1
 74
     3
 75
     0
 76
     0
 77
     0
 78
     0
281
     0
 65
     1
110
0.0
120
0.0
130
0.0
111
1.0
121
0.0
131
0.0
112
0.0
122
1.0
132
0.0
 79
     0
146
0.0
  0
ENDTAB
  0
TABLE
  2
LTYPE
  5
5
330
0
100
AcDbSymbolTable
 70
     6
  0
LTYPE
  5
14
330
5
100
AcDbSymbolTableRecord
100
AcDbLinetypeTableRecord
  2
ByBlock
 70
     0
  3

 72
    65
 73
     0
 40
0.0
  0
LTYPE
  5
15
330
5
100
AcDbSymbolTableRecord
100
AcDbLinetypeTableRecord
  2
ByLayer
 70
     0
  3

 72
    65
 73
     0
 40
0.0
  0
LTYPE
  5
16
330
5
100
AcDbSymbolTableRecord
100
AcDbLinetypeTableRecord
  2
Continuous
 70
     0
  3
Solid line
 72
    65
 73
     0
 40
0.0
  0
LTYPE
  5
6E
330
5
100
AcDbSymbolTableRecord
100
AcDbLinetypeTableRecord
  2
HIDDEN
 70
     0
  3
Hidden __ __ __ __ __ __ __ __ __ __ __ __ __ __
 72
    65
 73
     2
 40
1.905
 49
1.27
 74
     0
 49
-0.635
 74
     0
  0
LTYPE
  5
6F
330
5
100
AcDbSymbolTableRecord
100
AcDbLinetypeTableRecord
  2
PHANTOM
 70
     0
  3
Phantom ______  __  __  ______  __  __  ______
 72
    65
 73
     6
 40
12.7
 49
6.35
 74
     0
 49
-1.27
 74
     0
 49
1.27
 74
     0
 49
-1.27
 74
     0
 49
1.27
 74
     0
 49
-1.27
 74
     0
  0
LTYPE
  5
70
330
5
100
AcDbSymbolTableRecord
100
AcDbLinetypeTableRecord
  2
CENTER
 70
     0
  3
Center ____ _ ____ _ ____ _ ____ _ ____ _ ____
 72
    65
 73
     4
 40
10.16
 49
6.35
 74
     0
 49
-1.27
 74
     0
 49
1.27
 74
     0
 49
-1.27
 74
     0
  0
LTYPE
  5
71
330
5
100
AcDbSymbolTableRecord
100
AcDbLinetypeTableRecord
  2
CENTERX2
 70
     0
  3
Center (2x) ________  __  ________  __  _____
 72
    65
 73
     4
 40
20.32
 49
12.7
 74
     0
 49
-2.54
 74
     0
 49
2.54
 74
     0
 49
-2.54
 74
     0
  0
LTYPE
  5
72
330
5
100
AcDbSymbolTableRecord
100
AcDbLinetypeTableRecord
  2
DOT2
 70
     0
  3
Dot (.5x) ........................................
 72
    65
 73
     2
 40
0.635
 49
0.0
 74
     0
 49
-0.635
 74
     0
  0
ENDTAB
  0
TABLE
  2
LAYER
  5
2
330
0
100
AcDbSymbolTable
 70
     1
  0
LAYER
  5
10
330
2
100
AcDbSymbolTableRecord
100
AcDbLayerTableRecord
  2
0
 70
     0
 62
     7
  6
Continuous
370
    -3
390
F
  0
ENDTAB
  0
TABLE
  2
STYLE
  5
3
330
0
100
AcDbSymbolTable
 70
     1
  0
STYLE
  5
11
330
3
100
AcDbSymbolTableRecord
100
AcDbTextStyleTableRecord
  2
Standard
 70
     0
 40
0.0
 41
1.0
 50
0.0
 71
     0
 42
3.5
  3
txt
  4

  0
ENDTAB
  0
TABLE
  2
VIEW
  5
6
330
0
100
AcDbSymbolTable
 70
     0
  0
ENDTAB
  0
TABLE
  2
UCS
  5
7
330
0
100
AcDbSymbolTable
 70
     0
  0
ENDTAB
  0
TABLE
  2
APPID
  5
9
330
0
100
AcDbSymbolTable
 70
     1
  0
APPID
  5
12
330
9
100
AcDbSymbolTableRecord
100
AcDbRegAppTableRecord
  2
ACAD
 70
     0
  0
ENDTAB
  0
TABLE
  2
DIMSTYLE
  5
A
330
0
100
AcDbSymbolTable
 70
     1
100
AcDbDimStyleTable
  0
DIMSTYLE
105
27
330
A
100
AcDbSymbolTableRecord
100
AcDbDimStyleTableRecord
  2
ISO-25
 70
     0
 41
2.5
 42
0.625
 43
3.75
 44
1.25
 73
     0
 74
     0
 77
     1
 78
     8
140
2.5
141
2.5
143
0.0393700787
147
0.625
171
     3
172
     1
178
     0
271
     2
272
     2
274
     3
278
    44
283
     0
284
     8
340
11
  0
ENDTAB
  0
TABLE
  2
BLOCK_RECORD
  5
1
330
0
100
AcDbSymbolTable
 70
     1
  0
BLOCK_RECORD
  5
1F
330
1
100
AcDbSymbolTableRecord
100
AcDbBlockTableRecord
  2
*Model_Space
340
22
  0
BLOCK_RECORD
  5
1B
330
1
100
AcDbSymbolTableRecord
100
AcDbBlockTableRecord
  2
*Paper_Space
340
1E
  0
BLOCK_RECORD
  5
23
330
1
100
AcDbSymbolTableRecord
100
AcDbBlockTableRecord
  2
*Paper_Space0
340
26
  0
ENDTAB
  0
ENDSEC
  0
SECTION
  2
BLOCKS
  0
BLOCK
  5
20
330
1F
100
AcDbEntity
  8
0
100
AcDbBlockBegin
  2
*Model_Space
 70
     0
 10
0.0
 20
0.0
 30
0.0
  3
*Model_Space
  1

  0
ENDBLK
  5
21
330
1F
100
AcDbEntity
  8
0
100
AcDbBlockEnd
  0
BLOCK
  5
1C
330
1B
100
AcDbEntity
 67
     1
  8
0
100
AcDbBlockBegin
  2
*Paper_Space
 70
     0
 10
0.0
 20
0.0
 30
0.0
  3
*Paper_Space
  1

  0
ENDBLK
  5
1D
330
1B
100
AcDbEntity
 67
     1
  8
0
100
AcDbBlockEnd
  0
BLOCK
  5
24
330
23
100
AcDbEntity
  8
0
100
AcDbBlockBegin
  2
*Paper_Space0
 70
     0
 10
0.0
 20
0.0
 30
0.0
  3
*Paper_Space0
  1

  0
ENDBLK
  5
25
330
23
100
AcDbEntity
  8
0
100
AcDbBlockEnd
  0
ENDSEC
  0
SECTION
  2
ENTITIES
  0
LINE
  5
73
330
1F
100
AcDbEntity
  8
0
  6
Continuous
 62
     7
370
    25
100
AcDbLine
 10
27.4832243634
 20
296.7756963696
 30
0.0
 11
27.4832243634
 21
287.8135375086
 31
0.0
  0
LINE
  5
74
330
1F
100
AcDbEntity
  8
0
  6
Continuous
 62
     7
370
    25
100
AcDbLine
 10
27.4832243634
 20
287.8135375086
 30
0.0
 11
30.2332243634
 21
287.8135375086
 31
0.0
  0
LINE
  5
75
330
1F
100
AcDbEntity
  8
0
  6
Continuous
 62
     7
370
    25
100
AcDbLine
 10
30.2332243634
 20
287.8135375086
 30
0.0
 11
30.2332243634
 21
296.7756963696
 31
0.0
  0
LINE
  5
76
330
1F
100
AcDbEntity
  8
0
  6
Continuous
 62
     7
370
    25
100
AcDbLine
 10
53.8203832244
 20
273.1885375086
 30
0.0
 11
44.8582243634
 21
273.1885375086
 31
0.0
  0
LINE
  5
77
330
1F
100
AcDbEntity
  8
0
  6
Continuous
 62
     7
370
    25
100
AcDbLine
 10
44.8582243634
 20
273.1885375086
 30
0.0
 11
44.8582243634
 21
270.4385375086
 31
0.0
  0
LINE
  5
78
330
1F
100
AcDbEntity
  8
0
  6
Continuous
 62
     7
370
    25
100
AcDbLine
 10
44.8582243634
 20
270.4385375086
 30
0.0
 11
53.8203832244
 21
270.4385375086
 31
0.0
  0
LINE
  5
79
330
1F
100
AcDbEntity
  8
0
  6
Continuous
 62
     7
370
    25
100
AcDbLine
 10
30.2332243634
 20
246.8513786476
 30
0.0
 11
30.2332243634
 21
255.8135375086
 31
0.0
  0
LINE
  5
7A
330
1F
100
AcDbEntity
  8
0
  6
Continuous
 62
     7
370
    25
100
AcDbLine
 10
30.2332243634
 20
255.8135375086
 30
0.0
 11
27.4832243634
 21
255.8135375086
 31
0.0
  0
LINE
  5
7B
330
1F
100
AcDbEntity
  8
0
  6
Continuous
 62
     7
370
    25
100
AcDbLine
 10
27.4832243634
 20
255.8135375086
 30
0.0
 11
27.4832243634
 21
246.8513786476
 31
0.0
  0
LINE
  5
7C
330
1F
100
AcDbEntity
  8
0
  6
Continuous
 62
     7
370
    25
100
AcDbLine
 10
3.8960655024
 20
270.4385375086
 30
0.0
 11
12.8582243634
 21
270.4385375086
 31
0.0
  0
LINE
  5
7D
330
1F
100
AcDbEntity
  8
0
  6
Continuous
 62
     7
370
    25
100
AcDbLine
 10
12.8582243634
 20
270.4385375086
 30
0.0
 11
12.8582243634
 21
273.1885375086
 31
0.0
  0
LINE
  5
7E
330
1F
100
AcDbEntity
  8
0
  6
Continuous
 62
     7
370
    25
100
AcDbLine
 10
12.8582243634
 20
273.1885375086
 30
0.0
 11
3.8960655024
 21
273.1885375086
 31
0.0
  0
ARC
  5
7F
330
1F
100
AcDbEntity
  8
0
  6
Continuous
 62
     7
370
    25
100
AcDbCircle
 10
28.8582243634
 20
271.8135375086
 30
0.0
 40
25.00000000000001
100
AcDbArc
 50
3.152858804
 51
86.847141196
  0
ARC
  5
80
330
1F
100
AcDbEntity
  8
0
  6
Continuous
 62
     7
370
    25
100
AcDbCircle
 10
28.8582243634
 20
271.8135375086
 30
0.0
 40
25.0
100
AcDbArc
 50
273.152858804
 51
356.847141196
  0
ARC
  5
81
330
1F
100
AcDbEntity
  8
0
  6
Continuous
 62
     7
370
    25
100
AcDbCircle
 10
28.8582243634
 20
271.8135375086
 30
0.0
 40
25.0
100
AcDbArc
 50
183.152858804
 51
266.847141196
  0
ARC
  5
82
330
1F
100
AcDbEntity
  8
0
  6
Continuous
 62
     7
370
    25
100
AcDbCircle
 10
28.8582243634
 20
271.8135375086
 30
0.0
 40
25.00000000000001
100
AcDbArc
 50
93.152858804
 51
176.847141196
  0
LINE
  5
83
330
1F
100
AcDbEntity
  8
0
  6
Continuous
 62
     7
370
    25
100
AcDbLine
 10
79.7707673778
 20
297.0252008431
 30
0.0
 11
79.7707673778
 21
288.0630419821
 31
0.0
  0
LINE
  5
84
330
1F
100
AcDbEntity
  8
0
  6
Continuous
 62
     7
370
    25
100
AcDbLine
 10
79.7707673778
 20
288.0630419821
 30
0.0
 11
82.5207673778
 21
288.0630419821
 31
0.0
  0
LINE
  5
85
330
1F
100
AcDbEntity
  8
0
  6
Continuous
 62
     7
370
    25
100
AcDbLine
 10
82.5207673778
 20
288.0630419821
 30
0.0
 11
82.5207673778
 21
297.0252008431
 31
0.0
  0
LINE
  5
86
330
1F
100
AcDbEntity
  8
0
  6
Continuous
 62
     7
370
    25
100
AcDbLine
 10
106.1079262388
 20
273.4380419821
 30
0.0
 11
97.1457673778
 21
273.4380419821
 31
0.0
  0
LINE
  5
87
330
1F
100
AcDbEntity
  8
0
  6
Continuous
 62
     7
370
    25
100
AcDbLine
 10
97.1457673778
 20
273.4380419821
 30
0.0
 11
97.1457673778
 21
270.6880419821
 31
0.0
  0
LINE
  5
88
330
1F
100
AcDbEntity
  8
0
  6
Continuous
 62
     7
370
    25
100
AcDbLine
 10
97.1457673778
 20
270.6880419821
 30
0.0
 11
106.1079262388
 21
270.6880419821
 31
0.0
  0
LINE
  5
89
330
1F
100
AcDbEntity
  8
0
  6
Continuous
 62
     7
370
    25
100
AcDbLine
 10
82.5207673778
 20
247.1008831211
 30
0.0
 11
82.5207673778
 21
256.0630419821
 31
0.0
  0
LINE
  5
8A
330
1F
100
AcDbEntity
  8
0
  6
Continuous
 62
     7
370
    25
100
AcDbLine
 10
82.5207673778
 20
256.0630419821
 30
0.0
 11
79.7707673778
 21
256.0630419821
 31
0.0
  0
LINE
  5
8B
330
1F
100
AcDbEntity
  8
0
  6
Continuous
 62
     7
370
    25
100
AcDbLine
 10
79.7707673778
 20
256.0630419821
 30
0.0
 11
79.7707673778
 21
247.1008831211
 31
0.0
  0
LINE
  5
8C
330
1F
100
AcDbEntity
  8
0
  6
Continuous
 62
     7
370
    25
100
AcDbLine
 10
56.1836085169
 20
270.6880419821
 30
0.0
 11
65.1457673778
 21
270.6880419821
 31
0.0
  0
LINE
  5
8D
330
1F
100
AcDbEntity
  8
0
  6
Continuous
 62
     7
370
    25
100
AcDbLine
 10
65.1457673778
 20
270.6880419821
 30
0.0
 11
65.1457673778
 21
273.4380419821
 31
0.0
  0
LINE
  5
8E
330
1F
100
AcDbEntity
  8
0
  6
Continuous
 62
     7
370
    25
100
AcDbLine
 10
65.1457673778
 20
273.4380419821
 30
0.0
 11
56.1836085169
 21
273.4380419821
 31
0.0
  0
ARC
  5
8F
330
1F
100
AcDbEntity
  8
0
  6
Continuous
 62
     7
370
    25
100
AcDbCircle
 10
81.1457673778
 20
272.0630419821
 30
0.0
 40
25.00000000000001
100
AcDbArc
 50
3.152858804
 51
86.847141196
  0
ARC
  5
90
330
1F
100
AcDbEntity
  8
0
  6
Continuous
 62
     7
370
    25
100
AcDbCircle
 10
81.1457673778
 20
272.0630419821
 30
0.0
 40
25.00000000000001
100
AcDbArc
 50
273.152858804
 51
356.847141196
  0
ARC
  5
91
330
1F
100
AcDbEntity
  8
0
  6
Continuous
 62
     7
370
    25
100
AcDbCircle
 10
81.1457673778
 20
272.0630419821
 30
0.0
 40
25.00000000000001
100
AcDbArc
 50
183.152858804
 51
266.847141196
  0
ARC
  5
92
330
1F
100
AcDbEntity
  8
0
  6
Continuous
 62
     7
370
    25
100
AcDbCircle
 10
81.1457673778
 20
272.0630419821
 30
0.0
 40
24.99999999999999
100
AcDbArc
 50
93.152858804
 51
176.847141196
  0
LINE
  5
93
330
1F
100
AcDbEntity
  8
0
  6
Continuous
 62
     7
370
    25
100
AcDbLine
 10
132.3362181693
 20
297.0252008431
 30
0.0
 11
132.3362181693
 21
288.0630419821
 31
0.0
  0
LINE
  5
94
330
1F
100
AcDbEntity
  8
0
  6
Continuous
 62
     7
370
    25
100
AcDbLine
 10
132.3362181693
 20
288.0630419821
 30
0.0
 11
135.0862181693
 21
288.0630419821
 31
0.0
  0
LINE
  5
95
330
1F
100
AcDbEntity
  8
0
  6
Continuous
 62
     7
370
    25
100
AcDbLine
 10
135.0862181693
 20
288.0630419821
 30
0.0
 11
135.0862181693
 21
297.0252008431
 31
0.0
  0
LINE
  5
96
330
1F
100
AcDbEntity
  8
0
  6
Continuous
 62
     7
370
    25
100
AcDbLine
 10
158.6733770303
 20
273.4380419821
 30
0.0
 11
149.7112181693
 21
273.4380419821
 31
0.0
  0
LINE
  5
97
330
1F
100
AcDbEntity
  8
0
  6
Continuous
 62
     7
370
    25
100
AcDbLine
 10
149.7112181693
 20
273.4380419821
 30
0.0
 11
149.7112181693
 21
270.6880419821
 31
0.0
  0
LINE
  5
98
330
1F
100
AcDbEntity
  8
0
  6
Continuous
 62
     7
370
    25
100
AcDbLine
 10
149.7112181693
 20
270.6880419821
 30
0.0
 11
158.6733770303
 21
270.6880419821
 31
0.0
  0
LINE
  5
99
330
1F
100
AcDbEntity
  8
0
  6
Continuous
 62
     7
370
    25
100
AcDbLine
 10
135.0862181693
 20
247.1008831211
 30
0.0
 11
135.0862181693
 21
256.0630419821
 31
0.0
  0
LINE
  5
9A
330
1F
100
AcDbEntity
  8
0
  6
Continuous
 62
     7
370
    25
100
AcDbLine
 10
135.0862181693
 20
256.0630419821
 30
0.0
 11
132.3362181693
 21
256.0630419821
 31
0.0
  0
LINE
  5
9B
330
1F
100
AcDbEntity
  8
0
  6
Continuous
 62
     7
370
    25
100
AcDbLine
 10
132.3362181693
 20
256.0630419821
 30
0.0
 11
132.3362181693
 21
247.1008831211
 31
0.0
  0
LINE
  5
9C
330
1F
100
AcDbEntity
  8
0
  6
Continuous
 62
     7
370
    25
100
AcDbLine
 10
108.7490593083
 20
270.6880419821
 30
0.0
 11
117.7112181693
 21
270.6880419821
 31
0.0
  0
LINE
  5
9D
330
1F
100
AcDbEntity
  8
0
  6
Continuous
 62
     7
370
    25
100
AcDbLine
 10
117.7112181693
 20
270.6880419821
 30
0.0
 11
117.7112181693
 21
273.4380419821
 31
0.0
  0
LINE
  5
9E
330
1F
100
AcDbEntity
  8
0
  6
Continuous
 62
     7
370
    25
100
AcDbLine
 10
117.7112181693
 20
273.4380419821
 30
0.0
 11
108.7490593083
 21
273.4380419821
 31
0.0
  0
ARC
  5
9F
330
1F
100
AcDbEntity
  8
0
  6
Continuous
 62
     7
370
    25
100
AcDbCircle
 10
133.7112181693
 20
272.0630419821
 30
0.0
 40
25.00000000000002
100
AcDbArc
 50
3.152858804
 51
86.847141196
  0
ARC
  5
A0
330
1F
100
AcDbEntity
  8
0
  6
Continuous
 62
     7
370
    25
100
AcDbCircle
 10
133.7112181693
 20
272.0630419821
 30
0.0
 40
25.00000000000001
100
AcDbArc
 50
273.152858804
 51
356.847141196
  0
ARC
  5
A1
330
1F
100
AcDbEntity
  8
0
  6
Continuous
 62
     7
370
    25
100
AcDbCircle
 10
133.7112181693
 20
272.0630419821
 30
0.0
 40
25.00000000000001
100
AcDbArc
 50
183.152858804
 51
266.847141196
  0
ARC
  5
A2
330
1F
100
AcDbEntity
  8
0
  6
Continuous
 62
     7
370
    25
100
AcDbCircle
 10
133.7112181693
 20
272.0630419821
 30
0.0
 40
24.99999999999999
100
AcDbArc
 50
93.152858804
 51
176.847141196
  0
LINE
  5
A3
330
1F
100
AcDbEntity
  8
0
  6
Continuous
 62
     7
370
    25
100
AcDbLine
 10
186.2966751549
 20
297.0252008431
 30
0.0
 11
186.2966751549
 21
288.0630419821
 31
0.0
  0
LINE
  5
A4
330
1F
100
AcDbEntity
  8
0
  6
Continuous
 62
     7
370
    25
100
AcDbLine
 10
186.2966751549
 20
288.0630419821
 30
0.0
 11
189.0466751549
 21
288.0630419821
 31
0.0
  0
LINE
  5
A5
330
1F
100
AcDbEntity
  8
0
  6
Continuous
 62
     7
370
    25
100
AcDbLine
 10
189.0466751549
 20
288.0630419821
 30
0.0
 11
189.0466751549
 21
297.0252008431
 31
0.0
  0
LINE
  5
A6
330
1F
100
AcDbEntity
  8
0
  6
Continuous
 62
     7
370
    25
100
AcDbLine
 10
212.6338340158
 20
273.4380419821
 30
0.0
 11
203.6716751549
 21
273.4380419821
 31
0.0
  0
LINE
  5
A7
330
1F
100
AcDbEntity
  8
0
  6
Continuous
 62
     7
370
    25
100
AcDbLine
 10
203.6716751549
 20
273.4380419821
 30
0.0
 11
203.6716751549
 21
270.6880419821
 31
0.0
  0
LINE
  5
A8
330
1F
100
AcDbEntity
  8
0
  6
Continuous
 62
     7
370
    25
100
AcDbLine
 10
203.6716751549
 20
270.6880419821
 30
0.0
 11
212.6338340158
 21
270.6880419821
 31
0.0
  0
LINE
  5
A9
330
1F
100
AcDbEntity
  8
0
  6
Continuous
 62
     7
370
    25
100
AcDbLine
 10
189.0466751549
 20
247.1008831211
 30
0.0
 11
189.0466751549
 21
256.0630419821
 31
0.0
  0
LINE
  5
AA
330
1F
100
AcDbEntity
  8
0
  6
Continuous
 62
     7
370
    25
100
AcDbLine
 10
189.0466751549
 20
256.0630419821
 30
0.0
 11
186.2966751549
 21
256.0630419821
 31
0.0
  0
LINE
  5
AB
330
1F
100
AcDbEntity
  8
0
  6
Continuous
 62
     7
370
    25
100
AcDbLine
 10
186.2966751549
 20
256.0630419821
 30
0.0
 11
186.2966751549
 21
247.1008831211
 31
0.0
  0
LINE
  5
AC
330
1F
100
AcDbEntity
  8
0
  6
Continuous
 62
     7
370
    25
100
AcDbLine
 10
162.7095162939
 20
270.6880419821
 30
0.0
 11
171.6716751549
 21
270.6880419821
 31
0.0
  0
LINE
  5
AD
330
1F
100
AcDbEntity
  8
0
  6
Continuous
 62
     7
370
    25
100
AcDbLine
 10
171.6716751549
 20
270.6880419821
 30
0.0
 11
171.6716751549
 21
273.4380419821
 31
0.0
  0
LINE
  5
AE
330
1F
100
AcDbEntity
  8
0
  6
Continuous
 62
     7
370
    25
100
AcDbLine
 10
171.6716751549
 20
273.4380419821
 30
0.0
 11
162.7095162939
 21
273.4380419821
 31
0.0
  0
ARC
  5
AF
330
1F
100
AcDbEntity
  8
0
  6
Continuous
 62
     7
370
    25
100
AcDbCircle
 10
187.6716751549
 20
272.0630419821
 30
0.0
 40
25.0
100
AcDbArc
 50
3.152858804
 51
86.847141196
  0
ARC
  5
B0
330
1F
100
AcDbEntity
  8
0
  6
Continuous
 62
     7
370
    25
100
AcDbCircle
 10
187.6716751549
 20
272.0630419821
 30
0.0
 40
25.00000000000001
100
AcDbArc
 50
273.152858804
 51
356.847141196
  0
ARC
  5
B1
330
1F
100
AcDbEntity
  8
0
  6
Continuous
 62
     7
370
    25
100
AcDbCircle
 10
187.6716751549
 20
272.0630419821
 30
0.0
 40
25.00000000000001
100
AcDbArc
 50
183.152858804
 51
266.847141196
  0
ARC
  5
B2
330
1F
100
AcDbEntity
  8
0
  6
Continuous
 62
     7
370
    25
100
AcDbCircle
 10
187.6716751549
 20
272.0630419821
 30
0.0
 40
25.00000000000003
100
AcDbArc
 50
93.152858804
 51
176.847141196
  0
LINE
  5
B3
330
1F
100
AcDbEntity
  8
0
  6
Continuous
 62
     7
370
    25
100
AcDbLine
 10
239.873
 20
297.0252008431
 30
0.0
 11
239.873
 21
288.0630419821
 31
0.0
  0
LINE
  5
B4
330
1F
100
AcDbEntity
  8
0
  6
Continuous
 62
     7
370
    25
100
AcDbLine
 10
239.873
 20
288.0630419821
 30
0.0
 11
242.623
 21
288.0630419821
 31
0.0
  0
LINE
  5
B5
330
1F
100
AcDbEntity
  8
0
  6
Continuous
 62
     7
370
    25
100
AcDbLine
 10
242.623
 20
288.0630419821
 30
0.0
 11
242.623
 21
297.0252008431
 31
0.0
  0
LINE
  5
B6
330
1F
100
AcDbEntity
  8
0
  6
Continuous
 62
     7
370
    25
100
AcDbLine
 10
266.210158861
 20
273.4380419821
 30
0.0
 11
257.248
 21
273.4380419821
 31
0.0
  0
LINE
  5
B7
330
1F
100
AcDbEntity
  8
0
  6
Continuous
 62
     7
370
    25
100
AcDbLine
 10
257.248
 20
273.4380419821
 30
0.0
 11
257.248
 21
270.6880419821
 31
0.0
  0
LINE
  5
B8
330
1F
100
AcDbEntity
  8
0
  6
Continuous
 62
     7
370
    25
100
AcDbLine
 10
257.248
 20
270.6880419821
 30
0.0
 11
266.210158861
 21
270.6880419821
 31
0.0
  0
LINE
  5
B9
330
1F
100
AcDbEntity
  8
0
  6
Continuous
 62
     7
370
    25
100
AcDbLine
 10
242.623
 20
247.1008831211
 30
0.0
 11
242.623
 21
256.0630419821
 31
0.0
  0
LINE
  5
BA
330
1F
100
AcDbEntity
  8
0
  6
Continuous
 62
     7
370
    25
100
AcDbLine
 10
242.623
 20
256.0630419821
 30
0.0
 11
239.873
 21
256.0630419821
 31
0.0
  0
LINE
  5
BB
330
1F
100
AcDbEntity
  8
0
  6
Continuous
 62
     7
370
    25
100
AcDbLine
 10
239.873
 20
256.0630419821
 30
0.0
 11
239.873
 21
247.1008831211
 31
0.0
  0
LINE
  5
BC
330
1F
100
AcDbEntity
  8
0
  6
Continuous
 62
     7
370
    25
100
AcDbLine
 10
216.285841139
 20
270.6880419821
 30
0.0
 11
225.248
 21
270.6880419821
 31
0.0
  0
LINE
  5
BD
330
1F
100
AcDbEntity
  8
0
  6
Continuous
 62
     7
370
    25
100
AcDbLine
 10
225.248
 20
270.6880419821
 30
0.0
 11
225.248
 21
273.4380419821
 31
0.0
  0
LINE
  5
BE
330
1F
100
AcDbEntity
  8
0
  6
Continuous
 62
     7
370
    25
100
AcDbLine
 10
225.248
 20
273.4380419821
 30
0.0
 11
216.285841139
 21
273.4380419821
 31
0.0
  0
ARC
  5
BF
330
1F
100
AcDbEntity
  8
0
  6
Continuous
 62
     7
370
    25
100
AcDbCircle
 10
241.248
 20
272.0630419821
 30
0.0
 40
24.99999999999996
100
AcDbArc
 50
3.152858804
 51
86.847141196
  0
ARC
  5
C0
330
1F
100
AcDbEntity
  8
0
  6
Continuous
 62
     7
370
    25
100
AcDbCircle
 10
241.248
 20
272.0630419821
 30
0.0
 40
25.00000000000001
100
AcDbArc
 50
273.152858804
 51
356.847141196
  0
ARC
  5
C1
330
1F
100
AcDbEntity
  8
0
  6
Continuous
 62
     7
370
    25
100
AcDbCircle
 10
241.248
 20
272.0630419821
 30
0.0
 40
25.00000000000001
100
AcDbArc
 50
183.152858804
 51
266.847141196
  0
ARC
  5
C2
330
1F
100
AcDbEntity
  8
0
  6
Continuous
 62
     7
370
    25
100
AcDbCircle
 10
241.248
 20
272.0630419821
 30
0.0
 40
25.0
100
AcDbArc
 50
93.152858804
 51
176.847141196
  0
LINE
  5
C3
330
1F
100
AcDbEntity
  8
0
  6
Continuous
 62
     7
370
    25
100
AcDbLine
 10
10.6868974431
 20
234.4791989034
 30
0.0
 11
17.0241007477
 21
228.1419955987
 31
0.0
  0
LINE
  5
C4
330
1F
100
AcDbEntity
  8
0
  6
Continuous
 62
     7
370
    25
100
AcDbLine
 10
17.0241007477
 20
228.1419955987
 30
0.0
 11
18.968644396
 21
230.086539247
 31
0.0
  0
LINE
  5
C5
330
1F
100
AcDbEntity
  8
0
  6
Continuous
 62
     7
370
    25
100
AcDbLine
 10
18.968644396
 20
230.086539247
 30
0.0
 11
12.6314410913
 21
236.4237425517
 31
0.0
  0
LINE
  5
C6
330
1F
100
AcDbEntity
  8
0
  6
Continuous
 62
     7
370
    25
100
AcDbLine
 10
27.9350810708
 20
242.7627177848
 30
0.0
 11
27.9350810708
 21
233.8005589239
 31
0.0
  0
LINE
  5
C7
330
1F
100
AcDbEntity
  8
0
  6
Continuous
 62
     7
370
    25
100
AcDbLine
 10
27.9350810708
 20
233.8005589239
 30
0.0
 11
30.6850810708
 21
233.8005589239
 31
0.0
  0
LINE
  5
C8
330
1F
100
AcDbEntity
  8
0
  6
Continuous
 62
     7
370
    25
100
AcDbLine
 10
30.6850810708
 20
233.8005589239
 30
0.0
 11
30.6850810708
 21
242.7627177848
 31
0.0
  0
LINE
  5
C9
330
1F
100
AcDbEntity
  8
0
  6
Continuous
 62
     7
370
    25
100
AcDbLine
 10
45.9887210504
 20
236.4237425517
 30
0.0
 11
39.6515177457
 21
230.086539247
 31
0.0
  0
LINE
  5
CA
330
1F
100
AcDbEntity
  8
0
  6
Continuous
 62
     7
370
    25
100
AcDbLine
 10
39.6515177457
 20
230.086539247
 30
0.0
 11
41.596061394
 21
228.1419955987
 31
0.0
  0
LINE
  5
CB
330
1F
100
AcDbEntity
  8
0
  6
Continuous
 62
     7
370
    25
100
AcDbLine
 10
41.596061394
 20
228.1419955987
 30
0.0
 11
47.9332646986
 21
234.4791989034
 31
0.0
  0
LINE
  5
CC
330
1F
100
AcDbEntity
  8
0
  6
Continuous
 62
     7
370
    25
100
AcDbLine
 10
54.2722399318
 20
219.1755589239
 30
0.0
 11
45.3100810708
 21
219.1755589239
 31
0.0
  0
LINE
  5
CD
330
1F
100
AcDbEntity
  8
0
  6
Continuous
 62
     7
370
    25
100
AcDbLine
 10
45.3100810708
 20
219.1755589239
 30
0.0
 11
45.3100810708
 21
216.4255589239
 31
0.0
  0
LINE
  5
CE
330
1F
100
AcDbEntity
  8
0
  6
Continuous
 62
     7
370
    25
100
AcDbLine
 10
45.3100810708
 20
216.4255589239
 30
0.0
 11
54.2722399318
 21
216.4255589239
 31
0.0
  0
LINE
  5
CF
330
1F
100
AcDbEntity
  8
0
  6
Continuous
 62
     7
370
    25
100
AcDbLine
 10
47.9332646986
 20
201.1219189444
 30
0.0
 11
41.596061394
 21
207.459122249
 31
0.0
  0
LINE
  5
D0
330
1F
100
AcDbEntity
  8
0
  6
Continuous
 62
     7
370
    25
100
AcDbLine
 10
41.596061394
 20
207.459122249
 30
0.0
 11
39.6515177457
 21
205.5145786008
 31
0.0
  0
LINE
  5
D1
330
1F
100
AcDbEntity
  8
0
  6
Continuous
 62
     7
370
    25
100
AcDbLine
 10
39.6515177457
 20
205.5145786008
 30
0.0
 11
45.9887210504
 21
199.1773752961
 31
0.0
  0
LINE
  5
D2
330
1F
100
AcDbEntity
  8
0
  6
Continuous
 62
     7
370
    25
100
AcDbLine
 10
30.6850810708
 20
192.8384000629
 30
0.0
 11
30.6850810708
 21
201.8005589239
 31
0.0
  0
LINE
  5
D3
330
1F
100
AcDbEntity
  8
0
  6
Continuous
 62
     7
370
    25
100
AcDbLine
 10
30.6850810708
 20
201.8005589239
 30
0.0
 11
27.9350810708
 21
201.8005589239
 31
0.0
  0
LINE
  5
D4
330
1F
100
AcDbEntity
  8
0
  6
Continuous
 62
     7
370
    25
100
AcDbLine
 10
27.9350810708
 20
201.8005589239
 30
0.0
 11
27.9350810708
 21
192.8384000629
 31
0.0
  0
LINE
  5
D5
330
1F
100
AcDbEntity
  8
0
  6
Continuous
 62
     7
370
    25
100
AcDbLine
 10
12.6314410913
 20
199.1773752961
 30
0.0
 11
18.968644396
 21
205.5145786008
 31
0.0
  0
LINE
  5
D6
330
1F
100
AcDbEntity
  8
0
  6
Continuous
 62
     7
370
    25
100
AcDbLine
 10
18.968644396
 20
205.5145786008
 30
0.0
 11
17.0241007477
 21
207.459122249
 31
0.0
  0
LINE
  5
D7
330
1F
100
AcDbEntity
  8
0
  6
Continuous
 62
     7
370
    25
100
AcDbLine
 10
17.0241007477
 20
207.459122249
 30
0.0
 11
10.6868974431
 21
201.1219189444
 31
0.0
  0
LINE
  5
D8
330
1F
100
AcDbEntity
  8
0
  6
Continuous
 62
     7
370
    25
100
AcDbLine
 10
4.3479222099
 20
216.4255589239
 30
0.0
 11
13.3100810708
 21
216.4255589239
 31
0.0
  0
LINE
  5
D9
330
1F
100
AcDbEntity
  8
0
  6
Continuous
 62
     7
370
    25
100
AcDbLine
 10
13.3100810708
 20
216.4255589239
 30
0.0
 11
13.3100810708
 21
219.1755589239
 31
0.0
  0
LINE
  5
DA
330
1F
100
AcDbEntity
  8
0
  6
Continuous
 62
     7
370
    25
100
AcDbLine
 10
13.3100810708
 20
219.1755589239
 30
0.0
 11
4.3479222099
 21
219.1755589239
 31
0.0
  0
ARC
  5
DB
330
1F
100
AcDbEntity
  8
0
  6
Continuous
 62
     7
370
    25
100
AcDbCircle
 10
29.3100810708
 20
217.8005589239
 30
0.0
 40
25.00000000000001
100
AcDbArc
 50
93.152858804
 51
131.847141196
  0
ARC
  5
DC
330
1F
100
AcDbEntity
  8
0
  6
Continuous
 62
     7
370
    25
100
AcDbCircle
 10
29.3100810708
 20
217.8005589239
 30
0.0
 40
25.00000000000001
100
AcDbArc
 50
48.152858804
 51
86.847141196
  0
ARC
  5
DD
330
1F
100
AcDbEntity
  8
0
  6
Continuous
 62
     7
370
    25
100
AcDbCircle
 10
29.3100810708
 20
217.8005589239
 30
0.0
 40
25.00000000000001
100
AcDbArc
 50
3.152858804
 51
41.847141196
  0
ARC
  5
DE
330
1F
100
AcDbEntity
  8
0
  6
Continuous
 62
     7
370
    25
100
AcDbCircle
 10
29.3100810708
 20
217.8005589239
 30
0.0
 40
25.0
100
AcDbArc
 50
318.152858804
 51
356.847141196
  0
ARC
  5
DF
330
1F
100
AcDbEntity
  8
0
  6
Continuous
 62
     7
370
    25
100
AcDbCircle
 10
29.3100810708
 20
217.8005589239
 30
0.0
 40
25.0
100
AcDbArc
 50
273.152858804
 51
311.847141196
  0
ARC
  5
E0
330
1F
100
AcDbEntity
  8
0
  6
Continuous
 62
     7
370
    25
100
AcDbCircle
 10
29.3100810708
 20
217.8005589239
 30
0.0
 40
24.99999999999999
100
AcDbArc
 50
228.152858804
 51
266.847141196
  0
ARC
  5
E1
330
1F
100
AcDbEntity
  8
0
  6
Continuous
 62
     7
370
    25
100
AcDbCircle
 10
29.3100810708
 20
217.8005589239
 30
0.0
 40
25.00000000000001
100
AcDbArc
 50
183.152858804
 51
221.847141196
  0
ARC
  5
E2
330
1F
100
AcDbEntity
  8
0
  6
Continuous
 62
     7
370
    25
100
AcDbCircle
 10
29.3100810708
 20
217.8005589239
 30
0.0
 40
25.0
100
AcDbArc
 50
138.152858804
 51
176.847141196
  0
LINE
  5
E3
330
1F
100
AcDbEntity
  8
0
  6
Continuous
 62
     7
370
    25
100
AcDbLine
 10
63.7723936552
 20
233.9687761277
 30
0.0
 11
70.1095969599
 21
227.631572823
 31
0.0
  0
LINE
  5
E4
330
1F
100
AcDbEntity
  8
0
  6
Continuous
 62
     7
370
    25
100
AcDbLine
 10
70.1095969599
 20
227.631572823
 30
0.0
 11
72.0541406081
 21
229.5761164713
 31
0.0
  0
LINE
  5
E5
330
1F
100
AcDbEntity
  8
0
  6
Continuous
 62
     7
370
    25
100
AcDbLine
 10
72.0541406081
 20
229.5761164713
 30
0.0
 11
65.7169373035
 21
235.913319776
 31
0.0
  0
LINE
  5
E6
330
1F
100
AcDbEntity
  8
0
  6
Continuous
 62
     7
370
    25
100
AcDbLine
 10
81.020577283
 20
242.2522950091
 30
0.0
 11
81.020577283
 21
233.2901361482
 31
0.0
  0
LINE
  5
E7
330
1F
100
AcDbEntity
  8
0
  6
Continuous
 62
     7
370
    25
100
AcDbLine
 10
81.020577283
 20
233.2901361482
 30
0.0
 11
83.770577283
 21
233.2901361482
 31
0.0
  0
LINE
  5
E8
330
1F
100
AcDbEntity
  8
0
  6
Continuous
 62
     7
370
    25
100
AcDbLine
 10
83.770577283
 20
233.2901361482
 30
0.0
 11
83.770577283
 21
242.2522950091
 31
0.0
  0
LINE
  5
E9
330
1F
100
AcDbEntity
  8
0
  6
Continuous
 62
     7
370
    25
100
AcDbLine
 10
99.0742172625
 20
235.913319776
 30
0.0
 11
92.7370139578
 21
229.5761164713
 31
0.0
  0
LINE
  5
EA
330
1F
100
AcDbEntity
  8
0
  6
Continuous
 62
     7
370
    25
100
AcDbLine
 10
92.7370139578
 20
229.5761164713
 30
0.0
 11
94.6815576061
 21
227.631572823
 31
0.0
  0
LINE
  5
EB
330
1F
100
AcDbEntity
  8
0
  6
Continuous
 62
     7
370
    25
100
AcDbLine
 10
94.6815576061
 20
227.631572823
 30
0.0
 11
101.0187609108
 21
233.9687761277
 31
0.0
  0
LINE
  5
EC
330
1F
100
AcDbEntity
  8
0
  6
Continuous
 62
     7
370
    25
100
AcDbLine
 10
107.357736144
 20
218.6651361482
 30
0.0
 11
98.395577283
 21
218.6651361482
 31
0.0
  0
LINE
  5
ED
330
1F
100
AcDbEntity
  8
0
  6
Continuous
 62
     7
370
    25
100
AcDbLine
 10
98.395577283
 20
218.6651361482
 30
0.0
 11
98.395577283
 21
215.9151361482
 31
0.0
  0
LINE
  5
EE
330
1F
100
AcDbEntity
  8
0
  6
Continuous
 62
     7
370
    25
100
AcDbLine
 10
98.395577283
 20
215.9151361482
 30
0.0
 11
107.357736144
 21
215.9151361482
 31
0.0
  0
LINE
  5
EF
330
1F
100
AcDbEntity
  8
0
  6
Continuous
 62
     7
370
    25
100
AcDbLine
 10
101.0187609108
 20
200.6114961687
 30
0.0
 11
94.6815576061
 21
206.9486994733
 31
0.0
  0
LINE
  5
F0
330
1F
100
AcDbEntity
  8
0
  6
Continuous
 62
     7
370
    25
100
AcDbLine
 10
94.6815576061
 20
206.9486994733
 30
0.0
 11
92.7370139578
 21
205.0041558251
 31
0.0
  0
LINE
  5
F1
330
1F
100
AcDbEntity
  8
0
  6
Continuous
 62
     7
370
    25
100
AcDbLine
 10
92.7370139578
 20
205.0041558251
 30
0.0
 11
99.0742172625
 21
198.6669525204
 31
0.0
  0
LINE
  5
F2
330
1F
100
AcDbEntity
  8
0
  6
Continuous
 62
     7
370
    25
100
AcDbLine
 10
83.770577283
 20
192.3279772872
 30
0.0
 11
83.770577283
 21
201.2901361482
 31
0.0
  0
LINE
  5
F3
330
1F
100
AcDbEntity
  8
0
  6
Continuous
 62
     7
370
    25
100
AcDbLine
 10
83.770577283
 20
201.2901361482
 30
0.0
 11
81.020577283
 21
201.2901361482
 31
0.0
  0
LINE
  5
F4
330
1F
100
AcDbEntity
  8
0
  6
Continuous
 62
     7
370
    25
100
AcDbLine
 10
81.020577283
 20
201.2901361482
 30
0.0
 11
81.020577283
 21
192.3279772872
 31
0.0
  0
LINE
  5
F5
330
1F
100
AcDbEntity
  8
0
  6
Continuous
 62
     7
370
    25
100
AcDbLine
 10
65.7169373035
 20
198.6669525204
 30
0.0
 11
72.0541406081
 21
205.0041558251
 31
0.0
  0
LINE
  5
F6
330
1F
100
AcDbEntity
  8
0
  6
Continuous
 62
     7
370
    25
100
AcDbLine
 10
72.0541406081
 20
205.0041558251
 30
0.0
 11
70.1095969599
 21
206.9486994733
 31
0.0
  0
LINE
  5
F7
330
1F
100
AcDbEntity
  8
0
  6
Continuous
 62
     7
370
    25
100
AcDbLine
 10
70.1095969599
 20
206.9486994733
 30
0.0
 11
63.7723936552
 21
200.6114961687
 31
0.0
  0
LINE
  5
F8
330
1F
100
AcDbEntity
  8
0
  6
Continuous
 62
     7
370
    25
100
AcDbLine
 10
57.433418422
 20
215.9151361482
 30
0.0
 11
66.395577283
 21
215.9151361482
 31
0.0
  0
LINE
  5
F9
330
1F
100
AcDbEntity
  8
0
  6
Continuous
 62
     7
370
    25
100
AcDbLine
 10
66.395577283
 20
215.9151361482
 30
0.0
 11
66.395577283
 21
218.6651361482
 31
0.0
  0
LINE
  5
FA
330
1F
100
AcDbEntity
  8
0
  6
Continuous
 62
     7
370
    25
100
AcDbLine
 10
66.395577283
 20
218.6651361482
 30
0.0
 11
57.433418422
 21
218.6651361482
 31
0.0
  0
ARC
  5
FB
330
1F
100
AcDbEntity
  8
0
  6
Continuous
 62
     7
370
    25
100
AcDbCircle
 10
82.395577283
 20
217.2901361482
 30
0.0
 40
25.00000000000001
100
AcDbArc
 50
93.152858804
 51
131.847141196
  0
ARC
  5
FC
330
1F
100
AcDbEntity
  8
0
  6
Continuous
 62
     7
370
    25
100
AcDbCircle
 10
82.395577283
 20
217.2901361482
 30
0.0
 40
25.00000000000002
100
AcDbArc
 50
48.152858804
 51
86.847141196
  0
ARC
  5
FD
330
1F
100
AcDbEntity
  8
0
  6
Continuous
 62
     7
370
    25
100
AcDbCircle
 10
82.395577283
 20
217.2901361482
 30
0.0
 40
25.00000000000001
100
AcDbArc
 50
3.152858804
 51
41.847141196
  0
ARC
  5
FE
330
1F
100
AcDbEntity
  8
0
  6
Continuous
 62
     7
370
    25
100
AcDbCircle
 10
82.395577283
 20
217.2901361482
 30
0.0
 40
25.00000000000001
100
AcDbArc
 50
318.152858804
 51
356.847141196
  0
ARC
  5
FF
330
1F
100
AcDbEntity
  8
0
  6
Continuous
 62
     7
370
    25
100
AcDbCircle
 10
82.395577283
 20
217.2901361482
 30
0.0
 40
25.00000000000001
100
AcDbArc
 50
273.152858804
 51
311.847141196
  0
ARC
  5
100
330
1F
100
AcDbEntity
  8
0
  6
Continuous
 62
     7
370
    25
100
AcDbCircle
 10
82.395577283
 20
217.2901361482
 30
0.0
 40
24.99999999999999
100
AcDbArc
 50
228.152858804
 51
266.847141196
  0
ARC
  5
101
330
1F
100
AcDbEntity
  8
0
  6
Continuous
 62
     7
370
    25
100
AcDbCircle
 10
82.395577283
 20
217.2901361482
 30
0.0
 40
25.0
100
AcDbArc
 50
183.152858804
 51
221.847141196
  0
ARC
  5
102
330
1F
100
AcDbEntity
  8
0
  6
Continuous
 62
     7
370
    25
100
AcDbCircle
 10
82.395577283
 20
217.2901361482
 30
0.0
 40
25.00000000000002
100
AcDbArc
 50
138.152858804
 51
176.847141196
  0
LINE
  5
103
330
1F
100
AcDbEntity
  8
0
  6
Continuous
 62
     7
370
    25
100
AcDbLine
 10
115.8363931277
 20
233.9687761277
 30
0.0
 11
122.1735964324
 21
227.631572823
 31
0.0
  0
LINE
  5
104
330
1F
100
AcDbEntity
  8
0
  6
Continuous
 62
     7
370
    25
100
AcDbLine
 10
122.1735964324
 20
227.631572823
 30
0.0
 11
124.1181400806
 21
229.5761164713
 31
0.0
  0
LINE
  5
105
330
1F
100
AcDbEntity
  8
0
  6
Continuous
 62
     7
370
    25
100
AcDbLine
 10
124.1181400806
 20
229.5761164713
 30
0.0
 11
117.780936776
 21
235.913319776
 31
0.0
  0
LINE
  5
106
330
1F
100
AcDbEntity
  8
0
  6
Continuous
 62
     7
370
    25
100
AcDbLine
 10
133.0845767555
 20
242.2522950091
 30
0.0
 11
133.0845767555
 21
233.2901361482
 31
0.0
  0
LINE
  5
107
330
1F
100
AcDbEntity
  8
0
  6
Continuous
 62
     7
370
    25
100
AcDbLine
 10
133.0845767555
 20
233.2901361482
 30
0.0
 11
135.8345767555
 21
233.2901361482
 31
0.0
  0
LINE
  5
108
330
1F
100
AcDbEntity
  8
0
  6
Continuous
 62
     7
370
    25
100
AcDbLine
 10
135.8345767555
 20
233.2901361482
 30
0.0
 11
135.8345767555
 21
242.2522950091
 31
0.0
  0
LINE
  5
109
330
1F
100
AcDbEntity
  8
0
  6
Continuous
 62
     7
370
    25
100
AcDbLine
 10
151.138216735
 20
235.913319776
 30
0.0
 11
144.8010134303
 21
229.5761164713
 31
0.0
  0
LINE
  5
10A
330
1F
100
AcDbEntity
  8
0
  6
Continuous
 62
     7
370
    25
100
AcDbLine
 10
144.8010134303
 20
229.5761164713
 30
0.0
 11
146.7455570786
 21
227.631572823
 31
0.0
  0
LINE
  5
10B
330
1F
100
AcDbEntity
  8
0
  6
Continuous
 62
     7
370
    25
100
AcDbLine
 10
146.7455570786
 20
227.631572823
 30
0.0
 11
153.0827603833
 21
233.9687761277
 31
0.0
  0
LINE
  5
10C
330
1F
100
AcDbEntity
  8
0
  6
Continuous
 62
     7
370
    25
100
AcDbLine
 10
159.4217356164
 20
218.6651361482
 30
0.0
 11
150.4595767555
 21
218.6651361482
 31
0.0
  0
LINE
  5
10D
330
1F
100
AcDbEntity
  8
0
  6
Continuous
 62
     7
370
    25
100
AcDbLine
 10
150.4595767555
 20
218.6651361482
 30
0.0
 11
150.4595767555
 21
215.9151361482
 31
0.0
  0
LINE
  5
10E
330
1F
100
AcDbEntity
  8
0
  6
Continuous
 62
     7
370
    25
100
AcDbLine
 10
150.4595767555
 20
215.9151361482
 30
0.0
 11
159.4217356164
 21
215.9151361482
 31
0.0
  0
LINE
  5
10F
330
1F
100
AcDbEntity
  8
0
  6
Continuous
 62
     7
370
    25
100
AcDbLine
 10
153.0827603833
 20
200.6114961687
 30
0.0
 11
146.7455570786
 21
206.9486994733
 31
0.0
  0
LINE
  5
110
330
1F
100
AcDbEntity
  8
0
  6
Continuous
 62
     7
370
    25
100
AcDbLine
 10
146.7455570786
 20
206.9486994733
 30
0.0
 11
144.8010134303
 21
205.0041558251
 31
0.0
  0
LINE
  5
111
330
1F
100
AcDbEntity
  8
0
  6
Continuous
 62
     7
370
    25
100
AcDbLine
 10
144.8010134303
 20
205.0041558251
 30
0.0
 11
151.138216735
 21
198.6669525204
 31
0.0
  0
LINE
  5
112
330
1F
100
AcDbEntity
  8
0
  6
Continuous
 62
     7
370
    25
100
AcDbLine
 10
135.8345767555
 20
192.3279772872
 30
0.0
 11
135.8345767555
 21
201.2901361482
 31
0.0
  0
LINE
  5
113
330
1F
100
AcDbEntity
  8
0
  6
Continuous
 62
     7
370
    25
100
AcDbLine
 10
135.8345767555
 20
201.2901361482
 30
0.0
 11
133.0845767555
 21
201.2901361482
 31
0.0
  0
LINE
  5
114
330
1F
100
AcDbEntity
  8
0
  6
Continuous
 62
     7
370
    25
100
AcDbLine
 10
133.0845767555
 20
201.2901361482
 30
0.0
 11
133.0845767555
 21
192.3279772872
 31
0.0
  0
LINE
  5
115
330
1F
100
AcDbEntity
  8
0
  6
Continuous
 62
     7
370
    25
100
AcDbLine
 10
117.780936776
 20
198.6669525204
 30
0.0
 11
124.1181400806
 21
205.0041558251
 31
0.0
  0
LINE
  5
116
330
1F
100
AcDbEntity
  8
0
  6
Continuous
 62
     7
370
    25
100
AcDbLine
 10
124.1181400806
 20
205.0041558251
 30
0.0
 11
122.1735964324
 21
206.9486994733
 31
0.0
  0
LINE
  5
117
330
1F
100
AcDbEntity
  8
0
  6
Continuous
 62
     7
370
    25
100
AcDbLine
 10
122.1735964324
 20
206.9486994733
 30
0.0
 11
115.8363931277
 21
200.6114961687
 31
0.0
  0
LINE
  5
118
330
1F
100
AcDbEntity
  8
0
  6
Continuous
 62
     7
370
    25
100
AcDbLine
 10
109.4974178945
 20
215.9151361482
 30
0.0
 11
118.4595767555
 21
215.9151361482
 31
0.0
  0
LINE
  5
119
330
1F
100
AcDbEntity
  8
0
  6
Continuous
 62
     7
370
    25
100
AcDbLine
 10
118.4595767555
 20
215.9151361482
 30
0.0
 11
118.4595767555
 21
218.6651361482
 31
0.0
  0
LINE
  5
11A
330
1F
100
AcDbEntity
  8
0
  6
Continuous
 62
     7
370
    25
100
AcDbLine
 10
118.4595767555
 20
218.6651361482
 30
0.0
 11
109.4974178945
 21
218.6651361482
 31
0.0
  0
ARC
  5
11B
330
1F
100
AcDbEntity
  8
0
  6
Continuous
 62
     7
370
    25
100
AcDbCircle
 10
134.4595767555
 20
217.2901361482
 30
0.0
 40
25.00000000000002
100
AcDbArc
 50
93.152858804
 51
131.847141196
  0
ARC
  5
11C
330
1F
100
AcDbEntity
  8
0
  6
Continuous
 62
     7
370
    25
100
AcDbCircle
 10
134.4595767555
 20
217.2901361482
 30
0.0
 40
25.00000000000001
100
AcDbArc
 50
48.152858804
 51
86.847141196
  0
ARC
  5
11D
330
1F
100
AcDbEntity
  8
0
  6
Continuous
 62
     7
370
    25
100
AcDbCircle
 10
134.4595767555
 20
217.2901361482
 30
0.0
 40
25.0
100
AcDbArc
 50
3.152858804
 51
41.847141196
  0
ARC
  5
11E
330
1F
100
AcDbEntity
  8
0
  6
Continuous
 62
     7
370
    25
100
AcDbCircle
 10
134.4595767555
 20
217.2901361482
 30
0.0
 40
24.99999999999998
100
AcDbArc
 50
318.152858804
 51
356.847141196
  0
ARC
  5
11F
330
1F
100
AcDbEntity
  8
0
  6
Continuous
 62
     7
370
    25
100
AcDbCircle
 10
134.4595767555
 20
217.2901361482
 30
0.0
 40
24.99999999999998
100
AcDbArc
 50
273.152858804
 51
311.847141196
  0
ARC
  5
120
330
1F
100
AcDbEntity
  8
0
  6
Continuous
 62
     7
370
    25
100
AcDbCircle
 10
134.4595767555
 20
217.2901361482
 30
0.0
 40
25.00000000000001
100
AcDbArc
 50
228.152858804
 51
266.847141196
  0
ARC
  5
121
330
1F
100
AcDbEntity
  8
0
  6
Continuous
 62
     7
370
    25
100
AcDbCircle
 10
134.4595767555
 20
217.2901361482
 30
0.0
 40
25.00000000000003
100
AcDbArc
 50
183.152858804
 51
221.847141196
  0
ARC
  5
122
330
1F
100
AcDbEntity
  8
0
  6
Continuous
 62
     7
370
    25
100
AcDbCircle
 10
134.4595767555
 20
217.2901361482
 30
0.0
 40
25.00000000000002
100
AcDbArc
 50
138.152858804
 51
176.847141196
  0
LINE
  5
123
330
1F
100
AcDbEntity
  8
0
  6
Continuous
 62
     7
370
    25
100
AcDbLine
 10
169.4623125844
 20
233.9687761277
 30
0.0
 11
175.799515889
 21
227.631572823
 31
0.0
  0
LINE
  5
124
330
1F
100
AcDbEntity
  8
0
  6
Continuous
 62
     7
370
    25
100
AcDbLine
 10
175.799515889
 20
227.631572823
 30
0.0
 11
177.7440595373
 21
229.5761164713
 31
0.0
  0
LINE
  5
125
330
1F
100
AcDbEntity
  8
0
  6
Continuous
 62
     7
370
    25
100
AcDbLine
 10
177.7440595373
 20
229.5761164713
 30
0.0
 11
171.4068562326
 21
235.913319776
 31
0.0
  0
LINE
  5
126
330
1F
100
AcDbEntity
  8
0
  6
Continuous
 62
     7
370
    25
100
AcDbLine
 10
186.7104962122
 20
242.2522950091
 30
0.0
 11
186.7104962122
 21
233.2901361482
 31
0.0
  0
LINE
  5
127
330
1F
100
AcDbEntity
  8
0
  6
Continuous
 62
     7
370
    25
100
AcDbLine
 10
186.7104962122
 20
233.2901361482
 30
0.0
 11
189.4604962122
 21
233.2901361482
 31
0.0
  0
LINE
  5
128
330
1F
100
AcDbEntity
  8
0
  6
Continuous
 62
     7
370
    25
100
AcDbLine
 10
189.4604962122
 20
233.2901361482
 30
0.0
 11
189.4604962122
 21
242.2522950091
 31
0.0
  0
LINE
  5
129
330
1F
100
AcDbEntity
  8
0
  6
Continuous
 62
     7
370
    25
100
AcDbLine
 10
204.7641361917
 20
235.913319776
 30
0.0
 11
198.426932887
 21
229.5761164713
 31
0.0
  0
LINE
  5
12A
330
1F
100
AcDbEntity
  8
0
  6
Continuous
 62
     7
370
    25
100
AcDbLine
 10
198.426932887
 20
229.5761164713
 30
0.0
 11
200.3714765353
 21
227.631572823
 31
0.0
  0
LINE
  5
12B
330
1F
100
AcDbEntity
  8
0
  6
Continuous
 62
     7
370
    25
100
AcDbLine
 10
200.3714765353
 20
227.631572823
 30
0.0
 11
206.7086798399
 21
233.9687761277
 31
0.0
  0
LINE
  5
12C
330
1F
100
AcDbEntity
  8
0
  6
Continuous
 62
     7
370
    25
100
AcDbLine
 10
213.0476550731
 20
218.6651361482
 30
0.0
 11
204.0854962122
 21
218.6651361482
 31
0.0
  0
LINE
  5
12D
330
1F
100
AcDbEntity
  8
0
  6
Continuous
 62
     7
370
    25
100
AcDbLine
 10
204.0854962122
 20
218.6651361482
 30
0.0
 11
204.0854962122
 21
215.9151361482
 31
0.0
  0
LINE
  5
12E
330
1F
100
AcDbEntity
  8
0
  6
Continuous
 62
     7
370
    25
100
AcDbLine
 10
204.0854962122
 20
215.9151361482
 30
0.0
 11
213.0476550731
 21
215.9151361482
 31
0.0
  0
LINE
  5
12F
330
1F
100
AcDbEntity
  8
0
  6
Continuous
 62
     7
370
    25
100
AcDbLine
 10
206.7086798399
 20
200.6114961687
 30
0.0
 11
200.3714765353
 21
206.9486994733
 31
0.0
  0
LINE
  5
130
330
1F
100
AcDbEntity
  8
0
  6
Continuous
 62
     7
370
    25
100
AcDbLine
 10
200.3714765353
 20
206.9486994733
 30
0.0
 11
198.426932887
 21
205.0041558251
 31
0.0
  0
LINE
  5
131
330
1F
100
AcDbEntity
  8
0
  6
Continuous
 62
     7
370
    25
100
AcDbLine
 10
198.426932887
 20
205.0041558251
 30
0.0
 11
204.7641361917
 21
198.6669525204
 31
0.0
  0
LINE
  5
132
330
1F
100
AcDbEntity
  8
0
  6
Continuous
 62
     7
370
    25
100
AcDbLine
 10
189.4604962122
 20
192.3279772872
 30
0.0
 11
189.4604962122
 21
201.2901361482
 31
0.0
  0
LINE
  5
133
330
1F
100
AcDbEntity
  8
0
  6
Continuous
 62
     7
370
    25
100
AcDbLine
 10
189.4604962122
 20
201.2901361482
 30
0.0
 11
186.7104962122
 21
201.2901361482
 31
0.0
  0
LINE
  5
134
330
1F
100
AcDbEntity
  8
0
  6
Continuous
 62
     7
370
    25
100
AcDbLine
 10
186.7104962122
 20
201.2901361482
 30
0.0
 11
186.7104962122
 21
192.3279772872
 31
0.0
  0
LINE
  5
135
330
1F
100
AcDbEntity
  8
0
  6
Continuous
 62
     7
370
    25
100
AcDbLine
 10
171.4068562326
 20
198.6669525204
 30
0.0
 11
177.7440595373
 21
205.0041558251
 31
0.0
  0
LINE
  5
136
330
1F
100
AcDbEntity
  8
0
  6
Continuous
 62
     7
370
    25
100
AcDbLine
 10
177.7440595373
 20
205.0041558251
 30
0.0
 11
175.799515889
 21
206.9486994733
 31
0.0
  0
LINE
  5
137
330
1F
100
AcDbEntity
  8
0
  6
Continuous
 62
     7
370
    25
100
AcDbLine
 10
175.799515889
 20
206.9486994733
 30
0.0
 11
169.4623125844
 21
200.6114961687
 31
0.0
  0
LINE
  5
138
330
1F
100
AcDbEntity
  8
0
  6
Continuous
 62
     7
370
    25
100
AcDbLine
 10
163.1233373512
 20
215.9151361482
 30
0.0
 11
172.0854962122
 21
215.9151361482
 31
0.0
  0
LINE
  5
139
330
1F
100
AcDbEntity
  8
0
  6
Continuous
 62
     7
370
    25
100
AcDbLine
 10
172.0854962122
 20
215.9151361482
 30
0.0
 11
172.0854962122
 21
218.6651361482
 31
0.0
  0
LINE
  5
13A
330
1F
100
AcDbEntity
  8
0
  6
Continuous
 62
     7
370
    25
100
AcDbLine
 10
172.0854962122
 20
218.6651361482
 30
0.0
 11
163.1233373512
 21
218.6651361482
 31
0.0
  0
ARC
  5
13B
330
1F
100
AcDbEntity
  8
0
  6
Continuous
 62
     7
370
    25
100
AcDbCircle
 10
188.0854962122
 20
217.2901361482
 30
0.0
 40
25.00000000000001
100
AcDbArc
 50
93.152858804
 51
131.847141196
  0
ARC
  5
13C
330
1F
100
AcDbEntity
  8
0
  6
Continuous
 62
     7
370
    25
100
AcDbCircle
 10
188.0854962122
 20
217.2901361482
 30
0.0
 40
25.00000000000001
100
AcDbArc
 50
48.152858804
 51
86.847141196
  0
ARC
  5
13D
330
1F
100
AcDbEntity
  8
0
  6
Continuous
 62
     7
370
    25
100
AcDbCircle
 10
188.0854962122
 20
217.2901361482
 30
0.0
 40
25.00000000000002
100
AcDbArc
 50
3.152858804
 51
41.847141196
  0
ARC
  5
13E
330
1F
100
AcDbEntity
  8
0
  6
Continuous
 62
     7
370
    25
100
AcDbCircle
 10
188.0854962122
 20
217.2901361482
 30
0.0
 40
25.00000000000002
100
AcDbArc
 50
318.152858804
 51
356.847141196
  0
ARC
  5
13F
330
1F
100
AcDbEntity
  8
0
  6
Continuous
 62
     7
370
    25
100
AcDbCircle
 10
188.0854962122
 20
217.2901361482
 30
0.0
 40
24.99999999999998
100
AcDbArc
 50
273.152858804
 51
311.847141196
  0
ARC
  5
140
330
1F
100
AcDbEntity
  8
0
  6
Continuous
 62
     7
370
    25
100
AcDbCircle
 10
188.0854962122
 20
217.2901361482
 30
0.0
 40
25.0
100
AcDbArc
 50
228.152858804
 51
266.847141196
  0
ARC
  5
141
330
1F
100
AcDbEntity
  8
0
  6
Continuous
 62
     7
370
    25
100
AcDbCircle
 10
188.0854962122
 20
217.2901361482
 30
0.0
 40
25.00000000000001
100
AcDbArc
 50
183.152858804
 51
221.847141196
  0
ARC
  5
142
330
1F
100
AcDbEntity
  8
0
  6
Continuous
 62
     7
370
    25
100
AcDbCircle
 10
188.0854962122
 20
217.2901361482
 30
0.0
 40
25.00000000000001
100
AcDbArc
 50
138.152858804
 51
176.847141196
  0
LINE
  5
143
330
1F
100
AcDbEntity
  8
0
  6
Continuous
 62
     7
370
    25
100
AcDbLine
 10
222.0469520516
 20
234.4894161224
 30
0.0
 11
228.3841553563
 21
228.1522128178
 31
0.0
  0
LINE
  5
144
330
1F
100
AcDbEntity
  8
0
  6
Continuous
 62
     7
370
    25
100
AcDbLine
 10
228.3841553563
 20
228.1522128178
 30
0.0
 11
230.3286990045
 21
230.096756466
 31
0.0
  0
LINE
  5
145
330
1F
100
AcDbEntity
  8
0
  6
Continuous
 62
     7
370
    25
100
AcDbLine
 10
230.3286990045
 20
230.096756466
 30
0.0
 11
223.9914956999
 21
236.4339597707
 31
0.0
  0
LINE
  5
146
330
1F
100
AcDbEntity
  8
0
  6
Continuous
 62
     7
370
    25
100
AcDbLine
 10
239.2951356794
 20
242.7729350039
 30
0.0
 11
239.2951356794
 21
233.8107761429
 31
0.0
  0
LINE
  5
147
330
1F
100
AcDbEntity
  8
0
  6
Continuous
 62
     7
370
    25
100
AcDbLine
 10
239.2951356794
 20
233.8107761429
 30
0.0
 11
242.0451356794
 21
233.8107761429
 31
0.0
  0
LINE
  5
148
330
1F
100
AcDbEntity
  8
0
  6
Continuous
 62
     7
370
    25
100
AcDbLine
 10
242.0451356794
 20
233.8107761429
 30
0.0
 11
242.0451356794
 21
242.7729350039
 31
0.0
  0
LINE
  5
149
330
1F
100
AcDbEntity
  8
0
  6
Continuous
 62
     7
370
    25
100
AcDbLine
 10
257.3487756589
 20
236.4339597707
 30
0.0
 11
251.0115723542
 21
230.096756466
 31
0.0
  0
LINE
  5
14A
330
1F
100
AcDbEntity
  8
0
  6
Continuous
 62
     7
370
    25
100
AcDbLine
 10
251.0115723542
 20
230.096756466
 30
0.0
 11
252.9561160025
 21
228.1522128178
 31
0.0
  0
LINE
  5
14B
330
1F
100
AcDbEntity
  8
0
  6
Continuous
 62
     7
370
    25
100
AcDbLine
 10
252.9561160025
 20
228.1522128178
 30
0.0
 11
259.2933193071
 21
234.4894161224
 31
0.0
  0
LINE
  5
14C
330
1F
100
AcDbEntity
  8
0
  6
Continuous
 62
     7
370
    25
100
AcDbLine
 10
265.6322945403
 20
219.1857761429
 30
0.0
 11
256.6701356794
 21
219.1857761429
 31
0.0
  0
LINE
  5
14D
330
1F
100
AcDbEntity
  8
0
  6
Continuous
 62
     7
370
    25
100
AcDbLine
 10
256.6701356794
 20
219.1857761429
 30
0.0
 11
256.6701356794
 21
216.4357761429
 31
0.0
  0
LINE
  5
14E
330
1F
100
AcDbEntity
  8
0
  6
Continuous
 62
     7
370
    25
100
AcDbLine
 10
256.6701356794
 20
216.4357761429
 30
0.0
 11
265.6322945403
 21
216.4357761429
 31
0.0
  0
LINE
  5
14F
330
1F
100
AcDbEntity
  8
0
  6
Continuous
 62
     7
370
    25
100
AcDbLine
 10
259.2933193071
 20
201.1321361634
 30
0.0
 11
252.9561160025
 21
207.469339468
 31
0.0
  0
LINE
  5
150
330
1F
100
AcDbEntity
  8
0
  6
Continuous
 62
     7
370
    25
100
AcDbLine
 10
252.9561160025
 20
207.469339468
 30
0.0
 11
251.0115723542
 21
205.5247958198
 31
0.0
  0
LINE
  5
151
330
1F
100
AcDbEntity
  8
0
  6
Continuous
 62
     7
370
    25
100
AcDbLine
 10
251.0115723542
 20
205.5247958198
 30
0.0
 11
257.3487756589
 21
199.1875925151
 31
0.0
  0
LINE
  5
152
330
1F
100
AcDbEntity
  8
0
  6
Continuous
 62
     7
370
    25
100
AcDbLine
 10
242.0451356794
 20
192.8486172819
 30
0.0
 11
242.0451356794
 21
201.8107761429
 31
0.0
  0
LINE
  5
153
330
1F
100
AcDbEntity
  8
0
  6
Continuous
 62
     7
370
    25
100
AcDbLine
 10
242.0451356794
 20
201.8107761429
 30
0.0
 11
239.2951356794
 21
201.8107761429
 31
0.0
  0
LINE
  5
154
330
1F
100
AcDbEntity
  8
0
  6
Continuous
 62
     7
370
    25
100
AcDbLine
 10
239.2951356794
 20
201.8107761429
 30
0.0
 11
239.2951356794
 21
192.8486172819
 31
0.0
  0
LINE
  5
155
330
1F
100
AcDbEntity
  8
0
  6
Continuous
 62
     7
370
    25
100
AcDbLine
 10
223.9914956999
 20
199.1875925151
 30
0.0
 11
230.3286990045
 21
205.5247958198
 31
0.0
  0
LINE
  5
156
330
1F
100
AcDbEntity
  8
0
  6
Continuous
 62
     7
370
    25
100
AcDbLine
 10
230.3286990045
 20
205.5247958198
 30
0.0
 11
228.3841553563
 21
207.469339468
 31
0.0
  0
LINE
  5
157
330
1F
100
AcDbEntity
  8
0
  6
Continuous
 62
     7
370
    25
100
AcDbLine
 10
228.3841553563
 20
207.469339468
 30
0.0
 11
222.0469520516
 21
201.1321361634
 31
0.0
  0
LINE
  5
158
330
1F
100
AcDbEntity
  8
0
  6
Continuous
 62
     7
370
    25
100
AcDbLine
 10
215.7079768184
 20
216.4357761429
 30
0.0
 11
224.6701356794
 21
216.4357761429
 31
0.0
  0
LINE
  5
159
330
1F
100
AcDbEntity
  8
0
  6
Continuous
 62
     7
370
    25
100
AcDbLine
 10
224.6701356794
 20
216.4357761429
 30
0.0
 11
224.6701356794
 21
219.1857761429
 31
0.0
  0
LINE
  5
15A
330
1F
100
AcDbEntity
  8
0
  6
Continuous
 62
     7
370
    25
100
AcDbLine
 10
224.6701356794
 20
219.1857761429
 30
0.0
 11
215.7079768184
 21
219.1857761429
 31
0.0
  0
ARC
  5
15B
330
1F
100
AcDbEntity
  8
0
  6
Continuous
 62
     7
370
    25
100
AcDbCircle
 10
240.6701356794
 20
217.8107761429
 30
0.0
 40
24.99999999999999
100
AcDbArc
 50
93.152858804
 51
131.847141196
  0
ARC
  5
15C
330
1F
100
AcDbEntity
  8
0
  6
Continuous
 62
     7
370
    25
100
AcDbCircle
 10
240.6701356794
 20
217.8107761429
 30
0.0
 40
25.0
100
AcDbArc
 50
48.152858804
 51
86.847141196
  0
ARC
  5
15D
330
1F
100
AcDbEntity
  8
0
  6
Continuous
 62
     7
370
    25
100
AcDbCircle
 10
240.6701356794
 20
217.8107761429
 30
0.0
 40
25.0
100
AcDbArc
 50
3.152858804
 51
41.847141196
  0
ARC
  5
15E
330
1F
100
AcDbEntity
  8
0
  6
Continuous
 62
     7
370
    25
100
AcDbCircle
 10
240.6701356794
 20
217.8107761429
 30
0.0
 40
25.0
100
AcDbArc
 50
318.152858804
 51
356.847141196
  0
ARC
  5
15F
330
1F
100
AcDbEntity
  8
0
  6
Continuous
 62
     7
370
    25
100
AcDbCircle
 10
240.6701356794
 20
217.8107761429
 30
0.0
 40
25.00000000000004
100
AcDbArc
 50
273.152858804
 51
311.847141196
  0
ARC
  5
160
330
1F
100
AcDbEntity
  8
0
  6
Continuous
 62
     7
370
    25
100
AcDbCircle
 10
240.6701356794
 20
217.8107761429
 30
0.0
 40
25.00000000000001
100
AcDbArc
 50
228.152858804
 51
266.847141196
  0
ARC
  5
161
330
1F
100
AcDbEntity
  8
0
  6
Continuous
 62
     7
370
    25
100
AcDbCircle
 10
240.6701356794
 20
217.8107761429
 30
0.0
 40
24.99999999999999
100
AcDbArc
 50
183.152858804
 51
221.847141196
  0
ARC
  5
162
330
1F
100
AcDbEntity
  8
0
  6
Continuous
 62
     7
370
    25
100
AcDbCircle
 10
240.6701356794
 20
217.8107761429
 30
0.0
 40
25.0
100
AcDbArc
 50
138.152858804
 51
176.847141196
  0
LINE
  5
163
330
1F
100
AcDbEntity
  8
0
  6
Continuous
 62
     7
370
    25
100
AcDbLine
 10
43.2915908652
 20
144.6979031033
 30
0.0
 11
38.5968782708
 21
152.3320346915
 31
0.0
  0
LINE
  5
164
330
1F
100
AcDbEntity
  8
0
  6
Continuous
 62
     7
370
    25
100
AcDbLine
 10
38.5968782708
 20
152.3320346915
 30
0.0
 11
36.2543777424
 21
150.8914822716
 31
0.0
  0
LINE
  5
165
330
1F
100
AcDbEntity
  8
0
  6
Continuous
 62
     7
370
    25
100
AcDbLine
 10
36.2543777424
 20
150.8914822716
 30
0.0
 11
40.9490903368
 21
143.2573506834
 31
0.0
  0
LINE
  5
166
330
1F
100
AcDbEntity
  8
0
  6
Continuous
 62
     7
370
    25
100
AcDbLine
 10
14.4248412479
 20
144.960975472
 30
0.0
 11
20.0576138437
 21
151.9317834835
 31
0.0
  0
LINE
  5
167
330
1F
100
AcDbEntity
  8
0
  6
Continuous
 62
     7
370
    25
100
AcDbLine
 10
20.0576138437
 20
151.9317834835
 30
0.0
 11
17.9186513092
 21
153.6601755907
 31
0.0
  0
LINE
  5
168
330
1F
100
AcDbEntity
  8
0
  6
Continuous
 62
     7
370
    25
100
AcDbLine
 10
17.9186513092
 20
153.6601755907
 30
0.0
 11
12.2858787134
 21
146.6893675792
 31
0.0
  0
LINE
  5
169
330
1F
100
AcDbEntity
  8
0
  6
Continuous
 62
     7
370
    25
100
AcDbLine
 10
5.0512000621
 20
172.2646985049
 30
0.0
 11
13.50086811
 21
169.2774922298
 31
0.0
  0
LINE
  5
16A
330
1F
100
AcDbEntity
  8
0
  6
Continuous
 62
     7
370
    25
100
AcDbLine
 10
13.50086811
 20
169.2774922298
 30
0.0
 11
14.4174795408
 21
171.8702366223
 31
0.0
  0
LINE
  5
16B
330
1F
100
AcDbEntity
  8
0
  6
Continuous
 62
     7
370
    25
100
AcDbLine
 10
14.4174795408
 20
171.8702366223
 30
0.0
 11
5.9678114929
 21
174.8574428974
 31
0.0
  0
LINE
  5
16C
330
1F
100
AcDbEntity
  8
0
  6
Continuous
 62
     7
370
    25
100
AcDbLine
 10
27.6692321091
 20
190.2030113259
 30
0.0
 11
27.6692321091
 21
181.2408524649
 31
0.0
  0
LINE
  5
16D
330
1F
100
AcDbEntity
  8
0
  6
Continuous
 62
     7
370
    25
100
AcDbLine
 10
27.6692321091
 20
181.2408524649
 30
0.0
 11
30.4192321091
 21
181.2408524649
 31
0.0
  0
LINE
  5
16E
330
1F
100
AcDbEntity
  8
0
  6
Continuous
 62
     7
370
    25
100
AcDbLine
 10
30.4192321091
 20
181.2408524649
 30
0.0
 11
30.4192321091
 21
190.2030113259
 31
0.0
  0
LINE
  5
16F
330
1F
100
AcDbEntity
  8
0
  6
Continuous
 62
     7
370
    25
100
AcDbLine
 10
53.1612898028
 20
171.8262551252
 30
0.0
 11
44.3988974045
 21
169.9445614977
 31
0.0
  0
LINE
  5
170
330
1F
100
AcDbEntity
  8
0
  6
Continuous
 62
     7
370
    25
100
AcDbLine
 10
44.3988974045
 20
169.9445614977
 30
0.0
 11
44.9762870219
 21
167.2558589798
 31
0.0
  0
LINE
  5
171
330
1F
100
AcDbEntity
  8
0
  6
Continuous
 62
     7
370
    25
100
AcDbLine
 10
44.9762870219
 20
167.2558589798
 30
0.0
 11
53.7386794202
 21
169.1375526073
 31
0.0
  0
ARC
  5
172
330
1F
100
AcDbEntity
  8
0
  6
Continuous
 62
     7
370
    25
100
AcDbCircle
 10
29.0442321091
 20
165.2408524649
 30
0.0
 40
25.00000000000001
100
AcDbArc
 50
93.152858804
 51
157.377141196
  0
ARC
  5
173
330
1F
100
AcDbEntity
  8
0
  6
Continuous
 62
     7
370
    25
100
AcDbCircle
 10
29.0442321091
 20
165.2408524649
 30
0.0
 40
25.00000000000001
100
AcDbArc
 50
163.682858804
 51
227.907141196
  0
ARC
  5
174
330
1F
100
AcDbEntity
  8
0
  6
Continuous
 62
     7
370
    25
100
AcDbCircle
 10
29.0442321091
 20
165.2408524649
 30
0.0
 40
25.00000000000002
100
AcDbArc
 50
234.212858804
 51
298.437141196
  0
ARC
  5
175
330
1F
100
AcDbEntity
  8
0
  6
Continuous
 62
     7
370
    25
100
AcDbCircle
 10
29.0442321091
 20
165.2408524649
 30
0.0
 40
25.00000000000001
100
AcDbArc
 50
15.272858804
 51
86.847141196
  0
ARC
  5
176
330
1F
100
AcDbEntity
  8
0
  6
Continuous
 62
     7
370
    25
100
AcDbCircle
 10
29.0442321091
 20
165.2408524649
 30
0.0
 40
25.00000000000001
100
AcDbArc
 50
304.742858804
 51
8.967141196
  0
LINE
  5
177
330
1F
100
AcDbEntity
  8
0
  6
Continuous
 62
     7
370
    25
100
AcDbLine
 10
96.5719157185
 20
143.08537669
 30
0.0
 11
91.8772031241
 21
150.7195082782
 31
0.0
  0
LINE
  5
178
330
1F
100
AcDbEntity
  8
0
  6
Continuous
 62
     7
370
    25
100
AcDbLine
 10
91.8772031241
 20
150.7195082782
 30
0.0
 11
89.5347025957
 21
149.2789558583
 31
0.0
  0
LINE
  5
179
330
1F
100
AcDbEntity
  8
0
  6
Continuous
 62
     7
370
    25
100
AcDbLine
 10
89.5347025957
 20
149.2789558583
 30
0.0
 11
94.2294151901
 21
141.6448242701
 31
0.0
  0
LINE
  5
17A
330
1F
100
AcDbEntity
  8
0
  6
Continuous
 62
     7
370
    25
100
AcDbLine
 10
67.7051661012
 20
143.3484490587
 30
0.0
 11
73.337938697
 21
150.3192570702
 31
0.0
  0
LINE
  5
17B
330
1F
100
AcDbEntity
  8
0
  6
Continuous
 62
     7
370
    25
100
AcDbLine
 10
73.337938697
 20
150.3192570702
 30
0.0
 11
71.1989761625
 21
152.0476491774
 31
0.0
  0
LINE
  5
17C
330
1F
100
AcDbEntity
  8
0
  6
Continuous
 62
     7
370
    25
100
AcDbLine
 10
71.1989761625
 20
152.0476491774
 30
0.0
 11
65.5662035667
 21
145.0768411659
 31
0.0
  0
LINE
  5
17D
330
1F
100
AcDbEntity
  8
0
  6
Continuous
 62
     7
370
    25
100
AcDbLine
 10
58.3315249154
 20
170.6521720916
 30
0.0
 11
66.7811929632
 21
167.6649658165
 31
0.0
  0
LINE
  5
17E
330
1F
100
AcDbEntity
  8
0
  6
Continuous
 62
     7
370
    25
100
AcDbLine
 10
66.7811929632
 20
167.6649658165
 30
0.0
 11
67.697804394
 21
170.257710209
 31
0.0
  0
LINE
  5
17F
330
1F
100
AcDbEntity
  8
0
  6
Continuous
 62
     7
370
    25
100
AcDbLine
 10
67.697804394
 20
170.257710209
 30
0.0
 11
59.2481363462
 21
173.2449164842
 31
0.0
  0
LINE
  5
180
330
1F
100
AcDbEntity
  8
0
  6
Continuous
 62
     7
370
    25
100
AcDbLine
 10
80.9495569623
 20
188.5904849126
 30
0.0
 11
80.9495569623
 21
179.6283260516
 31
0.0
  0
LINE
  5
181
330
1F
100
AcDbEntity
  8
0
  6
Continuous
 62
     7
370
    25
100
AcDbLine
 10
80.9495569623
 20
179.6283260516
 30
0.0
 11
83.6995569623
 21
179.6283260516
 31
0.0
  0
LINE
  5
182
330
1F
100
AcDbEntity
  8
0
  6
Continuous
 62
     7
370
    25
100
AcDbLine
 10
83.6995569623
 20
179.6283260516
 30
0.0
 11
83.6995569623
 21
188.5904849126
 31
0.0
  0
LINE
  5
183
330
1F
100
AcDbEntity
  8
0
  6
Continuous
 62
     7
370
    25
100
AcDbLine
 10
106.441614656
 20
170.2137287119
 30
0.0
 11
97.6792222578
 21
168.3320350844
 31
0.0
  0
LINE
  5
184
330
1F
100
AcDbEntity
  8
0
  6
Continuous
 62
     7
370
    25
100
AcDbLine
 10
97.6792222578
 20
168.3320350844
 30
0.0
 11
98.2566118751
 21
165.6433325665
 31
0.0
  0
LINE
  5
185
330
1F
100
AcDbEntity
  8
0
  6
Continuous
 62
     7
370
    25
100
AcDbLine
 10
98.2566118751
 20
165.6433325665
 30
0.0
 11
107.0190042734
 21
167.525026194
 31
0.0
  0
ARC
  5
186
330
1F
100
AcDbEntity
  8
0
  6
Continuous
 62
     7
370
    25
100
AcDbCircle
 10
82.3245569623
 20
163.6283260516
 30
0.0
 40
25.00000000000004
100
AcDbArc
 50
93.152858804
 51
157.377141196
  0
ARC
  5
187
330
1F
100
AcDbEntity
  8
0
  6
Continuous
 62
     7
370
    25
100
AcDbCircle
 10
82.3245569623
 20
163.6283260516
 30
0.0
 40
25.00000000000001
100
AcDbArc
 50
163.682858804
 51
227.907141196
  0
ARC
  5
188
330
1F
100
AcDbEntity
  8
0
  6
Continuous
 62
     7
370
    25
100
AcDbCircle
 10
82.3245569623
 20
163.6283260516
 30
0.0
 40
25.0
100
AcDbArc
 50
234.212858804
 51
298.437141196
  0
ARC
  5
189
330
1F
100
AcDbEntity
  8
0
  6
Continuous
 62
     7
370
    25
100
AcDbCircle
 10
82.3245569623
 20
163.6283260516
 30
0.0
 40
25.00000000000004
100
AcDbArc
 50
15.272858804
 51
86.847141196
  0
ARC
  5
18A
330
1F
100
AcDbEntity
  8
0
  6
Continuous
 62
     7
370
    25
100
AcDbCircle
 10
82.3245569623
 20
163.6283260516
 30
0.0
 40
25.0
100
AcDbArc
 50
304.742858804
 51
8.967141196
  0
LINE
  5
18B
330
1F
100
AcDbEntity
  8
0
  6
Continuous
 62
     7
370
    25
100
AcDbLine
 10
148.895751714
 20
142.6493447234
 30
0.0
 11
144.2010391196
 21
150.2834763115
 31
0.0
  0
LINE
  5
18C
330
1F
100
AcDbEntity
  8
0
  6
Continuous
 62
     7
370
    25
100
AcDbLine
 10
144.2010391196
 20
150.2834763115
 30
0.0
 11
141.8585385912
 21
148.8429238917
 31
0.0
  0
LINE
  5
18D
330
1F
100
AcDbEntity
  8
0
  6
Continuous
 62
     7
370
    25
100
AcDbLine
 10
141.8585385912
 20
148.8429238917
 30
0.0
 11
146.5532511856
 21
141.2087923035
 31
0.0
  0
LINE
  5
18E
330
1F
100
AcDbEntity
  8
0
  6
Continuous
 62
     7
370
    25
100
AcDbLine
 10
120.0290020967
 20
142.9124170921
 30
0.0
 11
125.6617746925
 21
149.8832251036
 31
0.0
  0
LINE
  5
18F
330
1F
100
AcDbEntity
  8
0
  6
Continuous
 62
     7
370
    25
100
AcDbLine
 10
125.6617746925
 20
149.8832251036
 30
0.0
 11
123.522812158
 21
151.6116172107
 31
0.0
  0
LINE
  5
190
330
1F
100
AcDbEntity
  8
0
  6
Continuous
 62
     7
370
    25
100
AcDbLine
 10
123.522812158
 20
151.6116172107
 30
0.0
 11
117.8900395622
 21
144.6408091992
 31
0.0
  0
LINE
  5
191
330
1F
100
AcDbEntity
  8
0
  6
Continuous
 62
     7
370
    25
100
AcDbLine
 10
110.6553609109
 20
170.216140125
 30
0.0
 11
119.1050289587
 21
167.2289338498
 31
0.0
  0
LINE
  5
192
330
1F
100
AcDbEntity
  8
0
  6
Continuous
 62
     7
370
    25
100
AcDbLine
 10
119.1050289587
 20
167.2289338498
 30
0.0
 11
120.0216403895
 21
169.8216782424
 31
0.0
  0
LINE
  5
193
330
1F
100
AcDbEntity
  8
0
  6
Continuous
 62
     7
370
    25
100
AcDbLine
 10
120.0216403895
 20
169.8216782424
 30
0.0
 11
111.5719723417
 21
172.8088845175
 31
0.0
  0
LINE
  5
194
330
1F
100
AcDbEntity
  8
0
  6
Continuous
 62
     7
370
    25
100
AcDbLine
 10
133.2733929578
 20
188.154452946
 30
0.0
 11
133.2733929578
 21
179.192294085
 31
0.0
  0
LINE
  5
195
330
1F
100
AcDbEntity
  8
0
  6
Continuous
 62
     7
370
    25
100
AcDbLine
 10
133.2733929578
 20
179.192294085
 30
0.0
 11
136.0233929578
 21
179.192294085
 31
0.0
  0
LINE
  5
196
330
1F
100
AcDbEntity
  8
0
  6
Continuous
 62
     7
370
    25
100
AcDbLine
 10
136.0233929578
 20
179.192294085
 30
0.0
 11
136.0233929578
 21
188.154452946
 31
0.0
  0
LINE
  5
197
330
1F
100
AcDbEntity
  8
0
  6
Continuous
 62
     7
370
    25
100
AcDbLine
 10
158.7654506516
 20
169.7776967452
 30
0.0
 11
150.0030582533
 21
167.8960031178
 31
0.0
  0
LINE
  5
198
330
1F
100
AcDbEntity
  8
0
  6
Continuous
 62
     7
370
    25
100
AcDbLine
 10
150.0030582533
 20
167.8960031178
 30
0.0
 11
150.5804478707
 21
165.2073005999
 31
0.0
  0
LINE
  5
199
330
1F
100
AcDbEntity
  8
0
  6
Continuous
 62
     7
370
    25
100
AcDbLine
 10
150.5804478707
 20
165.2073005999
 30
0.0
 11
159.3428402689
 21
167.0889942274
 31
0.0
  0
ARC
  5
19A
330
1F
100
AcDbEntity
  8
0
  6
Continuous
 62
     7
370
    25
100
AcDbCircle
 10
134.6483929578
 20
163.192294085
 30
0.0
 40
25.00000000000001
100
AcDbArc
 50
93.152858804
 51
157.377141196
  0
ARC
  5
19B
330
1F
100
AcDbEntity
  8
0
  6
Continuous
 62
     7
370
    25
100
AcDbCircle
 10
134.6483929578
 20
163.192294085
 30
0.0
 40
25.0
100
AcDbArc
 50
163.682858804
 51
227.907141196
  0
ARC
  5
19C
330
1F
100
AcDbEntity
  8
0
  6
Continuous
 62
     7
370
    25
100
AcDbCircle
 10
134.6483929578
 20
163.192294085
 30
0.0
 40
25.00000000000001
100
AcDbArc
 50
234.212858804
 51
298.437141196
  0
ARC
  5
19D
330
1F
100
AcDbEntity
  8
0
  6
Continuous
 62
     7
370
    25
100
AcDbCircle
 10
134.6483929578
 20
163.192294085
 30
0.0
 40
25.00000000000003
100
AcDbArc
 50
15.272858804
 51
86.847141196
  0
ARC
  5
19E
330
1F
100
AcDbEntity
  8
0
  6
Continuous
 62
     7
370
    25
100
AcDbCircle
 10
134.6483929578
 20
163.192294085
 30
0.0
 40
25.00000000000002
100
AcDbArc
 50
304.742858804
 51
8.967141196
  0
LINE
  5
19F
330
1F
100
AcDbEntity
  8
0
  6
Continuous
 62
     7
370
    25
100
AcDbLine
 10
201.6556196761
 20
142.2133127568
 30
0.0
 11
196.9609070817
 21
149.8474443449
 31
0.0
  0
LINE
  5
1A0
330
1F
100
AcDbEntity
  8
0
  6
Continuous
 62
     7
370
    25
100
AcDbLine
 10
196.9609070817
 20
149.8474443449
 30
0.0
 11
194.6184065533
 21
148.406891925
 31
0.0
  0
LINE
  5
1A1
330
1F
100
AcDbEntity
  8
0
  6
Continuous
 62
     7
370
    25
100
AcDbLine
 10
194.6184065533
 20
148.406891925
 30
0.0
 11
199.3131191477
 21
140.7727603369
 31
0.0
  0
LINE
  5
1A2
330
1F
100
AcDbEntity
  8
0
  6
Continuous
 62
     7
370
    25
100
AcDbLine
 10
172.7888700588
 20
142.4763851254
 30
0.0
 11
178.4216426546
 21
149.4471931369
 31
0.0
  0
LINE
  5
1A3
330
1F
100
AcDbEntity
  8
0
  6
Continuous
 62
     7
370
    25
100
AcDbLine
 10
178.4216426546
 20
149.4471931369
 30
0.0
 11
176.2826801201
 21
151.1755852441
 31
0.0
  0
LINE
  5
1A4
330
1F
100
AcDbEntity
  8
0
  6
Continuous
 62
     7
370
    25
100
AcDbLine
 10
176.2826801201
 20
151.1755852441
 30
0.0
 11
170.6499075243
 21
144.2047772326
 31
0.0
  0
LINE
  5
1A5
330
1F
100
AcDbEntity
  8
0
  6
Continuous
 62
     7
370
    25
100
AcDbLine
 10
163.415228873
 20
169.7801081584
 30
0.0
 11
171.8648969209
 21
166.7929018832
 31
0.0
  0
LINE
  5
1A6
330
1F
100
AcDbEntity
  8
0
  6
Continuous
 62
     7
370
    25
100
AcDbLine
 10
171.8648969209
 20
166.7929018832
 30
0.0
 11
172.7815083517
 21
169.3856462757
 31
0.0
  0
LINE
  5
1A7
330
1F
100
AcDbEntity
  8
0
  6
Continuous
 62
     7
370
    25
100
AcDbLine
 10
172.7815083517
 20
169.3856462757
 30
0.0
 11
164.3318403038
 21
172.3728525509
 31
0.0
  0
LINE
  5
1A8
330
1F
100
AcDbEntity
  8
0
  6
Continuous
 62
     7
370
    25
100
AcDbLine
 10
186.03326092
 20
187.7184209793
 30
0.0
 11
186.03326092
 21
178.7562621184
 31
0.0
  0
LINE
  5
1A9
330
1F
100
AcDbEntity
  8
0
  6
Continuous
 62
     7
370
    25
100
AcDbLine
 10
186.03326092
 20
178.7562621184
 30
0.0
 11
188.78326092
 21
178.7562621184
 31
0.0
  0
LINE
  5
1AA
330
1F
100
AcDbEntity
  8
0
  6
Continuous
 62
     7
370
    25
100
AcDbLine
 10
188.78326092
 20
178.7562621184
 30
0.0
 11
188.78326092
 21
187.7184209793
 31
0.0
  0
LINE
  5
1AB
330
1F
100
AcDbEntity
  8
0
  6
Continuous
 62
     7
370
    25
100
AcDbLine
 10
211.5253186137
 20
169.3416647786
 30
0.0
 11
202.7629262154
 21
167.4599711511
 31
0.0
  0
LINE
  5
1AC
330
1F
100
AcDbEntity
  8
0
  6
Continuous
 62
     7
370
    25
100
AcDbLine
 10
202.7629262154
 20
167.4599711511
 30
0.0
 11
203.3403158328
 21
164.7712686332
 31
0.0
  0
LINE
  5
1AD
330
1F
100
AcDbEntity
  8
0
  6
Continuous
 62
     7
370
    25
100
AcDbLine
 10
203.3403158328
 20
164.7712686332
 30
0.0
 11
212.1027082311
 21
166.6529622607
 31
0.0
  0
ARC
  5
1AE
330
1F
100
AcDbEntity
  8
0
  6
Continuous
 62
     7
370
    25
100
AcDbCircle
 10
187.40826092
 20
162.7562621184
 30
0.0
 40
25.00000000000001
100
AcDbArc
 50
93.152858804
 51
157.377141196
  0
ARC
  5
1AF
330
1F
100
AcDbEntity
  8
0
  6
Continuous
 62
     7
370
    25
100
AcDbCircle
 10
187.40826092
 20
162.7562621184
 30
0.0
 40
24.99999999999999
100
AcDbArc
 50
163.682858804
 51
227.907141196
  0
ARC
  5
1B0
330
1F
100
AcDbEntity
  8
0
  6
Continuous
 62
     7
370
    25
100
AcDbCircle
 10
187.40826092
 20
162.7562621184
 30
0.0
 40
25.0
100
AcDbArc
 50
234.212858804
 51
298.437141196
  0
ARC
  5
1B1
330
1F
100
AcDbEntity
  8
0
  6
Continuous
 62
     7
370
    25
100
AcDbCircle
 10
187.40826092
 20
162.7562621184
 30
0.0
 40
25.00000000000003
100
AcDbArc
 50
15.272858804
 51
86.847141196
  0
ARC
  5
1B2
330
1F
100
AcDbEntity
  8
0
  6
Continuous
 62
     7
370
    25
100
AcDbCircle
 10
187.40826092
 20
162.7562621184
 30
0.0
 40
25.00000000000001
100
AcDbArc
 50
304.742858804
 51
8.967141196
  0
LINE
  5
1B3
330
1F
100
AcDbEntity
  8
0
  6
Continuous
 62
     7
370
    25
100
AcDbLine
 10
255.2875515715
 20
140.9052168569
 30
0.0
 11
250.5928389771
 21
148.539348445
 31
0.0
  0
LINE
  5
1B4
330
1F
100
AcDbEntity
  8
0
  6
Continuous
 62
     7
370
    25
100
AcDbLine
 10
250.5928389771
 20
148.539348445
 30
0.0
 11
248.2503384487
 21
147.0987960251
 31
0.0
  0
LINE
  5
1B5
330
1F
100
AcDbEntity
  8
0
  6
Continuous
 62
     7
370
    25
100
AcDbLine
 10
248.2503384487
 20
147.0987960251
 30
0.0
 11
252.9450510431
 21
139.464664437
 31
0.0
  0
LINE
  5
1B6
330
1F
100
AcDbEntity
  8
0
  6
Continuous
 62
     7
370
    25
100
AcDbLine
 10
226.4208019542
 20
141.1682892256
 30
0.0
 11
232.05357455
 21
148.139097237
 31
0.0
  0
LINE
  5
1B7
330
1F
100
AcDbEntity
  8
0
  6
Continuous
 62
     7
370
    25
100
AcDbLine
 10
232.05357455
 20
148.139097237
 30
0.0
 11
229.9146120156
 21
149.8674893442
 31
0.0
  0
LINE
  5
1B8
330
1F
100
AcDbEntity
  8
0
  6
Continuous
 62
     7
370
    25
100
AcDbLine
 10
229.9146120156
 20
149.8674893442
 30
0.0
 11
224.2818394198
 21
142.8966813327
 31
0.0
  0
LINE
  5
1B9
330
1F
100
AcDbEntity
  8
0
  6
Continuous
 62
     7
370
    25
100
AcDbLine
 10
217.0471607684
 20
168.4720122585
 30
0.0
 11
225.4968288163
 21
165.4848059833
 31
0.0
  0
LINE
  5
1BA
330
1F
100
AcDbEntity
  8
0
  6
Continuous
 62
     7
370
    25
100
AcDbLine
 10
225.4968288163
 20
165.4848059833
 30
0.0
 11
226.4134402471
 21
168.0775503758
 31
0.0
  0
LINE
  5
1BB
330
1F
100
AcDbEntity
  8
0
  6
Continuous
 62
     7
370
    25
100
AcDbLine
 10
226.4134402471
 20
168.0775503758
 30
0.0
 11
217.9637721992
 21
171.064756651
 31
0.0
  0
LINE
  5
1BC
330
1F
100
AcDbEntity
  8
0
  6
Continuous
 62
     7
370
    25
100
AcDbLine
 10
239.6651928154
 20
186.4103250795
 30
0.0
 11
239.6651928154
 21
177.4481662185
 31
0.0
  0
LINE
  5
1BD
330
1F
100
AcDbEntity
  8
0
  6
Continuous
 62
     7
370
    25
100
AcDbLine
 10
239.6651928154
 20
177.4481662185
 30
0.0
 11
242.4151928154
 21
177.4481662185
 31
0.0
  0
LINE
  5
1BE
330
1F
100
AcDbEntity
  8
0
  6
Continuous
 62
     7
370
    25
100
AcDbLine
 10
242.4151928154
 20
177.4481662185
 30
0.0
 11
242.4151928154
 21
186.4103250795
 31
0.0
  0
LINE
  5
1BF
330
1F
100
AcDbEntity
  8
0
  6
Continuous
 62
     7
370
    25
100
AcDbLine
 10
265.1572505091
 20
168.0335688787
 30
0.0
 11
256.3948581108
 21
166.1518752512
 31
0.0
  0
LINE
  5
1C0
330
1F
100
AcDbEntity
  8
0
  6
Continuous
 62
     7
370
    25
100
AcDbLine
 10
256.3948581108
 20
166.1518752512
 30
0.0
 11
256.9722477282
 21
163.4631727334
 31
0.0
  0
LINE
  5
1C1
330
1F
100
AcDbEntity
  8
0
  6
Continuous
 62
     7
370
    25
100
AcDbLine
 10
256.9722477282
 20
163.4631727334
 30
0.0
 11
265.7346401265
 21
165.3448663608
 31
0.0
  0
ARC
  5
1C2
330
1F
100
AcDbEntity
  8
0
  6
Continuous
 62
     7
370
    25
100
AcDbCircle
 10
241.0401928154
 20
161.4481662185
 30
0.0
 40
25.00000000000001
100
AcDbArc
 50
93.152858804
 51
157.377141196
  0
ARC
  5
1C3
330
1F
100
AcDbEntity
  8
0
  6
Continuous
 62
     7
370
    25
100
AcDbCircle
 10
241.0401928154
 20
161.4481662185
 30
0.0
 40
25.00000000000003
100
AcDbArc
 50
163.682858804
 51
227.907141196
  0
ARC
  5
1C4
330
1F
100
AcDbEntity
  8
0
  6
Continuous
 62
     7
370
    25
100
AcDbCircle
 10
241.0401928154
 20
161.4481662185
 30
0.0
 40
25.00000000000002
100
AcDbArc
 50
234.212858804
 51
298.437141196
  0
ARC
  5
1C5
330
1F
100
AcDbEntity
  8
0
  6
Continuous
 62
     7
370
    25
100
AcDbCircle
 10
241.0401928154
 20
161.4481662185
 30
0.0
 40
25.00000000000001
100
AcDbArc
 50
15.272858804
 51
86.847141196
  0
ARC
  5
1C6
330
1F
100
AcDbEntity
  8
0
  6
Continuous
 62
     7
370
    25
100
AcDbCircle
 10
241.0401928154
 20
161.4481662185
 30
0.0
 40
25.00000000000002
100
AcDbArc
 50
304.742858804
 51
8.967141196
  0
LINE
  5
1C7
330
1F
100
AcDbEntity
  8
0
  6
Continuous
 62
     7
370
    25
100
AcDbLine
 10
29.3615584424
 20
135.5071667615
 30
0.0
 11
29.3615584424
 21
126.5450079006
 31
0.0
  0
LINE
  5
1C8
330
1F
100
AcDbEntity
  8
0
  6
Continuous
 62
     7
370
    25
100
AcDbLine
 10
29.3615584424
 20
126.5450079006
 30
0.0
 11
32.1115584424
 21
126.5450079006
 31
0.0
  0
LINE
  5
1C9
330
1F
100
AcDbEntity
  8
0
  6
Continuous
 62
     7
370
    25
100
AcDbLine
 10
32.1115584424
 20
126.5450079006
 30
0.0
 11
32.1115584424
 21
135.5071667615
 31
0.0
  0
LINE
  5
1CA
330
1F
100
AcDbEntity
  8
0
  6
Continuous
 62
     7
370
    25
100
AcDbLine
 10
43.775629063
 20
131.8753299176
 30
0.0
 11
38.6878108323
 21
124.4973629144
 31
0.0
  0
LINE
  5
1CB
330
1F
100
AcDbEntity
  8
0
  6
Continuous
 62
     7
370
    25
100
AcDbLine
 10
38.6878108323
 20
124.4973629144
 30
0.0
 11
40.9517083567
 21
122.9361877164
 31
0.0
  0
LINE
  5
1CC
330
1F
100
AcDbEntity
  8
0
  6
Continuous
 62
     7
370
    25
100
AcDbLine
 10
40.9517083567
 20
122.9361877164
 30
0.0
 11
46.0395265874
 21
130.3141547196
 31
0.0
  0
LINE
  5
1CD
330
1F
100
AcDbEntity
  8
0
  6
Continuous
 62
     7
370
    25
100
AcDbLine
 10
46.8372656163
 20
91.4199659791
 30
0.0
 11
41.4512020446
 21
98.5831084913
 31
0.0
  0
LINE
  5
1CE
330
1F
100
AcDbEntity
  8
0
  6
Continuous
 62
     7
370
    25
100
AcDbLine
 10
41.4512020446
 20
98.5831084913
 30
0.0
 11
39.2532224937
 21
96.9304179898
 31
0.0
  0
LINE
  5
1CF
330
1F
100
AcDbEntity
  8
0
  6
Continuous
 62
     7
370
    25
100
AcDbLine
 10
39.2532224937
 20
96.9304179898
 30
0.0
 11
44.6392860654
 21
89.7672754776
 31
0.0
  0
LINE
  5
1D0
330
1F
100
AcDbEntity
  8
0
  6
Continuous
 62
     7
370
    25
100
AcDbLine
 10
7.4958198321
 20
101.3326211931
 30
0.0
 11
15.9963348926
 21
104.1719054612
 31
0.0
  0
LINE
  5
1D1
330
1F
100
AcDbEntity
  8
0
  6
Continuous
 62
     7
370
    25
100
AcDbLine
 10
15.9963348926
 20
104.1719054612
 30
0.0
 11
15.1251126951
 21
106.7802520414
 31
0.0
  0
LINE
  5
1D2
330
1F
100
AcDbEntity
  8
0
  6
Continuous
 62
     7
370
    25
100
AcDbLine
 10
15.1251126951
 20
106.7802520414
 30
0.0
 11
6.6245976346
 21
103.9409677733
 31
0.0
  0
ARC
  5
1D3
330
1F
100
AcDbEntity
  8
0
  6
Continuous
 62
     7
370
    25
100
AcDbCircle
 10
30.7365584424
 20
110.5450079006
 30
0.0
 40
25.00000000000001
100
AcDbArc
 50
58.562858804
 51
86.847141196
  0
ARC
  5
1D4
330
1F
100
AcDbEntity
  8
0
  6
Continuous
 62
     7
370
    25
100
AcDbCircle
 10
30.7365584424
 20
110.5450079006
 30
0.0
 40
25.00000000000001
100
AcDbArc
 50
310.092858804
 51
52.257141196
  0
ARC
  5
1D5
330
1F
100
AcDbEntity
  8
0
  6
Continuous
 62
     7
370
    25
100
AcDbCircle
 10
30.7365584424
 20
110.5450079006
 30
0.0
 40
25.00000000000001
100
AcDbArc
 50
201.622858804
 51
303.787141196
  0
ARC
  5
1D6
330
1F
100
AcDbEntity
  8
0
  6
Continuous
 62
     7
370
    25
100
AcDbCircle
 10
30.7365584424
 20
110.5450079006
 30
0.0
 40
25.00000000000001
100
AcDbArc
 50
93.152858804
 51
195.317141196
  0
LINE
  5
1D7
330
1F
100
AcDbEntity
  8
0
  6
Continuous
 62
     7
370
    25
100
AcDbLine
 10
81.0425562229
 20
134.5146053259
 30
0.0
 11
81.0425562229
 21
125.5524464649
 31
0.0
  0
LINE
  5
1D8
330
1F
100
AcDbEntity
  8
0
  6
Continuous
 62
     7
370
    25
100
AcDbLine
 10
81.0425562229
 20
125.5524464649
 30
0.0
 11
83.7925562229
 21
125.5524464649
 31
0.0
  0
LINE
  5
1D9
330
1F
100
AcDbEntity
  8
0
  6
Continuous
 62
     7
370
    25
100
AcDbLine
 10
83.7925562229
 20
125.5524464649
 30
0.0
 11
83.7925562229
 21
134.5146053259
 31
0.0
  0
LINE
  5
1DA
330
1F
100
AcDbEntity
  8
0
  6
Continuous
 62
     7
370
    25
100
AcDbLine
 10
95.4566268435
 20
130.8827684819
 30
0.0
 11
90.3688086128
 21
123.5048014787
 31
0.0
  0
LINE
  5
1DB
330
1F
100
AcDbEntity
  8
0
  6
Continuous
 62
     7
370
    25
100
AcDbLine
 10
90.3688086128
 20
123.5048014787
 30
0.0
 11
92.6327061372
 21
121.9436262807
 31
0.0
  0
LINE
  5
1DC
330
1F
100
AcDbEntity
  8
0
  6
Continuous
 62
     7
370
    25
100
AcDbLine
 10
92.6327061372
 20
121.9436262807
 30
0.0
 11
97.7205243679
 21
129.3215932839
 31
0.0
  0
LINE
  5
1DD
330
1F
100
AcDbEntity
  8
0
  6
Continuous
 62
     7
370
    25
100
AcDbLine
 10
98.5182633968
 20
90.4274045434
 30
0.0
 11
93.1321998251
 21
97.5905470556
 31
0.0
  0
LINE
  5
1DE
330
1F
100
AcDbEntity
  8
0
  6
Continuous
 62
     7
370
    25
100
AcDbLine
 10
93.1321998251
 20
97.5905470556
 30
0.0
 11
90.9342202742
 21
95.9378565542
 31
0.0
  0
LINE
  5
1DF
330
1F
100
AcDbEntity
  8
0
  6
Continuous
 62
     7
370
    25
100
AcDbLine
 10
90.9342202742
 20
95.9378565542
 30
0.0
 11
96.3202838459
 21
88.7747140419
 31
0.0
  0
LINE
  5
1E0
330
1F
100
AcDbEntity
  8
0
  6
Continuous
 62
     7
370
    25
100
AcDbLine
 10
59.1768176126
 20
100.3400597574
 30
0.0
 11
67.6773326731
 21
103.1793440255
 31
0.0
  0
LINE
  5
1E1
330
1F
100
AcDbEntity
  8
0
  6
Continuous
 62
     7
370
    25
100
AcDbLine
 10
67.6773326731
 20
103.1793440255
 30
0.0
 11
66.8061104756
 21
105.7876906058
 31
0.0
  0
LINE
  5
1E2
330
1F
100
AcDbEntity
  8
0
  6
Continuous
 62
     7
370
    25
100
AcDbLine
 10
66.8061104756
 20
105.7876906058
 30
0.0
 11
58.3055954151
 21
102.9484063376
 31
0.0
  0
ARC
  5
1E3
330
1F
100
AcDbEntity
  8
0
  6
Continuous
 62
     7
370
    25
100
AcDbCircle
 10
82.4175562229
 20
109.5524464649
 30
0.0
 40
25.0
100
AcDbArc
 50
58.562858804
 51
86.847141196
  0
ARC
  5
1E4
330
1F
100
AcDbEntity
  8
0
  6
Continuous
 62
     7
370
    25
100
AcDbCircle
 10
82.4175562229
 20
109.5524464649
 30
0.0
 40
25.00000000000001
100
AcDbArc
 50
310.092858804
 51
52.257141196
  0
ARC
  5
1E5
330
1F
100
AcDbEntity
  8
0
  6
Continuous
 62
     7
370
    25
100
AcDbCircle
 10
82.4175562229
 20
109.5524464649
 30
0.0
 40
25.00000000000001
100
AcDbArc
 50
201.622858804
 51
303.787141196
  0
ARC
  5
1E6
330
1F
100
AcDbEntity
  8
0
  6
Continuous
 62
     7
370
    25
100
AcDbCircle
 10
82.4175562229
 20
109.5524464649
 30
0.0
 40
25.0
100
AcDbArc
 50
93.152858804
 51
195.317141196
  0
LINE
  5
1E7
330
1F
100
AcDbEntity
  8
0
  6
Continuous
 62
     7
370
    25
100
AcDbLine
 10
133.7062333362
 20
132.698545918
 30
0.0
 11
133.7062333362
 21
123.736387057
 31
0.0
  0
LINE
  5
1E8
330
1F
100
AcDbEntity
  8
0
  6
Continuous
 62
     7
370
    25
100
AcDbLine
 10
133.7062333362
 20
123.736387057
 30
0.0
 11
136.4562333362
 21
123.736387057
 31
0.0
  0
LINE
  5
1E9
330
1F
100
AcDbEntity
  8
0
  6
Continuous
 62
     7
370
    25
100
AcDbLine
 10
136.4562333362
 20
123.736387057
 30
0.0
 11
136.4562333362
 21
132.698545918
 31
0.0
  0
LINE
  5
1EA
330
1F
100
AcDbEntity
  8
0
  6
Continuous
 62
     7
370
    25
100
AcDbLine
 10
148.1203039568
 20
129.0667090741
 30
0.0
 11
143.0324857261
 21
121.6887420709
 31
0.0
  0
LINE
  5
1EB
330
1F
100
AcDbEntity
  8
0
  6
Continuous
 62
     7
370
    25
100
AcDbLine
 10
143.0324857261
 20
121.6887420709
 30
0.0
 11
145.2963832505
 21
120.1275668729
 31
0.0
  0
LINE
  5
1EC
330
1F
100
AcDbEntity
  8
0
  6
Continuous
 62
     7
370
    25
100
AcDbLine
 10
145.2963832505
 20
120.1275668729
 30
0.0
 11
150.3842014812
 21
127.5055338761
 31
0.0
  0
LINE
  5
1ED
330
1F
100
AcDbEntity
  8
0
  6
Continuous
 62
     7
370
    25
100
AcDbLine
 10
151.1819405101
 20
88.6113451355
 30
0.0
 11
145.7958769384
 21
95.7744876478
 31
0.0
  0
LINE
  5
1EE
330
1F
100
AcDbEntity
  8
0
  6
Continuous
 62
     7
370
    25
100
AcDbLine
 10
145.7958769384
 20
95.7744876478
 30
0.0
 11
143.5978973875
 21
94.1217971463
 31
0.0
  0
LINE
  5
1EF
330
1F
100
AcDbEntity
  8
0
  6
Continuous
 62
     7
370
    25
100
AcDbLine
 10
143.5978973875
 20
94.1217971463
 30
0.0
 11
148.9839609592
 21
86.9586546341
 31
0.0
  0
LINE
  5
1F0
330
1F
100
AcDbEntity
  8
0
  6
Continuous
 62
     7
370
    25
100
AcDbLine
 10
111.8404947259
 20
98.5240003495
 30
0.0
 11
120.3410097864
 21
101.3632846177
 31
0.0
  0
LINE
  5
1F1
330
1F
100
AcDbEntity
  8
0
  6
Continuous
 62
     7
370
    25
100
AcDbLine
 10
120.3410097864
 20
101.3632846177
 30
0.0
 11
119.4697875889
 21
103.9716311979
 31
0.0
  0
LINE
  5
1F2
330
1F
100
AcDbEntity
  8
0
  6
Continuous
 62
     7
370
    25
100
AcDbLine
 10
119.4697875889
 20
103.9716311979
 30
0.0
 11
110.9692725284
 21
101.1323469298
 31
0.0
  0
ARC
  5
1F3
330
1F
100
AcDbEntity
  8
0
  6
Continuous
 62
     7
370
    25
100
AcDbCircle
 10
135.0812333362
 20
107.736387057
 30
0.0
 40
25.00000000000001
100
AcDbArc
 50
58.562858804
 51
86.847141196
  0
ARC
  5
1F4
330
1F
100
AcDbEntity
  8
0
  6
Continuous
 62
     7
370
    25
100
AcDbCircle
 10
135.0812333362
 20
107.736387057
 30
0.0
 40
25.00000000000002
100
AcDbArc
 50
310.092858804
 51
52.257141196
  0
ARC
  5
1F5
330
1F
100
AcDbEntity
  8
0
  6
Continuous
 62
     7
370
    25
100
AcDbCircle
 10
135.0812333362
 20
107.736387057
 30
0.0
 40
25.00000000000001
100
AcDbArc
 50
201.622858804
 51
303.787141196
  0
ARC
  5
1F6
330
1F
100
AcDbEntity
  8
0
  6
Continuous
 62
     7
370
    25
100
AcDbCircle
 10
135.0812333362
 20
107.736387057
 30
0.0
 40
25.00000000000001
100
AcDbArc
 50
93.152858804
 51
195.317141196
  0
LINE
  5
1F7
330
1F
100
AcDbEntity
  8
0
  6
Continuous
 62
     7
370
    25
100
AcDbLine
 10
187.4338231184
 20
131.8772146727
 30
0.0
 11
187.4338231184
 21
122.9150558117
 31
0.0
  0
LINE
  5
1F8
330
1F
100
AcDbEntity
  8
0
  6
Continuous
 62
     7
370
    25
100
AcDbLine
 10
187.4338231184
 20
122.9150558117
 30
0.0
 11
190.1838231184
 21
122.9150558117
 31
0.0
  0
LINE
  5
1F9
330
1F
100
AcDbEntity
  8
0
  6
Continuous
 62
     7
370
    25
100
AcDbLine
 10
190.1838231184
 20
122.9150558117
 30
0.0
 11
190.1838231184
 21
131.8772146727
 31
0.0
  0
LINE
  5
1FA
330
1F
100
AcDbEntity
  8
0
  6
Continuous
 62
     7
370
    25
100
AcDbLine
 10
201.847893739
 20
128.2453778287
 30
0.0
 11
196.7600755083
 21
120.8674108255
 31
0.0
  0
LINE
  5
1FB
330
1F
100
AcDbEntity
  8
0
  6
Continuous
 62
     7
370
    25
100
AcDbLine
 10
196.7600755083
 20
120.8674108255
 30
0.0
 11
199.0239730327
 21
119.3062356275
 31
0.0
  0
LINE
  5
1FC
330
1F
100
AcDbEntity
  8
0
  6
Continuous
 62
     7
370
    25
100
AcDbLine
 10
199.0239730327
 20
119.3062356275
 30
0.0
 11
204.1117912634
 21
126.6842026307
 31
0.0
  0
LINE
  5
1FD
330
1F
100
AcDbEntity
  8
0
  6
Continuous
 62
     7
370
    25
100
AcDbLine
 10
204.9095302924
 20
87.7900138902
 30
0.0
 11
199.5234667206
 21
94.9531564024
 31
0.0
  0
LINE
  5
1FE
330
1F
100
AcDbEntity
  8
0
  6
Continuous
 62
     7
370
    25
100
AcDbLine
 10
199.5234667206
 20
94.9531564024
 30
0.0
 11
197.3254871697
 21
93.300465901
 31
0.0
  0
LINE
  5
1FF
330
1F
100
AcDbEntity
  8
0
  6
Continuous
 62
     7
370
    25
100
AcDbLine
 10
197.3254871697
 20
93.300465901
 30
0.0
 11
202.7115507414
 21
86.1373233887
 31
0.0
  0
LINE
  5
200
330
1F
100
AcDbEntity
  8
0
  6
Continuous
 62
     7
370
    25
100
AcDbLine
 10
165.5680845081
 20
97.7026691042
 30
0.0
 11
174.0685995686
 21
100.5419533723
 31
0.0
  0
LINE
  5
201
330
1F
100
AcDbEntity
  8
0
  6
Continuous
 62
     7
370
    25
100
AcDbLine
 10
174.0685995686
 20
100.5419533723
 30
0.0
 11
173.1973773711
 21
103.1502999526
 31
0.0
  0
LINE
  5
202
330
1F
100
AcDbEntity
  8
0
  6
Continuous
 62
     7
370
    25
100
AcDbLine
 10
173.1973773711
 20
103.1502999526
 30
0.0
 11
164.6968623106
 21
100.3110156844
 31
0.0
  0
ARC
  5
203
330
1F
100
AcDbEntity
  8
0
  6
Continuous
 62
     7
370
    25
100
AcDbCircle
 10
188.8088231184
 20
106.9150558117
 30
0.0
 40
25.00000000000001
100
AcDbArc
 50
58.562858804
 51
86.847141196
  0
ARC
  5
204
330
1F
100
AcDbEntity
  8
0
  6
Continuous
 62
     7
370
    25
100
AcDbCircle
 10
188.8088231184
 20
106.9150558117
 30
0.0
 40
25.0
100
AcDbArc
 50
310.092858804
 51
52.257141196
  0
ARC
  5
205
330
1F
100
AcDbEntity
  8
0
  6
Continuous
 62
     7
370
    25
100
AcDbCircle
 10
188.8088231184
 20
106.9150558117
 30
0.0
 40
25.0
100
AcDbArc
 50
201.622858804
 51
303.787141196
  0
ARC
  5
206
330
1F
100
AcDbEntity
  8
0
  6
Continuous
 62
     7
370
    25
100
AcDbCircle
 10
188.8088231184
 20
106.9150558117
 30
0.0
 40
25.00000000000002
100
AcDbArc
 50
93.152858804
 51
195.317141196
  0
LINE
  5
207
330
1F
100
AcDbEntity
  8
0
  6
Continuous
 62
     7
370
    25
100
AcDbLine
 10
241.3323988653
 20
129.7568530078
 30
0.0
 11
241.3323988653
 21
120.7946941468
 31
0.0
  0
LINE
  5
208
330
1F
100
AcDbEntity
  8
0
  6
Continuous
 62
     7
370
    25
100
AcDbLine
 10
241.3323988653
 20
120.7946941468
 30
0.0
 11
244.0823988653
 21
120.7946941468
 31
0.0
  0
LINE
  5
209
330
1F
100
AcDbEntity
  8
0
  6
Continuous
 62
     7
370
    25
100
AcDbLine
 10
244.0823988653
 20
120.7946941468
 30
0.0
 11
244.0823988653
 21
129.7568530078
 31
0.0
  0
LINE
  5
20A
330
1F
100
AcDbEntity
  8
0
  6
Continuous
 62
     7
370
    25
100
AcDbLine
 10
255.7464694859
 20
126.1250161639
 30
0.0
 11
250.6586512552
 21
118.7470491607
 31
0.0
  0
LINE
  5
20B
330
1F
100
AcDbEntity
  8
0
  6
Continuous
 62
     7
370
    25
100
AcDbLine
 10
250.6586512552
 20
118.7470491607
 30
0.0
 11
252.9225487796
 21
117.1858739627
 31
0.0
  0
LINE
  5
20C
330
1F
100
AcDbEntity
  8
0
  6
Continuous
 62
     7
370
    25
100
AcDbLine
 10
252.9225487796
 20
117.1858739627
 30
0.0
 11
258.0103670103
 21
124.5638409659
 31
0.0
  0
LINE
  5
20D
330
1F
100
AcDbEntity
  8
0
  6
Continuous
 62
     7
370
    25
100
AcDbLine
 10
258.8081060392
 20
85.6696522253
 30
0.0
 11
253.4220424675
 21
92.8327947376
 31
0.0
  0
LINE
  5
20E
330
1F
100
AcDbEntity
  8
0
  6
Continuous
 62
     7
370
    25
100
AcDbLine
 10
253.4220424675
 20
92.8327947376
 30
0.0
 11
251.2240629166
 21
91.1801042361
 31
0.0
  0
LINE
  5
20F
330
1F
100
AcDbEntity
  8
0
  6
Continuous
 62
     7
370
    25
100
AcDbLine
 10
251.2240629166
 20
91.1801042361
 30
0.0
 11
256.6101264883
 21
84.0169617239
 31
0.0
  0
LINE
  5
210
330
1F
100
AcDbEntity
  8
0
  6
Continuous
 62
     7
370
    25
100
AcDbLine
 10
219.466660255
 20
95.5823074393
 30
0.0
 11
227.9671753155
 21
98.4215917075
 31
0.0
  0
LINE
  5
211
330
1F
100
AcDbEntity
  8
0
  6
Continuous
 62
     7
370
    25
100
AcDbLine
 10
227.9671753155
 20
98.4215917075
 30
0.0
 11
227.095953118
 21
101.0299382877
 31
0.0
  0
LINE
  5
212
330
1F
100
AcDbEntity
  8
0
  6
Continuous
 62
     7
370
    25
100
AcDbLine
 10
227.095953118
 20
101.0299382877
 30
0.0
 11
218.5954380575
 21
98.1906540196
 31
0.0
  0
ARC
  5
213
330
1F
100
AcDbEntity
  8
0
  6
Continuous
 62
     7
370
    25
100
AcDbCircle
 10
242.7073988653
 20
104.7946941468
 30
0.0
 40
25.00000000000001
100
AcDbArc
 50
58.562858804
 51
86.847141196
  0
ARC
  5
214
330
1F
100
AcDbEntity
  8
0
  6
Continuous
 62
     7
370
    25
100
AcDbCircle
 10
242.7073988653
 20
104.7946941468
 30
0.0
 40
25.00000000000001
100
AcDbArc
 50
310.092858804
 51
52.257141196
  0
ARC
  5
215
330
1F
100
AcDbEntity
  8
0
  6
Continuous
 62
     7
370
    25
100
AcDbCircle
 10
242.7073988653
 20
104.7946941468
 30
0.0
 40
25.0
100
AcDbArc
 50
201.622858804
 51
303.787141196
  0
ARC
  5
216
330
1F
100
AcDbEntity
  8
0
  6
Continuous
 62
     7
370
    25
100
AcDbCircle
 10
242.7073988653
 20
104.7946941468
 30
0.0
 40
25.0
100
AcDbArc
 50
93.152858804
 51
195.317141196
  0
LINE
  5
217
330
1F
100
AcDbEntity
  8
0
  6
Continuous
 62
     7
370
    25
100
AcDbLine
 10
31.4235677542
 20
79.7453868125
 30
0.0
 11
31.4235677542
 21
70.7832279515
 31
0.0
  0
LINE
  5
218
330
1F
100
AcDbEntity
  8
0
  6
Continuous
 62
     7
370
    25
100
AcDbLine
 10
31.4235677542
 20
70.7832279515
 30
0.0
 11
34.1735677542
 21
70.7832279515
 31
0.0
  0
LINE
  5
219
330
1F
100
AcDbEntity
  8
0
  6
Continuous
 62
     7
370
    25
100
AcDbLine
 10
34.1735677542
 20
70.7832279515
 30
0.0
 11
34.1735677542
 21
79.7453868125
 31
0.0
  0
LINE
  5
21A
330
1F
100
AcDbEntity
  8
0
  6
Continuous
 62
     7
370
    25
100
AcDbLine
 10
53.5908476842
 20
40.9022663381
 30
0.0
 11
46.422068828
 21
46.2808257326
 31
0.0
  0
LINE
  5
21B
330
1F
100
AcDbEntity
  8
0
  6
Continuous
 62
     7
370
    25
100
AcDbLine
 10
46.422068828
 20
46.2808257326
 30
0.0
 11
44.7716809511
 21
44.0811166938
 31
0.0
  0
LINE
  5
21C
330
1F
100
AcDbEntity
  8
0
  6
Continuous
 62
     7
370
    25
100
AcDbLine
 10
44.7716809511
 20
44.0811166938
 30
0.0
 11
51.9404598073
 21
38.7025572992
 31
0.0
  0
LINE
  5
21D
330
1F
100
AcDbEntity
  8
0
  6
Continuous
 62
     7
370
    25
100
AcDbLine
 10
11.0855603159
 20
42.3918879117
 30
0.0
 11
19.101912204
 21
46.399180496
 31
0.0
  0
LINE
  5
21E
330
1F
100
AcDbEntity
  8
0
  6
Continuous
 62
     7
370
    25
100
AcDbLine
 10
19.101912204
 20
46.399180496
 30
0.0
 11
17.8722916652
 21
48.8589636837
 31
0.0
  0
LINE
  5
21F
330
1F
100
AcDbEntity
  8
0
  6
Continuous
 62
     7
370
    25
100
AcDbLine
 10
17.8722916652
 20
48.8589636837
 30
0.0
 11
9.8559397772
 21
44.8516710995
 31
0.0
  0
ARC
  5
220
330
1F
100
AcDbEntity
  8
0
  6
Continuous
 62
     7
370
    25
100
AcDbCircle
 10
32.7985677542
 20
54.7832279515
 30
0.0
 40
25.00000000000001
100
AcDbArc
 50
326.272858804
 51
86.847141196
  0
ARC
  5
221
330
1F
100
AcDbEntity
  8
0
  6
Continuous
 62
     7
370
    25
100
AcDbCircle
 10
32.7985677542
 20
54.7832279515
 30
0.0
 40
25.0
100
AcDbArc
 50
209.712858804
 51
319.967141196
  0
ARC
  5
222
330
1F
100
AcDbEntity
  8
0
  6
Continuous
 62
     7
370
    25
100
AcDbCircle
 10
32.7985677542
 20
54.7832279515
 30
0.0
 40
25.00000000000001
100
AcDbArc
 50
93.152858804
 51
203.407141196
  0
LINE
  5
223
330
1F
100
AcDbEntity
  8
0
  6
Continuous
 62
     7
370
    25
100
AcDbLine
 10
83.9428717226
 20
78.969526339
 30
0.0
 11
83.9428717226
 21
70.007367478
 31
0.0
  0
LINE
  5
224
330
1F
100
AcDbEntity
  8
0
  6
Continuous
 62
     7
370
    25
100
AcDbLine
 10
83.9428717226
 20
70.007367478
 30
0.0
 11
86.6928717226
 21
70.007367478
 31
0.0
  0
LINE
  5
225
330
1F
100
AcDbEntity
  8
0
  6
Continuous
 62
     7
370
    25
100
AcDbLine
 10
86.6928717226
 20
70.007367478
 30
0.0
 11
86.6928717226
 21
78.969526339
 31
0.0
  0
LINE
  5
226
330
1F
100
AcDbEntity
  8
0
  6
Continuous
 62
     7
370
    25
100
AcDbLine
 10
106.1101516525
 20
40.1264058646
 30
0.0
 11
98.9413727964
 21
45.5049652591
 31
0.0
  0
LINE
  5
227
330
1F
100
AcDbEntity
  8
0
  6
Continuous
 62
     7
370
    25
100
AcDbLine
 10
98.9413727964
 20
45.5049652591
 30
0.0
 11
97.2909849195
 21
43.3052562202
 31
0.0
  0
LINE
  5
228
330
1F
100
AcDbEntity
  8
0
  6
Continuous
 62
     7
370
    25
100
AcDbLine
 10
97.2909849195
 20
43.3052562202
 30
0.0
 11
104.4597637756
 21
37.9266968257
 31
0.0
  0
LINE
  5
229
330
1F
100
AcDbEntity
  8
0
  6
Continuous
 62
     7
370
    25
100
AcDbLine
 10
63.6048642842
 20
41.6160274382
 30
0.0
 11
71.6212161723
 21
45.6233200225
 31
0.0
  0
LINE
  5
22A
330
1F
100
AcDbEntity
  8
0
  6
Continuous
 62
     7
370
    25
100
AcDbLine
 10
71.6212161723
 20
45.6233200225
 30
0.0
 11
70.3915956335
 21
48.0831032102
 31
0.0
  0
LINE
  5
22B
330
1F
100
AcDbEntity
  8
0
  6
Continuous
 62
     7
370
    25
100
AcDbLine
 10
70.3915956335
 20
48.0831032102
 30
0.0
 11
62.3752437455
 21
44.0758106259
 31
0.0
  0
ARC
  5
22C
330
1F
100
AcDbEntity
  8
0
  6
Continuous
 62
     7
370
    25
100
AcDbCircle
 10
85.3178717226
 20
54.007367478
 30
0.0
 40
25.00000000000001
100
AcDbArc
 50
326.272858804
 51
86.847141196
  0
ARC
  5
22D
330
1F
100
AcDbEntity
  8
0
  6
Continuous
 62
     7
370
    25
100
AcDbCircle
 10
85.3178717226
 20
54.007367478
 30
0.0
 40
25.0
100
AcDbArc
 50
209.712858804
 51
319.967141196
  0
ARC
  5
22E
330
1F
100
AcDbEntity
  8
0
  6
Continuous
 62
     7
370
    25
100
AcDbCircle
 10
85.3178717226
 20
54.007367478
 30
0.0
 40
25.00000000000001
100
AcDbArc
 50
93.152858804
 51
203.407141196
  0
LINE
  5
22F
330
1F
100
AcDbEntity
  8
0
  6
Continuous
 62
     7
370
    25
100
AcDbLine
 10
136.9519133438
 20
78.545454006
 30
0.0
 11
136.9519133438
 21
69.5832951451
 31
0.0
  0
LINE
  5
230
330
1F
100
AcDbEntity
  8
0
  6
Continuous
 62
     7
370
    25
100
AcDbLine
 10
136.9519133438
 20
69.5832951451
 30
0.0
 11
139.7019133438
 21
69.5832951451
 31
0.0
  0
LINE
  5
231
330
1F
100
AcDbEntity
  8
0
  6
Continuous
 62
     7
370
    25
100
AcDbLine
 10
139.7019133438
 20
69.5832951451
 30
0.0
 11
139.7019133438
 21
78.545454006
 31
0.0
  0
LINE
  5
232
330
1F
100
AcDbEntity
  8
0
  6
Continuous
 62
     7
370
    25
100
AcDbLine
 10
159.1191932738
 20
39.7023335316
 30
0.0
 11
151.9504144176
 21
45.0808929262
 31
0.0
  0
LINE
  5
233
330
1F
100
AcDbEntity
  8
0
  6
Continuous
 62
     7
370
    25
100
AcDbLine
 10
151.9504144176
 20
45.0808929262
 30
0.0
 11
150.3000265407
 21
42.8811838873
 31
0.0
  0
LINE
  5
234
330
1F
100
AcDbEntity
  8
0
  6
Continuous
 62
     7
370
    25
100
AcDbLine
 10
150.3000265407
 20
42.8811838873
 30
0.0
 11
157.4688053969
 21
37.5026244927
 31
0.0
  0
LINE
  5
235
330
1F
100
AcDbEntity
  8
0
  6
Continuous
 62
     7
370
    25
100
AcDbLine
 10
116.6139059055
 20
41.1919551052
 30
0.0
 11
124.6302577935
 21
45.1992476895
 31
0.0
  0
LINE
  5
236
330
1F
100
AcDbEntity
  8
0
  6
Continuous
 62
     7
370
    25
100
AcDbLine
 10
124.6302577935
 20
45.1992476895
 30
0.0
 11
123.4006372548
 21
47.6590308772
 31
0.0
  0
LINE
  5
237
330
1F
100
AcDbEntity
  8
0
  6
Continuous
 62
     7
370
    25
100
AcDbLine
 10
123.4006372548
 20
47.6590308772
 30
0.0
 11
115.3842853667
 21
43.651738293
 31
0.0
  0
ARC
  5
238
330
1F
100
AcDbEntity
  8
0
  6
Continuous
 62
     7
370
    25
100
AcDbCircle
 10
138.3269133438
 20
53.5832951451
 30
0.0
 40
24.99999999999999
100
AcDbArc
 50
326.272858804
 51
86.847141196
  0
ARC
  5
239
330
1F
100
AcDbEntity
  8
0
  6
Continuous
 62
     7
370
    25
100
AcDbCircle
 10
138.3269133438
 20
53.5832951451
 30
0.0
 40
25.00000000000002
100
AcDbArc
 50
209.712858804
 51
319.967141196
  0
ARC
  5
23A
330
1F
100
AcDbEntity
  8
0
  6
Continuous
 62
     7
370
    25
100
AcDbCircle
 10
138.3269133438
 20
53.5832951451
 30
0.0
 40
25.00000000000001
100
AcDbArc
 50
93.152858804
 51
203.407141196
  0
LINE
  5
23B
330
1F
100
AcDbEntity
  8
0
  6
Continuous
 62
     7
370
    25
100
AcDbLine
 10
189.960954965
 20
77.6973093401
 30
0.0
 11
189.960954965
 21
68.7351504791
 31
0.0
  0
LINE
  5
23C
330
1F
100
AcDbEntity
  8
0
  6
Continuous
 62
     7
370
    25
100
AcDbLine
 10
189.960954965
 20
68.7351504791
 30
0.0
 11
192.710954965
 21
68.7351504791
 31
0.0
  0
LINE
  5
23D
330
1F
100
AcDbEntity
  8
0
  6
Continuous
 62
     7
370
    25
100
AcDbLine
 10
192.710954965
 20
68.7351504791
 30
0.0
 11
192.710954965
 21
77.6973093401
 31
0.0
  0
LINE
  5
23E
330
1F
100
AcDbEntity
  8
0
  6
Continuous
 62
     7
370
    25
100
AcDbLine
 10
212.128234895
 20
38.8541888657
 30
0.0
 11
204.9594560389
 21
44.2327482602
 31
0.0
  0
LINE
  5
23F
330
1F
100
AcDbEntity
  8
0
  6
Continuous
 62
     7
370
    25
100
AcDbLine
 10
204.9594560389
 20
44.2327482602
 30
0.0
 11
203.309068162
 21
42.0330392213
 31
0.0
  0
LINE
  5
240
330
1F
100
AcDbEntity
  8
0
  6
Continuous
 62
     7
370
    25
100
AcDbLine
 10
203.309068162
 20
42.0330392213
 30
0.0
 11
210.4778470181
 21
36.6544798268
 31
0.0
  0
LINE
  5
241
330
1F
100
AcDbEntity
  8
0
  6
Continuous
 62
     7
370
    25
100
AcDbLine
 10
169.6229475267
 20
40.3438104393
 30
0.0
 11
177.6392994148
 21
44.3511030236
 31
0.0
  0
LINE
  5
242
330
1F
100
AcDbEntity
  8
0
  6
Continuous
 62
     7
370
    25
100
AcDbLine
 10
177.6392994148
 20
44.3511030236
 30
0.0
 11
176.409678876
 21
46.8108862113
 31
0.0
  0
LINE
  5
243
330
1F
100
AcDbEntity
  8
0
  6
Continuous
 62
     7
370
    25
100
AcDbLine
 10
176.409678876
 20
46.8108862113
 30
0.0
 11
168.393326988
 21
42.803593627
 31
0.0
  0
ARC
  5
244
330
1F
100
AcDbEntity
  8
0
  6
Continuous
 62
     7
370
    25
100
AcDbCircle
 10
191.335954965
 20
52.7351504791
 30
0.0
 40
24.99999999999999
100
AcDbArc
 50
326.272858804
 51
86.847141196
  0
ARC
  5
245
330
1F
100
AcDbEntity
  8
0
  6
Continuous
 62
     7
370
    25
100
AcDbCircle
 10
191.335954965
 20
52.7351504791
 30
0.0
 40
25.00000000000001
100
AcDbArc
 50
209.712858804
 51
319.967141196
  0
ARC
  5
246
330
1F
100
AcDbEntity
  8
0
  6
Continuous
 62
     7
370
    25
100
AcDbCircle
 10
191.335954965
 20
52.7351504791
 30
0.0
 40
25.00000000000001
100
AcDbArc
 50
93.152858804
 51
203.407141196
  0
LINE
  5
247
330
1F
100
AcDbEntity
  8
0
  6
Continuous
 62
     7
370
    25
100
AcDbLine
 10
243.3940689193
 20
76.0010200082
 30
0.0
 11
243.3940689193
 21
67.0388611472
 31
0.0
  0
LINE
  5
248
330
1F
100
AcDbEntity
  8
0
  6
Continuous
 62
     7
370
    25
100
AcDbLine
 10
243.3940689193
 20
67.0388611472
 30
0.0
 11
246.1440689193
 21
67.0388611472
 31
0.0
  0
LINE
  5
249
330
1F
100
AcDbEntity
  8
0
  6
Continuous
 62
     7
370
    25
100
AcDbLine
 10
246.1440689193
 20
67.0388611472
 30
0.0
 11
246.1440689193
 21
76.0010200082
 31
0.0
  0
LINE
  5
24A
330
1F
100
AcDbEntity
  8
0
  6
Continuous
 62
     7
370
    25
100
AcDbLine
 10
265.5613488492
 20
37.1578995338
 30
0.0
 11
258.3925699931
 21
42.5364589283
 31
0.0
  0
LINE
  5
24B
330
1F
100
AcDbEntity
  8
0
  6
Continuous
 62
     7
370
    25
100
AcDbLine
 10
258.3925699931
 20
42.5364589283
 30
0.0
 11
256.7421821162
 21
40.3367498894
 31
0.0
  0
LINE
  5
24C
330
1F
100
AcDbEntity
  8
0
  6
Continuous
 62
     7
370
    25
100
AcDbLine
 10
256.7421821162
 20
40.3367498894
 30
0.0
 11
263.9109609723
 21
34.9581904949
 31
0.0
  0
LINE
  5
24D
330
1F
100
AcDbEntity
  8
0
  6
Continuous
 62
     7
370
    25
100
AcDbLine
 10
223.0560614809
 20
38.6475211074
 30
0.0
 11
231.072413369
 21
42.6548136917
 31
0.0
  0
LINE
  5
24E
330
1F
100
AcDbEntity
  8
0
  6
Continuous
 62
     7
370
    25
100
AcDbLine
 10
231.072413369
 20
42.6548136917
 30
0.0
 11
229.8427928303
 21
45.1145968794
 31
0.0
  0
LINE
  5
24F
330
1F
100
AcDbEntity
  8
0
  6
Continuous
 62
     7
370
    25
100
AcDbLine
 10
229.8427928303
 20
45.1145968794
 30
0.0
 11
221.8264409422
 21
41.1073042951
 31
0.0
  0
ARC
  5
250
330
1F
100
AcDbEntity
  8
0
  6
Continuous
 62
     7
370
    25
100
AcDbCircle
 10
244.7690689193
 20
51.0388611472
 30
0.0
 40
25.00000000000004
100
AcDbArc
 50
326.272858804
 51
86.847141196
  0
ARC
  5
251
330
1F
100
AcDbEntity
  8
0
  6
Continuous
 62
     7
370
    25
100
AcDbCircle
 10
244.7690689193
 20
51.0388611472
 30
0.0
 40
25.00000000000002
100
AcDbArc
 50
209.712858804
 51
319.967141196
  0
ARC
  5
252
330
1F
100
AcDbEntity
  8
0
  6
Continuous
 62
     7
370
    25
100
AcDbCircle
 10
244.7690689193
 20
51.0388611472
 30
0.0
 40
25.00000000000001
100
AcDbArc
 50
93.152858804
 51
203.407141196
  0
LINE
  5
253
330
1F
100
AcDbEntity
  8
0
  6
Continuous
 62
     7
370
    25
100
AcDbLine
 10
273.0174308683
 20
272.7294300172
 30
0.0
 11
281.8458680801
 21
271.1870332313
 31
0.0
  0
LINE
  5
254
330
1F
100
AcDbEntity
  8
0
  6
Continuous
 62
     7
370
    25
100
AcDbLine
 10
281.8458680801
 20
271.1870332313
 30
0.0
 11
282.3191459172
 21
273.8960013169
 31
0.0
  0
LINE
  5
255
330
1F
100
AcDbEntity
  8
0
  6
Continuous
 62
     7
370
    25
100
AcDbLine
 10
282.3191459172
 20
273.8960013169
 30
0.0
 11
273.4907087054
 21
275.4383981029
 31
0.0
  0
LINE
  5
256
330
1F
100
AcDbEntity
  8
0
  6
Continuous
 62
     7
370
    25
100
AcDbLine
 10
276.7069020629
 20
283.1382777682
 30
0.0
 11
284.0094875383
 21
277.9428435396
 31
0.0
  0
LINE
  5
257
330
1F
100
AcDbEntity
  8
0
  6
Continuous
 62
     7
370
    25
100
AcDbLine
 10
284.0094875383
 20
277.9428435396
 30
0.0
 11
285.6036842436
 21
280.1836105656
 31
0.0
  0
LINE
  5
258
330
1F
100
AcDbEntity
  8
0
  6
Continuous
 62
     7
370
    25
100
AcDbLine
 10
285.6036842436
 20
280.1836105656
 30
0.0
 11
278.3010987682
 21
285.3790447942
 31
0.0
  0
LINE
  5
259
330
1F
100
AcDbEntity
  8
0
  6
Continuous
 62
     7
370
    25
100
AcDbLine
 10
285.8485774453
 20
291.722239485
 30
0.0
 11
289.7097096842
 21
283.6344740777
 31
0.0
  0
LINE
  5
25A
330
1F
100
AcDbEntity
  8
0
  6
Continuous
 62
     7
370
    25
100
AcDbLine
 10
289.7097096842
 20
283.6344740777
 30
0.0
 11
292.191405804
 21
284.8192459415
 31
0.0
  0
LINE
  5
25B
330
1F
100
AcDbEntity
  8
0
  6
Continuous
 62
     7
370
    25
100
AcDbLine
 10
292.191405804
 20
284.8192459415
 30
0.0
 11
288.3302735651
 21
292.9070113487
 31
0.0
  0
LINE
  5
25C
330
1F
100
AcDbEntity
  8
0
  6
Continuous
 62
     7
370
    25
100
AcDbLine
 10
296.4687758605
 20
294.7500596283
 30
0.0
 11
296.4687758605
 21
285.7879007673
 31
0.0
  0
LINE
  5
25D
330
1F
100
AcDbEntity
  8
0
  6
Continuous
 62
     7
370
    25
100
AcDbLine
 10
296.4687758605
 20
285.7879007673
 30
0.0
 11
299.2187758605
 21
285.7879007673
 31
0.0
  0
LINE
  5
25E
330
1F
100
AcDbEntity
  8
0
  6
Continuous
 62
     7
370
    25
100
AcDbLine
 10
299.2187758605
 20
285.7879007673
 30
0.0
 11
299.2187758605
 21
294.7500596283
 31
0.0
  0
LINE
  5
25F
330
1F
100
AcDbEntity
  8
0
  6
Continuous
 62
     7
370
    25
100
AcDbLine
 10
308.762698458
 20
292.2773900748
 30
0.0
 11
304.4109189144
 21
284.4427039768
 31
0.0
  0
LINE
  5
260
330
1F
100
AcDbEntity
  8
0
  6
Continuous
 62
     7
370
    25
100
AcDbLine
 10
304.4109189144
 20
284.4427039768
 30
0.0
 11
306.8149587338
 21
283.1073790924
 31
0.0
  0
LINE
  5
261
330
1F
100
AcDbEntity
  8
0
  6
Continuous
 62
     7
370
    25
100
AcDbLine
 10
306.8149587338
 20
283.1073790924
 30
0.0
 11
311.1667382774
 21
290.9420651904
 31
0.0
  0
LINE
  5
262
330
1F
100
AcDbEntity
  8
0
  6
Continuous
 62
     7
370
    25
100
AcDbLine
 10
318.3093392853
 20
284.1461984974
 30
0.0
 11
310.7007201523
 21
279.4102501934
 31
0.0
  0
LINE
  5
263
330
1F
100
AcDbEntity
  8
0
  6
Continuous
 62
     7
370
    25
100
AcDbLine
 10
310.7007201523
 20
279.4102501934
 30
0.0
 11
312.1539255728
 21
277.0755780524
 31
0.0
  0
LINE
  5
264
330
1F
100
AcDbEntity
  8
0
  6
Continuous
 62
     7
370
    25
100
AcDbLine
 10
312.1539255728
 20
277.0755780524
 30
0.0
 11
319.7625447058
 21
281.8115263564
 31
0.0
  0
LINE
  5
265
330
1F
100
AcDbEntity
  8
0
  6
Continuous
 62
     7
370
    25
100
AcDbLine
 10
322.4985454976
 20
273.9282309643
 30
0.0
 11
313.5918913602
 21
272.9323376338
 31
0.0
  0
LINE
  5
266
330
1F
100
AcDbEntity
  8
0
  6
Continuous
 62
     7
370
    25
100
AcDbLine
 10
313.5918913602
 20
272.9323376338
 30
0.0
 11
313.8974769564
 21
270.1993690201
 31
0.0
  0
LINE
  5
267
330
1F
100
AcDbEntity
  8
0
  6
Continuous
 62
     7
370
    25
100
AcDbLine
 10
313.8974769564
 20
270.1993690201
 30
0.0
 11
322.8041310938
 21
271.1952623506
 31
0.0
  0
LINE
  5
268
330
1F
100
AcDbEntity
  8
0
  6
Continuous
 62
     7
370
    25
100
AcDbLine
 10
321.4073154557
 20
261.4356794014
 30
0.0
 11
313.1375727829
 21
264.8899011047
 31
0.0
  0
LINE
  5
269
330
1F
100
AcDbEntity
  8
0
  6
Continuous
 62
     7
370
    25
100
AcDbLine
 10
313.1375727829
 20
264.8899011047
 30
0.0
 11
312.0776596714
 21
262.3523660417
 31
0.0
  0
LINE
  5
26A
330
1F
100
AcDbEntity
  8
0
  6
Continuous
 62
     7
370
    25
100
AcDbLine
 10
312.0776596714
 20
262.3523660417
 30
0.0
 11
320.3474023442
 21
258.8981443384
 31
0.0
  0
LINE
  5
26B
330
1F
100
AcDbEntity
  8
0
  6
Continuous
 62
     7
370
    25
100
AcDbLine
 10
314.3873243851
 20
251.0446085748
 30
0.0
 11
308.8352216634
 21
258.0798375559
 31
0.0
  0
LINE
  5
26C
330
1F
100
AcDbEntity
  8
0
  6
Continuous
 62
     7
370
    25
100
AcDbLine
 10
308.8352216634
 20
258.0798375559
 30
0.0
 11
306.6764918307
 21
256.3761986535
 31
0.0
  0
LINE
  5
26D
330
1F
100
AcDbEntity
  8
0
  6
Continuous
 62
     7
370
    25
100
AcDbLine
 10
306.6764918307
 20
256.3761986535
 30
0.0
 11
312.2285945525
 21
249.3409696725
 31
0.0
  0
LINE
  5
26E
330
1F
100
AcDbEntity
  8
0
  6
Continuous
 62
     7
370
    25
100
AcDbLine
 10
304.6981522085
 20
245.7459057403
 30
0.0
 11
302.7187011433
 21
254.4867332143
 31
0.0
  0
LINE
  5
26F
330
1F
100
AcDbEntity
  8
0
  6
Continuous
 62
     7
370
    25
100
AcDbLine
 10
302.7187011433
 20
254.4867332143
 30
0.0
 11
300.0366157299
 21
253.8793471465
 31
0.0
  0
LINE
  5
270
330
1F
100
AcDbEntity
  8
0
  6
Continuous
 62
     7
370
    25
100
AcDbLine
 10
300.0366157299
 20
253.8793471465
 30
0.0
 11
302.0160667951
 21
245.1385196725
 31
0.0
  0
LINE
  5
271
330
1F
100
AcDbEntity
  8
0
  6
Continuous
 62
     7
370
    25
100
AcDbLine
 10
292.1617102052
 20
245.4421797903
 30
0.0
 11
294.6755884797
 21
254.0445461782
 31
0.0
  0
LINE
  5
272
330
1F
100
AcDbEntity
  8
0
  6
Continuous
 62
     7
370
    25
100
AcDbLine
 10
294.6755884797
 20
254.0445461782
 30
0.0
 11
292.0359892566
 21
254.8159189425
 31
0.0
  0
LINE
  5
273
330
1F
100
AcDbEntity
  8
0
  6
Continuous
 62
     7
370
    25
100
AcDbLine
 10
292.0359892566
 20
254.8159189425
 30
0.0
 11
289.5221109821
 21
246.2135525546
 31
0.0
  0
LINE
  5
274
330
1F
100
AcDbEntity
  8
0
  6
Continuous
 62
     7
370
    25
100
AcDbLine
 10
282.227308404
 20
250.26545358
 30
0.0
 11
288.2020442649
 21
256.9454852298
 31
0.0
  0
LINE
  5
275
330
1F
100
AcDbEntity
  8
0
  6
Continuous
 62
     7
370
    25
100
AcDbLine
 10
288.2020442649
 20
256.9454852298
 30
0.0
 11
286.1523052096
 21
258.7788072979
 31
0.0
  0
LINE
  5
276
330
1F
100
AcDbEntity
  8
0
  6
Continuous
 62
     7
370
    25
100
AcDbLine
 10
286.1523052096
 20
258.7788072979
 30
0.0
 11
280.1775693487
 21
252.0987756481
 31
0.0
  0
LINE
  5
277
330
1F
100
AcDbEntity
  8
0
  6
Continuous
 62
     7
370
    25
100
AcDbLine
 10
274.7123507199
 20
260.3043797457
 30
0.0
 11
283.1790835963
 21
263.2428701487
 31
0.0
  0
LINE
  5
278
330
1F
100
AcDbEntity
  8
0
  6
Continuous
 62
     7
370
    25
100
AcDbLine
 10
283.1790835963
 20
263.2428701487
 30
0.0
 11
282.2774204219
 21
265.8408508107
 31
0.0
  0
LINE
  5
279
330
1F
100
AcDbEntity
  8
0
  6
Continuous
 62
     7
370
    25
100
AcDbLine
 10
282.2774204219
 20
265.8408508107
 30
0.0
 11
273.8106875455
 21
262.9023604076
 31
0.0
  0
ARC
  5
27A
330
1F
100
AcDbEntity
  8
0
  6
Continuous
 62
     7
370
    25
100
AcDbCircle
 10
297.8437758605
 20
269.7879007673
 30
0.0
 40
25.00000000000004
100
AcDbArc
 50
64.102858804
 51
86.847141196
  0
ARC
  5
27B
330
1F
100
AcDbEntity
  8
0
  6
Continuous
 62
     7
370
    25
100
AcDbCircle
 10
297.8437758605
 20
269.7879007673
 30
0.0
 40
25.00000000000004
100
AcDbArc
 50
35.052858804
 51
57.797141196
  0
ARC
  5
27C
330
1F
100
AcDbEntity
  8
0
  6
Continuous
 62
     7
370
    25
100
AcDbCircle
 10
297.8437758605
 20
269.7879007673
 30
0.0
 40
25.0
100
AcDbArc
 50
285.912858804
 51
305.127141196
  0
ARC
  5
27D
330
1F
100
AcDbEntity
  8
0
  6
Continuous
 62
     7
370
    25
100
AcDbCircle
 10
297.8437758605
 20
269.7879007673
 30
0.0
 40
25.00000000000004
100
AcDbArc
 50
147.722858804
 51
166.937141196
  0
ARC
  5
27E
330
1F
100
AcDbEntity
  8
0
  6
Continuous
 62
     7
370
    25
100
AcDbCircle
 10
297.8437758605
 20
269.7879007673
 30
0.0
 40
25.00000000000004
100
AcDbArc
 50
9.532858804
 51
28.747141196
  0
ARC
  5
27F
330
1F
100
AcDbEntity
  8
0
  6
Continuous
 62
     7
370
    25
100
AcDbCircle
 10
297.8437758605
 20
269.7879007673
 30
0.0
 40
25.0
100
AcDbArc
 50
256.8628588041
 51
279.607141196
  0
ARC
  5
280
330
1F
100
AcDbEntity
  8
0
  6
Continuous
 62
     7
370
    25
100
AcDbCircle
 10
297.8437758605
 20
269.7879007673
 30
0.0
 40
25.0
100
AcDbArc
 50
231.342858804
 51
250.557141196
  0
ARC
  5
281
330
1F
100
AcDbEntity
  8
0
  6
Continuous
 62
     7
370
    25
100
AcDbCircle
 10
297.8437758605
 20
269.7879007673
 30
0.0
 40
25.00000000000001
100
AcDbArc
 50
118.672858804
 51
141.417141196
  0
ARC
  5
282
330
1F
100
AcDbEntity
  8
0
  6
Continuous
 62
     7
370
    25
100
AcDbCircle
 10
297.8437758605
 20
269.7879007673
 30
0.0
 40
25.00000000000001
100
AcDbArc
 50
93.152858804
 51
112.367141196
  0
ARC
  5
283
330
1F
100
AcDbEntity
  8
0
  6
Continuous
 62
     7
370
    25
100
AcDbCircle
 10
297.8437758605
 20
269.7879007673
 30
0.0
 40
25.0
100
AcDbArc
 50
340.482858804
 51
3.227141196
  0
ARC
  5
284
330
1F
100
AcDbEntity
  8
0
  6
Continuous
 62
     7
370
    25
100
AcDbCircle
 10
297.8437758605
 20
269.7879007673
 30
0.0
 40
24.99999999999998
100
AcDbArc
 50
311.4328588041
 51
334.177141196
  0
ARC
  5
285
330
1F
100
AcDbEntity
  8
0
  6
Continuous
 62
     7
370
    25
100
AcDbCircle
 10
297.8437758605
 20
269.7879007673
 30
0.0
 40
24.99999999999999
100
AcDbArc
 50
202.292858804
 51
225.037141196
  0
ARC
  5
286
330
1F
100
AcDbEntity
  8
0
  6
Continuous
 62
     7
370
    25
100
AcDbCircle
 10
297.8437758605
 20
269.7879007673
 30
0.0
 40
25.00000000000003
100
AcDbArc
 50
173.242858804
 51
195.987141196
  0
LINE
  5
287
330
1F
100
AcDbEntity
  8
0
  6
Continuous
 62
     7
370
    25
100
AcDbLine
 10
274.6480548802
 20
217.2482385906
 30
0.0
 11
283.4764920921
 21
215.7058418046
 31
0.0
  0
LINE
  5
288
330
1F
100
AcDbEntity
  8
0
  6
Continuous
 62
     7
370
    25
100
AcDbLine
 10
283.4764920921
 20
215.7058418046
 30
0.0
 11
283.9497699291
 21
218.4148098902
 31
0.0
  0
LINE
  5
289
330
1F
100
AcDbEntity
  8
0
  6
Continuous
 62
     7
370
    25
100
AcDbLine
 10
283.9497699291
 20
218.4148098902
 30
0.0
 11
275.1213327173
 21
219.9572066762
 31
0.0
  0
LINE
  5
28A
330
1F
100
AcDbEntity
  8
0
  6
Continuous
 62
     7
370
    25
100
AcDbLine
 10
278.3375260748
 20
227.6570863415
 30
0.0
 11
285.6401115502
 21
222.461652113
 31
0.0
  0
LINE
  5
28B
330
1F
100
AcDbEntity
  8
0
  6
Continuous
 62
     7
370
    25
100
AcDbLine
 10
285.6401115502
 20
222.461652113
 30
0.0
 11
287.2343082555
 21
224.702419139
 31
0.0
  0
LINE
  5
28C
330
1F
100
AcDbEntity
  8
0
  6
Continuous
 62
     7
370
    25
100
AcDbLine
 10
287.2343082555
 20
224.702419139
 30
0.0
 11
279.9317227801
 21
229.8978533675
 31
0.0
  0
LINE
  5
28D
330
1F
100
AcDbEntity
  8
0
  6
Continuous
 62
     7
370
    25
100
AcDbLine
 10
287.4792014572
 20
236.2410480583
 30
0.0
 11
291.3403336961
 21
228.1532826511
 31
0.0
  0
LINE
  5
28E
330
1F
100
AcDbEntity
  8
0
  6
Continuous
 62
     7
370
    25
100
AcDbLine
 10
291.3403336961
 20
228.1532826511
 30
0.0
 11
293.8220298159
 21
229.3380545148
 31
0.0
  0
LINE
  5
28F
330
1F
100
AcDbEntity
  8
0
  6
Continuous
 62
     7
370
    25
100
AcDbLine
 10
293.8220298159
 20
229.3380545148
 30
0.0
 11
289.960897577
 21
237.4258199221
 31
0.0
  0
LINE
  5
290
330
1F
100
AcDbEntity
  8
0
  6
Continuous
 62
     7
370
    25
100
AcDbLine
 10
298.0993998724
 20
239.2688682016
 30
0.0
 11
298.0993998724
 21
230.3067093407
 31
0.0
  0
LINE
  5
291
330
1F
100
AcDbEntity
  8
0
  6
Continuous
 62
     7
370
    25
100
AcDbLine
 10
298.0993998724
 20
230.3067093407
 30
0.0
 11
300.8493998724
 21
230.3067093407
 31
0.0
  0
LINE
  5
292
330
1F
100
AcDbEntity
  8
0
  6
Continuous
 62
     7
370
    25
100
AcDbLine
 10
300.8493998724
 20
230.3067093407
 30
0.0
 11
300.8493998724
 21
239.2688682016
 31
0.0
  0
LINE
  5
293
330
1F
100
AcDbEntity
  8
0
  6
Continuous
 62
     7
370
    25
100
AcDbLine
 10
310.3933224699
 20
236.7961986481
 30
0.0
 11
306.0415429263
 21
228.9615125502
 31
0.0
  0
LINE
  5
294
330
1F
100
AcDbEntity
  8
0
  6
Continuous
 62
     7
370
    25
100
AcDbLine
 10
306.0415429263
 20
228.9615125502
 30
0.0
 11
308.4455827457
 21
227.6261876658
 31
0.0
  0
LINE
  5
295
330
1F
100
AcDbEntity
  8
0
  6
Continuous
 62
     7
370
    25
100
AcDbLine
 10
308.4455827457
 20
227.6261876658
 30
0.0
 11
312.7973622893
 21
235.4608737638
 31
0.0
  0
LINE
  5
296
330
1F
100
AcDbEntity
  8
0
  6
Continuous
 62
     7
370
    25
100
AcDbLine
 10
319.9399632972
 20
228.6650070707
 30
0.0
 11
312.3313441642
 21
223.9290587667
 31
0.0
  0
LINE
  5
297
330
1F
100
AcDbEntity
  8
0
  6
Continuous
 62
     7
370
    25
100
AcDbLine
 10
312.3313441642
 20
223.9290587667
 30
0.0
 11
313.7845495847
 21
221.5943866257
 31
0.0
  0
LINE
  5
298
330
1F
100
AcDbEntity
  8
0
  6
Continuous
 62
     7
370
    25
100
AcDbLine
 10
313.7845495847
 20
221.5943866257
 30
0.0
 11
321.3931687177
 21
226.3303349298
 31
0.0
  0
LINE
  5
299
330
1F
100
AcDbEntity
  8
0
  6
Continuous
 62
     7
370
    25
100
AcDbLine
 10
324.1291695095
 20
218.4470395376
 30
0.0
 11
315.2225153721
 21
217.4511462072
 31
0.0
  0
LINE
  5
29A
330
1F
100
AcDbEntity
  8
0
  6
Continuous
 62
     7
370
    25
100
AcDbLine
 10
315.2225153721
 20
217.4511462072
 30
0.0
 11
315.5281009683
 21
214.7181775935
 31
0.0
  0
LINE
  5
29B
330
1F
100
AcDbEntity
  8
0
  6
Continuous
 62
     7
370
    25
100
AcDbLine
 10
315.5281009683
 20
214.7181775935
 30
0.0
 11
324.4347551057
 21
215.7140709239
 31
0.0
  0
LINE
  5
29C
330
1F
100
AcDbEntity
  8
0
  6
Continuous
 62
     7
370
    25
100
AcDbLine
 10
323.0379394676
 20
205.9544879748
 30
0.0
 11
314.7681967948
 21
209.4087096781
 31
0.0
  0
LINE
  5
29D
330
1F
100
AcDbEntity
  8
0
  6
Continuous
 62
     7
370
    25
100
AcDbLine
 10
314.7681967948
 20
209.4087096781
 30
0.0
 11
313.7082836833
 21
206.871174615
 31
0.0
  0
LINE
  5
29E
330
1F
100
AcDbEntity
  8
0
  6
Continuous
 62
     7
370
    25
100
AcDbLine
 10
313.7082836833
 20
206.871174615
 30
0.0
 11
321.9780263561
 21
203.4169529118
 31
0.0
  0
LINE
  5
29F
330
1F
100
AcDbEntity
  8
0
  6
Continuous
 62
     7
370
    25
100
AcDbLine
 10
316.017948397
 20
195.5634171482
 30
0.0
 11
310.4658456753
 21
202.5986461293
 31
0.0
  0
LINE
  5
2A0
330
1F
100
AcDbEntity
  8
0
  6
Continuous
 62
     7
370
    25
100
AcDbLine
 10
310.4658456753
 20
202.5986461293
 30
0.0
 11
308.3071158426
 21
200.8950072269
 31
0.0
  0
LINE
  5
2A1
330
1F
100
AcDbEntity
  8
0
  6
Continuous
 62
     7
370
    25
100
AcDbLine
 10
308.3071158426
 20
200.8950072269
 30
0.0
 11
313.8592185644
 21
193.8597782458
 31
0.0
  0
LINE
  5
2A2
330
1F
100
AcDbEntity
  8
0
  6
Continuous
 62
     7
370
    25
100
AcDbLine
 10
306.3287762204
 20
190.2647143136
 30
0.0
 11
304.3493251552
 21
199.0055417876
 31
0.0
  0
LINE
  5
2A3
330
1F
100
AcDbEntity
  8
0
  6
Continuous
 62
     7
370
    25
100
AcDbLine
 10
304.3493251552
 20
199.0055417876
 30
0.0
 11
301.6672397418
 21
198.3981557198
 31
0.0
  0
LINE
  5
2A4
330
1F
100
AcDbEntity
  8
0
  6
Continuous
 62
     7
370
    25
100
AcDbLine
 10
301.6672397418
 20
198.3981557198
 30
0.0
 11
303.646690807
 21
189.6573282459
 31
0.0
  0
LINE
  5
2A5
330
1F
100
AcDbEntity
  8
0
  6
Continuous
 62
     7
370
    25
100
AcDbLine
 10
293.7923342171
 20
189.9609883637
 30
0.0
 11
296.3062124916
 21
198.5633547515
 31
0.0
  0
LINE
  5
2A6
330
1F
100
AcDbEntity
  8
0
  6
Continuous
 62
     7
370
    25
100
AcDbLine
 10
296.3062124916
 20
198.5633547515
 30
0.0
 11
293.6666132685
 21
199.3347275158
 31
0.0
  0
LINE
  5
2A7
330
1F
100
AcDbEntity
  8
0
  6
Continuous
 62
     7
370
    25
100
AcDbLine
 10
293.6666132685
 20
199.3347275158
 30
0.0
 11
291.152734994
 21
190.732361128
 31
0.0
  0
LINE
  5
2A8
330
1F
100
AcDbEntity
  8
0
  6
Continuous
 62
     7
370
    25
100
AcDbLine
 10
283.8579324159
 20
194.7842621534
 30
0.0
 11
289.8326682768
 21
201.4642938032
 31
0.0
  0
LINE
  5
2A9
330
1F
100
AcDbEntity
  8
0
  6
Continuous
 62
     7
370
    25
100
AcDbLine
 10
289.8326682768
 20
201.4642938032
 30
0.0
 11
287.7829292215
 21
203.2976158712
 31
0.0
  0
LINE
  5
2AA
330
1F
100
AcDbEntity
  8
0
  6
Continuous
 62
     7
370
    25
100
AcDbLine
 10
287.7829292215
 20
203.2976158712
 30
0.0
 11
281.8081933607
 21
196.6175842214
 31
0.0
  0
LINE
  5
2AB
330
1F
100
AcDbEntity
  8
0
  6
Continuous
 62
     7
370
    25
100
AcDbLine
 10
276.3429747319
 20
204.8231883191
 30
0.0
 11
284.8097076083
 21
207.7616787221
 31
0.0
  0
LINE
  5
2AC
330
1F
100
AcDbEntity
  8
0
  6
Continuous
 62
     7
370
    25
100
AcDbLine
 10
284.8097076083
 20
207.7616787221
 30
0.0
 11
283.9080444338
 21
210.359659384
 31
0.0
  0
LINE
  5
2AD
330
1F
100
AcDbEntity
  8
0
  6
Continuous
 62
     7
370
    25
100
AcDbLine
 10
283.9080444338
 20
210.359659384
 30
0.0
 11
275.4413115574
 21
207.421168981
 31
0.0
  0
ARC
  5
2AE
330
1F
100
AcDbEntity
  8
0
  6
Continuous
 62
     7
370
    25
100
AcDbCircle
 10
299.4743998724
 20
214.3067093407
 30
0.0
 40
25.00000000000001
100
AcDbArc
 50
64.102858804
 51
86.847141196
  0
ARC
  5
2AF
330
1F
100
AcDbEntity
  8
0
  6
Continuous
 62
     7
370
    25
100
AcDbCircle
 10
299.4743998724
 20
214.3067093407
 30
0.0
 40
25.0
100
AcDbArc
 50
35.052858804
 51
57.797141196
  0
ARC
  5
2B0
330
1F
100
AcDbEntity
  8
0
  6
Continuous
 62
     7
370
    25
100
AcDbCircle
 10
299.4743998724
 20
214.3067093407
 30
0.0
 40
24.99999999999999
100
AcDbArc
 50
285.912858804
 51
305.127141196
  0
ARC
  5
2B1
330
1F
100
AcDbEntity
  8
0
  6
Continuous
 62
     7
370
    25
100
AcDbCircle
 10
299.4743998724
 20
214.3067093407
 30
0.0
 40
25.0
100
AcDbArc
 50
147.722858804
 51
166.937141196
  0
ARC
  5
2B2
330
1F
100
AcDbEntity
  8
0
  6
Continuous
 62
     7
370
    25
100
AcDbCircle
 10
299.4743998724
 20
214.3067093407
 30
0.0
 40
24.99999999999998
100
AcDbArc
 50
9.532858804
 51
28.747141196
  0
ARC
  5
2B3
330
1F
100
AcDbEntity
  8
0
  6
Continuous
 62
     7
370
    25
100
AcDbCircle
 10
299.4743998724
 20
214.3067093407
 30
0.0
 40
25.0
100
AcDbArc
 50
256.8628588041
 51
279.607141196
  0
ARC
  5
2B4
330
1F
100
AcDbEntity
  8
0
  6
Continuous
 62
     7
370
    25
100
AcDbCircle
 10
299.4743998724
 20
214.3067093407
 30
0.0
 40
25.0
100
AcDbArc
 50
231.342858804
 51
250.557141196
  0
ARC
  5
2B5
330
1F
100
AcDbEntity
  8
0
  6
Continuous
 62
     7
370
    25
100
AcDbCircle
 10
299.4743998724
 20
214.3067093407
 30
0.0
 40
25.00000000000001
100
AcDbArc
 50
118.672858804
 51
141.417141196
  0
ARC
  5
2B6
330
1F
100
AcDbEntity
  8
0
  6
Continuous
 62
     7
370
    25
100
AcDbCircle
 10
299.4743998724
 20
214.3067093407
 30
0.0
 40
25.00000000000002
100
AcDbArc
 50
93.152858804
 51
112.367141196
  0
ARC
  5
2B7
330
1F
100
AcDbEntity
  8
0
  6
Continuous
 62
     7
370
    25
100
AcDbCircle
 10
299.4743998724
 20
214.3067093407
 30
0.0
 40
25.0
100
AcDbArc
 50
340.482858804
 51
3.227141196
  0
ARC
  5
2B8
330
1F
100
AcDbEntity
  8
0
  6
Continuous
 62
     7
370
    25
100
AcDbCircle
 10
299.4743998724
 20
214.3067093407
 30
0.0
 40
25.0
100
AcDbArc
 50
311.4328588041
 51
334.177141196
  0
ARC
  5
2B9
330
1F
100
AcDbEntity
  8
0
  6
Continuous
 62
     7
370
    25
100
AcDbCircle
 10
299.4743998724
 20
214.3067093407
 30
0.0
 40
25.0
100
AcDbArc
 50
202.292858804
 51
225.037141196
  0
ARC
  5
2BA
330
1F
100
AcDbEntity
  8
0
  6
Continuous
 62
     7
370
    25
100
AcDbCircle
 10
299.4743998724
 20
214.3067093407
 30
0.0
 40
25.00000000000003
100
AcDbArc
 50
173.242858804
 51
195.987141196
  0
LINE
  5
2BB
330
1F
100
AcDbEntity
  8
0
  6
Continuous
 62
     7
370
    25
100
AcDbLine
 10
272.1036208824
 20
161.2706906386
 30
0.0
 11
280.9320580942
 21
159.7282938526
 31
0.0
  0
LINE
  5
2BC
330
1F
100
AcDbEntity
  8
0
  6
Continuous
 62
     7
370
    25
100
AcDbLine
 10
280.9320580942
 20
159.7282938526
 30
0.0
 11
281.4053359313
 21
162.4372619382
 31
0.0
  0
LINE
  5
2BD
330
1F
100
AcDbEntity
  8
0
  6
Continuous
 62
     7
370
    25
100
AcDbLine
 10
281.4053359313
 20
162.4372619382
 30
0.0
 11
272.5768987195
 21
163.9796587242
 31
0.0
  0
LINE
  5
2BE
330
1F
100
AcDbEntity
  8
0
  6
Continuous
 62
     7
370
    25
100
AcDbLine
 10
275.793092077
 20
171.6795383895
 30
0.0
 11
283.0956775524
 21
166.484104161
 31
0.0
  0
LINE
  5
2BF
330
1F
100
AcDbEntity
  8
0
  6
Continuous
 62
     7
370
    25
100
AcDbLine
 10
283.0956775524
 20
166.484104161
 30
0.0
 11
284.6898742577
 21
168.724871187
 31
0.0
  0
LINE
  5
2C0
330
1F
100
AcDbEntity
  8
0
  6
Continuous
 62
     7
370
    25
100
AcDbLine
 10
284.6898742577
 20
168.724871187
 30
0.0
 11
277.3872887823
 21
173.9203054155
 31
0.0
  0
LINE
  5
2C1
330
1F
100
AcDbEntity
  8
0
  6
Continuous
 62
     7
370
    25
100
AcDbLine
 10
284.9347674594
 20
180.2635001063
 30
0.0
 11
288.7958996983
 21
172.175734699
 31
0.0
  0
LINE
  5
2C2
330
1F
100
AcDbEntity
  8
0
  6
Continuous
 62
     7
370
    25
100
AcDbLine
 10
288.7958996983
 20
172.175734699
 30
0.0
 11
291.2775958181
 21
173.3605065628
 31
0.0
  0
LINE
  5
2C3
330
1F
100
AcDbEntity
  8
0
  6
Continuous
 62
     7
370
    25
100
AcDbLine
 10
291.2775958181
 20
173.3605065628
 30
0.0
 11
287.4164635792
 21
181.4482719701
 31
0.0
  0
LINE
  5
2C4
330
1F
100
AcDbEntity
  8
0
  6
Continuous
 62
     7
370
    25
100
AcDbLine
 10
295.5549658746
 20
183.2913202496
 30
0.0
 11
295.5549658746
 21
174.3291613886
 31
0.0
  0
LINE
  5
2C5
330
1F
100
AcDbEntity
  8
0
  6
Continuous
 62
     7
370
    25
100
AcDbLine
 10
295.5549658746
 20
174.3291613886
 30
0.0
 11
298.3049658746
 21
174.3291613886
 31
0.0
  0
LINE
  5
2C6
330
1F
100
AcDbEntity
  8
0
  6
Continuous
 62
     7
370
    25
100
AcDbLine
 10
298.3049658746
 20
174.3291613886
 30
0.0
 11
298.3049658746
 21
183.2913202496
 31
0.0
  0
LINE
  5
2C7
330
1F
100
AcDbEntity
  8
0
  6
Continuous
 62
     7
370
    25
100
AcDbLine
 10
307.8488884721
 20
180.8186506961
 30
0.0
 11
303.4971089285
 21
172.9839645981
 31
0.0
  0
LINE
  5
2C8
330
1F
100
AcDbEntity
  8
0
  6
Continuous
 62
     7
370
    25
100
AcDbLine
 10
303.4971089285
 20
172.9839645981
 30
0.0
 11
305.9011487479
 21
171.6486397138
 31
0.0
  0
LINE
  5
2C9
330
1F
100
AcDbEntity
  8
0
  6
Continuous
 62
     7
370
    25
100
AcDbLine
 10
305.9011487479
 20
171.6486397138
 30
0.0
 11
310.2529282915
 21
179.4833258117
 31
0.0
  0
LINE
  5
2CA
330
1F
100
AcDbEntity
  8
0
  6
Continuous
 62
     7
370
    25
100
AcDbLine
 10
317.3955292994
 20
172.6874591187
 30
0.0
 11
309.7869101664
 21
167.9515108147
 31
0.0
  0
LINE
  5
2CB
330
1F
100
AcDbEntity
  8
0
  6
Continuous
 62
     7
370
    25
100
AcDbLine
 10
309.7869101664
 20
167.9515108147
 30
0.0
 11
311.2401155869
 21
165.6168386737
 31
0.0
  0
LINE
  5
2CC
330
1F
100
AcDbEntity
  8
0
  6
Continuous
 62
     7
370
    25
100
AcDbLine
 10
311.2401155869
 20
165.6168386737
 30
0.0
 11
318.8487347199
 21
170.3527869777
 31
0.0
  0
LINE
  5
2CD
330
1F
100
AcDbEntity
  8
0
  6
Continuous
 62
     7
370
    25
100
AcDbLine
 10
321.5847355117
 20
162.4694915856
 30
0.0
 11
312.6780813743
 21
161.4735982551
 31
0.0
  0
LINE
  5
2CE
330
1F
100
AcDbEntity
  8
0
  6
Continuous
 62
     7
370
    25
100
AcDbLine
 10
312.6780813743
 20
161.4735982551
 30
0.0
 11
312.9836669705
 21
158.7406296415
 31
0.0
  0
LINE
  5
2CF
330
1F
100
AcDbEntity
  8
0
  6
Continuous
 62
     7
370
    25
100
AcDbLine
 10
312.9836669705
 20
158.7406296415
 30
0.0
 11
321.8903211079
 21
159.7365229719
 31
0.0
  0
LINE
  5
2D0
330
1F
100
AcDbEntity
  8
0
  6
Continuous
 62
     7
370
    25
100
AcDbLine
 10
320.4935054698
 20
149.9769400228
 30
0.0
 11
312.223762797
 21
153.431161726
 31
0.0
  0
LINE
  5
2D1
330
1F
100
AcDbEntity
  8
0
  6
Continuous
 62
     7
370
    25
100
AcDbLine
 10
312.223762797
 20
153.431161726
 30
0.0
 11
311.1638496855
 21
150.893626663
 31
0.0
  0
LINE
  5
2D2
330
1F
100
AcDbEntity
  8
0
  6
Continuous
 62
     7
370
    25
100
AcDbLine
 10
311.1638496855
 20
150.893626663
 30
0.0
 11
319.4335923583
 21
147.4394049597
 31
0.0
  0
LINE
  5
2D3
330
1F
100
AcDbEntity
  8
0
  6
Continuous
 62
     7
370
    25
100
AcDbLine
 10
313.4735143992
 20
139.5858691962
 30
0.0
 11
307.9214116775
 21
146.6210981772
 31
0.0
  0
LINE
  5
2D4
330
1F
100
AcDbEntity
  8
0
  6
Continuous
 62
     7
370
    25
100
AcDbLine
 10
307.9214116775
 20
146.6210981772
 30
0.0
 11
305.7626818448
 21
144.9174592749
 31
0.0
  0
LINE
  5
2D5
330
1F
100
AcDbEntity
  8
0
  6
Continuous
 62
     7
370
    25
100
AcDbLine
 10
305.7626818448
 20
144.9174592749
 30
0.0
 11
311.3147845666
 21
137.8822302938
 31
0.0
  0
LINE
  5
2D6
330
1F
100
AcDbEntity
  8
0
  6
Continuous
 62
     7
370
    25
100
AcDbLine
 10
303.7843422226
 20
134.2871663616
 30
0.0
 11
301.8048911574
 21
143.0279938356
 31
0.0
  0
LINE
  5
2D7
330
1F
100
AcDbEntity
  8
0
  6
Continuous
 62
     7
370
    25
100
AcDbLine
 10
301.8048911574
 20
143.0279938356
 30
0.0
 11
299.122805744
 21
142.4206077678
 31
0.0
  0
LINE
  5
2D8
330
1F
100
AcDbEntity
  8
0
  6
Continuous
 62
     7
370
    25
100
AcDbLine
 10
299.122805744
 20
142.4206077678
 30
0.0
 11
301.1022568092
 21
133.6797802938
 31
0.0
  0
LINE
  5
2D9
330
1F
100
AcDbEntity
  8
0
  6
Continuous
 62
     7
370
    25
100
AcDbLine
 10
291.2479002193
 20
133.9834404117
 30
0.0
 11
293.7617784938
 21
142.5858067995
 31
0.0
  0
LINE
  5
2DA
330
1F
100
AcDbEntity
  8
0
  6
Continuous
 62
     7
370
    25
100
AcDbLine
 10
293.7617784938
 20
142.5858067995
 30
0.0
 11
291.1221792707
 21
143.3571795638
 31
0.0
  0
LINE
  5
2DB
330
1F
100
AcDbEntity
  8
0
  6
Continuous
 62
     7
370
    25
100
AcDbLine
 10
291.1221792707
 20
143.3571795638
 30
0.0
 11
288.6083009962
 21
134.754813176
 31
0.0
  0
LINE
  5
2DC
330
1F
100
AcDbEntity
  8
0
  6
Continuous
 62
     7
370
    25
100
AcDbLine
 10
281.3134984181
 20
138.8067142013
 30
0.0
 11
287.288234279
 21
145.4867458511
 31
0.0
  0
LINE
  5
2DD
330
1F
100
AcDbEntity
  8
0
  6
Continuous
 62
     7
370
    25
100
AcDbLine
 10
287.288234279
 20
145.4867458511
 30
0.0
 11
285.2384952237
 21
147.3200679192
 31
0.0
  0
LINE
  5
2DE
330
1F
100
AcDbEntity
  8
0
  6
Continuous
 62
     7
370
    25
100
AcDbLine
 10
285.2384952237
 20
147.3200679192
 30
0.0
 11
279.2637593628
 21
140.6400362694
 31
0.0
  0
LINE
  5
2DF
330
1F
100
AcDbEntity
  8
0
  6
Continuous
 62
     7
370
    25
100
AcDbLine
 10
273.798540734
 20
148.845640367
 30
0.0
 11
282.2652736104
 21
151.7841307701
 31
0.0
  0
LINE
  5
2E0
330
1F
100
AcDbEntity
  8
0
  6
Continuous
 62
     7
370
    25
100
AcDbLine
 10
282.2652736104
 20
151.7841307701
 30
0.0
 11
281.363610436
 21
154.382111432
 31
0.0
  0
LINE
  5
2E1
330
1F
100
AcDbEntity
  8
0
  6
Continuous
 62
     7
370
    25
100
AcDbLine
 10
281.363610436
 20
154.382111432
 30
0.0
 11
272.8968775596
 21
151.443621029
 31
0.0
  0
ARC
  5
2E2
330
1F
100
AcDbEntity
  8
0
  6
Continuous
 62
     7
370
    25
100
AcDbCircle
 10
296.9299658746
 20
158.3291613886
 30
0.0
 40
25.00000000000004
100
AcDbArc
 50
64.102858804
 51
86.847141196
  0
ARC
  5
2E3
330
1F
100
AcDbEntity
  8
0
  6
Continuous
 62
     7
370
    25
100
AcDbCircle
 10
296.9299658746
 20
158.3291613886
 30
0.0
 40
25.00000000000006
100
AcDbArc
 50
35.052858804
 51
57.797141196
  0
ARC
  5
2E4
330
1F
100
AcDbEntity
  8
0
  6
Continuous
 62
     7
370
    25
100
AcDbCircle
 10
296.9299658746
 20
158.3291613886
 30
0.0
 40
25.00000000000001
100
AcDbArc
 50
285.912858804
 51
305.127141196
  0
ARC
  5
2E5
330
1F
100
AcDbEntity
  8
0
  6
Continuous
 62
     7
370
    25
100
AcDbCircle
 10
296.9299658746
 20
158.3291613886
 30
0.0
 40
25.00000000000002
100
AcDbArc
 50
147.722858804
 51
166.937141196
  0
ARC
  5
2E6
330
1F
100
AcDbEntity
  8
0
  6
Continuous
 62
     7
370
    25
100
AcDbCircle
 10
296.9299658746
 20
158.3291613886
 30
0.0
 40
25.00000000000004
100
AcDbArc
 50
9.532858804
 51
28.747141196
  0
ARC
  5
2E7
330
1F
100
AcDbEntity
  8
0
  6
Continuous
 62
     7
370
    25
100
AcDbCircle
 10
296.9299658746
 20
158.3291613886
 30
0.0
 40
25.0
100
AcDbArc
 50
256.8628588041
 51
279.607141196
  0
ARC
  5
2E8
330
1F
100
AcDbEntity
  8
0
  6
Continuous
 62
     7
370
    25
100
AcDbCircle
 10
296.9299658746
 20
158.3291613886
 30
0.0
 40
24.99999999999999
100
AcDbArc
 50
231.342858804
 51
250.557141196
  0
ARC
  5
2E9
330
1F
100
AcDbEntity
  8
0
  6
Continuous
 62
     7
370
    25
100
AcDbCircle
 10
296.9299658746
 20
158.3291613886
 30
0.0
 40
25.00000000000001
100
AcDbArc
 50
118.672858804
 51
141.417141196
  0
ARC
  5
2EA
330
1F
100
AcDbEntity
  8
0
  6
Continuous
 62
     7
370
    25
100
AcDbCircle
 10
296.9299658746
 20
158.3291613886
 30
0.0
 40
25.00000000000004
100
AcDbArc
 50
93.152858804
 51
112.367141196
  0
ARC
  5
2EB
330
1F
100
AcDbEntity
  8
0
  6
Continuous
 62
     7
370
    25
100
AcDbCircle
 10
296.9299658746
 20
158.3291613886
 30
0.0
 40
25.0
100
AcDbArc
 50
340.482858804
 51
3.227141196
  0
ARC
  5
2EC
330
1F
100
AcDbEntity
  8
0
  6
Continuous
 62
     7
370
    25
100
AcDbCircle
 10
296.9299658746
 20
158.3291613886
 30
0.0
 40
25.00000000000001
100
AcDbArc
 50
311.4328588041
 51
334.177141196
  0
ARC
  5
2ED
330
1F
100
AcDbEntity
  8
0
  6
Continuous
 62
     7
370
    25
100
AcDbCircle
 10
296.9299658746
 20
158.3291613886
 30
0.0
 40
24.99999999999999
100
AcDbArc
 50
202.292858804
 51
225.037141196
  0
ARC
  5
2EE
330
1F
100
AcDbEntity
  8
0
  6
Continuous
 62
     7
370
    25
100
AcDbCircle
 10
296.9299658746
 20
158.3291613886
 30
0.0
 40
25.00000000000001
100
AcDbArc
 50
173.242858804
 51
195.987141196
  0
LINE
  5
2EF
330
1F
100
AcDbEntity
  8
0
  6
Continuous
 62
     7
370
    25
100
AcDbLine
 10
272.1036208824
 20
107.8375766843
 30
0.0
 11
280.9320580942
 21
106.2951798984
 31
0.0
  0
LINE
  5
2F0
330
1F
100
AcDbEntity
  8
0
  6
Continuous
 62
     7
370
    25
100
AcDbLine
 10
280.9320580942
 20
106.2951798984
 30
0.0
 11
281.4053359313
 21
109.004147984
 31
0.0
  0
LINE
  5
2F1
330
1F
100
AcDbEntity
  8
0
  6
Continuous
 62
     7
370
    25
100
AcDbLine
 10
281.4053359313
 20
109.004147984
 30
0.0
 11
272.5768987195
 21
110.54654477
 31
0.0
  0
LINE
  5
2F2
330
1F
100
AcDbEntity
  8
0
  6
Continuous
 62
     7
370
    25
100
AcDbLine
 10
275.793092077
 20
118.2464244353
 30
0.0
 11
283.0956775524
 21
113.0509902067
 31
0.0
  0
LINE
  5
2F3
330
1F
100
AcDbEntity
  8
0
  6
Continuous
 62
     7
370
    25
100
AcDbLine
 10
283.0956775524
 20
113.0509902067
 30
0.0
 11
284.6898742577
 21
115.2917572327
 31
0.0
  0
LINE
  5
2F4
330
1F
100
AcDbEntity
  8
0
  6
Continuous
 62
     7
370
    25
100
AcDbLine
 10
284.6898742577
 20
115.2917572327
 30
0.0
 11
277.3872887823
 21
120.4871914613
 31
0.0
  0
LINE
  5
2F5
330
1F
100
AcDbEntity
  8
0
  6
Continuous
 62
     7
370
    25
100
AcDbLine
 10
284.9347674594
 20
126.8303861521
 30
0.0
 11
288.7958996983
 21
118.7426207448
 31
0.0
  0
LINE
  5
2F6
330
1F
100
AcDbEntity
  8
0
  6
Continuous
 62
     7
370
    25
100
AcDbLine
 10
288.7958996983
 20
118.7426207448
 30
0.0
 11
291.2775958181
 21
119.9273926086
 31
0.0
  0
LINE
  5
2F7
330
1F
100
AcDbEntity
  8
0
  6
Continuous
 62
     7
370
    25
100
AcDbLine
 10
291.2775958181
 20
119.9273926086
 30
0.0
 11
287.4164635792
 21
128.0151580158
 31
0.0
  0
LINE
  5
2F8
330
1F
100
AcDbEntity
  8
0
  6
Continuous
 62
     7
370
    25
100
AcDbLine
 10
295.5549658746
 20
129.8582062954
 30
0.0
 11
295.5549658746
 21
120.8960474344
 31
0.0
  0
LINE
  5
2F9
330
1F
100
AcDbEntity
  8
0
  6
Continuous
 62
     7
370
    25
100
AcDbLine
 10
295.5549658746
 20
120.8960474344
 30
0.0
 11
298.3049658746
 21
120.8960474344
 31
0.0
  0
LINE
  5
2FA
330
1F
100
AcDbEntity
  8
0
  6
Continuous
 62
     7
370
    25
100
AcDbLine
 10
298.3049658746
 20
120.8960474344
 30
0.0
 11
298.3049658746
 21
129.8582062954
 31
0.0
  0
LINE
  5
2FB
330
1F
100
AcDbEntity
  8
0
  6
Continuous
 62
     7
370
    25
100
AcDbLine
 10
307.8488884721
 20
127.3855367419
 30
0.0
 11
303.4971089285
 21
119.5508506439
 31
0.0
  0
LINE
  5
2FC
330
1F
100
AcDbEntity
  8
0
  6
Continuous
 62
     7
370
    25
100
AcDbLine
 10
303.4971089285
 20
119.5508506439
 30
0.0
 11
305.9011487479
 21
118.2155257595
 31
0.0
  0
LINE
  5
2FD
330
1F
100
AcDbEntity
  8
0
  6
Continuous
 62
     7
370
    25
100
AcDbLine
 10
305.9011487479
 20
118.2155257595
 30
0.0
 11
310.2529282915
 21
126.0502118575
 31
0.0
  0
LINE
  5
2FE
330
1F
100
AcDbEntity
  8
0
  6
Continuous
 62
     7
370
    25
100
AcDbLine
 10
317.3955292994
 20
119.2543451645
 30
0.0
 11
309.7869101664
 21
114.5183968605
 31
0.0
  0
LINE
  5
2FF
330
1F
100
AcDbEntity
  8
0
  6
Continuous
 62
     7
370
    25
100
AcDbLine
 10
309.7869101664
 20
114.5183968605
 30
0.0
 11
311.2401155869
 21
112.1837247195
 31
0.0
  0
LINE
  5
300
330
1F
100
AcDbEntity
  8
0
  6
Continuous
 62
     7
370
    25
100
AcDbLine
 10
311.2401155869
 20
112.1837247195
 30
0.0
 11
318.8487347199
 21
116.9196730235
 31
0.0
  0
LINE
  5
301
330
1F
100
AcDbEntity
  8
0
  6
Continuous
 62
     7
370
    25
100
AcDbLine
 10
321.5847355117
 20
109.0363776314
 30
0.0
 11
312.6780813743
 21
108.0404843009
 31
0.0
  0
LINE
  5
302
330
1F
100
AcDbEntity
  8
0
  6
Continuous
 62
     7
370
    25
100
AcDbLine
 10
312.6780813743
 20
108.0404843009
 30
0.0
 11
312.9836669705
 21
105.3075156872
 31
0.0
  0
LINE
  5
303
330
1F
100
AcDbEntity
  8
0
  6
Continuous
 62
     7
370
    25
100
AcDbLine
 10
312.9836669705
 20
105.3075156872
 30
0.0
 11
321.8903211079
 21
106.3034090177
 31
0.0
  0
LINE
  5
304
330
1F
100
AcDbEntity
  8
0
  6
Continuous
 62
     7
370
    25
100
AcDbLine
 10
320.4935054698
 20
96.5438260685
 30
0.0
 11
312.223762797
 21
99.9980477718
 31
0.0
  0
LINE
  5
305
330
1F
100
AcDbEntity
  8
0
  6
Continuous
 62
     7
370
    25
100
AcDbLine
 10
312.223762797
 20
99.9980477718
 30
0.0
 11
311.1638496855
 21
97.4605127088
 31
0.0
  0
LINE
  5
306
330
1F
100
AcDbEntity
  8
0
  6
Continuous
 62
     7
370
    25
100
AcDbLine
 10
311.1638496855
 20
97.4605127088
 30
0.0
 11
319.4335923583
 21
94.0062910055
 31
0.0
  0
LINE
  5
307
330
1F
100
AcDbEntity
  8
0
  6
Continuous
 62
     7
370
    25
100
AcDbLine
 10
313.4735143992
 20
86.1527552419
 30
0.0
 11
307.9214116775
 21
93.187984223
 31
0.0
  0
LINE
  5
308
330
1F
100
AcDbEntity
  8
0
  6
Continuous
 62
     7
370
    25
100
AcDbLine
 10
307.9214116775
 20
93.187984223
 30
0.0
 11
305.7626818448
 21
91.4843453206
 31
0.0
  0
LINE
  5
309
330
1F
100
AcDbEntity
  8
0
  6
Continuous
 62
     7
370
    25
100
AcDbLine
 10
305.7626818448
 20
91.4843453206
 30
0.0
 11
311.3147845666
 21
84.4491163396
 31
0.0
  0
LINE
  5
30A
330
1F
100
AcDbEntity
  8
0
  6
Continuous
 62
     7
370
    25
100
AcDbLine
 10
303.7843422226
 20
80.8540524074
 30
0.0
 11
301.8048911574
 21
89.5948798814
 31
0.0
  0
LINE
  5
30B
330
1F
100
AcDbEntity
  8
0
  6
Continuous
 62
     7
370
    25
100
AcDbLine
 10
301.8048911574
 20
89.5948798814
 30
0.0
 11
299.122805744
 21
88.9874938136
 31
0.0
  0
LINE
  5
30C
330
1F
100
AcDbEntity
  8
0
  6
Continuous
 62
     7
370
    25
100
AcDbLine
 10
299.122805744
 20
88.9874938136
 30
0.0
 11
301.1022568092
 21
80.2466663396
 31
0.0
  0
LINE
  5
30D
330
1F
100
AcDbEntity
  8
0
  6
Continuous
 62
     7
370
    25
100
AcDbLine
 10
291.2479002193
 20
80.5503264574
 30
0.0
 11
293.7617784938
 21
89.1526928453
 31
0.0
  0
LINE
  5
30E
330
1F
100
AcDbEntity
  8
0
  6
Continuous
 62
     7
370
    25
100
AcDbLine
 10
293.7617784938
 20
89.1526928453
 30
0.0
 11
291.1221792707
 21
89.9240656096
 31
0.0
  0
LINE
  5
30F
330
1F
100
AcDbEntity
  8
0
  6
Continuous
 62
     7
370
    25
100
AcDbLine
 10
291.1221792707
 20
89.9240656096
 30
0.0
 11
288.6083009962
 21
81.3216992217
 31
0.0
  0
LINE
  5
310
330
1F
100
AcDbEntity
  8
0
  6
Continuous
 62
     7
370
    25
100
AcDbLine
 10
281.3134984181
 20
85.3736002471
 30
0.0
 11
287.288234279
 21
92.0536318969
 31
0.0
  0
LINE
  5
311
330
1F
100
AcDbEntity
  8
0
  6
Continuous
 62
     7
370
    25
100
AcDbLine
 10
287.288234279
 20
92.0536318969
 30
0.0
 11
285.2384952237
 21
93.886953965
 31
0.0
  0
LINE
  5
312
330
1F
100
AcDbEntity
  8
0
  6
Continuous
 62
     7
370
    25
100
AcDbLine
 10
285.2384952237
 20
93.886953965
 30
0.0
 11
279.2637593628
 21
87.2069223152
 31
0.0
  0
LINE
  5
313
330
1F
100
AcDbEntity
  8
0
  6
Continuous
 62
     7
370
    25
100
AcDbLine
 10
273.798540734
 20
95.4125264128
 30
0.0
 11
282.2652736104
 21
98.3510168158
 31
0.0
  0
LINE
  5
314
330
1F
100
AcDbEntity
  8
0
  6
Continuous
 62
     7
370
    25
100
AcDbLine
 10
282.2652736104
 20
98.3510168158
 30
0.0
 11
281.363610436
 21
100.9489974778
 31
0.0
  0
LINE
  5
315
330
1F
100
AcDbEntity
  8
0
  6
Continuous
 62
     7
370
    25
100
AcDbLine
 10
281.363610436
 20
100.9489974778
 30
0.0
 11
272.8968775596
 21
98.0105070747
 31
0.0
  0
ARC
  5
316
330
1F
100
AcDbEntity
  8
0
  6
Continuous
 62
     7
370
    25
100
AcDbCircle
 10
296.9299658746
 20
104.8960474344
 30
0.0
 40
25.00000000000001
100
AcDbArc
 50
64.102858804
 51
86.847141196
  0
ARC
  5
317
330
1F
100
AcDbEntity
  8
0
  6
Continuous
 62
     7
370
    25
100
AcDbCircle
 10
296.9299658746
 20
104.8960474344
 30
0.0
 40
25.00000000000005
100
AcDbArc
 50
35.052858804
 51
57.797141196
  0
ARC
  5
318
330
1F
100
AcDbEntity
  8
0
  6
Continuous
 62
     7
370
    25
100
AcDbCircle
 10
296.9299658746
 20
104.8960474344
 30
0.0
 40
25.00000000000003
100
AcDbArc
 50
285.912858804
 51
305.127141196
  0
ARC
  5
319
330
1F
100
AcDbEntity
  8
0
  6
Continuous
 62
     7
370
    25
100
AcDbCircle
 10
296.9299658746
 20
104.8960474344
 30
0.0
 40
25.0
100
AcDbArc
 50
147.722858804
 51
166.937141196
  0
ARC
  5
31A
330
1F
100
AcDbEntity
  8
0
  6
Continuous
 62
     7
370
    25
100
AcDbCircle
 10
296.9299658746
 20
104.8960474344
 30
0.0
 40
25.00000000000004
100
AcDbArc
 50
9.532858804
 51
28.747141196
  0
ARC
  5
31B
330
1F
100
AcDbEntity
  8
0
  6
Continuous
 62
     7
370
    25
100
AcDbCircle
 10
296.9299658746
 20
104.8960474344
 30
0.0
 40
25.0
100
AcDbArc
 50
256.8628588041
 51
279.607141196
  0
ARC
  5
31C
330
1F
100
AcDbEntity
  8
0
  6
Continuous
 62
     7
370
    25
100
AcDbCircle
 10
296.9299658746
 20
104.8960474344
 30
0.0
 40
25.00000000000001
100
AcDbArc
 50
231.342858804
 51
250.557141196
  0
ARC
  5
31D
330
1F
100
AcDbEntity
  8
0
  6
Continuous
 62
     7
370
    25
100
AcDbCircle
 10
296.9299658746
 20
104.8960474344
 30
0.0
 40
25.0
100
AcDbArc
 50
118.672858804
 51
141.417141196
  0
ARC
  5
31E
330
1F
100
AcDbEntity
  8
0
  6
Continuous
 62
     7
370
    25
100
AcDbCircle
 10
296.9299658746
 20
104.8960474344
 30
0.0
 40
25.00000000000001
100
AcDbArc
 50
93.152858804
 51
112.367141196
  0
ARC
  5
31F
330
1F
100
AcDbEntity
  8
0
  6
Continuous
 62
     7
370
    25
100
AcDbCircle
 10
296.9299658746
 20
104.8960474344
 30
0.0
 40
25.0
100
AcDbArc
 50
340.482858804
 51
3.227141196
  0
ARC
  5
320
330
1F
100
AcDbEntity
  8
0
  6
Continuous
 62
     7
370
    25
100
AcDbCircle
 10
296.9299658746
 20
104.8960474344
 30
0.0
 40
25.00000000000002
100
AcDbArc
 50
311.4328588041
 51
334.177141196
  0
ARC
  5
321
330
1F
100
AcDbEntity
  8
0
  6
Continuous
 62
     7
370
    25
100
AcDbCircle
 10
296.9299658746
 20
104.8960474344
 30
0.0
 40
25.0
100
AcDbArc
 50
202.292858804
 51
225.037141196
  0
ARC
  5
322
330
1F
100
AcDbEntity
  8
0
  6
Continuous
 62
     7
370
    25
100
AcDbCircle
 10
296.9299658746
 20
104.8960474344
 30
0.0
 40
25.00000000000001
100
AcDbArc
 50
173.242858804
 51
195.987141196
  0
LINE
  5
323
330
1F
100
AcDbEntity
  8
0
  6
Continuous
 62
     7
370
    25
100
AcDbLine
 10
273.3758378813
 20
52.2841010653
 30
0.0
 11
282.2042750931
 21
50.7417042793
 31
0.0
  0
LINE
  5
324
330
1F
100
AcDbEntity
  8
0
  6
Continuous
 62
     7
370
    25
100
AcDbLine
 10
282.2042750931
 20
50.7417042793
 30
0.0
 11
282.6775529302
 21
53.4506723649
 31
0.0
  0
LINE
  5
325
330
1F
100
AcDbEntity
  8
0
  6
Continuous
 62
     7
370
    25
100
AcDbLine
 10
282.6775529302
 20
53.4506723649
 30
0.0
 11
273.8491157184
 21
54.9930691509
 31
0.0
  0
LINE
  5
326
330
1F
100
AcDbEntity
  8
0
  6
Continuous
 62
     7
370
    25
100
AcDbLine
 10
277.0653090759
 20
62.6929488162
 30
0.0
 11
284.3678945513
 21
57.4975145877
 31
0.0
  0
LINE
  5
327
330
1F
100
AcDbEntity
  8
0
  6
Continuous
 62
     7
370
    25
100
AcDbLine
 10
284.3678945513
 20
57.4975145877
 30
0.0
 11
285.9620912566
 21
59.7382816137
 31
0.0
  0
LINE
  5
328
330
1F
100
AcDbEntity
  8
0
  6
Continuous
 62
     7
370
    25
100
AcDbLine
 10
285.9620912566
 20
59.7382816137
 30
0.0
 11
278.6595057812
 21
64.9337158422
 31
0.0
  0
LINE
  5
329
330
1F
100
AcDbEntity
  8
0
  6
Continuous
 62
     7
370
    25
100
AcDbLine
 10
286.2069844583
 20
71.276910533
 30
0.0
 11
290.0681166972
 21
63.1891451258
 31
0.0
  0
LINE
  5
32A
330
1F
100
AcDbEntity
  8
0
  6
Continuous
 62
     7
370
    25
100
AcDbLine
 10
290.0681166972
 20
63.1891451258
 30
0.0
 11
292.549812817
 21
64.3739169895
 31
0.0
  0
LINE
  5
32B
330
1F
100
AcDbEntity
  8
0
  6
Continuous
 62
     7
370
    25
100
AcDbLine
 10
292.549812817
 20
64.3739169895
 30
0.0
 11
288.6886805781
 21
72.4616823968
 31
0.0
  0
LINE
  5
32C
330
1F
100
AcDbEntity
  8
0
  6
Continuous
 62
     7
370
    25
100
AcDbLine
 10
296.8271828735
 20
74.3047306763
 30
0.0
 11
296.8271828735
 21
65.3425718154
 31
0.0
  0
LINE
  5
32D
330
1F
100
AcDbEntity
  8
0
  6
Continuous
 62
     7
370
    25
100
AcDbLine
 10
296.8271828735
 20
65.3425718154
 30
0.0
 11
299.5771828735
 21
65.3425718154
 31
0.0
  0
LINE
  5
32E
330
1F
100
AcDbEntity
  8
0
  6
Continuous
 62
     7
370
    25
100
AcDbLine
 10
299.5771828735
 20
65.3425718154
 30
0.0
 11
299.5771828735
 21
74.3047306763
 31
0.0
  0
LINE
  5
32F
330
1F
100
AcDbEntity
  8
0
  6
Continuous
 62
     7
370
    25
100
AcDbLine
 10
309.121105471
 20
71.8320611228
 30
0.0
 11
304.7693259274
 21
63.9973750248
 31
0.0
  0
LINE
  5
330
330
1F
100
AcDbEntity
  8
0
  6
Continuous
 62
     7
370
    25
100
AcDbLine
 10
304.7693259274
 20
63.9973750248
 30
0.0
 11
307.1733657468
 21
62.6620501405
 31
0.0
  0
LINE
  5
331
330
1F
100
AcDbEntity
  8
0
  6
Continuous
 62
     7
370
    25
100
AcDbLine
 10
307.1733657468
 20
62.6620501405
 30
0.0
 11
311.5251452904
 21
70.4967362384
 31
0.0
  0
LINE
  5
332
330
1F
100
AcDbEntity
  8
0
  6
Continuous
 62
     7
370
    25
100
AcDbLine
 10
318.6677462983
 20
63.7008695454
 30
0.0
 11
311.0591271653
 21
58.9649212414
 31
0.0
  0
LINE
  5
333
330
1F
100
AcDbEntity
  8
0
  6
Continuous
 62
     7
370
    25
100
AcDbLine
 10
311.0591271653
 20
58.9649212414
 30
0.0
 11
312.5123325858
 21
56.6302491004
 31
0.0
  0
LINE
  5
334
330
1F
100
AcDbEntity
  8
0
  6
Continuous
 62
     7
370
    25
100
AcDbLine
 10
312.5123325858
 20
56.6302491004
 30
0.0
 11
320.1209517188
 21
61.3661974044
 31
0.0
  0
LINE
  5
335
330
1F
100
AcDbEntity
  8
0
  6
Continuous
 62
     7
370
    25
100
AcDbLine
 10
322.8569525106
 20
53.4829020123
 30
0.0
 11
313.9502983732
 21
52.4870086819
 31
0.0
  0
LINE
  5
336
330
1F
100
AcDbEntity
  8
0
  6
Continuous
 62
     7
370
    25
100
AcDbLine
 10
313.9502983732
 20
52.4870086819
 30
0.0
 11
314.2558839694
 21
49.7540400682
 31
0.0
  0
LINE
  5
337
330
1F
100
AcDbEntity
  8
0
  6
Continuous
 62
     7
370
    25
100
AcDbLine
 10
314.2558839694
 20
49.7540400682
 30
0.0
 11
323.1625381068
 21
50.7499333986
 31
0.0
  0
LINE
  5
338
330
1F
100
AcDbEntity
  8
0
  6
Continuous
 62
     7
370
    25
100
AcDbLine
 10
321.7657224687
 20
40.9903504495
 30
0.0
 11
313.4959797959
 21
44.4445721527
 31
0.0
  0
LINE
  5
339
330
1F
100
AcDbEntity
  8
0
  6
Continuous
 62
     7
370
    25
100
AcDbLine
 10
313.4959797959
 20
44.4445721527
 30
0.0
 11
312.4360666844
 21
41.9070370897
 31
0.0
  0
LINE
  5
33A
330
1F
100
AcDbEntity
  8
0
  6
Continuous
 62
     7
370
    25
100
AcDbLine
 10
312.4360666844
 20
41.9070370897
 30
0.0
 11
320.7058093572
 21
38.4528153864
 31
0.0
  0
LINE
  5
33B
330
1F
100
AcDbEntity
  8
0
  6
Continuous
 62
     7
370
    25
100
AcDbLine
 10
314.7457313981
 20
30.5992796229
 30
0.0
 11
309.1936286764
 21
37.6345086039
 31
0.0
  0
LINE
  5
33C
330
1F
100
AcDbEntity
  8
0
  6
Continuous
 62
     7
370
    25
100
AcDbLine
 10
309.1936286764
 20
37.6345086039
 30
0.0
 11
307.0348988437
 21
35.9308697016
 31
0.0
  0
LINE
  5
33D
330
1F
100
AcDbEntity
  8
0
  6
Continuous
 62
     7
370
    25
100
AcDbLine
 10
307.0348988437
 20
35.9308697016
 30
0.0
 11
312.5870015655
 21
28.8956407205
 31
0.0
  0
LINE
  5
33E
330
1F
100
AcDbEntity
  8
0
  6
Continuous
 62
     7
370
    25
100
AcDbLine
 10
305.0565592215
 20
25.3005767883
 30
0.0
 11
303.0771081563
 21
34.0414042623
 31
0.0
  0
LINE
  5
33F
330
1F
100
AcDbEntity
  8
0
  6
Continuous
 62
     7
370
    25
100
AcDbLine
 10
303.0771081563
 20
34.0414042623
 30
0.0
 11
300.3950227429
 21
33.4340181945
 31
0.0
  0
LINE
  5
340
330
1F
100
AcDbEntity
  8
0
  6
Continuous
 62
     7
370
    25
100
AcDbLine
 10
300.3950227429
 20
33.4340181945
 30
0.0
 11
302.3744738081
 21
24.6931907206
 31
0.0
  0
LINE
  5
341
330
1F
100
AcDbEntity
  8
0
  6
Continuous
 62
     7
370
    25
100
AcDbLine
 10
292.5201172182
 20
24.9968508384
 30
0.0
 11
295.0339954927
 21
33.5992172262
 31
0.0
  0
LINE
  5
342
330
1F
100
AcDbEntity
  8
0
  6
Continuous
 62
     7
370
    25
100
AcDbLine
 10
295.0339954927
 20
33.5992172262
 30
0.0
 11
292.3943962696
 21
34.3705899905
 31
0.0
  0
LINE
  5
343
330
1F
100
AcDbEntity
  8
0
  6
Continuous
 62
     7
370
    25
100
AcDbLine
 10
292.3943962696
 20
34.3705899905
 30
0.0
 11
289.8805179951
 21
25.7682236027
 31
0.0
  0
LINE
  5
344
330
1F
100
AcDbEntity
  8
0
  6
Continuous
 62
     7
370
    25
100
AcDbLine
 10
282.585715417
 20
29.820124628
 30
0.0
 11
288.5604512779
 21
36.5001562778
 31
0.0
  0
LINE
  5
345
330
1F
100
AcDbEntity
  8
0
  6
Continuous
 62
     7
370
    25
100
AcDbLine
 10
288.5604512779
 20
36.5001562778
 30
0.0
 11
286.5107122226
 21
38.3334783459
 31
0.0
  0
LINE
  5
346
330
1F
100
AcDbEntity
  8
0
  6
Continuous
 62
     7
370
    25
100
AcDbLine
 10
286.5107122226
 20
38.3334783459
 30
0.0
 11
280.5359763618
 21
31.6534466961
 31
0.0
  0
LINE
  5
347
330
1F
100
AcDbEntity
  8
0
  6
Continuous
 62
     7
370
    25
100
AcDbLine
 10
275.0707577329
 20
39.8590507937
 30
0.0
 11
283.5374906093
 21
42.7975411968
 31
0.0
  0
LINE
  5
348
330
1F
100
AcDbEntity
  8
0
  6
Continuous
 62
     7
370
    25
100
AcDbLine
 10
283.5374906093
 20
42.7975411968
 30
0.0
 11
282.6358274349
 21
45.3955218587
 31
0.0
  0
LINE
  5
349
330
1F
100
AcDbEntity
  8
0
  6
Continuous
 62
     7
370
    25
100
AcDbLine
 10
282.6358274349
 20
45.3955218587
 30
0.0
 11
274.1690945585
 21
42.4570314557
 31
0.0
  0
ARC
  5
34A
330
1F
100
AcDbEntity
  8
0
  6
Continuous
 62
     7
370
    25
100
AcDbCircle
 10
298.2021828735
 20
49.3425718154
 30
0.0
 40
25.00000000000003
100
AcDbArc
 50
64.102858804
 51
86.847141196
  0
ARC
  5
34B
330
1F
100
AcDbEntity
  8
0
  6
Continuous
 62
     7
370
    25
100
AcDbCircle
 10
298.2021828735
 20
49.3425718154
 30
0.0
 40
25.00000000000005
100
AcDbArc
 50
35.052858804
 51
57.797141196
  0
ARC
  5
34C
330
1F
100
AcDbEntity
  8
0
  6
Continuous
 62
     7
370
    25
100
AcDbCircle
 10
298.2021828735
 20
49.3425718154
 30
0.0
 40
25.00000000000002
100
AcDbArc
 50
285.912858804
 51
305.127141196
  0
ARC
  5
34D
330
1F
100
AcDbEntity
  8
0
  6
Continuous
 62
     7
370
    25
100
AcDbCircle
 10
298.2021828735
 20
49.3425718154
 30
0.0
 40
25.0
100
AcDbArc
 50
147.722858804
 51
166.937141196
  0
ARC
  5
34E
330
1F
100
AcDbEntity
  8
0
  6
Continuous
 62
     7
370
    25
100
AcDbCircle
 10
298.2021828735
 20
49.3425718154
 30
0.0
 40
25.00000000000004
100
AcDbArc
 50
9.532858804
 51
28.747141196
  0
ARC
  5
34F
330
1F
100
AcDbEntity
  8
0
  6
Continuous
 62
     7
370
    25
100
AcDbCircle
 10
298.2021828735
 20
49.3425718154
 30
0.0
 40
25.00000000000001
100
AcDbArc
 50
256.8628588041
 51
279.607141196
  0
ARC
  5
350
330
1F
100
AcDbEntity
  8
0
  6
Continuous
 62
     7
370
    25
100
AcDbCircle
 10
298.2021828735
 20
49.3425718154
 30
0.0
 40
25.00000000000001
100
AcDbArc
 50
231.342858804
 51
250.557141196
  0
ARC
  5
351
330
1F
100
AcDbEntity
  8
0
  6
Continuous
 62
     7
370
    25
100
AcDbCircle
 10
298.2021828735
 20
49.3425718154
 30
0.0
 40
25.0
100
AcDbArc
 50
118.672858804
 51
141.417141196
  0
ARC
  5
352
330
1F
100
AcDbEntity
  8
0
  6
Continuous
 62
     7
370
    25
100
AcDbCircle
 10
298.2021828735
 20
49.3425718154
 30
0.0
 40
25.0
100
AcDbArc
 50
93.152858804
 51
112.367141196
  0
ARC
  5
353
330
1F
100
AcDbEntity
  8
0
  6
Continuous
 62
     7
370
    25
100
AcDbCircle
 10
298.2021828735
 20
49.3425718154
 30
0.0
 40
25.00000000000005
100
AcDbArc
 50
340.482858804
 51
3.227141196
  0
ARC
  5
354
330
1F
100
AcDbEntity
  8
0
  6
Continuous
 62
     7
370
    25
100
AcDbCircle
 10
298.2021828735
 20
49.3425718154
 30
0.0
 40
25.00000000000002
100
AcDbArc
 50
311.4328588041
 51
334.177141196
  0
ARC
  5
355
330
1F
100
AcDbEntity
  8
0
  6
Continuous
 62
     7
370
    25
100
AcDbCircle
 10
298.2021828735
 20
49.3425718154
 30
0.0
 40
25.0
100
AcDbArc
 50
202.292858804
 51
225.037141196
  0
ARC
  5
356
330
1F
100
AcDbEntity
  8
0
  6
Continuous
 62
     7
370
    25
100
AcDbCircle
 10
298.2021828735
 20
49.3425718154
 30
0.0
 40
24.99999999999998
100
AcDbArc
 50
173.242858804
 51
195.987141196
  0
ENDSEC
  0
SECTION
  2
OBJECTS
  0
DICTIONARY
  5
C
330
0
100
AcDbDictionary
281
     1
  3
ACAD_GROUP
350
D
  3
ACAD_LAYOUT
350
1A
  3
ACAD_MLINESTYLE
350
17
  3
ACAD_PLOTSETTINGS
350
19
  3
ACAD_PLOTSTYLENAME
350
E
  3
ACAD_SCALELIST
350
47
  0
DICTIONARY
  5
D
102
{ACAD_REACTORS
330
C
102
}
330
C
100
AcDbDictionary
281
     1
  0
DICTIONARY
  5
1A
102
{ACAD_REACTORS
330
C
102
}
330
C
100
AcDbDictionary
281
     1
  3
Layout1
350
1E
  3
Layout2
350
26
  3
Model
350
22
  0
DICTIONARY
  5
17
102
{ACAD_REACTORS
330
C
102
}
330
C
100
AcDbDictionary
281
     1
  3
Standard
350
18
  0
DICTIONARY
  5
19
102
{ACAD_REACTORS
330
C
102
}
330
C
100
AcDbDictionary
281
     1
  0
ACDBDICTIONARYWDFLT
  5
E
102
{ACAD_REACTORS
330
C
102
}
330
C
100
AcDbDictionary
281
     1
  3
Normal
350
F
100
AcDbDictionaryWithDefault
340
F
  0
DICTIONARY
  5
47
102
{ACAD_REACTORS
330
C
102
}
330
C
100
AcDbDictionary
281
     1
  3
A0
350
48
  3
A1
350
49
  3
A2
350
4A
  3
A3
350
4B
  3
A4
350
4C
  3
A5
350
4D
  3
A6
350
4E
  3
A7
350
4F
  3
A8
350
50
  3
A9
350
51
  3
B0
350
52
  3
B1
350
53
  3
B2
350
54
  3
B3
350
55
  3
B4
350
56
  3
B5
350
57
  3
B6
350
58
  3
B7
350
59
  3
B8
350
5A
  3
B9
350
5B
  3
C0
350
5C
  3
C1
350
5D
  3
C2
350
5E
  3
C3
350
5F
  3
C4
350
60
  3
C5
350
61
  3
C6
350
62
  3
C7
350
63
  3
C8
350
64
  3
C9
350
65
  3
D0
350
66
  3
D1
350
67
  3
D2
350
68
  0
LAYOUT
  5
1E
102
{ACAD_REACTORS
330
1A
102
}
330
1A
100
AcDbPlotSettings
  1

  2
none_device
  4

  6

 40
0.0
 41
0.0
 42
0.0
 43
0.0
 44
0.0
 45
0.0
 46
0.0
 47
0.0
 48
0.0
 49
0.0
140
0.0
141
0.0
142
1.0
143
1.0
 70
   688
 72
     1
 73
     0
 74
     5
  7

 75
    16
147
1.0
148
0.0
149
0.0
100
AcDbLayout
  1
Layout1
 70
     1
 71
     1
 10
0.0
 20
0.0
 11
420.0
 21
297.0
 12
0.0
 22
0.0
 32
0.0
 14
1.0000000000E+20
 24
1.0000000000E+20
 34
1.0000000000E+20
 15
-1.0000000000E+20
 25
-1.0000000000E+20
 35
-1.0000000000E+20
146
0.0
 13
0.0
 23
0.0
 33
0.0
 16
1.0
 26
0.0
 36
0.0
 17
0.0
 27
1.0
 37
0.0
 76
     0
330
1B
  0
LAYOUT
  5
26
102
{ACAD_REACTORS
330
1A
102
}
330
1A
100
AcDbPlotSettings
  1

  2
none_device
  4

  6

 40
0.0
 41
0.0
 42
0.0
 43
0.0
 44
0.0
 45
0.0
 46
0.0
 47
0.0
 48
0.0
 49
0.0
140
0.0
141
0.0
142
1.0
143
1.0
 70
   688
 72
     1
 73
     0
 74
     5
  7

 75
    16
147
1.0
148
0.0
149
0.0
100
AcDbLayout
  1
Layout2
 70
     1
 71
     2
 10
0.0
 20
0.0
 11
0.0
 21
0.0
 12
0.0
 22
0.0
 32
0.0
 14
0.0
 24
0.0
 34
0.0
 15
0.0
 25
0.0
 35
0.0
146
0.0
 13
0.0
 23
0.0
 33
0.0
 16
1.0
 26
0.0
 36
0.0
 17
0.0
 27
1.0
 37
0.0
 76
     0
330
23
  0
LAYOUT
  5
22
102
{ACAD_REACTORS
330
1A
102
}
330
1A
100
AcDbPlotSettings
  1

  2
none_device
  4
Letter_(8.50_x_11.00_Inches)
  6

 40
6.35
 41
6.35
 42
6.35000508
 43
6.35000508
 44
215.9
 45
279.4
 46
0.0
 47
0.0
 48
0.0
 49
0.0
140
0.0
141
0.0
142
1.0
143
1.0
 70
  1712
 72
     1
 73
     0
 74
     0
  7

 75
     0
147
1.0
148
0.0
149
0.0
100
AcDbLayout
  1
Model
 70
     1
 71
     0
 10
0.0
 20
0.0
 11
600.0
 21
300.0
 12
0.0
 22
0.0
 32
0.0
 14
0.0
 24
0.0
 34
0.0
 15
600.0
 25
300.0
 35
0.0
146
0.0
 13
0.0
 23
0.0
 33
0.0
 16
1.0
 26
0.0
 36
0.0
 17
0.0
 27
1.0
 37
0.0
 76
     0
330
1F
331
29
  0
MLINESTYLE
  5
18
102
{ACAD_REACTORS
330
17
102
}
330
17
100
AcDbMlineStyle
  2
Standard
 70
     0
  3

 62
   256
 51
90.0
 52
90.0
 71
     2
 49
0.5
 62
   256
  6
BYLAYER
 49
-0.5
 62
   256
  6
BYLAYER
  0
ACDBPLACEHOLDER
  5
F
102
{ACAD_REACTORS
330
E
102
}
330
E
  0
SCALE
  5
48
102
{ACAD_REACTORS
330
47
102
}
330
47
100
AcDbScale
 70
     0
300
1:1
140
1.0
141
1.0
290
     1
  0
SCALE
  5
49
102
{ACAD_REACTORS
330
47
102
}
330
47
100
AcDbScale
 70
     0
300
1:2
140
1.0
141
2.0
290
     0
  0
SCALE
  5
4A
102
{ACAD_REACTORS
330
47
102
}
330
47
100
AcDbScale
 70
     0
300
1:4
140
1.0
141
4.0
290
     0
  0
SCALE
  5
4B
102
{ACAD_REACTORS
330
47
102
}
330
47
100
AcDbScale
 70
     0
300
1:5
140
1.0
141
5.0
290
     0
  0
SCALE
  5
4C
102
{ACAD_REACTORS
330
47
102
}
330
47
100
AcDbScale
 70
     0
300
1:8
140
1.0
141
8.0
290
     0
  0
SCALE
  5
4D
102
{ACAD_REACTORS
330
47
102
}
330
47
100
AcDbScale
 70
     0
300
1:10
140
1.0
141
10.0
290
     0
  0
SCALE
  5
4E
102
{ACAD_REACTORS
330
47
102
}
330
47
100
AcDbScale
 70
     0
300
1:16
140
1.0
141
16.0
290
     0
  0
SCALE
  5
4F
102
{ACAD_REACTORS
330
47
102
}
330
47
100
AcDbScale
 70
     0
300
1:20
140
1.0
141
20.0
290
     0
  0
SCALE
  5
50
102
{ACAD_REACTORS
330
47
102
}
330
47
100
AcDbScale
 70
     0
300
1:30
140
1.0
141
30.0
290
     0
  0
SCALE
  5
51
102
{ACAD_REACTORS
330
47
102
}
330
47
100
AcDbScale
 70
     0
300
1:40
140
1.0
141
40.0
290
     0
  0
SCALE
  5
52
102
{ACAD_REACTORS
330
47
102
}
330
47
100
AcDbScale
 70
     0
300
1:50
140
1.0
141
50.0
290
     0
  0
SCALE
  5
53
102
{ACAD_REACTORS
330
47
102
}
330
47
100
AcDbScale
 70
     0
300
1:100
140
1.0
141
100.0
290
     0
  0
SCALE
  5
54
102
{ACAD_REACTORS
330
47
102
}
330
47
100
AcDbScale
 70
     0
300
2:1
140
2.0
141
1.0
290
     0
  0
SCALE
  5
55
102
{ACAD_REACTORS
330
47
102
}
330
47
100
AcDbScale
 70
     0
300
4:1
140
4.0
141
1.0
290
     0
  0
SCALE
  5
56
102
{ACAD_REACTORS
330
47
102
}
330
47
100
AcDbScale
 70
     0
300
8:1
140
8.0
141
1.0
290
     0
  0
SCALE
  5
57
102
{ACAD_REACTORS
330
47
102
}
330
47
100
AcDbScale
 70
     0
300
10:1
140
10.0
141
1.0
290
     0
  0
SCALE
  5
58
102
{ACAD_REACTORS
330
47
102
}
330
47
100
AcDbScale
 70
     0
300
100:1
140
100.0
141
1.0
290
     0
  0
SCALE
  5
59
102
{ACAD_REACTORS
330
47
102
}
330
47
100
AcDbScale
 70
     0
300
1/128" = 1'-0"
140
0.0078125
141
12.0
290
     0
  0
SCALE
  5
5A
102
{ACAD_REACTORS
330
47
102
}
330
47
100
AcDbScale
 70
     0
300
1/64" = 1'-0"
140
0.015625
141
12.0
290
     0
  0
SCALE
  5
5B
102
{ACAD_REACTORS
330
47
102
}
330
47
100
AcDbScale
 70
     0
300
1/32" = 1'-0"
140
0.03125
141
12.0
290
     0
  0
SCALE
  5
5C
102
{ACAD_REACTORS
330
47
102
}
330
47
100
AcDbScale
 70
     0
300
1/16" = 1'-0"
140
0.0625
141
12.0
290
     0
  0
SCALE
  5
5D
102
{ACAD_REACTORS
330
47
102
}
330
47
100
AcDbScale
 70
     0
300
3/32" = 1'-0"
140
0.09375
141
12.0
290
     0
  0
SCALE
  5
5E
102
{ACAD_REACTORS
330
47
102
}
330
47
100
AcDbScale
 70
     0
300
1/8" = 1'-0"
140
0.125
141
12.0
290
     0
  0
SCALE
  5
5F
102
{ACAD_REACTORS
330
47
102
}
330
47
100
AcDbScale
 70
     0
300
3/16" = 1'-0"
140
0.1875
141
12.0
290
     0
  0
SCALE
  5
60
102
{ACAD_REACTORS
330
47
102
}
330
47
100
AcDbScale
 70
     0
300
1/4" = 1'-0"
140
0.25
141
12.0
290
     0
  0
SCALE
  5
61
102
{ACAD_REACTORS
330
47
102
}
330
47
100
AcDbScale
 70
     0
300
3/8" = 1'-0"
140
0.375
141
12.0
290
     0
  0
SCALE
  5
62
102
{ACAD_REACTORS
330
47
102
}
330
47
100
AcDbScale
 70
     0
300
1/2" = 1'-0"
140
0.5
141
12.0
290
     0
  0
SCALE
  5
63
102
{ACAD_REACTORS
330
47
102
}
330
47
100
AcDbScale
 70
     0
300
3/4" = 1'-0"
140
0.75
141
12.0
290
     0
  0
SCALE
  5
64
102
{ACAD_REACTORS
330
47
102
}
330
47
100
AcDbScale
 70
     0
300
1" = 1'-0"
140
1.0
141
12.0
290
     0
  0
SCALE
  5
65
102
{ACAD_REACTORS
330
47
102
}
330
47
100
AcDbScale
 70
     0
300
1-1/2" = 1'-0"
140
1.5
141
12.0
290
     0
  0
SCALE
  5
66
102
{ACAD_REACTORS
330
47
102
}
330
47
100
AcDbScale
 70
     0
300
3" = 1'-0"
140
3.0
141
12.0
290
     0
  0
SCALE
  5
67
102
{ACAD_REACTORS
330
47
102
}
330
47
100
AcDbScale
 70
     0
300
6" = 1'-0"
140
6.0
141
12.0
290
     0
  0
SCALE
  5
68
102
{ACAD_REACTORS
330
47
102
}
330
47
100
AcDbScale
 70
     0
300
1'-0" = 1'-0"
140
12.0
141
12.0
290
     0
  0
ENDSEC
  0
EOF
