  0
SECTION
  2
HEADER
  9
$ACADVER
  1
AC1015
  9
$ACADMAINTVER
 70
     6
  9
$DWGCODEPAGE
  3
ANSI_1252
  9
$INSBASE
 10
0.0
 20
0.0
 30
0.0
  9
$EXTMIN
 10
-45.0
 20
-45.0
 30
0.0
  9
$EXTMAX
 10
45.0
 20
45.0
 30
0.0
  9
$LIMMIN
 10
0.0
 20
0.0
  9
$LIMMAX
 10
420.0
 20
297.0
  9
$ORTHOMODE
 70
     0
  9
$REGENMODE
 70
     1
  9
$FILLMODE
 70
     1
  9
$QTEXTMODE
 70
     0
  9
$MIRRTEXT
 70
     1
  9
$LTSCALE
 40
1.0
  9
$ATTMODE
 70
     1
  9
$TEXTSIZE
 40
3.5
  9
$TRACEWID
 40
1.0
  9
$TEXTSTYLE
  7
Standard
  9
$CLAYER
  8
0
  9
$CELTYPE
  6
ByLayer
  9
$CECOLOR
 62
   256
  9
$CELTSCALE
 40
1.0
  9
$DISPSILH
 70
     0
  9
$DIMSCALE
 40
1.0
  9
$DIMASZ
 40
3.302
  9
$DIMEXO
 40
1.0
  9
$DIMDLI
 40
3.75
  9
$DIMRND
 40
0.0
  9
$DIMDLE
 40
0.0
  9
$DIMEXE
 40
1.0
  9
$DIMTP
 40
0.0
  9
$DIMTM
 40
0.0
  9
$DIMTXT
 40
3.5
  9
$DIMCEN
 40
2.5
  9
$DIMTSZ
 40
0.0
  9
$DIMTOL
 70
     0
  9
$DIMLIM
 70
     0
  9
$DIMTIH
 70
     1
  9
$DIMTOH
 70
     1
  9
$DIMSE1
 70
     0
  9
$DIMSE2
 70
     0
  9
$DIMTAD
 70
     1
  9
$DIMZIN
 70
     0
  9
$DIMBLK
  1

  9
$DIMASO
 70
     1
  9
$DIMSHO
 70
     1
  9
$DIMPOST
  1

  9
$DIMAPOST
  1

  9
$DIMALT
 70
     0
  9
$DIMALTD
 70
     3
  9
$DIMALTF
 40
0.0393700787
  9
$DIMLFAC
 40
1.0
  9
$DIMTOFL
 70
     1
  9
$DIMTVP
 40
0.0
  9
$DIMTIX
 70
     0
  9
$DIMSOXD
 70
     0
  9
$DIMSAH
 70
     0
  9
$DIMBLK1
  1

  9
$DIMBLK2
  1

  9
$DIMSTYLE
  2
ISO-25
  9
$DIMCLRD
 70
     0
  9
$DIMCLRE
 70
     0
  9
$DIMCLRT
 70
     0
  9
$DIMTFAC
 40
1.0
  9
$DIMGAP
 40
1.524
  9
$DIMJUST
 70
     0
  9
$DIMSD1
 70
     0
  9
$DIMSD2
 70
     0
  9
$DIMTOLJ
 70
     0
  9
$DIMTZIN
 70
     0
  9
$DIMALTZ
 70
     0
  9
$DIMALTTZ
 70
     0
  9
$DIMUPT
 70
     0
  9
$DIMDEC
 70
     2
  9
$DIMTDEC
 70
     2
  9
$DIMALTU
 70
     2
  9
$DIMALTTD
 70
     3
  9
$DIMTXSTY
  7
Standard
  9
$DIMAUNIT
 70
     0
  9
$DIMADEC
 70
     2
  9
$DIMALTRND
 40
0.0
  9
$DIMAZIN
 70
     0
  9
$DIMDSEP
 70
    44
  9
$DIMATFIT
 70
     3
  9
$DIMFRAC
 70
     0
  9
$DIMLDRBLK
  1

  9
$DIMLUNIT
 70
     2
  9
$DIMLWD
 70
    -2
  9
$DIMLWE
 70
    -2
  9
$DIMTMOVE
 70
     0
  9
$LUNITS
 70
     2
  9
$LUPREC
 70
     2
  9
$SKETCHINC
 40
1.0
  9
$FILLETRAD
 40
10.0
  9
$AUNITS
 70
     0
  9
$AUPREC
 70
     2
  9
$MENU
  1
.
  9
$ELEVATION
 40
0.0
  9
$PELEVATION
 40
0.0
  9
$THICKNESS
 40
0.0
  9
$LIMCHECK
 70
     0
  9
$CHAMFERA
 40
0.0
  9
$CHAMFERB
 40
0.0
  9
$CHAMFERC
 40
0.0
  9
$CHAMFERD
 40
0.0
  9
$SKPOLY
 70
     0
  9
$TDCREATE
 40
2458261.555335173
  9
$TDUCREATE
 40
2458261.326168507
  9
$TDUPDATE
 40
2458261.555419607
  9
$TDUUPDATE
 40
2458261.32625294
  9
$TDINDWG
 40
0.0000000116
  9
$TDUSRTIMER
 40
0.0000000116
  9
$USRTIMER
 70
     1
  9
$ANGBASE
 50
0.0
  9
$ANGDIR
 70
     0
  9
$PDMODE
 70
     0
  9
$PDSIZE
 40
-1.0
  9
$PLINEWID
 40
0.0
  9
$SPLFRAME
 70
     0
  9
$SPLINETYPE
 70
     6
  9
$SPLINESEGS
 70
     8
  9
$HANDSEED
  5
82
  9
$SURFTAB1
 70
     6
  9
$SURFTAB2
 70
     6
  9
$SURFTYPE
 70
     6
  9
$SURFU
 70
     6
  9
$SURFV
 70
     6
  9
$UCSBASE
  2

  9
$UCSNAME
  2

  9
$UCSORG
 10
0.0
 20
0.0
 30
0.0
  9
$UCSXDIR
 10
1.0
 20
0.0
 30
0.0
  9
$UCSYDIR
 10
0.0
 20
1.0
 30
0.0
  9
$UCSORTHOREF
  2

  9
$UCSORTHOVIEW
 70
     0
  9
$UCSORGTOP
 10
0.0
 20
0.0
 30
0.0
  9
$UCSORGBOTTOM
 10
0.0
 20
0.0
 30
0.0
  9
$UCSORGLEFT
 10
0.0
 20
0.0
 30
0.0
  9
$UCSORGRIGHT
 10
0.0
 20
0.0
 30
0.0
  9
$UCSORGFRONT
 10
0.0
 20
0.0
 30
0.0
  9
$UCSORGBACK
 10
0.0
 20
0.0
 30
0.0
  9
$PUCSBASE
  2

  9
$PUCSNAME
  2

  9
$PUCSORG
 10
0.0
 20
0.0
 30
0.0
  9
$PUCSXDIR
 10
1.0
 20
0.0
 30
0.0
  9
$PUCSYDIR
 10
0.0
 20
1.0
 30
0.0
  9
$PUCSORTHOREF
  2

  9
$PUCSORTHOVIEW
 70
     0
  9
$PUCSORGTOP
 10
0.0
 20
0.0
 30
0.0
  9
$PUCSORGBOTTOM
 10
0.0
 20
0.0
 30
0.0
  9
$PUCSORGLEFT
 10
0.0
 20
0.0
 30
0.0
  9
$PUCSORGRIGHT
 10
0.0
 20
0.0
 30
0.0
  9
$PUCSORGFRONT
 10
0.0
 20
0.0
 30
0.0
  9
$PUCSORGBACK
 10
0.0
 20
0.0
 30
0.0
  9
$USERI1
 70
     0
  9
$USERI2
 70
     0
  9
$USERI3
 70
     0
  9
$USERI4
 70
     0
  9
$USERI5
 70
     0
  9
$USERR1
 40
0.0
  9
$USERR2
 40
0.0
  9
$USERR3
 40
0.0
  9
$USERR4
 40
0.0
  9
$USERR5
 40
0.0
  9
$WORLDVIEW
 70
     1
  9
$SHADEDGE
 70
     3
  9
$SHADEDIF
 70
    70
  9
$TILEMODE
 70
     1
  9
$MAXACTVP
 70
    64
  9
$PINSBASE
 10
0.0
 20
0.0
 30
0.0
  9
$PLIMCHECK
 70
     0
  9
$PEXTMIN
 10
1.0000000000E+20
 20
1.0000000000E+20
 30
1.0000000000E+20
  9
$PEXTMAX
 10
-1.0000000000E+20
 20
-1.0000000000E+20
 30
-1.0000000000E+20
  9
$PLIMMIN
 10
0.0
 20
0.0
  9
$PLIMMAX
 10
420.0
 20
297.0
  9
$UNITMODE
 70
     0
  9
$VISRETAIN
 70
     1
  9
$PLINEGEN
 70
     0
  9
$PSLTSCALE
 70
     1
  9
$TREEDEPTH
 70
  3020
  9
$CMLSTYLE
  2
Standard
  9
$CMLJUST
 70
     0
  9
$CMLSCALE
 40
20.0
  9
$PROXYGRAPHICS
 70
     1
  9
$MEASUREMENT
 70
     1
  9
$CELWEIGHT
370
    -1
  9
$ENDCAPS
280
     0
  9
$JOINSTYLE
280
     0
  9
$LWDISPLAY
290
     1
  9
$INSUNITS
 70
     4
  9
$HYPERLINKBASE
  1

  9
$STYLESHEET
  1

  9
$XEDIT
290
     1
  9
$CEPSNTYPE
380
     0
  9
$PSTYLEMODE
290
     1
  9
$FINGERPRINTGUID
  2
{65A0A7A7-844C-4F9B-B52E-25B9F670CD2B}
  9
$VERSIONGUID
  2
{FAEB1C32-E019-11D5-929B-00C0DF256EC4}
  9
$EXTNAMES
290
     1
  9
$PSVPSCALE
 40
0.0
  9
$OLESTARTUP
290
     0
  0
ENDSEC
  0
SECTION
  2
CLASSES
  0
CLASS
  1
ACDBDICTIONARYWDFLT
  2
AcDbDictionaryWithDefault
  3
ObjectDBX Classes
 90
        0
280
     0
281
     0
  0
CLASS
  1
VISUALSTYLE
  2
AcDbVisualStyle
  3
ObjectDBX Classes
 90
     4095
280
     0
281
     0
  0
CLASS
  1
MATERIAL
  2
AcDbMaterial
  3
ObjectDBX Classes
 90
     1153
280
     0
281
     0
  0
CLASS
  1
SCALE
  2
AcDbScale
  3
ObjectDBX Classes
 90
     1153
280
     0
281
     0
  0
CLASS
  1
TABLESTYLE
  2
AcDbTableStyle
  3
ObjectDBX Classes
 90
     4095
280
     0
281
     0
  0
CLASS
  1
MLEADERSTYLE
  2
AcDbMLeaderStyle
  3
ACDB_MLEADERSTYLE_CLASS
 90
     4095
280
     0
281
     0
  0
CLASS
  1
SUN
  2
AcDbSun
  3
SCENEOE
 90
     1153
280
     0
281
     0
  0
CLASS
  1
ACDBPLACEHOLDER
  2
AcDbPlaceHolder
  3
ObjectDBX Classes
 90
        0
280
     0
281
     0
  0
CLASS
  1
LAYOUT
  2
AcDbLayout
  3
ObjectDBX Classes
 90
        0
280
     0
281
     0
  0
ENDSEC
  0
SECTION
  2
TABLES
  0
TABLE
  2
VPORT
  5
8
330
0
100
AcDbSymbolTable
 70
     1
  0
VPORT
  5
29
330
8
100
AcDbSymbolTableRecord
100
AcDbViewportTableRecord
  2
*Active
 70
     0
 10
0.0
 20
0.0
 11
1.0
 21
1.0
 12
0.0
 22
0.0
 13
0.0
 23
0.0
 14
10.0
 24
10.0
 15
10.0
 25
10.0
 16
0.0
 26
0.0
 36
1.0
 17
0.0
 27
0.0
 37
0.0
 40
91.8
 41
1.0
 42
50.0
 43
0.0
 44
0.0
 50
0.0
 51
0.0
 71
     0
 72
   100
 73
     1
 74
     3
 75
     0
 76
     0
 77
     0
 78
     0
281
     0
 65
     1
110
0.0
120
0.0
130
0.0
111
1.0
121
0.0
131
0.0
112
0.0
122
1.0
132
0.0
 79
     0
146
0.0
  0
ENDTAB
  0
TABLE
  2
LTYPE
  5
5
330
0
100
AcDbSymbolTable
 70
     6
  0
LTYPE
  5
14
330
5
100
AcDbSymbolTableRecord
100
AcDbLinetypeTableRecord
  2
ByBlock
 70
     0
  3

 72
    65
 73
     0
 40
0.0
  0
LTYPE
  5
15
330
5
100
AcDbSymbolTableRecord
100
AcDbLinetypeTableRecord
  2
ByLayer
 70
     0
  3

 72
    65
 73
     0
 40
0.0
  0
LTYPE
  5
16
330
5
100
AcDbSymbolTableRecord
100
AcDbLinetypeTableRecord
  2
Continuous
 70
     0
  3
Solid line
 72
    65
 73
     0
 40
0.0
  0
LTYPE
  5
6E
330
5
100
AcDbSymbolTableRecord
100
AcDbLinetypeTableRecord
  2
HIDDEN
 70
     0
  3
Hidden __ __ __ __ __ __ __ __ __ __ __ __ __ __
 72
    65
 73
     2
 40
1.905
 49
1.27
 74
     0
 49
-0.635
 74
     0
  0
LTYPE
  5
6F
330
5
100
AcDbSymbolTableRecord
100
AcDbLinetypeTableRecord
  2
PHANTOM
 70
     0
  3
Phantom ______  __  __  ______  __  __  ______
 72
    65
 73
     6
 40
12.7
 49
6.35
 74
     0
 49
-1.27
 74
     0
 49
1.27
 74
     0
 49
-1.27
 74
     0
 49
1.27
 74
     0
 49
-1.27
 74
     0
  0
LTYPE
  5
70
330
5
100
AcDbSymbolTableRecord
100
AcDbLinetypeTableRecord
  2
CENTER
 70
     0
  3
Center ____ _ ____ _ ____ _ ____ _ ____ _ ____
 72
    65
 73
     4
 40
10.16
 49
6.35
 74
     0
 49
-1.27
 74
     0
 49
1.27
 74
     0
 49
-1.27
 74
     0
  0
LTYPE
  5
71
330
5
100
AcDbSymbolTableRecord
100
AcDbLinetypeTableRecord
  2
CENTERX2
 70
     0
  3
Center (2x) ________  __  ________  __  _____
 72
    65
 73
     4
 40
20.32
 49
12.7
 74
     0
 49
-2.54
 74
     0
 49
2.54
 74
     0
 49
-2.54
 74
     0
  0
LTYPE
  5
72
330
5
100
AcDbSymbolTableRecord
100
AcDbLinetypeTableRecord
  2
DOT2
 70
     0
  3
Dot (.5x) ........................................
 72
    65
 73
     2
 40
0.635
 49
0.0
 74
     0
 49
-0.635
 74
     0
  0
ENDTAB
  0
TABLE
  2
LAYER
  5
2
330
0
100
AcDbSymbolTable
 70
     1
  0
LAYER
  5
10
330
2
100
AcDbSymbolTableRecord
100
AcDbLayerTableRecord
  2
0
 70
     0
 62
     7
  6
Continuous
370
    -3
390
F
  0
ENDTAB
  0
TABLE
  2
STYLE
  5
3
330
0
100
AcDbSymbolTable
 70
     1
  0
STYLE
  5
11
330
3
100
AcDbSymbolTableRecord
100
AcDbTextStyleTableRecord
  2
Standard
 70
     0
 40
0.0
 41
1.0
 50
0.0
 71
     0
 42
3.5
  3
txt
  4

  0
ENDTAB
  0
TABLE
  2
VIEW
  5
6
330
0
100
AcDbSymbolTable
 70
     0
  0
ENDTAB
  0
TABLE
  2
UCS
  5
7
330
0
100
AcDbSymbolTable
 70
     0
  0
ENDTAB
  0
TABLE
  2
APPID
  5
9
330
0
100
AcDbSymbolTable
 70
     1
  0
APPID
  5
12
330
9
100
AcDbSymbolTableRecord
100
AcDbRegAppTableRecord
  2
ACAD
 70
     0
  0
ENDTAB
  0
TABLE
  2
DIMSTYLE
  5
A
330
0
100
AcDbSymbolTable
 70
     1
100
AcDbDimStyleTable
  0
DIMSTYLE
105
27
330
A
100
AcDbSymbolTableRecord
100
AcDbDimStyleTableRecord
  2
ISO-25
 70
     0
 41
2.5
 42
0.625
 43
3.75
 44
1.25
 73
     0
 74
     0
 77
     1
 78
     8
140
2.5
141
2.5
143
0.0393700787
147
0.625
171
     3
172
     1
178
     0
271
     2
272
     2
274
     3
278
    44
283
     0
284
     8
340
11
  0
ENDTAB
  0
TABLE
  2
BLOCK_RECORD
  5
1
330
0
100
AcDbSymbolTable
 70
     1
  0
BLOCK_RECORD
  5
1F
330
1
100
AcDbSymbolTableRecord
100
AcDbBlockTableRecord
  2
*Model_Space
340
22
  0
BLOCK_RECORD
  5
1B
330
1
100
AcDbSymbolTableRecord
100
AcDbBlockTableRecord
  2
*Paper_Space
340
1E
  0
BLOCK_RECORD
  5
23
330
1
100
AcDbSymbolTableRecord
100
AcDbBlockTableRecord
  2
*Paper_Space0
340
26
  0
ENDTAB
  0
ENDSEC
  0
SECTION
  2
BLOCKS
  0
BLOCK
  5
20
330
1F
100
AcDbEntity
  8
0
100
AcDbBlockBegin
  2
*Model_Space
 70
     0
 10
0.0
 20
0.0
 30
0.0
  3
*Model_Space
  1

  0
ENDBLK
  5
21
330
1F
100
AcDbEntity
  8
0
100
AcDbBlockEnd
  0
BLOCK
  5
1C
330
1B
100
AcDbEntity
 67
     1
  8
0
100
AcDbBlockBegin
  2
*Paper_Space
 70
     0
 10
0.0
 20
0.0
 30
0.0
  3
*Paper_Space
  1

  0
ENDBLK
  5
1D
330
1B
100
AcDbEntity
 67
     1
  8
0
100
AcDbBlockEnd
  0
BLOCK
  5
24
330
23
100
AcDbEntity
  8
0
100
AcDbBlockBegin
  2
*Paper_Space0
 70
     0
 10
0.0
 20
0.0
 30
0.0
  3
*Paper_Space0
  1

  0
ENDBLK
  5
25
330
23
100
AcDbEntity
  8
0
100
AcDbBlockEnd
  0
ENDSEC
  0
SECTION
  2
ENTITIES
  0
SPLINE
  5
73
330
1F
100
AcDbEntity
  8
0
  6
Continuous
 62
     7
370
    25
100
AcDbSpline
210
0.0
220
0.0
230
1.0
 70
     8
 71
     3
 72
    15
 73
    11
 74
     0
 42
0.000000001
 43
0.00000001
 40
0.0
 40
0.0
 40
0.0
 40
0.0
 40
0.1341836820052663
 40
0.2736722873001048
 40
0.4142304745097505
 40
0.5506417072719275
 40
0.6803724121738202
 40
0.7994402710401727
 40
0.9068980834681004
 40
1.0
 40
1.0
 40
1.0
 40
1.0
 10
4.377345112229047
 20
33.97462129195308
 30
0.0
 10
5.110989125715309
 20
33.96525435109864
 30
0.0
 10
6.607281612509157
 20
33.94615014937807
 30
0.0
 10
8.869481457578726
 20
33.82772270859343
 30
0.0
 10
11.14014176978917
 20
33.657276118422
 30
0.0
 10
13.35493104330147
 20
33.46007275877548
 30
0.0
 10
15.4510662997225
 20
33.25053247314689
 30
0.0
 10
17.37813650434714
 20
32.96339867484557
 30
0.0
 10
19.09927618507659
 20
32.65905252041638
 30
0.0
 10
20.17179049809755
 20
32.43038193571001
 30
0.0
 10
20.66966282056238
 20
32.32423066695308
 30
0.0
  0
SPLINE
  5
74
330
1F
100
AcDbEntity
  8
0
  6
Continuous
 62
     7
370
    25
100
AcDbSpline
210
0.0
220
0.0
230
1.0
 70
     8
 71
     3
 72
    23
 73
    19
 74
     0
 42
0.000000001
 43
0.00000001
 40
0.0
 40
0.0
 40
0.0
 40
0.0
 40
0.0648990443948748
 40
0.1254234269792615
 40
0.1824553915257734
 40
0.2374767230076761
 40
0.2915763295319396
 40
0.345746714665033
 40
0.4005027806337346
 40
0.4567346901449466
 40
0.5156567783845686
 40
0.5766211261867815
 40
0.6408927966944389
 40
0.7080249615619816
 40
0.7784073717514619
 40
0.850139200312799
 40
0.9242667735957829
 40
1.0
 40
1.0
 40
1.0
 40
1.0
 10
-19.7155368322154
 20
18.5991872641753
 30
0.0
 10
-19.690075720197
 20
19.29643110254467
 30
0.0
 10
-19.64086975801642
 20
20.64391953575444
 30
0.0
 10
-19.29453136849986
 20
22.58208415948163
 30
0.0
 10
-18.67914454625423
 20
24.33823274123422
 30
0.0
 10
-17.84286956250119
 20
25.92366370430121
 30
0.0
 10
-16.77911074119051
 20
27.32632128584417
 30
0.0
 10
-15.55862253383883
 20
28.58688139603155
 30
0.0
 10
-14.18228305799924
 20
29.71435139218692
 30
0.0
 10
-12.62378991895736
 20
30.67326885121327
 30
0.0
 10
-10.91796882116633
 20
31.49684654545175
 30
0.0
 10
-9.069476594851615
 20
32.20841447498233
 30
0.0
 10
-7.081002803251032
 20
32.77948060928702
 30
0.0
 10
-4.958515074255236
 20
33.22714021340327
 30
0.0
 10
-2.733752509027103
 20
33.55642094234745
 30
0.0
 10
-0.4224283668434103
 20
33.7915011199192
 30
0.0
 10
1.953387120461906
 20
33.95853987384024
 30
0.0
 10
3.563608318904467
 20
33.96922266637802
 30
0.0
 10
4.377345112229047
 20
33.97462129195308
 30
0.0
  0
SPLINE
  5
75
330
1F
100
AcDbEntity
  8
0
  6
Continuous
 62
     7
370
    25
100
AcDbSpline
210
0.0
220
0.0
230
1.0
 70
     8
 71
     3
 72
    27
 73
    23
 74
     0
 42
0.000000001
 43
0.00000001
 40
0.0
 40
0.0
 40
0.0
 40
0.0
 40
0.0295690332875715
 40
0.0594271441935082
 40
0.0911253893288085
 40
0.1252959438278432
 40
0.1621513664305977
 40
0.2007949026947562
 40
0.2419624262014239
 40
0.2853743772875416
 40
0.3769013293595684
 40
0.4733019806681034
 40
0.5707985865492073
 40
0.6658640336677573
 40
0.7117086432809789
 40
0.7562690777287722
 40
0.7991364316224988
 40
0.8407012326661013
 40
0.8809047375830791
 40
0.9204839036396006
 40
0.9595513969339703
 40
0.9999999999999999
 40
0.9999999999999999
 40
0.9999999999999999
 40
0.9999999999999999
 10
12.7844631677846
 20
-17.35675891638025
 30
0.0
 10
12.75237341785414
 20
-16.85991742715595
 30
0.0
 10
12.68788019693263
 20
-15.86137714569668
 30
0.0
 10
12.22420445931293
 20
-14.38846845093333
 30
0.0
 10
11.46246535735039
 20
-12.96429208651003
 30
0.0
 10
10.39092515447647
 20
-11.60553120980716
 30
0.0
 10
9.124414869044449
 20
-10.26784199908473
 30
0.0
 10
7.686118718354455
 20
-8.936597872015232
 30
0.0
 10
6.09522796876932
 20
-7.61255993901226
 30
0.0
 10
3.717571546019491
 20
-5.854064759927995
 30
0.0
 10
0.5288557704344763
 20
-3.635742907587599
 30
0.0
 10
-3.489713573112839
 20
-1.0253766338524
 30
0.0
 10
-7.505368863496342
 20
1.697395275647611
 30
0.0
 10
-10.69663933824485
 20
4.119771578149656
 30
0.0
 10
-13.0431620375687
 20
6.16845415199043
 30
0.0
 10
-14.63777083214468
 20
7.740654264927294
 30
0.0
 10
-16.06407721168327
 20
9.372166101167261
 30
0.0
 10
-17.34845260884253
 20
11.02586711300398
 30
0.0
 10
-18.42180963955844
 20
12.76634778389993
 30
0.0
 10
-19.16886267080495
 20
14.6256428089067
 30
0.0
 10
-19.62453660288473
 20
16.58376369026291
 30
0.0
 10
-19.68485420496994
 20
17.91964512768959
 30
0.0
 10
-19.7155368322154
 20
18.5991872641753
 30
0.0
  0
SPLINE
  5
76
330
1F
100
AcDbEntity
  8
0
  6
Continuous
 62
     7
370
    25
100
AcDbSpline
210
0.0
220
0.0
230
1.0
 70
     8
 71
     3
 72
    19
 73
    15
 74
     0
 42
0.000000001
 43
0.00000001
 40
0.0
 40
0.0
 40
0.0
 40
0.0
 40
0.1554304160515131
 40
0.2975094116429173
 40
0.4277140888905788
 40
0.5479163716689155
 40
0.6045929116128438
 40
0.6584553403206751
 40
0.7111760538062208
 40
0.7634670134053102
 40
0.8180797858698762
 40
0.8743138123722862
 40
0.9352654171576302
 40
1.0
 40
1.0
 40
1.0
 40
1.0
 10
1.062457959451268
 20
-24.70593426360248
 30
0.0
 10
1.876650636551839
 20
-24.68724680744223
 30
0.0
 10
3.435097113642154
 20
-24.6514771413204
 30
0.0
 10
5.663708681200452
 20
-24.37525308694777
 30
0.0
 10
7.665489339781844
 20
-23.89673306592103
 30
0.0
 10
9.185584763165085
 20
-23.34515153388882
 30
0.0
 10
10.2417149801713
 20
-22.75370940230372
 30
0.0
 10
10.93731671705776
 20
-22.24878504635613
 30
0.0
 10
11.49926532122396
 20
-21.62925774273628
 30
0.0
 10
11.97904316281674
 20
-20.94142846717595
 30
0.0
 10
12.34277689106568
 20
-20.16335724949964
 30
0.0
 10
12.59688549853261
 20
-19.2976503422508
 30
0.0
 10
12.75113689235561
 20
-18.35435550802019
 30
0.0
 10
12.77313371810188
 20
-17.69589733623517
 30
0.0
 10
12.7844631677846
 20
-17.35675891638025
 30
0.0
  0
SPLINE
  5
77
330
1F
100
AcDbEntity
  8
0
  6
Continuous
 62
     7
370
    25
100
AcDbSpline
210
0.0
220
0.0
230
1.0
 70
     8
 71
     3
 72
    15
 73
    11
 74
     0
 42
0.000000001
 43
0.00000001
 40
0.0
 40
0.0
 40
0.0
 40
0.0
 40
0.1034811537850737
 40
0.2143204374285164
 40
0.3316267914091472
 40
0.4570426190331108
 40
0.5874491068694606
 40
0.7208911180650154
 40
0.8580476710840725
 40
1.0
 40
1.0
 40
1.0
 40
1.0
 10
-17.5573337072154
 20
-21.3910471108247
 30
0.0
 10
-16.92765022989187
 20
-21.57106622688972
 30
0.0
 10
-15.6235090083726
 20
-21.94390489643802
 30
0.0
 10
-13.59798778434746
 20
-22.49404497526846
 30
0.0
 10
-11.42802178753663
 20
-23.04042244614873
 30
0.0
 10
-9.137280734184216
 20
-23.6133616789587
 30
0.0
 10
-6.724697630345835
 20
-24.12161531687466
 30
0.0
 10
-4.205720245316297
 20
-24.44375771387506
 30
0.0
 10
-1.602942690346401
 20
-24.66886411093879
 30
0.0
 10
0.1638716732241714
 20
-24.69343680630109
 30
0.0
 10
1.062457959451268
 20
-24.70593426360248
 30
0.0
  0
SPLINE
  5
79
330
1F
100
AcDbEntity
  8
0
  6
Continuous
 62
     7
370
    25
100
AcDbSpline
210
0.0
220
0.0
230
1.0
 70
     8
 71
     3
 72
    15
 73
    11
 74
     0
 42
0.000000001
 43
0.00000001
 40
0.0
 40
0.0
 40
0.0
 40
0.0
 40
0.145830170071183
 40
0.2858888433953544
 40
0.4218967721314726
 40
0.5530436912790815
 40
0.6775571294156472
 40
0.7936028987634489
 40
0.9010653190086793
 40
1.0
 40
1.0
 40
1.0
 40
1.0
 10
1.386893723340159
 20
-32.83093426360248
 30
0.0
 10
0.3848548348255316
 20
-32.81956792851043
 30
0.0
 10
-1.579565413294455
 20
-32.79728510190791
 30
0.0
 10
-4.469689042671241
 20
-32.55778078340374
 30
0.0
 10
-7.246791058130573
 20
-32.20757764338123
 30
0.0
 10
-9.885005377950478
 20
-31.67027264858616
 30
0.0
 10
-12.36860674177145
 20
-31.07673340180896
 30
0.0
 10
-14.68100008918422
 20
-30.46905585866498
 30
0.0
 10
-16.8133871045664
 20
-29.8684091537282
 30
0.0
 10
-18.16491550339884
 20
-29.43951553460114
 30
0.0
 10
-18.81275905443762
 20
-29.23392905526914
 30
0.0
  0
SPLINE
  5
7A
330
1F
100
AcDbEntity
  8
0
  6
Continuous
 62
     7
370
    25
100
AcDbSpline
210
0.0
220
0.0
230
1.0
 70
     8
 71
     3
 72
    23
 73
    19
 74
     0
 42
0.000000001
 43
0.00000001
 40
0.0
 40
0.0
 40
0.0
 40
0.0
 40
0.0671996315078411
 40
0.1300609716218762
 40
0.1890583842286812
 40
0.2455169389844328
 40
0.3000423507819374
 40
0.3535913476687069
 40
0.4077989346373404
 40
0.4629526373460375
 40
0.5194330484371155
 40
0.5787486305459449
 40
0.640995038365484
 40
0.7067777628383431
 40
0.775747857743539
 40
0.8474208129303605
 40
0.9219692451095299
 40
1.0
 40
1.0
 40
1.0
 40
1.0
 10
23.61779650111794
 20
-16.97589954138025
 30
0.0
 10
23.59978636510374
 20
-17.67282542275734
 30
0.0
 10
23.56492879614855
 20
-19.02168486210947
 30
0.0
 10
23.270802133785
 20
-20.96550325498881
 30
0.0
 10
22.76265028279898
 20
-22.7485778718377
 30
0.0
 10
22.05048354093538
 20
-24.36572213975285
 30
0.0
 10
21.17404149580205
 20
-25.83524415412105
 30
0.0
 10
20.11088820944549
 20
-27.14505999976429
 30
0.0
 10
18.89741442620974
 20
-28.32709620388485
 30
0.0
 10
17.50009468960723
 20
-29.3366094055421
 30
0.0
 10
15.96288314596625
 20
-30.22618016708979
 30
0.0
 10
14.25861482092608
 20
-30.94324970544688
 30
0.0
 10
12.42011739495809
 20
-31.57535363700261
 30
0.0
 10
10.42894598721224
 20
-32.04324568469161
 30
0.0
 10
8.315670511212788
 20
-32.38643098255093
 30
0.0
 10
6.098422850812739
 20
-32.63922248972297
 30
0.0
 10
3.777773379923223
 20
-32.79734264413669
 30
0.0
 10
2.195888092228711
 20
-32.81956797382924
 30
0.0
 10
1.386893723340159
 20
-32.83093426360248
 30
0.0
  0
SPLINE
  5
7B
330
1F
100
AcDbEntity
  8
0
  6
Continuous
 62
     7
370
    25
100
AcDbSpline
210
0.0
220
0.0
230
1.0
 70
     8
 71
     3
 72
    27
 73
    23
 74
     0
 42
0.000000001
 43
0.00000001
 40
0.0
 40
0.0
 40
0.0
 40
0.0
 40
0.0259606733975115
 40
0.0527238982009045
 40
0.0815067467710413
 40
0.1135080632983161
 40
0.1483863872899863
 40
0.1855878180112381
 40
0.2251525638995951
 40
0.2672037454986858
 40
0.3566501169772447
 40
0.4525575275299085
 40
0.5501651170289598
 40
0.6455147080439514
 40
0.6921241523651163
 40
0.7377075157641939
 40
0.7826945393260042
 40
0.8267656939108831
 40
0.8701465320221266
 40
0.9127126168313805
 40
0.9559030241228558
 40
1.0
 40
1.0
 40
1.0
 40
1.0
 10
-8.882203498882065
 20
18.7966699030642
 30
0.0
 10
-8.85081802689386
 20
18.36020252819414
 30
0.0
 10
-8.78707682863002
 20
17.47377477309319
 30
0.0
 10
-8.299529284922661
 20
16.17777323116058
 30
0.0
 10
-7.53170587692125
 20
14.91817472253186
 30
0.0
 10
-6.468835972419246
 20
13.70743087894485
 30
0.0
 10
-5.199588078898174
 20
12.50582048826701
 30
0.0
 10
-3.750460778750407
 20
11.31687428363881
 30
0.0
 10
-2.173501164012503
 20
10.0957721064538
 30
0.0
 10
0.1904721696445284
 20
8.465461015712938
 30
0.0
 10
3.392591141323436
 20
6.389097084372142
 30
0.0
 10
7.401158074455396
 20
3.844234870058799
 30
0.0
 10
11.43698048421334
 20
1.154437495803536
 30
0.0
 10
14.59854716257555
 20
-1.337138931792514
 30
0.0
 10
16.9411881966374
 20
-3.441782617021659
 30
0.0
 10
18.52429554097266
 20
-5.116615110870572
 30
0.0
 10
19.9623891687237
 20
-6.86111567916284
 30
0.0
 10
21.24926936632698
 20
-8.677300905386373
 30
0.0
 10
22.30079898956314
 20
-10.5953601900545
 30
0.0
 10
23.08712872912362
 20
-12.62347507047341
 30
0.0
 10
23.52148223466618
 20
-14.77107716842118
 30
0.0
 10
23.58547021878726
 20
-16.23588756659185
 30
0.0
 10
23.61779650111794
 20
-16.97589954138025
 30
0.0
  0
SPLINE
  5
7C
330
1F
100
AcDbEntity
  8
0
  6
Continuous
 62
     7
370
    25
100
AcDbSpline
210
0.0
220
0.0
230
1.0
 70
     8
 71
     3
 72
    21
 73
    17
 74
     0
 42
0.000000001
 43
0.00000001
 40
0.0
 40
0.0
 40
0.0
 40
0.0
 40
0.1639635138880438
 40
0.31503061234161
 40
0.38434963508013
 40
0.4501114341893478
 40
0.5114117819081042
 40
0.5690704082707169
 40
0.6238703439825769
 40
0.6755546423920971
 40
0.7271260856065226
 40
0.7771661959300333
 40
0.8275884015452138
 40
0.8804982221611116
 40
0.9378170283999923
 40
1.0
 40
1.0
 40
1.0
 40
1.0
 10
4.377345112229047
 20
25.84962129195308
 30
0.0
 10
3.446204145527945
 20
25.83956502762296
 30
0.0
 10
1.657160339620607
 20
25.82024346616906
 30
0.0
 10
-0.5234974586049413
 20
25.67842240580742
 30
0.0
 10
-2.134814502458117
 20
25.46662136319723
 30
0.0
 10
-3.234258722566855
 20
25.26974337449317
 30
0.0
 10
-4.239722546648609
 20
24.9640518496958
 30
0.0
 10
-5.163089497441266
 20
24.61499365735412
 30
0.0
 10
-6.00243157466114
 20
24.20166048895337
 30
0.0
 10
-6.733506828439396
 20
23.67589566336149
 30
0.0
 10
-7.383141897525628
 20
23.09299779646315
 30
0.0
 10
-7.930081052381811
 20
22.4195432787736
 30
0.0
 10
-8.359935091129794
 20
21.65736779889568
 30
0.0
 10
-8.673790899118492
 20
20.79658878402273
 30
0.0
 10
-8.856015855007767
 20
19.82935736413941
 30
0.0
 10
-8.873240580858756
 20
19.15011495149035
 30
0.0
 10
-8.882203498882065
 20
18.7966699030642
 30
0.0
  0
SPLINE
  5
7D
330
1F
100
AcDbEntity
  8
0
  6
Continuous
 62
     7
370
    25
100
AcDbSpline
210
0.0
220
0.0
230
1.0
 70
     8
 71
     3
 72
    15
 73
    11
 74
     0
 42
0.000000001
 43
0.00000001
 40
0.0
 40
0.0
 40
0.0
 40
0.0
 40
0.1036295303678868
 40
0.2232445193455582
 40
0.3527556919554906
 40
0.4865356887596436
 40
0.6219134821745174
 40
0.757855193409768
 40
0.8853811194250961
 40
1.0
 40
1.0
 40
1.0
 40
1.0
 10
19.78099094556238
 20
24.1851247641753
 30
0.0
 10
19.255065106621
 20
24.28791479752269
 30
0.0
 10
18.12208630502778
 20
24.50935082552252
 30
0.0
 10
16.3165516273251
 20
24.77017995706647
 30
0.0
 10
14.35775241775184
 20
25.05733012760356
 30
0.0
 10
12.31105829659663
 20
25.30283297257892
 30
0.0
 10
10.22956760811571
 20
25.53793024340093
 30
0.0
 10
8.173301101330866
 20
25.69607788151144
 30
0.0
 10
6.221913508725319
 20
25.81926655718092
 30
0.0
 10
4.969956895200071
 20
25.83986910627696
 30
0.0
 10
4.377345112229047
 20
25.84962129195308
 30
0.0
  0
CIRCLE
  5
7F
330
1F
100
AcDbEntity
  8
0
  6
Continuous
 62
     7
370
    25
100
AcDbCircle
 10
0.0
 20
0.0
 30
0.0
 40
45.00000000000006
  0
LINE
  5
80
330
1F
100
AcDbEntity
  8
0
  6
Continuous
 62
     7
370
    25
100
AcDbLine
 10
-18.8127590544
 20
-29.2339290553
 30
0.0
 11
-17.5573337072
 21
-21.3910471108
 31
0.0
  0
LINE
  5
81
330
1F
100
AcDbEntity
  8
0
  6
Continuous
 62
     7
370
    25
100
AcDbLine
 10
20.6696628206
 20
32.324230667
 30
0.0
 11
19.7809909456
 21
24.1851247642
 31
0.0
  0
ENDSEC
  0
SECTION
  2
OBJECTS
  0
DICTIONARY
  5
C
330
0
100
AcDbDictionary
281
     1
  3
ACAD_GROUP
350
D
  3
ACAD_LAYOUT
350
1A
  3
ACAD_MLINESTYLE
350
17
  3
ACAD_PLOTSETTINGS
350
19
  3
ACAD_PLOTSTYLENAME
350
E
  3
ACAD_SCALELIST
350
47
  0
DICTIONARY
  5
D
102
{ACAD_REACTORS
330
C
102
}
330
C
100
AcDbDictionary
281
     1
  0
DICTIONARY
  5
1A
102
{ACAD_REACTORS
330
C
102
}
330
C
100
AcDbDictionary
281
     1
  3
Layout1
350
1E
  3
Layout2
350
26
  3
Model
350
22
  0
DICTIONARY
  5
17
102
{ACAD_REACTORS
330
C
102
}
330
C
100
AcDbDictionary
281
     1
  3
Standard
350
18
  0
DICTIONARY
  5
19
102
{ACAD_REACTORS
330
C
102
}
330
C
100
AcDbDictionary
281
     1
  0
ACDBDICTIONARYWDFLT
  5
E
102
{ACAD_REACTORS
330
C
102
}
330
C
100
AcDbDictionary
281
     1
  3
Normal
350
F
100
AcDbDictionaryWithDefault
340
F
  0
DICTIONARY
  5
47
102
{ACAD_REACTORS
330
C
102
}
330
C
100
AcDbDictionary
281
     1
  3
A0
350
48
  3
A1
350
49
  3
A2
350
4A
  3
A3
350
4B
  3
A4
350
4C
  3
A5
350
4D
  3
A6
350
4E
  3
A7
350
4F
  3
A8
350
50
  3
A9
350
51
  3
B0
350
52
  3
B1
350
53
  3
B2
350
54
  3
B3
350
55
  3
B4
350
56
  3
B5
350
57
  3
B6
350
58
  3
B7
350
59
  3
B8
350
5A
  3
B9
350
5B
  3
C0
350
5C
  3
C1
350
5D
  3
C2
350
5E
  3
C3
350
5F
  3
C4
350
60
  3
C5
350
61
  3
C6
350
62
  3
C7
350
63
  3
C8
350
64
  3
C9
350
65
  3
D0
350
66
  3
D1
350
67
  3
D2
350
68
  0
LAYOUT
  5
1E
102
{ACAD_REACTORS
330
1A
102
}
330
1A
100
AcDbPlotSettings
  1

  2
none_device
  4

  6

 40
0.0
 41
0.0
 42
0.0
 43
0.0
 44
0.0
 45
0.0
 46
0.0
 47
0.0
 48
0.0
 49
0.0
140
0.0
141
0.0
142
1.0
143
1.0
 70
   688
 72
     1
 73
     0
 74
     5
  7

 75
    16
147
1.0
148
0.0
149
0.0
100
AcDbLayout
  1
Layout1
 70
     1
 71
     1
 10
0.0
 20
0.0
 11
420.0
 21
297.0
 12
0.0
 22
0.0
 32
0.0
 14
1.0000000000E+20
 24
1.0000000000E+20
 34
1.0000000000E+20
 15
-1.0000000000E+20
 25
-1.0000000000E+20
 35
-1.0000000000E+20
146
0.0
 13
0.0
 23
0.0
 33
0.0
 16
1.0
 26
0.0
 36
0.0
 17
0.0
 27
1.0
 37
0.0
 76
     0
330
1B
  0
LAYOUT
  5
26
102
{ACAD_REACTORS
330
1A
102
}
330
1A
100
AcDbPlotSettings
  1

  2
none_device
  4

  6

 40
0.0
 41
0.0
 42
0.0
 43
0.0
 44
0.0
 45
0.0
 46
0.0
 47
0.0
 48
0.0
 49
0.0
140
0.0
141
0.0
142
1.0
143
1.0
 70
   688
 72
     1
 73
     0
 74
     5
  7

 75
    16
147
1.0
148
0.0
149
0.0
100
AcDbLayout
  1
Layout2
 70
     1
 71
     2
 10
0.0
 20
0.0
 11
0.0
 21
0.0
 12
0.0
 22
0.0
 32
0.0
 14
0.0
 24
0.0
 34
0.0
 15
0.0
 25
0.0
 35
0.0
146
0.0
 13
0.0
 23
0.0
 33
0.0
 16
1.0
 26
0.0
 36
0.0
 17
0.0
 27
1.0
 37
0.0
 76
     0
330
23
  0
LAYOUT
  5
22
102
{ACAD_REACTORS
330
1A
102
}
330
1A
100
AcDbPlotSettings
  1

  2
none_device
  4
ANSI_A_(11.00_x_8.50_Inches)
  6

 40
6.35
 41
19.05
 42
6.35000508
 43
19.05000254
 44
279.4
 45
215.9
 46
133.34999746
 47
88.89999873
 48
0.0
 49
0.0
140
0.0
141
0.0
142
0.0935
143
1.0
 70
  1696
 72
     0
 73
     0
 74
     0
  7

 75
     0
147
0.0179189148
148
-1300.4909072572
149
0.0
100
AcDbLayout
  1
Model
 70
     1
 71
     0
 10
0.0
 20
0.0
 11
420.0
 21
297.0
 12
0.0
 22
0.0
 32
0.0
 14
-45.0
 24
-45.0
 34
0.0
 15
45.0
 25
45.0
 35
0.0
146
0.0
 13
0.0
 23
0.0
 33
0.0
 16
1.0
 26
0.0
 36
0.0
 17
0.0
 27
1.0
 37
0.0
 76
     0
330
1F
331
29
  0
MLINESTYLE
  5
18
102
{ACAD_REACTORS
330
17
102
}
330
17
100
AcDbMlineStyle
  2
Standard
 70
     0
  3

 62
   256
 51
90.0
 52
90.0
 71
     2
 49
0.5
 62
   256
  6
BYLAYER
 49
-0.5
 62
   256
  6
BYLAYER
  0
ACDBPLACEHOLDER
  5
F
102
{ACAD_REACTORS
330
E
102
}
330
E
  0
SCALE
  5
48
102
{ACAD_REACTORS
330
47
102
}
330
47
100
AcDbScale
 70
     0
300
1:1
140
1.0
141
1.0
290
     1
  0
SCALE
  5
49
102
{ACAD_REACTORS
330
47
102
}
330
47
100
AcDbScale
 70
     0
300
1:2
140
1.0
141
2.0
290
     0
  0
SCALE
  5
4A
102
{ACAD_REACTORS
330
47
102
}
330
47
100
AcDbScale
 70
     0
300
1:4
140
1.0
141
4.0
290
     0
  0
SCALE
  5
4B
102
{ACAD_REACTORS
330
47
102
}
330
47
100
AcDbScale
 70
     0
300
1:5
140
1.0
141
5.0
290
     0
  0
SCALE
  5
4C
102
{ACAD_REACTORS
330
47
102
}
330
47
100
AcDbScale
 70
     0
300
1:8
140
1.0
141
8.0
290
     0
  0
SCALE
  5
4D
102
{ACAD_REACTORS
330
47
102
}
330
47
100
AcDbScale
 70
     0
300
1:10
140
1.0
141
10.0
290
     0
  0
SCALE
  5
4E
102
{ACAD_REACTORS
330
47
102
}
330
47
100
AcDbScale
 70
     0
300
1:16
140
1.0
141
16.0
290
     0
  0
SCALE
  5
4F
102
{ACAD_REACTORS
330
47
102
}
330
47
100
AcDbScale
 70
     0
300
1:20
140
1.0
141
20.0
290
     0
  0
SCALE
  5
50
102
{ACAD_REACTORS
330
47
102
}
330
47
100
AcDbScale
 70
     0
300
1:30
140
1.0
141
30.0
290
     0
  0
SCALE
  5
51
102
{ACAD_REACTORS
330
47
102
}
330
47
100
AcDbScale
 70
     0
300
1:40
140
1.0
141
40.0
290
     0
  0
SCALE
  5
52
102
{ACAD_REACTORS
330
47
102
}
330
47
100
AcDbScale
 70
     0
300
1:50
140
1.0
141
50.0
290
     0
  0
SCALE
  5
53
102
{ACAD_REACTORS
330
47
102
}
330
47
100
AcDbScale
 70
     0
300
1:100
140
1.0
141
100.0
290
     0
  0
SCALE
  5
54
102
{ACAD_REACTORS
330
47
102
}
330
47
100
AcDbScale
 70
     0
300
2:1
140
2.0
141
1.0
290
     0
  0
SCALE
  5
55
102
{ACAD_REACTORS
330
47
102
}
330
47
100
AcDbScale
 70
     0
300
4:1
140
4.0
141
1.0
290
     0
  0
SCALE
  5
56
102
{ACAD_REACTORS
330
47
102
}
330
47
100
AcDbScale
 70
     0
300
8:1
140
8.0
141
1.0
290
     0
  0
SCALE
  5
57
102
{ACAD_REACTORS
330
47
102
}
330
47
100
AcDbScale
 70
     0
300
10:1
140
10.0
141
1.0
290
     0
  0
SCALE
  5
58
102
{ACAD_REACTORS
330
47
102
}
330
47
100
AcDbScale
 70
     0
300
100:1
140
100.0
141
1.0
290
     0
  0
SCALE
  5
59
102
{ACAD_REACTORS
330
47
102
}
330
47
100
AcDbScale
 70
     0
300
1/128" = 1'-0"
140
0.0078125
141
12.0
290
     0
  0
SCALE
  5
5A
102
{ACAD_REACTORS
330
47
102
}
330
47
100
AcDbScale
 70
     0
300
1/64" = 1'-0"
140
0.015625
141
12.0
290
     0
  0
SCALE
  5
5B
102
{ACAD_REACTORS
330
47
102
}
330
47
100
AcDbScale
 70
     0
300
1/32" = 1'-0"
140
0.03125
141
12.0
290
     0
  0
SCALE
  5
5C
102
{ACAD_REACTORS
330
47
102
}
330
47
100
AcDbScale
 70
     0
300
1/16" = 1'-0"
140
0.0625
141
12.0
290
     0
  0
SCALE
  5
5D
102
{ACAD_REACTORS
330
47
102
}
330
47
100
AcDbScale
 70
     0
300
3/32" = 1'-0"
140
0.09375
141
12.0
290
     0
  0
SCALE
  5
5E
102
{ACAD_REACTORS
330
47
102
}
330
47
100
AcDbScale
 70
     0
300
1/8" = 1'-0"
140
0.125
141
12.0
290
     0
  0
SCALE
  5
5F
102
{ACAD_REACTORS
330
47
102
}
330
47
100
AcDbScale
 70
     0
300
3/16" = 1'-0"
140
0.1875
141
12.0
290
     0
  0
SCALE
  5
60
102
{ACAD_REACTORS
330
47
102
}
330
47
100
AcDbScale
 70
     0
300
1/4" = 1'-0"
140
0.25
141
12.0
290
     0
  0
SCALE
  5
61
102
{ACAD_REACTORS
330
47
102
}
330
47
100
AcDbScale
 70
     0
300
3/8" = 1'-0"
140
0.375
141
12.0
290
     0
  0
SCALE
  5
62
102
{ACAD_REACTORS
330
47
102
}
330
47
100
AcDbScale
 70
     0
300
1/2" = 1'-0"
140
0.5
141
12.0
290
     0
  0
SCALE
  5
63
102
{ACAD_REACTORS
330
47
102
}
330
47
100
AcDbScale
 70
     0
300
3/4" = 1'-0"
140
0.75
141
12.0
290
     0
  0
SCALE
  5
64
102
{ACAD_REACTORS
330
47
102
}
330
47
100
AcDbScale
 70
     0
300
1" = 1'-0"
140
1.0
141
12.0
290
     0
  0
SCALE
  5
65
102
{ACAD_REACTORS
330
47
102
}
330
47
100
AcDbScale
 70
     0
300
1-1/2" = 1'-0"
140
1.5
141
12.0
290
     0
  0
SCALE
  5
66
102
{ACAD_REACTORS
330
47
102
}
330
47
100
AcDbScale
 70
     0
300
3" = 1'-0"
140
3.0
141
12.0
290
     0
  0
SCALE
  5
67
102
{ACAD_REACTORS
330
47
102
}
330
47
100
AcDbScale
 70
     0
300
6" = 1'-0"
140
6.0
141
12.0
290
     0
  0
SCALE
  5
68
102
{ACAD_REACTORS
330
47
102
}
330
47
100
AcDbScale
 70
     0
300
1'-0" = 1'-0"
140
12.0
141
12.0
290
     0
  0
ENDSEC
  0
EOF
