0
SECTION
2
HEADER
9
$INSUNITS
70
4
9
$ACADVER
1
AC1014
9
$HANDSEED
5
FFFF
0
ENDSEC
0
SECTION
2
TABLES
0
TABLE
2
VPORT
5
8
100
AcDbSymbolTable
0
ENDTAB
0
TABLE
2
LTYPE
5
5
100
AcDbSymbolTable
0
LTYPE
5
14
100
AcDbSymbolTableRecord
100
AcDbLinetypeTableRecord
2
BYBLOCK
70
0
0
LTYPE
5
15
100
AcDbSymbolTableRecord
100
AcDbLinetypeTableRecord
2
BYLAYER
70
0
0
ENDTAB
0
TABLE
2
LAYER
5
2
100
AcDbSymbolTable
70
2
0
LAYER
5
50
100
AcDbSymbolTableRecord
100
AcDbLayerTableRecord
2
0
70
0
6
CONTINUOUS
0
ENDTAB
0
TABLE
2
STYLE
5
3
100
AcDbSymbolTable
70
1
0
STYLE
5
11
100
AcDbSymbolTableRecord
100
AcDbTextStyleTableRecord
2
STANDARD
70
0
0
ENDTAB
0
TABLE
2
VIEW
5
6
100
AcDbSymbolTable
70
0
0
ENDTAB
0
TABLE
2
UCS
5
7
100
AcDbSymbolTable
70
0
0
ENDTAB
0
TABLE
2
APPID
5
9
100
AcDbSymbolTable
70
2
0
APPID
5
12
100
AcDbSymbolTableRecord
100
AcDbRegAppTableRecord
2
ACAD
70
0
0
ENDTAB
0
TABLE
2
DIMSTYLE
5
A
100
AcDbSymbolTable
70
1
0
ENDTAB
0
TABLE
2
BLOCK_RECORD
5
1
100
AcDbSymbolTable
70
1
0
BLOCK_RECORD
5
1F
100
AcDbSymbolTableRecord
100
AcDbBlockTableRecord
2
*MODEL_SPACE
0
BLOCK_RECORD
5
1B
100
AcDbSymbolTableRecord
100
AcDbBlockTableRecord
2
*PAPER_SPACE
0
ENDTAB
0
ENDSEC
0
SECTION
2
BLOCKS
0
BLOCK
5
20
100
AcDbEntity
100
AcDbBlockBegin
2
*MODEL_SPACE
0
ENDBLK
5
21
100
AcDbEntity
100
AcDbBlockEnd
0
BLOCK
5
1C
100
AcDbEntity
100
AcDbBlockBegin
2
*PAPER_SPACE
0
ENDBLK
5
1D
100
AcDbEntity
100
AcDbBlockEnd
0
ENDSEC
0
SECTION
2
ENTITIES
0
LWPOLYLINE
5
100
100
AcDbEntity
8
0
100
AcDbPolyline
90
21
70
1
43
0.0
10
-98.000001311302185
20
4.0000004172325099
10
-105.00000141561031
20
4.0000004172325099
10
-105
20
-14.000000000000004
10
-82.000001221895218
20
-14.000000000000004
10
-82.000001221895218
20
-7.4000000000000021
10
-80
20
-7.4000000000000021
10
-78
20
-7.4000000000000021
10
-78
20
-14.000000000000004
10
-55
20
-14.000000000000004
10
-55.000000819563866
20
4.0000004172325099
10
-62.000000923871994
20
4.0000004172325099
10
-62.000000923871994
20
8.0000004768371547
10
-55.000000819563866
20
8.0000004768371547
10
-55
20
25.999999999999996
10
-78.000000000000043
20
25.999999935684599
10
-77.999997541725122
20
19.400001117461308
10
-81.999997541724838
20
19.399999627597666
10
-81.999999999999872
20
25.999999627597205
10
-105
20
25.999999999999996
10
-105.00000141561031
20
8.0000004768371547
10
-98.000001311302185
20
8.0000004768371547
0
LWPOLYLINE
5
101
100
AcDbEntity
8
0
100
AcDbPolyline
90
22
70
1
43
0.0
10
-109.00000162422657
20
30
10
-115
20
30
10
-115
20
7.5
10
-130.00000050291419
20
7.5
10
-130.00000050291419
20
-15
10
-135
20
-15
10
-155
20
-15
10
-155
20
-5
10
-148.40000000000001
20
-5
10
-148.40000000000001
20
0
10
-155
20
0
10
-155
20
65
10
-148.40000000000001
20
65
10
-148.40000000000001
20
70
10
-155
20
70
10
-155
20
80
10
-135
20
80
10
-130.00000050291419
20
80
10
-130.00000050291419
20
57.499999999999915
10
-115.00000195577796
20
57.499999999999915
10
-115
20
35
10
-109.00000162422657
20
35.000000521540642
0
LWPOLYLINE
5
102
100
AcDbEntity
8
0
100
AcDbPolyline
90
22
70
1
43
0.0
10
-205
20
0
10
-205
20
65
10
-198.40000000000001
20
65
10
-198.40000000000001
20
70
10
-205
20
70
10
-205
20
80
10
-185
20
80
10
-180.00000050291419
20
80
10
-180.00000050291419
20
57.499999999999915
10
-165.00000195577798
20
57.499999999999915
10
-165
20
35
10
-159.00000162422657
20
35.000000521540642
10
-159.00000162422657
20
30
10
-165
20
30
10
-165
20
7.5
10
-180.00000050291419
20
7.5
10
-180.00000050291419
20
-15
10
-185
20
-15
10
-205
20
-15
10
-205
20
-5
10
-198.40000000000001
20
-5
10
-198.40000000000001
20
0
0
LWPOLYLINE
5
103
100
AcDbEntity
8
0
100
AcDbPolyline
90
14
70
1
43
0.0
10
-78.400000000000006
20
46.499999999999993
10
-85
20
46.499999999999993
10
-85
20
57.5
10
-100
20
57.5
10
-106.50000000000003
20
57.5
10
-106.50000000000003
20
45.999999999999986
10
-100
20
45.999999999999986
10
-100
20
42
10
-106.50000000000003
20
42
10
-106.50000000000003
20
30.500000000000007
10
-100
20
30.5
10
-85
20
30.5
10
-85
20
41.499999999999993
10
-78.400000000000006
20
41.499999999999993
0
LWPOLYLINE
5
104
100
AcDbEntity
8
0
100
AcDbPolyline
90
12
70
1
43
0.0
10
-56.5
20
92.816099373619807
10
-56.5
20
70.316099373619807
10
-67.5
20
70.316099373619807
10
-67.5
20
63.716099373619812
10
-72.5
20
63.716099373619812
10
-72.5
20
70.316099373619807
10
-83.500000000000014
20
70.316099373619807
10
-83.500000000000014
20
92.816099373619807
10
-72
20
92.816099373619807
10
-72
20
86.216099373619812
10
-67.999999999999986
20
86.216099373619812
10
-68
20
92.816099373619807
0
LWPOLYLINE
5
105
100
AcDbEntity
8
0
100
AcDbPolyline
90
8
70
1
43
0.0
10
-114.93955623250302
20
69.316099373619821
10
-114.93955623250302
20
87.816099373619807
10
-87.939556232503008
20
87.816099373619807
10
-87.939556232503008
20
69.316099373619821
10
-98.939556232503037
20
69.316099373619821
10
-98.939556232503037
20
62.716099373619812
10
-103.93955623250304
20
62.716099373619812
10
-103.93955623250304
20
69.316099373619821
0
LWPOLYLINE
5
106
100
AcDbEntity
8
0
100
AcDbPolyline
90
8
70
1
43
0.0
10
-87.939556232503008
20
99.316099373619821
10
-87.939556232503008
20
117.81609937361981
10
-114.93955623250302
20
117.81609937361981
10
-114.93955623250302
20
99.316099373619821
10
-103.93955623250304
20
99.316099373619821
10
-103.93955623250304
20
92.716099373619812
10
-98.939556232503037
20
92.716099373619812
10
-98.939556232503037
20
99.316099373619821
0
LWPOLYLINE
5
107
100
AcDbEntity
8
0
100
AcDbPolyline
90
12
70
1
43
0.0
10
-72.5
20
98.716099373619812
10
-67.5
20
98.716099373619812
10
-67.5
20
105.31609937361981
10
-56.5
20
105.31609937361981
10
-56.5
20
127.81609937361981
10
-68
20
127.81609937361981
10
-67.999999999999986
20
121.21609937361981
10
-72
20
121.21609937361981
10
-72
20
127.81609937361981
10
-83.500000000000014
20
127.81609937361981
10
-83.500000000000014
20
105.31609937361981
10
-72.5
20
105.31609937361981
0
LINE
5
108
100
AcDbEntity
8
0
100
AcDbLine
10
-85
20
46.499999999999993
30
0
11
-78.400000000000006
21
46.499999999999993
31
0
0
LINE
5
109
100
AcDbEntity
8
0
100
AcDbLine
10
-78.400000000000006
20
41.499999999999993
30
0
11
-85
21
41.499999999999993
31
0
0
LINE
5
110
100
AcDbEntity
8
0
100
AcDbLine
10
-85
20
46.499999999999993
30
0
11
-85
21
57.5
31
0
0
LINE
5
111
100
AcDbEntity
8
0
100
AcDbLine
10
-85
20
41.499999999999993
30
0
11
-85
21
30.5
31
0
0
LINE
5
112
100
AcDbEntity
8
0
100
AcDbLine
10
-106.50000000000003
20
42
30
0
11
-106.50000000000003
21
30.500000000000007
31
0
0
LINE
5
113
100
AcDbEntity
8
0
100
AcDbLine
10
-100
20
45.999999999999986
30
0
11
-100
21
42
31
0
0
LINE
5
114
100
AcDbEntity
8
0
100
AcDbLine
10
-106.50000000000003
20
57.5
30
0
11
-106.50000000000003
21
45.999999999999986
31
0
0
LINE
5
115
100
AcDbEntity
8
0
100
AcDbLine
10
-100
20
57.5
30
0
11
-106.50000000000003
21
57.5
31
0
0
LINE
5
116
100
AcDbEntity
8
0
100
AcDbLine
10
-85
20
57.5
30
0
11
-100
21
57.5
31
0
0
LINE
5
117
100
AcDbEntity
8
0
100
AcDbLine
10
-85
20
30.5
30
0
11
-100
21
30.5
31
0
0
LINE
5
118
100
AcDbEntity
8
0
100
AcDbLine
10
-100
20
42
30
0
11
-106.50000000000003
21
42
31
0
0
LINE
5
119
100
AcDbEntity
8
0
100
AcDbLine
10
-100
20
45.999999999999986
30
0
11
-106.50000000000003
21
45.999999999999986
31
0
0
LINE
5
120
100
AcDbEntity
8
0
100
AcDbLine
10
-106.50000000000003
20
30.500000000000007
30
0
11
-100
21
30.5
31
0
0
LWPOLYLINE
5
121
100
AcDbEntity
8
0
100
AcDbPolyline
90
14
70
1
43
0.0
10
-55
20
57.5
10
-55
20
46.499999999999993
10
-48.399999999999999
20
46.499999999999993
10
-48.399999999999999
20
41.499999999999993
10
-55
20
41.499999999999993
10
-55
20
30.5
10
-70
20
30.5
10
-76.500000000000028
20
30.500000000000007
10
-76.500000000000028
20
42
10
-70
20
42
10
-70
20
45.999999999999986
10
-76.500000000000028
20
45.999999999999986
10
-76.500000000000028
20
57.5
10
-70
20
57.5
0
LINE
5
122
100
AcDbEntity
8
0
100
AcDbLine
10
-70
20
57.5
30
0
11
-76.500000000000028
21
57.5
31
0
0
LINE
5
123
100
AcDbEntity
8
0
100
AcDbLine
10
-55
20
46.499999999999993
30
0
11
-55
21
57.5
31
0
0
LINE
5
124
100
AcDbEntity
8
0
100
AcDbLine
10
-76.500000000000028
20
57.5
30
0
11
-76.500000000000028
21
45.999999999999986
31
0
0
LINE
5
125
100
AcDbEntity
8
0
100
AcDbLine
10
-70
20
45.999999999999986
30
0
11
-70
21
42
31
0
0
LINE
5
126
100
AcDbEntity
8
0
100
AcDbLine
10
-70
20
42
30
0
11
-76.500000000000028
21
42
31
0
0
LINE
5
127
100
AcDbEntity
8
0
100
AcDbLine
10
-55
20
41.499999999999993
30
0
11
-55
21
30.5
31
0
0
LINE
5
128
100
AcDbEntity
8
0
100
AcDbLine
10
-70
20
45.999999999999986
30
0
11
-76.500000000000028
21
45.999999999999986
31
0
0
LINE
5
129
100
AcDbEntity
8
0
100
AcDbLine
10
-55
20
30.5
30
0
11
-70
21
30.5
31
0
0
LINE
5
130
100
AcDbEntity
8
0
100
AcDbLine
10
-76.500000000000028
20
30.500000000000007
30
0
11
-70
21
30.5
31
0
0
LINE
5
131
100
AcDbEntity
8
0
100
AcDbLine
10
-76.500000000000028
20
42
30
0
11
-76.500000000000028
21
30.500000000000007
31
0
0
LINE
5
132
100
AcDbEntity
8
0
100
AcDbLine
10
-55
20
57.5
30
0
11
-70
21
57.5
31
0
0
LINE
5
133
100
AcDbEntity
8
0
100
AcDbLine
10
-48.399999999999999
20
41.499999999999993
30
0
11
-55
21
41.499999999999993
31
0
0
LINE
5
134
100
AcDbEntity
8
0
100
AcDbLine
10
-55
20
46.499999999999993
30
0
11
-48.399999999999999
21
46.499999999999993
31
0
0
LWPOLYLINE
5
135
100
AcDbEntity
8
0
100
AcDbPolyline
90
6
70
1
43
0.0
10
-124.80000000000001
20
95.5
10
-131.40000000000001
20
95.5
10
-132.02613645756625
20
95.5
42
4.7912878474779097
10
-132.02613645756625
20
89.5
10
-131.40000000000001
20
89.5
10
-124.80000000000001
20
89.5
0
LWPOLYLINE
5
136
100
AcDbEntity
8
0
100
AcDbPolyline
90
6
70
1
43
0.0
10
-124.80000000000001
20
115.5
10
-131.40000000000001
20
115.5
10
-132.02613645756625
20
115.5
42
4.7912878474779097
10
-132.02613645756625
20
109.5
10
-131.40000000000001
20
109.5
10
-124.80000000000001
20
109.5
0
LWPOLYLINE
5
137
100
AcDbEntity
8
0
100
AcDbPolyline
90
6
70
1
43
0.0
10
-154.80000000000001
20
95.5
10
-161.40000000000001
20
95.5
10
-162.02613645756625
20
95.5
42
4.7912878474779097
10
-162.02613645756625
20
89.5
10
-161.40000000000001
20
89.5
10
-154.80000000000001
20
89.5
0
LWPOLYLINE
5
138
100
AcDbEntity
8
0
100
AcDbPolyline
90
6
70
1
43
0.0
10
-162.02613645756625
20
109.5
10
-161.40000000000001
20
109.5
10
-154.80000000000001
20
109.5
10
-154.80000000000001
20
115.5
10
-161.40000000000001
20
115.5
10
-162.02613645756625
20
115.5
42
4.7912878474779097
0
ENDSEC
0
SECTION
2
OBJECTS
0
DICTIONARY
5
C
100
AcDbDictionary
3
ACAD_GROUP
350
D
3
ACAD_MLINESTYLE
350
17
0
DICTIONARY
5
D
100
AcDbDictionary
0
DICTIONARY
5
1A
330
C
100
AcDbDictionary
0
DICTIONARY
5
17
100
AcDbDictionary
0
ENDSEC
0
EOF
