0
SECTION
2
HEADER
9
$INSUNITS
70
4
9
$ACADVER
1
AC1014
9
$HANDSEED
5
FFFF
0
ENDSEC
0
SECTION
2
TABLES
0
TABLE
2
VPORT
5
8
100
AcDbSymbolTable
0
ENDTAB
0
TABLE
2
LTYPE
5
5
100
AcDbSymbolTable
0
LTYPE
5
14
100
AcDbSymbolTableRecord
100
AcDbLinetypeTableRecord
2
BYBLOCK
70
0
0
LTYPE
5
15
100
AcDbSymbolTableRecord
100
AcDbLinetypeTableRecord
2
BYLAYER
70
0
0
ENDTAB
0
TABLE
2
LAYER
5
2
100
AcDbSymbolTable
70
2
0
LAYER
5
50
100
AcDbSymbolTableRecord
100
AcDbLayerTableRecord
2
0
70
0
6
CONTINUOUS
0
ENDTAB
0
TABLE
2
STYLE
5
3
100
AcDbSymbolTable
70
1
0
STYLE
5
11
100
AcDbSymbolTableRecord
100
AcDbTextStyleTableRecord
2
STANDARD
70
0
0
ENDTAB
0
TABLE
2
VIEW
5
6
100
AcDbSymbolTable
70
0
0
ENDTAB
0
TABLE
2
UCS
5
7
100
AcDbSymbolTable
70
0
0
ENDTAB
0
TABLE
2
APPID
5
9
100
AcDbSymbolTable
70
2
0
APPID
5
12
100
AcDbSymbolTableRecord
100
AcDbRegAppTableRecord
2
ACAD
70
0
0
ENDTAB
0
TABLE
2
DIMSTYLE
5
A
100
AcDbSymbolTable
70
1
0
ENDTAB
0
TABLE
2
BLOCK_RECORD
5
1
100
AcDbSymbolTable
70
1
0
BLOCK_RECORD
5
1F
100
AcDbSymbolTableRecord
100
AcDbBlockTableRecord
2
*MODEL_SPACE
0
BLOCK_RECORD
5
1B
100
AcDbSymbolTableRecord
100
AcDbBlockTableRecord
2
*PAPER_SPACE
0
ENDTAB
0
ENDSEC
0
SECTION
2
BLOCKS
0
BLOCK
5
20
100
AcDbEntity
100
AcDbBlockBegin
2
*MODEL_SPACE
0
ENDBLK
5
21
100
AcDbEntity
100
AcDbBlockEnd
0
BLOCK
5
1C
100
AcDbEntity
100
AcDbBlockBegin
2
*PAPER_SPACE
0
ENDBLK
5
1D
100
AcDbEntity
100
AcDbBlockEnd
0
ENDSEC
0
SECTION
2
ENTITIES
0
CIRCLE
5
100
100
AcDbEntity
8
0
100
AcDbCircle
10
-1440.4921183365359
20
1301.5498495326244
30
0
40
10.495630140987002
0
LWPOLYLINE
5
101
100
AcDbEntity
8
0
100
AcDbPolyline
90
12
70
1
43
0.0
10
-1179.3921183365358
20
901.54984953262397
10
-1179.3921183365358
20
881.54984953262397
10
-1493.3921183365362
20
881.54984953262397
10
-1493.392118336536
20
901.54984953262397
10
-1511.3921183365358
20
901.54984953262397
10
-1511.392118336536
20
921.54984953262397
10
-1493.3921183365362
20
921.54984953262419
10
-1493.392118336536
20
1331.5498495326244
10
-1179.3921183365358
20
1331.5498495326242
10
-1179.3921183365358
20
921.54984953262397
10
-1161.3921183365355
20
921.54984953262397
10
-1161.3921183365355
20
901.54984953262397
0
LWPOLYLINE
5
102
100
AcDbEntity
8
0
100
AcDbPolyline
90
12
70
1
43
0.0
10
-1179.3921183365358
20
921.54984953262419
10
-1179.3921183365358
20
1331.5498495326244
10
-1493.3921183365362
20
1331.5498495326244
10
-1493.3921183365362
20
921.54984953262397
10
-1511.3921183365358
20
921.54984953262397
10
-1511.392118336536
20
901.54984953262397
10
-1493.3921183365362
20
901.54984953262397
10
-1493.392118336536
20
881.54984953262397
10
-1179.3921183365358
20
881.54984953262397
10
-1179.3921183365358
20
901.54984953262397
10
-1161.3921183365355
20
901.54984953262397
10
-1161.3921183365355
20
921.54984953262397
0
LINE
5
103
100
AcDbEntity
8
0
100
AcDbLine
10
-1036.3921183365358
20
845.54984953262431
30
0
11
-1036.1921183365357
21
978.54984953262431
31
0
0
LINE
5
104
100
AcDbEntity
8
0
100
AcDbLine
10
-1018.3921183365358
20
1331.5498495326244
30
0
11
-1018.3921183365358
21
845.54984953262442
31
0
0
LINE
5
105
100
AcDbEntity
8
0
100
AcDbLine
10
-1018.3921183365358
20
845.54984953262442
30
0
11
-1036.3921183365358
21
845.54984953262431
31
0
0
LWPOLYLINE
5
106
100
AcDbEntity
8
0
100
AcDbPolyline
90
8
70
1
43
0.0
10
-1036.1921183365357
20
978.54984953262431
10
-1054.3921183365358
20
978.54984953262431
10
-1054.3921183365358
20
1198.5498495326242
10
-1036.1921183365357
20
1198.5498495326244
10
-1036.3921183365358
20
1331.5498495326244
10
-1018.3921183365358
20
1331.5498495326244
10
-1018.3921183365358
20
845.54984953262431
10
-1036.3921183365358
20
845.54984953262442
0
LWPOLYLINE
5
107
100
AcDbEntity
8
0
100
AcDbPolyline
90
8
70
1
43
0.0
10
-936.19211833653549
20
978.54984953262431
10
-954.39211833653542
20
978.54984953262431
10
-954.39211833653542
20
1198.5498495326242
10
-936.19211833653549
20
1198.5498495326244
10
-936.39211833653553
20
1331.5498495326244
10
-918.39211833653553
20
1331.5498495326244
10
-918.39211833653553
20
845.54984953262431
10
-936.39211833653553
20
845.54984953262442
0
LWPOLYLINE
5
108
100
AcDbEntity
8
0
100
AcDbPolyline
90
4
70
1
43
0.0
10
-845.49211833653567
20
1306.5498495326244
10
-845.49211833653567
20
1296.5498495326244
10
-827.29211833653585
20
1296.5498495326244
10
-827.29211833653585
20
1306.5498495326244
0
CIRCLE
5
109
100
AcDbEntity
8
0
100
AcDbCircle
10
-836.39211833653576
20
1301.5498495326244
30
0
40
30
0
LWPOLYLINE
5
110
100
AcDbEntity
8
0
100
AcDbPolyline
90
8
70
1
43
0.0
10
-662.39211833653553
20
1316.5498495326244
10
-600.39211833653565
20
1316.5498495326244
10
-600.39211833653553
20
1306.5498495326244
10
-672.39211833653576
20
1306.5498495326244
10
-672.39211833653576
20
1329.0498495326244
42
-0.41421356237311169
10
-669.89211833653553
20
1331.5498495326244
10
-664.89211833653553
20
1331.5498495326244
42
-0.41421356237309503
10
-662.39211833653553
20
1329.0498495326244
0
LWPOLYLINE
5
111
100
AcDbEntity
8
0
100
AcDbPolyline
90
8
70
1
43
0.0
10
-517.39211833653565
20
1311.5498495326244
10
-517.39211833653565
20
1301.5498495326244
10
-555.39211833653565
20
1301.5498495326244
10
-555.39211833653565
20
1326.5498495326244
42
-0.41421356237309503
10
-550.39211833653565
20
1331.5498495326244
10
-540.39211833653565
20
1331.5498495326244
42
-0.4142135623730992
10
-535.39211833653565
20
1326.5498495326244
10
-535.39211833653565
20
1311.5498495326244
0
LWPOLYLINE
5
112
100
AcDbEntity
8
0
100
AcDbPolyline
90
68
70
1
43
0.0
10
-1911.4921183365357
20
996.54984953262431
10
-1911.4921183365357
20
1026.5498495326242
10
-1893.2921183365356
20
1026.5498495326242
10
-1893.2921183365356
20
1091.5498495326242
10
-1911.4921183365357
20
1091.5498495326242
10
-1911.4921183365357
20
1121.5498495326242
10
-1893.2921183365356
20
1121.5498495326242
10
-1893.2921183365356
20
1186.5498495326242
10
-1911.4921183365357
20
1186.5498495326242
10
-1911.4921183365357
20
1216.5498495326242
10
-1893.2921183365356
20
1216.5498495326244
10
-1893.2921183365356
20
1281.5498495326244
10
-1911.4921183365357
20
1281.5498495326244
10
-1911.4921183365357
20
1311.5498495326244
10
-1893.2921183365356
20
1311.5498495326244
10
-1893.2921183365361
20
1331.5498495326244
10
-1851.5921183365363
20
1331.5498495326244
10
-1851.5921183365358
20
1313.5498495326242
10
-1821.3921183365358
20
1313.5498495326242
10
-1821.392118336536
20
1331.5498495326244
10
-1751.5921183365363
20
1331.5498495326244
10
-1751.5921183365358
20
1313.5498495326242
10
-1721.3921183365358
20
1313.5498495326242
10
-1721.3921183365358
20
1331.5498495326244
10
-1651.3921183365358
20
1331.5498495326244
10
-1651.392118336536
20
1313.5498495326242
10
-1621.1921183365359
20
1313.5498495326242
10
-1621.1921183365357
20
1331.5498495326244
10
-1579.4921183365359
20
1331.5498495326244
10
-1579.4921183365359
20
1311.5498495326244
10
-1561.2921183365359
20
1311.5498495326244
10
-1561.2921183365359
20
1281.5498495326244
10
-1579.4921183365359
20
1281.5498495326244
10
-1579.4921183365359
20
1216.5498495326242
10
-1561.2921183365359
20
1216.5498495326242
10
-1561.2921183365359
20
1186.5498495326242
10
-1579.4921183365359
20
1186.5498495326242
10
-1579.4921183365359
20
1121.5498495326242
10
-1561.2921183365359
20
1121.5498495326242
10
-1561.2921183365359
20
1091.5498495326242
10
-1579.4921183365359
20
1091.5498495326242
10
-1579.4921183365359
20
1026.5498495326242
10
-1561.2921183365359
20
1026.549849532624
10
-1561.2921183365359
20
996.54984953262397
10
-1579.4921183365359
20
996.54984953262397
10
-1579.4921183365359
20
931.54984953262397
10
-1561.2921183365359
20
931.54984953262397
10
-1561.2921183365359
20
901.54984953262397
10
-1579.4921183365359
20
901.54984953262397
10
-1579.4921183365361
20
881.54984953262397
10
-1621.1921183365359
20
881.54984953262397
10
-1621.1921183365357
20
899.54984953262408
10
-1651.3921183365358
20
899.54984953262408
10
-1651.3921183365358
20
881.54984953262397
10
-1721.3921183365358
20
881.54984953262397
10
-1721.3921183365358
20
899.54984953262408
10
-1751.5921183365356
20
899.54984953262385
10
-1751.5921183365356
20
881.54984953262397
10
-1821.3921183365358
20
881.54984953262397
10
-1821.3921183365358
20
899.54984953262385
10
-1851.5921183365356
20
899.54984953262385
10
-1851.5921183365356
20
881.54984953262397
10
-1893.2921183365356
20
881.54984953262397
10
-1893.2921183365356
20
901.54984953262397
10
-1911.4921183365357
20
901.54984953262397
10
-1911.4921183365357
20
931.54984953262397
10
-1893.2921183365356
20
931.54984953262397
10
-1893.2921183365356
20
996.54984953262397
0
LWPOLYLINE
5
113
100
AcDbEntity
8
0
100
AcDbPolyline
90
8
70
1
43
0.0
10
-2256.135365460254
20
910.52283802749685
10
-2361.3921183365355
20
1331.5498495326244
10
-2271.6867587004645
20
1331.5498495326244
10
-2191.4300058241824
20
1010.522838027497
10
-2078.8915268268247
20
1010.522838027497
10
-1998.6347739505431
20
1331.5498495326244
10
-1911.3921183365358
20
1331.5498495326242
10
-2016.6488712128175
20
910.52283802749673
0
LWPOLYLINE
5
114
100
AcDbEntity
8
0
100
AcDbPolyline
90
4
70
1
43
0.0
10
-2081.3542308488886
20
946.52283802749662
10
-2191.3542308488886
20
946.52283802749662
10
-2191.3542308488886
20
928.5228380274965
10
-2081.3542308488886
20
928.5228380274965
0
LWPOLYLINE
5
115
100
AcDbEntity
8
0
100
AcDbPolyline
90
4
70
1
43
0.0
10
-1992.5921183365358
20
1260.5228380274971
10
-1962.392118336536
20
1260.5228380274971
10
-1962.392118336536
20
1278.7228380274969
10
-1992.5921183365358
20
1278.7228380274969
0
LWPOLYLINE
5
116
100
AcDbEntity
8
0
100
AcDbPolyline
90
4
70
1
43
0.0
10
-2310.3921183365355
20
1260.5228380274971
10
-2280.1921183365357
20
1260.5228380274971
10
-2280.1921183365357
20
1278.7228380274969
10
-2310.3921183365355
20
1278.7228380274969
0
LWPOLYLINE
5
117
100
AcDbEntity
8
0
100
AcDbPolyline
90
4
70
1
43
0.0
10
-2043.3921183365355
20
946.52283802749662
10
-2043.3921183365355
20
964.52283802749673
10
-2061.3921183365355
20
964.52283802749673
10
-2061.3921183365355
20
946.52283802749662
0
LWPOLYLINE
5
118
100
AcDbEntity
8
0
100
AcDbPolyline
90
4
70
1
43
0.0
10
-2229.4921183365359
20
946.42283802749671
10
-2211.2921183365361
20
946.42283802749671
10
-2211.2921183365361
20
964.62283802749664
10
-2229.4921183365359
20
964.62283802749664
0
LWPOLYLINE
5
119
100
AcDbEntity
8
0
100
AcDbPolyline
90
40
70
1
43
0.0
10
-1531.7921183365356
20
499.34984953262443
10
-1618.7921183365359
20
499.34984953262443
10
-1618.7921183365359
20
481.1498495326245
10
-1648.7921183365359
20
481.1498495326245
10
-1648.7921183365361
20
499.34984953262443
10
-1802.7921183365361
20
499.34984953262443
10
-1802.7921183365361
20
481.1498495326245
10
-1832.7921183365361
20
481.1498495326245
10
-1832.7921183365361
20
499.34984953262443
10
-1922.7921183365361
20
499.3498495326246
10
-1922.7921183365361
20
541.3498495326246
10
-1940.9921183365361
20
541.3498495326246
10
-1940.9921183365361
20
571.3498495326246
10
-1922.7921183365361
20
571.3498495326246
10
-1922.7921183365361
20
641.3498495326246
10
-1940.9921183365361
20
641.3498495326246
10
-1940.9921183365361
20
671.3498495326246
10
-1922.7921183365361
20
671.3498495326246
10
-1922.7921183365361
20
741.34984953262472
10
-1940.9921183365361
20
741.34984953262472
10
-1940.9921183365361
20
771.34984953262472
10
-1922.7921183365361
20
771.34984953262472
10
-1922.7921183365359
20
813.3498495326246
10
-1863.2921183365356
20
813.3498495326246
10
-1863.2921183365356
20
831.54984953262453
10
-1833.2921183365356
20
831.54984953262453
10
-1833.2921183365356
20
813.3498495326246
10
-1808.8921183365358
20
813.3498495326246
10
-1808.8921183365358
20
795.24984953262458
10
-1790.6921183365357
20
795.24984953262458
10
-1790.6921183365357
20
813.3498495326246
10
-1640.7921183365356
20
813.3498495326246
10
-1640.7921183365361
20
795.34984953262449
10
-1622.7921183365361
20
795.34984953262449
10
-1622.7921183365359
20
813.3498495326246
10
-1618.2921183365356
20
813.3498495326246
10
-1618.2921183365356
20
831.54984953262453
10
-1588.2921183365356
20
831.54984953262453
10
-1588.2921183365361
20
813.3498495326246
10
-1531.7921183365361
20
813.3498495326246
0
LWPOLYLINE
5
120
100
AcDbEntity
8
0
100
AcDbPolyline
90
4
70
1
43
0.0
10
-1552.7921183365361
20
753.3498495326246
10
-1542.7921183365361
20
753.3498495326246
10
-1542.7921183365361
20
763.3498495326246
10
-1552.7921183365361
20
763.3498495326246
0
LWPOLYLINE
5
121
100
AcDbEntity
8
0
100
AcDbPolyline
90
40
70
1
43
0.0
10
-1239.7921183365359
20
-0.050150467375686958
10
-1393.7921183365359
20
-0.050150467375686958
10
-1393.7921183365359
20
-18.25015046737569
10
-1423.7921183365359
20
-18.250150467375697
10
-1423.7921183365359
20
-0.050150467375686958
10
-1513.7921183365359
20
-0.050150467375704721
10
-1513.7921183365359
20
41.949849532624341
10
-1531.9921183365359
20
41.949849532624327
10
-1531.9921183365359
20
71.949849532624341
10
-1513.7921183365359
20
71.949849532624313
10
-1513.7921183365359
20
141.94984953262434
10
-1531.9921183365359
20
141.94984953262431
10
-1531.9921183365359
20
171.94984953262434
10
-1513.7921183365359
20
171.94984953262446
10
-1513.7921183365359
20
241.94984953262448
10
-1531.9921183365359
20
241.94984953262448
10
-1531.9921183365359
20
271.94984953262451
10
-1513.7921183365359
20
271.94984953262451
10
-1513.7921183365356
20
313.94984953262451
10
-1454.2921183365354
20
313.94984953262451
10
-1454.2921183365354
20
332.14984953262444
10
-1424.2921183365354
20
332.14984953262444
10
-1424.2921183365354
20
313.94984953262451
10
-1399.8921183365355
20
313.94984953262451
10
-1399.8921183365355
20
295.84984953262449
10
-1381.6921183365355
20
295.84984953262449
10
-1381.6921183365355
20
313.94984953262451
10
-1231.7921183365352
20
313.94984953262451
10
-1231.7921183365352
20
295.94984953262451
10
-1213.7921183365354
20
295.94984953262451
10
-1213.7921183365354
20
313.94984953262451
10
-1209.2921183365352
20
313.94984953262451
10
-1209.2921183365352
20
332.14984953262444
10
-1179.2921183365352
20
332.14984953262444
10
-1179.2921183365352
20
313.94984953262451
10
-1140.7921183365354
20
313.94984953262451
10
-1140.7921183365354
20
-0.050150467375686958
10
-1209.7921183365354
20
-0.050150467375678076
10
-1209.7921183365354
20
-18.25015046737569
10
-1239.7921183365354
20
-18.250150467375697
0
LWPOLYLINE
5
122
100
AcDbEntity
8
0
100
AcDbPolyline
90
4
70
1
43
0.0
10
-1811.2921183365359
20
331.56335528518838
10
-1829.4921183365359
20
331.56335528518838
10
-1829.4921183365359
20
313.36335528518845
10
-1811.2921183365359
20
313.36335528518845
0
LWPOLYLINE
5
123
100
AcDbEntity
8
0
100
AcDbPolyline
90
4
70
1
43
0.0
10
-1643.3921183365362
20
313.46335528518836
10
-1643.3921183365362
20
331.46335528518847
10
-1661.3921183365358
20
331.46335528518847
10
-1661.392118336536
20
313.46335528518836
0
LWPOLYLINE
5
124
100
AcDbEntity
8
0
100
AcDbPolyline
90
4
70
1
43
0.0
10
-1880.1921183365359
20
17.4633552851882
10
-1910.392118336536
20
17.4633552851882
10
-1910.3921183365358
20
-0.73664471481180271
10
-1880.1921183365357
20
-0.7366447148118116
0
LWPOLYLINE
5
125
100
AcDbEntity
8
0
100
AcDbPolyline
90
4
70
1
43
0.0
10
-1562.3921183365358
20
17.4633552851882
10
-1592.5921183365358
20
17.4633552851882
10
-1592.592118336536
20
-0.73664471481180271
10
-1562.392118336536
20
-0.7366447148118116
0
LWPOLYLINE
5
126
100
AcDbEntity
8
0
100
AcDbPolyline
90
4
70
1
43
0.0
10
-1791.3542308488888
20
331.46335528518847
10
-1681.3542308488888
20
331.46335528518847
10
-1681.3542308488888
20
349.4633552851883
10
-1791.3542308488888
20
349.4633552851883
0
LWPOLYLINE
5
127
100
AcDbEntity
8
0
100
AcDbPolyline
90
8
70
1
43
0.0
10
-1961.3921183365358
20
-53.563656219939304
10
-1856.135365460254
20
367.46335528518841
10
-1616.6488712128175
20
367.46335528518841
10
-1511.3921183365358
20
-53.563656219939304
10
-1598.6347739505431
20
-53.563656219939233
10
-1678.8915268268249
20
267.46335528518841
10
-1791.4300058241827
20
267.46335528518836
10
-1871.6867587004645
20
-53.563656219939233
0
LWPOLYLINE
5
128
100
AcDbEntity
8
0
100
AcDbPolyline
90
48
70
1
43
0.0
10
-1943.1921183365364
20
-486.3501504673759
10
-1961.3921183365364
20
-486.3501504673759
10
-1961.3921183365364
20
-421.55015046737594
10
-1943.1921183365364
20
-421.55015046737594
10
-1943.1921183365364
20
-391.3501504673759
10
-1961.3921183365364
20
-391.3501504673759
10
-1961.3921183365364
20
-326.55015046737589
10
-1943.1921183365364
20
-326.55015046737589
10
-1943.1921183365364
20
-296.35015046737584
10
-1961.3921183365364
20
-296.3501504673759
10
-1961.3921183365364
20
-231.55015046737583
10
-1943.1921183365364
20
-231.55015046737583
10
-1943.1921183365364
20
-201.35015046737578
10
-1961.3921183365364
20
-201.35015046737576
10
-1961.3921183365364
20
-136.55015046737574
10
-1943.1921183365364
20
-136.55015046737577
10
-1943.1921183365364
20
-106.35015046737571
10
-1961.3921183365364
20
-106.35015046737571
10
-1961.3921183365364
20
-86.450150467375764
10
-1883.8921183365364
20
-86.450150467375764
10
-1883.8921183365364
20
-104.45015046737574
10
-1853.8921183365364
20
-104.45015046737574
10
-1853.8921183365364
20
-86.450150467375764
10
-1791.3542308488895
20
-86.450150467375764
10
-1791.3542308488895
20
-68.450150467375792
10
-1681.3542308488895
20
-68.450150467375778
10
-1681.3542308488895
20
-86.450150467375764
10
-1638.8921183365364
20
-86.450150467375764
10
-1638.8921183365364
20
-104.45015046737574
10
-1608.8921183365364
20
-104.45015046737574
10
-1608.8921183365364
20
-86.450150467375764
10
-1511.3921183365364
20
-86.450150467375764
10
-1511.3921183365364
20
-536.45015046737603
10
-1608.8921183365364
20
-536.45015046737603
10
-1608.8921183365364
20
-518.45015046737603
10
-1638.8921183365364
20
-518.45015046737603
10
-1638.8921183365364
20
-536.45015046737603
10
-1681.3542308488895
20
-536.45015046737603
10
-1681.3542308488895
20
-554.45015046737592
10
-1791.3542308488895
20
-554.45015046737592
10
-1791.3542308488895
20
-536.45015046737603
10
-1853.8921183365364
20
-536.45015046737603
10
-1853.8921183365364
20
-518.45015046737603
10
-1883.8921183365364
20
-518.45015046737603
10
-1883.8921183365364
20
-536.45015046737603
10
-1961.3921183365364
20
-536.45015046737603
10
-1961.3921183365364
20
-516.55015046737606
10
-1943.1921183365364
20
-516.55015046737594
0
CIRCLE
5
129
100
AcDbEntity
8
0
100
AcDbCircle
10
-1540.3921183365367
20
-506.45015046737598
30
0
40
14.000000000000007
0
LWPOLYLINE
5
130
100
AcDbEntity
8
0
100
AcDbPolyline
90
4
70
1
43
0.0
10
-1829.4921183365364
20
-421.55015046737589
10
-1811.2921183365365
20
-421.55015046737589
10
-1811.2921183365365
20
-201.35015046737578
10
-1829.4921183365364
20
-201.35015046737576
0
LWPOLYLINE
5
131
100
AcDbEntity
8
0
100
AcDbPolyline
90
4
70
1
43
0.0
10
-1643.2921183365365
20
-201.35015046737578
10
-1661.4921183365368
20
-201.35015046737578
10
-1661.4921183365366
20
-421.55015046737589
10
-1643.2921183365363
20
-421.55015046737589
0
CIRCLE
5
132
100
AcDbEntity
8
0
100
AcDbCircle
10
-1540.3921183365367
20
-1006.450150467376
30
0
40
14.000000000000007
0
LWPOLYLINE
5
133
100
AcDbEntity
8
0
100
AcDbPolyline
90
48
70
1
43
0.0
10
-1910.3921183365367
20
-568.45015046737569
10
-1880.3921183365367
20
-568.45015046737569
10
-1880.3921183365367
20
-586.45015046737569
10
-1592.3921183365364
20
-586.45015046737569
10
-1592.3921183365364
20
-568.45015046737569
10
-1562.3921183365364
20
-568.45015046737569
10
-1562.3921183365362
20
-586.45015046737569
10
-1511.3921183365364
20
-586.45015046737581
10
-1511.3921183365367
20
-1036.450150467376
10
-1562.3921183365364
20
-1036.4501504673758
10
-1562.3921183365364
20
-1054.4501504673758
10
-1592.3921183365364
20
-1054.450150467376
10
-1592.3921183365362
20
-1036.450150467376
10
-1639.3921183365364
20
-1036.4501504673758
10
-1639.3921183365364
20
-1018.4501504673758
10
-1669.3921183365364
20
-1018.450150467376
10
-1669.3921183365364
20
-1036.450150467376
10
-1823.3921183365362
20
-1036.4501504673758
10
-1823.3921183365362
20
-1018.4501504673758
10
-1853.3921183365362
20
-1018.450150467376
10
-1853.3921183365364
20
-1036.450150467376
10
-1880.3921183365367
20
-1036.4501504673758
10
-1880.3921183365367
20
-1054.4501504673758
10
-1910.3921183365367
20
-1054.450150467376
10
-1910.3921183365364
20
-1036.450150467376
10
-1961.3921183365364
20
-1036.4501504673758
10
-1961.3921183365364
20
-1016.5501504673759
10
-1943.1921183365364
20
-1016.5501504673759
10
-1943.1921183365364
20
-986.35015046737578
10
-1961.3921183365364
20
-986.3501504673759
10
-1961.3921183365364
20
-921.55015046737594
10
-1943.1921183365364
20
-921.55015046737594
10
-1943.1921183365364
20
-891.35015046737578
10
-1961.3921183365364
20
-891.3501504673759
10
-1961.3921183365364
20
-826.55015046737594
10
-1943.1921183365364
20
-826.55015046737572
10
-1943.1921183365364
20
-796.35015046737578
10
-1961.3921183365364
20
-796.35015046737578
10
-1961.3921183365364
20
-731.55015046737572
10
-1943.1921183365364
20
-731.55015046737572
10
-1943.1921183365364
20
-701.35015046737567
10
-1961.3921183365364
20
-701.35015046737567
10
-1961.3921183365364
20
-636.55015046737572
10
-1943.1921183365364
20
-636.55015046737572
10
-1943.1921183365364
20
-606.35015046737567
10
-1961.3921183365364
20
-606.35015046737567
10
-1961.3921183365367
20
-586.45015046737569
10
-1910.3921183365367
20
-586.45015046737569
0
ENDSEC
0
SECTION
2
OBJECTS
0
DICTIONARY
5
C
100
AcDbDictionary
3
ACAD_GROUP
350
D
3
ACAD_MLINESTYLE
350
17
0
DICTIONARY
5
D
100
AcDbDictionary
0
DICTIONARY
5
1A
330
C
100
AcDbDictionary
0
DICTIONARY
5
17
100
AcDbDictionary
0
ENDSEC
0
EOF
