0
SECTION
2
HEADER
9
$INSUNITS
70
4
9
$ACADVER
1
AC1014
9
$HANDSEED
5
FFFF
0
ENDSEC
0
SECTION
2
TABLES
0
TABLE
2
VPORT
5
8
100
AcDbSymbolTable
0
ENDTAB
0
TABLE
2
LTYPE
5
5
100
AcDbSymbolTable
0
LTYPE
5
14
100
AcDbSymbolTableRecord
100
AcDbLinetypeTableRecord
2
BYBLOCK
70
0
0
LTYPE
5
15
100
AcDbSymbolTableRecord
100
AcDbLinetypeTableRecord
2
BYLAYER
70
0
0
ENDTAB
0
TABLE
2
LAYER
5
2
100
AcDbSymbolTable
70
2
0
LAYER
5
50
100
AcDbSymbolTableRecord
100
AcDbLayerTableRecord
2
0
70
0
6
CONTINUOUS
0
ENDTAB
0
TABLE
2
STYLE
5
3
100
AcDbSymbolTable
70
1
0
STYLE
5
11
100
AcDbSymbolTableRecord
100
AcDbTextStyleTableRecord
2
STANDARD
70
0
0
ENDTAB
0
TABLE
2
VIEW
5
6
100
AcDbSymbolTable
70
0
0
ENDTAB
0
TABLE
2
UCS
5
7
100
AcDbSymbolTable
70
0
0
ENDTAB
0
TABLE
2
APPID
5
9
100
AcDbSymbolTable
70
2
0
APPID
5
12
100
AcDbSymbolTableRecord
100
AcDbRegAppTableRecord
2
ACAD
70
0
0
ENDTAB
0
TABLE
2
DIMSTYLE
5
A
100
AcDbSymbolTable
70
1
0
ENDTAB
0
TABLE
2
BLOCK_RECORD
5
1
100
AcDbSymbolTable
70
1
0
BLOCK_RECORD
5
1F
100
AcDbSymbolTableRecord
100
AcDbBlockTableRecord
2
*MODEL_SPACE
0
BLOCK_RECORD
5
1B
100
AcDbSymbolTableRecord
100
AcDbBlockTableRecord
2
*PAPER_SPACE
0
ENDTAB
0
ENDSEC
0
SECTION
2
BLOCKS
0
BLOCK
5
20
100
AcDbEntity
100
AcDbBlockBegin
2
*MODEL_SPACE
0
ENDBLK
5
21
100
AcDbEntity
100
AcDbBlockEnd
0
BLOCK
5
1C
100
AcDbEntity
100
AcDbBlockBegin
2
*PAPER_SPACE
0
ENDBLK
5
1D
100
AcDbEntity
100
AcDbBlockEnd
0
ENDSEC
0
SECTION
2
ENTITIES
0
LWPOLYLINE
5
100
100
AcDbEntity
8
0
100
AcDbPolyline
90
4
70
1
43
0.0
10
3224.1622382025771
20
738.64452053831826
10
2824.1622382025771
20
738.64452053831826
10
2824.1622382025771
20
397.02952053831831
10
3224.1622382025771
20
397.02952053831831
0
LWPOLYLINE
5
101
100
AcDbEntity
8
0
100
AcDbPolyline
90
28
70
1
43
0.0
10
4660.9780791721414
20
486.18861936165723
10
4660.9780791721414
20
807.8036193616573
10
4605.9780791721414
20
807.8036193616573
10
4605.9780791721414
20
817.8036193616573
10
4545.9780791721414
20
817.8036193616573
10
4545.9780791721414
20
807.8036193616573
10
4490.9780791721414
20
807.8036193616573
10
4490.9780791721414
20
817.8036193616573
10
4430.9780791721414
20
817.8036193616573
10
4430.9780791721414
20
807.8036193616573
10
4375.9780791721414
20
807.8036193616573
10
4375.9780791721414
20
817.8036193616573
10
4315.9780791721414
20
817.8036193616573
10
4315.9780791721414
20
807.8036193616573
10
4260.9780791721414
20
807.8036193616573
10
4260.9780791721414
20
486.18861936165723
10
4315.9780791721414
20
486.18861936165723
10
4315.9780791721414
20
476.18861936165723
10
4375.9780791721414
20
476.18861936165723
10
4375.9780791721414
20
486.18861936165723
10
4430.9780791721414
20
486.18861936165723
10
4430.9780791721414
20
476.18861936165723
10
4490.9780791721414
20
476.18861936165723
10
4490.9780791721414
20
486.18861936165723
10
4545.9780791721414
20
486.18861936165723
10
4545.9780791721414
20
476.18861936165723
10
4605.9780791721414
20
476.18861936165723
10
4605.9780791721414
20
486.18861936165723
0
LWPOLYLINE
5
102
100
AcDbEntity
8
0
100
AcDbPolyline
90
4
70
1
43
0.0
10
4958.7055980996074
20
1884.2845221274051
10
2908.705598099607
20
1884.2845221274051
10
2908.705598099607
20
1484.2845221274051
10
4958.7055980996074
20
1484.2845221274051
0
LWPOLYLINE
5
103
100
AcDbEntity
8
0
100
AcDbPolyline
90
4
70
1
43
0.0
10
2933.705598099607
20
1829.2845221274051
10
2912.7055980996065
20
1829.2845221274051
10
2912.7055980996065
20
1769.2845221274051
10
2933.705598099607
20
1769.2845221274051
0
LWPOLYLINE
5
104
100
AcDbEntity
8
0
100
AcDbPolyline
90
4
70
1
43
0.0
10
2933.705598099607
20
1714.2845221274051
10
2912.7055980996065
20
1714.2845221274051
10
2912.7055980996065
20
1654.2845221274051
10
2933.705598099607
20
1654.2845221274051
0
LWPOLYLINE
5
105
100
AcDbEntity
8
0
100
AcDbPolyline
90
4
70
1
43
0.0
10
2933.705598099607
20
1599.2845221274051
10
2912.7055980996065
20
1599.2845221274051
10
2912.7055980996065
20
1539.2845221274051
10
2933.705598099607
20
1539.2845221274051
0
LWPOLYLINE
5
106
100
AcDbEntity
8
0
100
AcDbPolyline
90
4
70
1
43
0.0
10
4954.7055980996074
20
1829.2845221274051
10
4933.7055980996074
20
1829.2845221274051
10
4933.7055980996074
20
1769.2845221274051
10
4954.7055980996074
20
1769.2845221274051
0
LWPOLYLINE
5
107
100
AcDbEntity
8
0
100
AcDbPolyline
90
4
70
1
43
0.0
10
4954.7055980996074
20
1714.2845221274051
10
4933.7055980996074
20
1714.2845221274051
10
4933.7055980996074
20
1654.2845221274051
10
4954.7055980996074
20
1654.2845221274051
0
LWPOLYLINE
5
108
100
AcDbEntity
8
0
100
AcDbPolyline
90
4
70
1
43
0.0
10
4954.7055980996074
20
1599.2845221274051
10
4933.7055980996074
20
1599.2845221274051
10
4933.7055980996074
20
1539.2845221274051
10
4954.7055980996074
20
1539.2845221274051
0
LWPOLYLINE
5
109
100
AcDbEntity
8
0
100
AcDbPolyline
90
4
70
1
43
0.0
10
3337.9055980996072
20
1902.5792757545919
10
3316.9055980996068
20
1902.5792757545919
10
3316.9055980996068
20
1469.7165268410336
10
3337.9055980996072
20
1469.7165268410336
0
LWPOLYLINE
5
110
100
AcDbEntity
8
0
100
AcDbPolyline
90
4
70
1
43
0.0
10
3742.1055980996071
20
1897.8512804321033
10
3721.1055980996071
20
1897.8512804321033
10
3721.1055980996071
20
1461.5552294545853
10
3742.1055980996071
20
1461.5552294545853
0
LWPOLYLINE
5
111
100
AcDbEntity
8
0
100
AcDbPolyline
90
4
70
1
43
0.0
10
4146.3055980996078
20
1909.0794450732267
10
4125.3055980996069
20
1909.0794450732267
10
4125.3055980996069
20
1465.4213957713343
10
4146.3055980996078
20
1465.4213957713343
0
LWPOLYLINE
5
112
100
AcDbEntity
8
0
100
AcDbPolyline
90
4
70
1
43
0.0
10
4550.5055980996076
20
1909.4255580362305
10
4529.5055980996076
20
1909.4255580362305
10
4529.5055980996076
20
1457.8655266939975
10
4550.5055980996076
20
1457.8655266939975
0
LWPOLYLINE
5
113
100
AcDbEntity
8
0
100
AcDbPolyline
90
28
70
1
43
0.0
10
4660.9780791721414
20
-92.196380638342674
10
4605.9780791721414
20
-92.196380638342674
10
4605.9780791721414
20
-82.196380638342674
10
4545.9780791721414
20
-82.196380638342674
10
4545.9780791721414
20
-92.196380638342674
10
4490.9780791721414
20
-92.196380638342674
10
4490.9780791721414
20
-82.196380638342674
10
4430.9780791721414
20
-82.196380638342674
10
4430.9780791721414
20
-92.196380638342674
10
4375.9780791721414
20
-92.196380638342674
10
4375.9780791721414
20
-82.196380638342674
10
4315.9780791721414
20
-82.196380638342674
10
4315.9780791721414
20
-92.196380638342674
10
4260.9780791721414
20
-92.196380638342674
10
4260.9780791721414
20
-413.81138063834277
10
4315.9780791721414
20
-413.81138063834277
10
4315.9780791721414
20
-423.81138063834277
10
4375.9780791721414
20
-423.81138063834277
10
4375.9780791721414
20
-413.81138063834277
10
4430.9780791721414
20
-413.81138063834277
10
4430.9780791721414
20
-423.81138063834277
10
4490.9780791721414
20
-423.81138063834277
10
4490.9780791721414
20
-413.81138063834277
10
4545.9780791721414
20
-413.81138063834277
10
4545.9780791721414
20
-423.81138063834277
10
4605.9780791721414
20
-423.81138063834277
10
4605.9780791721414
20
-413.81138063834277
10
4660.9780791721414
20
-413.81138063834277
0
LWPOLYLINE
5
114
100
AcDbEntity
8
0
100
AcDbPolyline
90
4
70
1
43
0.0
10
4146.3055980996078
20
2165.4213957713346
10
4146.3055980996078
20
2609.0794450732265
10
4125.3055980996069
20
2609.0794450732265
10
4125.3055980996069
20
2165.4213957713346
0
LWPOLYLINE
5
115
100
AcDbEntity
8
0
100
AcDbPolyline
90
4
70
1
43
0.0
10
4954.7055980996074
20
2414.2845221274051
10
4933.7055980996074
20
2414.2845221274051
10
4933.7055980996074
20
2354.2845221274051
10
4954.7055980996074
20
2354.2845221274051
0
LWPOLYLINE
5
116
100
AcDbEntity
8
0
100
AcDbPolyline
90
4
70
1
43
0.0
10
4933.7055980996074
20
2469.2845221274051
10
4954.7055980996074
20
2469.2845221274051
10
4954.7055980996074
20
2529.2845221274051
10
4933.7055980996074
20
2529.2845221274051
0
LWPOLYLINE
5
117
100
AcDbEntity
8
0
100
AcDbPolyline
90
4
70
1
43
0.0
10
4954.7055980996074
20
2239.2845221274051
10
4954.7055980996074
20
2299.2845221274051
10
4933.7055980996074
20
2299.2845221274051
10
4933.7055980996074
20
2239.2845221274051
0
LWPOLYLINE
5
118
100
AcDbEntity
8
0
100
AcDbPolyline
90
4
70
1
43
0.0
10
3337.9055980996072
20
2169.7165268410336
10
3337.9055980996072
20
2602.5792757545919
10
3316.9055980996068
20
2602.5792757545919
10
3316.9055980996068
20
2169.7165268410336
0
LWPOLYLINE
5
119
100
AcDbEntity
8
0
100
AcDbPolyline
90
4
70
1
43
0.0
10
2908.705598099607
20
2584.2845221274051
10
2908.705598099607
20
2184.2845221274051
10
4958.7055980996074
20
2184.2845221274051
10
4958.7055980996074
20
2584.2845221274051
0
LWPOLYLINE
5
120
100
AcDbEntity
8
0
100
AcDbPolyline
90
4
70
1
43
0.0
10
4550.5055980996076
20
2609.4255580362305
10
4529.5055980996076
20
2609.4255580362305
10
4529.5055980996076
20
2157.8655266939977
10
4550.5055980996076
20
2157.8655266939977
0
LWPOLYLINE
5
121
100
AcDbEntity
8
0
100
AcDbPolyline
90
4
70
1
43
0.0
10
3742.1055980996071
20
2161.5552294545851
10
3742.1055980996071
20
2597.8512804321031
10
3721.1055980996071
20
2597.8512804321031
10
3721.1055980996071
20
2161.5552294545851
0
LWPOLYLINE
5
122
100
AcDbEntity
8
0
100
AcDbPolyline
90
4
70
1
43
0.0
10
2912.7055980996065
20
2529.2845221274051
10
2912.7055980996065
20
2469.2845221274051
10
2933.705598099607
20
2469.2845221274051
10
2933.705598099607
20
2529.2845221274051
0
LWPOLYLINE
5
123
100
AcDbEntity
8
0
100
AcDbPolyline
90
4
70
1
43
0.0
10
2933.705598099607
20
2239.2845221274051
10
2933.705598099607
20
2299.2845221274051
10
2912.7055980996065
20
2299.2845221274051
10
2912.7055980996065
20
2239.2845221274051
0
LWPOLYLINE
5
124
100
AcDbEntity
8
0
100
AcDbPolyline
90
4
70
1
43
0.0
10
2912.7055980996065
20
2414.2845221274051
10
2912.7055980996065
20
2354.2845221274051
10
2933.705598099607
20
2354.2845221274051
10
2933.705598099607
20
2414.2845221274051
0
LWPOLYLINE
5
125
100
AcDbEntity
8
0
100
AcDbPolyline
90
4
70
1
43
0.0
10
2824.1622382025771
20
-61.355479461681739
10
2824.1622382025771
20
-402.97047946168169
10
3224.1622382025771
20
-402.97047946168169
10
3224.1622382025771
20
-61.355479461681739
0
LWPOLYLINE
5
126
100
AcDbEntity
8
0
100
AcDbPolyline
90
4
70
1
43
0.0
10
2824.1622382025771
20
-661.35547946168174
10
2824.1622382025771
20
-1002.9704794616816
10
3224.1622382025771
20
-1002.9704794616816
10
3224.1622382025771
20
-661.35547946168174
0
LWPOLYLINE
5
127
100
AcDbEntity
8
0
100
AcDbPolyline
90
4
70
1
43
0.0
10
2824.1622382025771
20
-1461.3554794616816
10
2824.1622382025771
20
-1802.9704794616816
10
3224.1622382025771
20
-1802.9704794616816
10
3224.1622382025771
20
-1461.3554794616816
0
ENDSEC
0
SECTION
2
OBJECTS
0
DICTIONARY
5
C
100
AcDbDictionary
3
ACAD_GROUP
350
D
3
ACAD_MLINESTYLE
350
17
0
DICTIONARY
5
D
100
AcDbDictionary
0
DICTIONARY
5
1A
330
C
100
AcDbDictionary
0
DICTIONARY
5
17
100
AcDbDictionary
0
ENDSEC
0
EOF
