0
SECTION
2
HEADER
9
$INSUNITS
70
4
9
$ACADVER
1
AC1014
9
$HANDSEED
5
FFFF
0
ENDSEC
0
SECTION
2
TABLES
0
TABLE
2
VPORT
5
8
100
AcDbSymbolTable
0
ENDTAB
0
TABLE
2
LTYPE
5
5
100
AcDbSymbolTable
0
LTYPE
5
14
100
AcDbSymbolTableRecord
100
AcDbLinetypeTableRecord
2
BYBLOCK
70
0
0
LTYPE
5
15
100
AcDbSymbolTableRecord
100
AcDbLinetypeTableRecord
2
BYLAYER
70
0
0
ENDTAB
0
TABLE
2
LAYER
5
2
100
AcDbSymbolTable
70
2
0
LAYER
5
50
100
AcDbSymbolTableRecord
100
AcDbLayerTableRecord
2
0
70
0
6
CONTINUOUS
0
ENDTAB
0
TABLE
2
STYLE
5
3
100
AcDbSymbolTable
70
1
0
STYLE
5
11
100
AcDbSymbolTableRecord
100
AcDbTextStyleTableRecord
2
STANDARD
70
0
0
ENDTAB
0
TABLE
2
VIEW
5
6
100
AcDbSymbolTable
70
0
0
ENDTAB
0
TABLE
2
UCS
5
7
100
AcDbSymbolTable
70
0
0
ENDTAB
0
TABLE
2
APPID
5
9
100
AcDbSymbolTable
70
2
0
APPID
5
12
100
AcDbSymbolTableRecord
100
AcDbRegAppTableRecord
2
ACAD
70
0
0
ENDTAB
0
TABLE
2
DIMSTYLE
5
A
100
AcDbSymbolTable
70
1
0
ENDTAB
0
TABLE
2
BLOCK_RECORD
5
1
100
AcDbSymbolTable
70
1
0
BLOCK_RECORD
5
1F
100
AcDbSymbolTableRecord
100
AcDbBlockTableRecord
2
*MODEL_SPACE
0
BLOCK_RECORD
5
1B
100
AcDbSymbolTableRecord
100
AcDbBlockTableRecord
2
*PAPER_SPACE
0
ENDTAB
0
ENDSEC
0
SECTION
2
BLOCKS
0
BLOCK
5
20
100
AcDbEntity
100
AcDbBlockBegin
2
*MODEL_SPACE
0
ENDBLK
5
21
100
AcDbEntity
100
AcDbBlockEnd
0
BLOCK
5
1C
100
AcDbEntity
100
AcDbBlockBegin
2
*PAPER_SPACE
0
ENDBLK
5
1D
100
AcDbEntity
100
AcDbBlockEnd
0
ENDSEC
0
SECTION
2
ENTITIES
0
LWPOLYLINE
5
100
100
AcDbEntity
8
0
100
AcDbPolyline
90
4
70
1
43
0.0
10
4655.8621709160052
20
825.27099632778209
10
4222.6621709160045
20
825.27099632778209
10
4222.6621709160045
20
425.27099632778203
10
4655.8621709160052
20
425.27099632778203
0
LWPOLYLINE
5
101
100
AcDbEntity
8
0
100
AcDbPolyline
90
4
70
1
43
0.0
10
4247.6621709160045
20
770.27099632778209
10
4226.6621709160045
20
770.27099632778209
10
4226.6621709160045
20
710.27099632778209
10
4247.6621709160045
20
710.27099632778209
0
LWPOLYLINE
5
102
100
AcDbEntity
8
0
100
AcDbPolyline
90
4
70
1
43
0.0
10
4247.6621709160045
20
655.27099632778209
10
4226.6621709160045
20
655.27099632778209
10
4226.6621709160045
20
595.27099632778209
10
4247.6621709160045
20
595.27099632778209
0
LWPOLYLINE
5
103
100
AcDbEntity
8
0
100
AcDbPolyline
90
4
70
1
43
0.0
10
4247.6621709160045
20
540.27099632778209
10
4226.6621709160045
20
540.27099632778209
10
4226.6621709160045
20
480.27099632778203
10
4247.6621709160045
20
480.27099632778203
0
LWPOLYLINE
5
104
100
AcDbEntity
8
0
100
AcDbPolyline
90
4
70
1
43
0.0
10
4651.8621709160052
20
770.27099632778209
10
4630.8621709160052
20
770.27099632778209
10
4630.8621709160052
20
710.27099632778209
10
4651.8621709160052
20
710.27099632778209
0
LWPOLYLINE
5
105
100
AcDbEntity
8
0
100
AcDbPolyline
90
4
70
1
43
0.0
10
4651.8621709160052
20
655.27099632778209
10
4630.8621709160052
20
655.27099632778209
10
4630.8621709160052
20
595.27099632778209
10
4651.8621709160052
20
595.27099632778209
0
LWPOLYLINE
5
106
100
AcDbEntity
8
0
100
AcDbPolyline
90
4
70
1
43
0.0
10
4651.8621709160052
20
540.27099632778209
10
4630.8621709160052
20
540.27099632778209
10
4630.8621709160052
20
480.27099632778203
10
4651.8621709160052
20
480.27099632778203
0
LWPOLYLINE
5
107
100
AcDbEntity
8
0
100
AcDbPolyline
90
28
70
1
43
0.0
10
3747.4528749925589
20
1782.7708134048919
10
2740.6078749925587
20
1782.7708134048919
10
2740.6078749925587
20
1727.7708134048919
10
2730.6078749925587
20
1727.7708134048919
10
2730.6078749925587
20
1667.7708134048919
10
2740.6078749925587
20
1667.7708134048919
10
2740.6078749925587
20
1612.7708134048919
10
2730.6078749925587
20
1612.7708134048919
10
2730.6078749925587
20
1552.7708134048919
10
2740.6078749925587
20
1552.7708134048919
10
2740.6078749925587
20
1497.7708134048919
10
2730.6078749925587
20
1497.7708134048919
10
2730.6078749925587
20
1437.7708134048919
10
2740.6078749925587
20
1437.7708134048919
10
2740.6078749925587
20
1382.7708134048919
10
3747.4528749925589
20
1382.7708134048919
10
3747.4528749925589
20
1437.7708134048919
10
3757.4528749925589
20
1437.7708134048919
10
3757.4528749925589
20
1497.7708134048919
10
3747.4528749925589
20
1497.7708134048919
10
3747.4528749925589
20
1552.7708134048919
10
3757.4528749925589
20
1552.7708134048919
10
3757.4528749925589
20
1612.7708134048919
10
3747.4528749925589
20
1612.7708134048919
10
3747.4528749925589
20
1667.7708134048919
10
3757.4528749925589
20
1667.7708134048919
10
3757.4528749925589
20
1727.7708134048919
10
3747.4528749925589
20
1727.7708134048919
0
LWPOLYLINE
5
108
100
AcDbEntity
8
0
100
AcDbPolyline
90
4
70
1
43
0.0
10
3496.8378749925591
20
1727.7708134048919
10
3475.8378749925587
20
1727.7708134048919
10
3475.8378749925587
20
1667.7708134048919
10
3496.8378749925591
20
1667.7708134048919
0
LWPOLYLINE
5
109
100
AcDbEntity
8
0
100
AcDbPolyline
90
4
70
1
43
0.0
10
3496.8378749925591
20
1612.7708134048919
10
3475.8378749925587
20
1612.7708134048919
10
3475.8378749925587
20
1552.7708134048919
10
3496.8378749925591
20
1552.7708134048919
0
LWPOLYLINE
5
110
100
AcDbEntity
8
0
100
AcDbPolyline
90
4
70
1
43
0.0
10
3496.8378749925591
20
1497.7708134048919
10
3475.8378749925587
20
1497.7708134048919
10
3475.8378749925587
20
1437.7708134048919
10
3496.8378749925591
20
1437.7708134048919
0
LWPOLYLINE
5
111
100
AcDbEntity
8
0
100
AcDbPolyline
90
28
70
1
43
0.0
10
3502.743768784826
20
2975.0994116630068
10
2311.1437687848261
20
2975.0994116630068
10
2311.1437687848261
20
2920.0994116630068
10
2301.1437687848261
20
2920.0994116630068
10
2301.1437687848261
20
2860.0994116630068
10
2311.1437687848261
20
2860.0994116630068
10
2311.1437687848261
20
2805.0994116630068
10
2301.1437687848261
20
2805.0994116630068
10
2301.1437687848261
20
2745.0994116630068
10
2311.1437687848261
20
2745.0994116630068
10
2311.1437687848261
20
2690.0994116630068
10
2301.1437687848261
20
2690.0994116630068
10
2301.1437687848261
20
2630.0994116630068
10
2311.1437687848261
20
2630.0994116630068
10
2311.1437687848261
20
2575.0994116630068
10
3502.743768784826
20
2575.0994116630068
10
3502.743768784826
20
2630.0994116630068
10
3512.743768784826
20
2630.0994116630068
10
3512.743768784826
20
2690.0994116630068
10
3502.743768784826
20
2690.0994116630068
10
3502.743768784826
20
2745.0994116630068
10
3512.743768784826
20
2745.0994116630068
10
3512.743768784826
20
2805.0994116630068
10
3502.743768784826
20
2805.0994116630068
10
3502.743768784826
20
2860.0994116630068
10
3512.743768784826
20
2860.0994116630068
10
3512.743768784826
20
2920.0994116630068
10
3502.743768784826
20
2920.0994116630068
0
LWPOLYLINE
5
112
100
AcDbEntity
8
0
100
AcDbPolyline
90
4
70
1
43
0.0
10
3425.8378749925587
20
1790.6322638780994
10
3404.8378749925587
20
1790.6322638780994
10
3404.8378749925587
20
1372.7110355209106
10
3425.8378749925587
20
1372.7110355209106
0
LWPOLYLINE
5
113
100
AcDbEntity
8
0
100
AcDbPolyline
90
4
70
1
43
0.0
10
3083.2228749925589
20
1798.9788203681446
10
3062.2228749925584
20
1798.9788203681446
10
3062.2228749925584
20
1362.9257261985106
10
3083.2228749925589
20
1362.9257261985106
0
LWPOLYLINE
5
114
100
AcDbEntity
8
0
100
AcDbPolyline
90
28
70
1
43
0.0
10
5557.4528749925594
20
1497.7708134048919
10
5547.4528749925594
20
1497.7708134048919
10
5547.4528749925594
20
1552.7708134048919
10
5557.4528749925594
20
1552.7708134048919
10
5557.4528749925594
20
1612.7708134048919
10
5547.4528749925594
20
1612.7708134048919
10
5547.4528749925594
20
1667.7708134048919
10
5557.4528749925594
20
1667.7708134048919
10
5557.4528749925594
20
1727.7708134048919
10
5547.4528749925594
20
1727.7708134048919
10
5547.4528749925594
20
1782.7708134048919
10
4540.6078749925591
20
1782.7708134048919
10
4540.6078749925591
20
1727.7708134048919
10
4530.6078749925591
20
1727.7708134048919
10
4530.6078749925591
20
1667.7708134048919
10
4540.6078749925591
20
1667.7708134048919
10
4540.6078749925591
20
1612.7708134048919
10
4530.6078749925591
20
1612.7708134048919
10
4530.6078749925591
20
1552.7708134048919
10
4540.6078749925591
20
1552.7708134048919
10
4540.6078749925591
20
1497.7708134048919
10
4530.6078749925591
20
1497.7708134048919
10
4530.6078749925591
20
1437.7708134048919
10
4540.6078749925591
20
1437.7708134048919
10
4540.6078749925591
20
1382.7708134048919
10
5547.4528749925594
20
1382.7708134048919
10
5547.4528749925594
20
1437.7708134048919
10
5557.4528749925594
20
1437.7708134048919
0
LWPOLYLINE
5
115
100
AcDbEntity
8
0
100
AcDbPolyline
90
4
70
1
43
0.0
10
5225.8378749925596
20
1372.7110355209106
10
5225.8378749925596
20
1790.6322638780994
10
5204.8378749925587
20
1790.6322638780994
10
5204.8378749925587
20
1372.7110355209106
0
LWPOLYLINE
5
116
100
AcDbEntity
8
0
100
AcDbPolyline
90
4
70
1
43
0.0
10
4883.2228749925598
20
1362.9257261985106
10
4883.2228749925598
20
1798.9788203681446
10
4862.2228749925589
20
1798.9788203681446
10
4862.2228749925589
20
1362.9257261985106
0
LWPOLYLINE
5
117
100
AcDbEntity
8
0
100
AcDbPolyline
90
4
70
1
43
0.0
10
4630.8621709160052
20
-144.72900367221797
10
4630.8621709160052
20
-204.72900367221797
10
4651.8621709160052
20
-204.72900367221797
10
4651.8621709160052
20
-144.72900367221797
0
LWPOLYLINE
5
118
100
AcDbEntity
8
0
100
AcDbPolyline
90
4
70
1
43
0.0
10
4651.8621709160052
20
-89.729003672217971
10
4651.8621709160052
20
-29.729003672217971
10
4630.8621709160052
20
-29.729003672217971
10
4630.8621709160052
20
-89.729003672217971
0
LWPOLYLINE
5
119
100
AcDbEntity
8
0
100
AcDbPolyline
90
4
70
1
43
0.0
10
4226.6621709160045
20
-89.729003672217971
10
4247.6621709160045
20
-89.729003672217971
10
4247.6621709160045
20
-29.729003672217971
10
4226.6621709160045
20
-29.729003672217971
0
LWPOLYLINE
5
120
100
AcDbEntity
8
0
100
AcDbPolyline
90
4
70
1
43
0.0
10
4222.6621709160045
20
-374.72900367221797
10
4655.8621709160052
20
-374.72900367221797
10
4655.8621709160052
20
25.270996327782029
10
4222.6621709160045
20
25.270996327782029
0
LWPOLYLINE
5
121
100
AcDbEntity
8
0
100
AcDbPolyline
90
4
70
1
43
0.0
10
4247.6621709160045
20
-204.72900367221797
10
4247.6621709160045
20
-144.72900367221797
10
4226.6621709160045
20
-144.72900367221797
10
4226.6621709160045
20
-204.72900367221797
0
LWPOLYLINE
5
122
100
AcDbEntity
8
0
100
AcDbPolyline
90
4
70
1
43
0.0
10
4247.6621709160045
20
-259.72900367221797
10
4226.6621709160045
20
-259.72900367221797
10
4226.6621709160045
20
-319.72900367221797
10
4247.6621709160045
20
-319.72900367221797
0
LWPOLYLINE
5
123
100
AcDbEntity
8
0
100
AcDbPolyline
90
4
70
1
43
0.0
10
4630.8621709160052
20
-319.72900367221797
10
4651.8621709160052
20
-319.72900367221797
10
4651.8621709160052
20
-259.72900367221797
10
4630.8621709160052
20
-259.72900367221797
0
ENDSEC
0
SECTION
2
OBJECTS
0
DICTIONARY
5
C
100
AcDbDictionary
3
ACAD_GROUP
350
D
3
ACAD_MLINESTYLE
350
17
0
DICTIONARY
5
D
100
AcDbDictionary
0
DICTIONARY
5
1A
330
C
100
AcDbDictionary
0
DICTIONARY
5
17
100
AcDbDictionary
0
ENDSEC
0
EOF
