0
SECTION
2
HEADER
9
$INSUNITS
70
4
9
$ACADVER
1
AC1014
9
$HANDSEED
5
FFFF
0
ENDSEC
0
SECTION
2
TABLES
0
TABLE
2
VPORT
5
8
100
AcDbSymbolTable
0
ENDTAB
0
TABLE
2
LTYPE
5
5
100
AcDbSymbolTable
0
LTYPE
5
14
100
AcDbSymbolTableRecord
100
AcDbLinetypeTableRecord
2
BYBLOCK
70
0
0
LTYPE
5
15
100
AcDbSymbolTableRecord
100
AcDbLinetypeTableRecord
2
BYLAYER
70
0
0
ENDTAB
0
TABLE
2
LAYER
5
2
100
AcDbSymbolTable
70
2
0
LAYER
5
50
100
AcDbSymbolTableRecord
100
AcDbLayerTableRecord
2
0
70
0
6
CONTINUOUS
0
ENDTAB
0
TABLE
2
STYLE
5
3
100
AcDbSymbolTable
70
1
0
STYLE
5
11
100
AcDbSymbolTableRecord
100
AcDbTextStyleTableRecord
2
STANDARD
70
0
0
ENDTAB
0
TABLE
2
VIEW
5
6
100
AcDbSymbolTable
70
0
0
ENDTAB
0
TABLE
2
UCS
5
7
100
AcDbSymbolTable
70
0
0
ENDTAB
0
TABLE
2
APPID
5
9
100
AcDbSymbolTable
70
2
0
APPID
5
12
100
AcDbSymbolTableRecord
100
AcDbRegAppTableRecord
2
ACAD
70
0
0
ENDTAB
0
TABLE
2
DIMSTYLE
5
A
100
AcDbSymbolTable
70
1
0
ENDTAB
0
TABLE
2
BLOCK_RECORD
5
1
100
AcDbSymbolTable
70
1
0
BLOCK_RECORD
5
1F
100
AcDbSymbolTableRecord
100
AcDbBlockTableRecord
2
*MODEL_SPACE
0
BLOCK_RECORD
5
1B
100
AcDbSymbolTableRecord
100
AcDbBlockTableRecord
2
*PAPER_SPACE
0
ENDTAB
0
ENDSEC
0
SECTION
2
BLOCKS
0
BLOCK
5
20
100
AcDbEntity
100
AcDbBlockBegin
2
*MODEL_SPACE
0
ENDBLK
5
21
100
AcDbEntity
100
AcDbBlockEnd
0
BLOCK
5
1C
100
AcDbEntity
100
AcDbBlockBegin
2
*PAPER_SPACE
0
ENDBLK
5
1D
100
AcDbEntity
100
AcDbBlockEnd
0
ENDSEC
0
SECTION
2
ENTITIES
0
LWPOLYLINE
5
100
100
AcDbEntity
8
0
100
AcDbPolyline
90
4
70
1
43
0.0
10
3224.1622382025771
20
738.60166339546117
10
2824.1622382025771
20
738.60166339546117
10
2824.1622382025771
20
331.06166339546115
10
3224.1622382025771
20
331.06166339546115
0
LWPOLYLINE
5
101
100
AcDbEntity
8
0
100
AcDbPolyline
90
28
70
1
43
0.0
10
4660.9780791721414
20
420.23126642048078
10
4660.9780791721414
20
807.77126642048086
10
4605.9780791721414
20
807.77126642048086
10
4605.9780791721414
20
817.77126642048086
10
4545.9780791721414
20
817.77126642048086
10
4545.9780791721414
20
807.77126642048086
10
4490.9780791721414
20
807.77126642048086
10
4490.9780791721414
20
817.77126642048086
10
4430.9780791721414
20
817.77126642048086
10
4430.9780791721414
20
807.77126642048086
10
4375.9780791721414
20
807.77126642048086
10
4375.9780791721414
20
817.77126642048086
10
4315.9780791721414
20
817.77126642048086
10
4315.9780791721414
20
807.77126642048086
10
4260.9780791721414
20
807.77126642048086
10
4260.9780791721414
20
420.23126642048078
10
4315.9780791721414
20
420.23126642048078
10
4315.9780791721414
20
410.23126642048078
10
4375.9780791721414
20
410.23126642048078
10
4375.9780791721414
20
420.23126642048078
10
4430.9780791721414
20
420.23126642048078
10
4430.9780791721414
20
410.23126642048078
10
4490.9780791721414
20
410.23126642048078
10
4490.9780791721414
20
420.23126642048078
10
4545.9780791721414
20
420.23126642048078
10
4545.9780791721414
20
410.23126642048078
10
4605.9780791721414
20
410.23126642048078
10
4605.9780791721414
20
420.23126642048078
0
LWPOLYLINE
5
102
100
AcDbEntity
8
0
100
AcDbPolyline
90
4
70
1
43
0.0
10
4972.6511029135454
20
1884.2845221274051
10
2922.6511029135445
20
1884.2845221274051
10
2922.6511029135445
20
1484.2845221274051
10
4972.6511029135454
20
1484.2845221274051
0
LWPOLYLINE
5
103
100
AcDbEntity
8
0
100
AcDbPolyline
90
4
70
1
43
0.0
10
2947.6511029135445
20
1829.2845221274051
10
2926.6511029135445
20
1829.2845221274051
10
2926.6511029135445
20
1769.2845221274051
10
2947.6511029135445
20
1769.2845221274051
0
LWPOLYLINE
5
104
100
AcDbEntity
8
0
100
AcDbPolyline
90
4
70
1
43
0.0
10
2947.6511029135445
20
1714.2845221274051
10
2926.6511029135445
20
1714.2845221274051
10
2926.6511029135445
20
1654.2845221274051
10
2947.6511029135445
20
1654.2845221274051
0
LWPOLYLINE
5
105
100
AcDbEntity
8
0
100
AcDbPolyline
90
4
70
1
43
0.0
10
2947.6511029135445
20
1599.2845221274051
10
2926.6511029135445
20
1599.2845221274051
10
2926.6511029135445
20
1539.2845221274051
10
2947.6511029135445
20
1539.2845221274051
0
LWPOLYLINE
5
106
100
AcDbEntity
8
0
100
AcDbPolyline
90
4
70
1
43
0.0
10
4968.6511029135463
20
1829.2845221274051
10
4947.6511029135454
20
1829.2845221274051
10
4947.6511029135454
20
1769.2845221274051
10
4968.6511029135463
20
1769.2845221274051
0
LWPOLYLINE
5
107
100
AcDbEntity
8
0
100
AcDbPolyline
90
4
70
1
43
0.0
10
4968.6511029135463
20
1714.2845221274051
10
4947.6511029135454
20
1714.2845221274051
10
4947.6511029135454
20
1654.2845221274051
10
4968.6511029135463
20
1654.2845221274051
0
LWPOLYLINE
5
108
100
AcDbEntity
8
0
100
AcDbPolyline
90
4
70
1
43
0.0
10
4968.6511029135463
20
1599.2845221274051
10
4947.6511029135454
20
1599.2845221274051
10
4947.6511029135454
20
1539.2845221274051
10
4968.6511029135463
20
1539.2845221274051
0
LWPOLYLINE
5
109
100
AcDbEntity
8
0
100
AcDbPolyline
90
4
70
1
43
0.0
10
3452.9011029135449
20
1898.7132783800919
10
3431.9011029135445
20
1898.7132783800919
10
3431.9011029135445
20
1455.1159134646812
10
3452.9011029135449
20
1455.1159134646812
0
LWPOLYLINE
5
110
100
AcDbEntity
8
0
100
AcDbPolyline
90
4
70
1
43
0.0
10
3958.1511029135454
20
1899.969928139059
10
3937.1511029135449
20
1899.969928139059
10
3937.1511029135449
20
1460.1425125005499
10
3958.1511029135454
20
1460.1425125005499
0
LWPOLYLINE
5
111
100
AcDbEntity
8
0
100
AcDbPolyline
90
4
70
1
43
0.0
10
4463.4011029135454
20
1896.1999788621574
10
4442.4011029135454
20
1896.1999788621574
10
4442.4011029135454
20
1465.1691115364183
10
4463.4011029135454
20
1465.1691115364183
0
LWPOLYLINE
5
112
100
AcDbEntity
8
0
100
AcDbPolyline
90
4
70
1
43
0.0
10
2926.6511029135445
20
2354.2845221274051
10
2947.6511029135445
20
2354.2845221274051
10
2947.6511029135445
20
2414.2845221274051
10
2926.6511029135445
20
2414.2845221274051
0
LWPOLYLINE
5
113
100
AcDbEntity
8
0
100
AcDbPolyline
90
4
70
1
43
0.0
10
2947.6511029135445
20
2529.2845221274051
10
2926.6511029135445
20
2529.2845221274051
10
2926.6511029135445
20
2469.2845221274051
10
2947.6511029135445
20
2469.2845221274051
0
LWPOLYLINE
5
114
100
AcDbEntity
8
0
100
AcDbPolyline
90
4
70
1
43
0.0
10
4968.6511029135463
20
2529.2845221274051
10
4947.6511029135454
20
2529.2845221274051
10
4947.6511029135454
20
2469.2845221274051
10
4968.6511029135463
20
2469.2845221274051
0
LWPOLYLINE
5
115
100
AcDbEntity
8
0
100
AcDbPolyline
90
4
70
1
43
0.0
10
2947.6511029135445
20
2299.2845221274051
10
2926.6511029135445
20
2299.2845221274051
10
2926.6511029135445
20
2239.2845221274051
10
2947.6511029135445
20
2239.2845221274051
0
LWPOLYLINE
5
116
100
AcDbEntity
8
0
100
AcDbPolyline
90
4
70
1
43
0.0
10
4968.6511029135463
20
2414.2845221274051
10
4947.6511029135454
20
2414.2845221274051
10
4947.6511029135454
20
2354.2845221274051
10
4968.6511029135463
20
2354.2845221274051
0
LWPOLYLINE
5
117
100
AcDbEntity
8
0
100
AcDbPolyline
90
4
70
1
43
0.0
10
4947.6511029135454
20
2299.2845221274051
10
4947.6511029135454
20
2239.2845221274051
10
4968.6511029135463
20
2239.2845221274051
10
4968.6511029135463
20
2299.2845221274051
0
LWPOLYLINE
5
118
100
AcDbEntity
8
0
100
AcDbPolyline
90
4
70
1
43
0.0
10
4463.4011029135454
20
2596.1999788621574
10
4442.4011029135454
20
2596.1999788621574
10
4442.4011029135454
20
2165.1691115364183
10
4463.4011029135454
20
2165.1691115364183
0
LWPOLYLINE
5
119
100
AcDbEntity
8
0
100
AcDbPolyline
90
4
70
1
43
0.0
10
3937.1511029135449
20
2599.9699281390585
10
3937.1511029135449
20
2160.1425125005499
10
3958.1511029135454
20
2160.1425125005499
10
3958.1511029135454
20
2599.9699281390585
0
LWPOLYLINE
5
120
100
AcDbEntity
8
0
100
AcDbPolyline
90
4
70
1
43
0.0
10
3452.9011029135449
20
2155.1159134646814
10
3452.9011029135449
20
2598.7132783800917
10
3431.9011029135445
20
2598.7132783800917
10
3431.9011029135445
20
2155.1159134646814
0
LWPOLYLINE
5
121
100
AcDbEntity
8
0
100
AcDbPolyline
90
4
70
1
43
0.0
10
2922.6511029135445
20
2184.2845221274051
10
4972.6511029135454
20
2184.2845221274051
10
4972.6511029135454
20
2584.2845221274051
10
2922.6511029135445
20
2584.2845221274051
0
LWPOLYLINE
5
122
100
AcDbEntity
8
0
100
AcDbPolyline
90
4
70
1
43
0.0
10
2824.1622382025771
20
138.60166339546112
10
2824.1622382025771
20
-268.93833660453885
10
3224.1622382025771
20
-268.93833660453885
10
3224.1622382025771
20
138.60166339546112
0
LWPOLYLINE
5
123
100
AcDbEntity
8
0
100
AcDbPolyline
90
4
70
1
43
0.0
10
2824.1622382025771
20
-661.39833660453883
10
2824.1622382025771
20
-1068.9383366045388
10
3224.1622382025771
20
-1068.9383366045388
10
3224.1622382025771
20
-661.39833660453883
0
LWPOLYLINE
5
124
100
AcDbEntity
8
0
100
AcDbPolyline
90
28
70
1
43
0.0
10
4315.9780791721414
20
-392.22873357951914
10
4315.9780791721414
20
-382.22873357951914
10
4375.9780791721414
20
-382.22873357951914
10
4375.9780791721414
20
-392.22873357951914
10
4430.9780791721414
20
-392.22873357951914
10
4430.9780791721414
20
-382.22873357951914
10
4490.9780791721414
20
-382.22873357951914
10
4490.9780791721414
20
-392.22873357951914
10
4545.9780791721414
20
-392.22873357951914
10
4545.9780791721414
20
-382.22873357951914
10
4605.9780791721414
20
-382.22873357951914
10
4605.9780791721414
20
-392.22873357951914
10
4660.9780791721414
20
-392.22873357951914
10
4660.9780791721414
20
-779.76873357951922
10
4605.9780791721414
20
-779.76873357951922
10
4605.9780791721414
20
-789.76873357951922
10
4545.9780791721414
20
-789.76873357951922
10
4545.9780791721414
20
-779.76873357951922
10
4490.9780791721414
20
-779.76873357951922
10
4490.9780791721414
20
-789.76873357951922
10
4430.9780791721414
20
-789.76873357951922
10
4430.9780791721414
20
-779.76873357951922
10
4375.9780791721414
20
-779.76873357951922
10
4375.9780791721414
20
-789.76873357951922
10
4315.9780791721414
20
-789.76873357951922
10
4315.9780791721414
20
-779.76873357951922
10
4260.9780791721414
20
-779.76873357951922
10
4260.9780791721414
20
-392.22873357951914
0
ENDSEC
0
SECTION
2
OBJECTS
0
DICTIONARY
5
C
100
AcDbDictionary
3
ACAD_GROUP
350
D
3
ACAD_MLINESTYLE
350
17
0
DICTIONARY
5
D
100
AcDbDictionary
0
DICTIONARY
5
1A
330
C
100
AcDbDictionary
0
DICTIONARY
5
17
100
AcDbDictionary
0
ENDSEC
0
EOF
