0
SECTION
2
HEADER
9
$INSUNITS
70
4
9
$ACADVER
1
AC1014
9
$HANDSEED
5
FFFF
0
ENDSEC
0
SECTION
2
TABLES
0
TABLE
2
VPORT
5
8
100
AcDbSymbolTable
0
ENDTAB
0
TABLE
2
LTYPE
5
5
100
AcDbSymbolTable
0
LTYPE
5
14
100
AcDbSymbolTableRecord
100
AcDbLinetypeTableRecord
2
BYBLOCK
70
0
0
LTYPE
5
15
100
AcDbSymbolTableRecord
100
AcDbLinetypeTableRecord
2
BYLAYER
70
0
0
ENDTAB
0
TABLE
2
LAYER
5
2
100
AcDbSymbolTable
70
2
0
LAYER
5
50
100
AcDbSymbolTableRecord
100
AcDbLayerTableRecord
2
0
70
0
6
CONTINUOUS
0
ENDTAB
0
TABLE
2
STYLE
5
3
100
AcDbSymbolTable
70
1
0
STYLE
5
11
100
AcDbSymbolTableRecord
100
AcDbTextStyleTableRecord
2
STANDARD
70
0
0
ENDTAB
0
TABLE
2
VIEW
5
6
100
AcDbSymbolTable
70
0
0
ENDTAB
0
TABLE
2
UCS
5
7
100
AcDbSymbolTable
70
0
0
ENDTAB
0
TABLE
2
APPID
5
9
100
AcDbSymbolTable
70
2
0
APPID
5
12
100
AcDbSymbolTableRecord
100
AcDbRegAppTableRecord
2
ACAD
70
0
0
ENDTAB
0
TABLE
2
DIMSTYLE
5
A
100
AcDbSymbolTable
70
1
0
ENDTAB
0
TABLE
2
BLOCK_RECORD
5
1
100
AcDbSymbolTable
70
1
0
BLOCK_RECORD
5
1F
100
AcDbSymbolTableRecord
100
AcDbBlockTableRecord
2
*MODEL_SPACE
0
BLOCK_RECORD
5
1B
100
AcDbSymbolTableRecord
100
AcDbBlockTableRecord
2
*PAPER_SPACE
0
ENDTAB
0
ENDSEC
0
SECTION
2
BLOCKS
0
BLOCK
5
20
100
AcDbEntity
100
AcDbBlockBegin
2
*MODEL_SPACE
0
ENDBLK
5
21
100
AcDbEntity
100
AcDbBlockEnd
0
BLOCK
5
1C
100
AcDbEntity
100
AcDbBlockBegin
2
*PAPER_SPACE
0
ENDBLK
5
1D
100
AcDbEntity
100
AcDbBlockEnd
0
ENDSEC
0
SECTION
2
ENTITIES
0
CIRCLE
5
100
100
AcDbEntity
8
0
100
AcDbCircle
10
63.071846205534897
20
-223.83693851592992
30
0
40
50
0
LINE
5
101
100
AcDbEntity
8
0
100
AcDbLine
10
63.071846205534897
20
-223.83693851592992
30
0
11
13.072342862007741
21
-224.05979587079131
31
0
0
LINE
5
102
100
AcDbEntity
8
0
100
AcDbLine
10
63.071846205534897
20
-223.83693851592992
30
0
11
113.07162007368554
21
-223.9873151557417
31
0
0
LINE
5
103
100
AcDbEntity
8
0
100
AcDbLine
10
113.07134954906203
20
-223.6140811610685
30
0
11
13.072342862007741
21
-224.05979587079131
31
0
0
LINE
5
104
100
AcDbEntity
8
0
100
AcDbLine
10
62.848988850673607
20
-173.83743517240276
30
0
11
63.294703560396172
21
-273.83644185945707
31
0
0
LINE
5
105
100
AcDbEntity
8
0
100
AcDbLine
10
129.73801621572872
20
-218.6140811610685
30
0
11
96.404682882395477
21
-218.6140811610685
31
0
0
LINE
5
106
100
AcDbEntity
8
0
100
AcDbLine
10
96.404682882395477
20
-218.6140811610685
30
0
11
96.404682882395477
21
-228.6140811610685
31
0
0
LINE
5
107
100
AcDbEntity
8
0
100
AcDbLine
10
96.404682882395477
20
-228.6140811610685
30
0
11
129.73801621572881
21
-228.6140811610685
31
0
0
LINE
5
108
100
AcDbEntity
8
0
100
AcDbLine
10
129.73801621572881
20
-228.6140811610685
30
0
11
129.73801621572872
21
-218.6140811610685
31
0
0
LINE
5
109
100
AcDbEntity
8
0
100
AcDbLine
10
129.73801621572872
20
-218.6140811610685
30
0
11
96.404682882395477
21
-228.6140811610685
31
0
0
LINE
5
110
100
AcDbEntity
8
0
100
AcDbLine
10
96.404682882395477
20
-218.6140811610685
30
0
11
129.73801621572881
21
-228.6140811610685
31
0
0
LINE
5
111
100
AcDbEntity
8
0
100
AcDbLine
10
68.294703560396158
20
-257.1697751927905
30
0
11
58.29470356039625
21
-257.1697751927905
31
0
0
LINE
5
112
100
AcDbEntity
8
0
100
AcDbLine
10
58.29470356039625
20
-257.1697751927905
30
0
11
58.294703560396158
21
-290.50310852612381
31
0
0
LINE
5
113
100
AcDbEntity
8
0
100
AcDbLine
10
58.294703560396158
20
-290.50310852612381
30
0
11
68.294703560396158
21
-290.50310852612381
31
0
0
LINE
5
114
100
AcDbEntity
8
0
100
AcDbLine
10
68.294703560396158
20
-290.50310852612381
30
0
11
68.294703560396158
21
-257.1697751927905
31
0
0
LINE
5
115
100
AcDbEntity
8
0
100
AcDbLine
10
68.294703560396158
20
-257.1697751927905
30
0
11
58.294703560396158
21
-290.50310852612381
31
0
0
LINE
5
116
100
AcDbEntity
8
0
100
AcDbLine
10
58.29470356039625
20
-257.1697751927905
30
0
11
68.294703560396158
21
-290.50310852612381
31
0
0
LINE
5
117
100
AcDbEntity
8
0
100
AcDbLine
10
-3.5943238046589188
20
-229.05979587079133
30
0
11
29.739009528674409
21
-229.05979587079133
31
0
0
LINE
5
118
100
AcDbEntity
8
0
100
AcDbLine
10
29.739009528674409
20
-229.05979587079133
30
0
11
29.739009528674409
21
-219.05979587079133
31
0
0
LINE
5
119
100
AcDbEntity
8
0
100
AcDbLine
10
29.739009528674409
20
-219.05979587079133
30
0
11
-3.5943238046589188
21
-219.05979587079133
31
0
0
LINE
5
120
100
AcDbEntity
8
0
100
AcDbLine
10
-3.5943238046589188
20
-219.05979587079133
30
0
11
-3.5943238046589188
21
-229.05979587079133
31
0
0
LINE
5
121
100
AcDbEntity
8
0
100
AcDbLine
10
-3.5943238046589188
20
-229.05979587079133
30
0
11
29.739009528674409
21
-219.05979587079133
31
0
0
LINE
5
122
100
AcDbEntity
8
0
100
AcDbLine
10
29.739009528674409
20
-229.05979587079133
30
0
11
-3.5943238046589188
21
-219.05979587079133
31
0
0
LINE
5
123
100
AcDbEntity
8
0
100
AcDbLine
10
67.848988850673621
20
-190.50410183906939
30
0
11
57.848988850673607
21
-190.50410183906939
31
0
0
LINE
5
124
100
AcDbEntity
8
0
100
AcDbLine
10
57.848988850673607
20
-190.50410183906939
30
0
11
57.848988850673607
21
-157.17076850573611
31
0
0
LINE
5
125
100
AcDbEntity
8
0
100
AcDbLine
10
57.848988850673607
20
-157.17076850573611
30
0
11
67.848988850673621
21
-157.17076850573611
31
0
0
LINE
5
126
100
AcDbEntity
8
0
100
AcDbLine
10
67.848988850673621
20
-157.17076850573611
30
0
11
67.848988850673621
21
-190.50410183906939
31
0
0
LINE
5
127
100
AcDbEntity
8
0
100
AcDbLine
10
67.848988850673621
20
-190.50410183906939
30
0
11
57.848988850673607
21
-157.17076850573611
31
0
0
LINE
5
128
100
AcDbEntity
8
0
100
AcDbLine
10
57.848988850673607
20
-190.50410183906939
30
0
11
67.848988850673621
21
-157.17076850573611
31
0
0
ENDSEC
0
SECTION
2
OBJECTS
0
DICTIONARY
5
C
100
AcDbDictionary
3
ACAD_GROUP
350
D
3
ACAD_MLINESTYLE
350
17
0
DICTIONARY
5
D
100
AcDbDictionary
0
DICTIONARY
5
1A
330
C
100
AcDbDictionary
0
DICTIONARY
5
17
100
AcDbDictionary
0
ENDSEC
0
EOF
