  0
SECTION
  2
HEADER
  9
$ACADVER
  1
AC1015
  9
$ACADMAINTVER
 70
     6
  9
$DWGCODEPAGE
  3
ANSI_1252
  9
$INSBASE
 10
0.0
 20
0.0
 30
0.0
  9
$EXTMIN
 10
-265.9972196495
 20
-265.9643522027
 30
0.0
  9
$EXTMAX
 10
265.9972196495
 20
265.9643522027
 30
0.0
  9
$LIMMIN
 10
0.0
 20
0.0
  9
$LIMMAX
 10
420.0
 20
297.0
  9
$ORTHOMODE
 70
     0
  9
$REGENMODE
 70
     1
  9
$FILLMODE
 70
     1
  9
$QTEXTMODE
 70
     0
  9
$MIRRTEXT
 70
     1
  9
$LTSCALE
 40
1.0
  9
$ATTMODE
 70
     1
  9
$TEXTSIZE
 40
6.35
  9
$TRACEWID
 40
1.0
  9
$TEXTSTYLE
  7
Standard
  9
$CLAYER
  8
0
  9
$CELTYPE
  6
ByLayer
  9
$CECOLOR
 62
   256
  9
$CELTSCALE
 40
1.0
  9
$DISPSILH
 70
     0
  9
$DIMSCALE
 40
1.0
  9
$DIMASZ
 40
6.0
  9
$DIMEXO
 40
1.0
  9
$DIMDLI
 40
3.75
  9
$DIMRND
 40
0.0
  9
$DIMDLE
 40
0.0
  9
$DIMEXE
 40
1.0
  9
$DIMTP
 40
0.0
  9
$DIMTM
 40
0.0
  9
$DIMTXT
 40
6.35
  9
$DIMCEN
 40
2.5
  9
$DIMTSZ
 40
0.0
  9
$DIMTOL
 70
     0
  9
$DIMLIM
 70
     0
  9
$DIMTIH
 70
     1
  9
$DIMTOH
 70
     1
  9
$DIMSE1
 70
     0
  9
$DIMSE2
 70
     0
  9
$DIMTAD
 70
     0
  9
$DIMZIN
 70
     0
  9
$DIMBLK
  1

  9
$DIMASO
 70
     1
  9
$DIMSHO
 70
     1
  9
$DIMPOST
  1

  9
$DIMAPOST
  1

  9
$DIMALT
 70
     0
  9
$DIMALTD
 70
     3
  9
$DIMALTF
 40
0.0393700787
  9
$DIMLFAC
 40
1.0
  9
$DIMTOFL
 70
     1
  9
$DIMTVP
 40
0.0
  9
$DIMTIX
 70
     0
  9
$DIMSOXD
 70
     0
  9
$DIMSAH
 70
     0
  9
$DIMBLK1
  1

  9
$DIMBLK2
  1

  9
$DIMSTYLE
  2
ISO-25
  9
$DIMCLRD
 70
     0
  9
$DIMCLRE
 70
     0
  9
$DIMCLRT
 70
     0
  9
$DIMTFAC
 40
1.0
  9
$DIMGAP
 40
1.524
  9
$DIMJUST
 70
     0
  9
$DIMSD1
 70
     0
  9
$DIMSD2
 70
     0
  9
$DIMTOLJ
 70
     0
  9
$DIMTZIN
 70
     0
  9
$DIMALTZ
 70
     0
  9
$DIMALTTZ
 70
     0
  9
$DIMUPT
 70
     0
  9
$DIMDEC
 70
     3
  9
$DIMTDEC
 70
     2
  9
$DIMALTU
 70
     2
  9
$DIMALTTD
 70
     3
  9
$DIMTXSTY
  7
Standard
  9
$DIMAUNIT
 70
     0
  9
$DIMADEC
 70
     3
  9
$DIMALTRND
 40
0.0
  9
$DIMAZIN
 70
     0
  9
$DIMDSEP
 70
    44
  9
$DIMATFIT
 70
     3
  9
$DIMFRAC
 70
     0
  9
$DIMLDRBLK
  1

  9
$DIMLUNIT
 70
     2
  9
$DIMLWD
 70
    -2
  9
$DIMLWE
 70
    -2
  9
$DIMTMOVE
 70
     0
  9
$LUNITS
 70
     2
  9
$LUPREC
 70
     3
  9
$SKETCHINC
 40
1.0
  9
$FILLETRAD
 40
10.0
  9
$AUNITS
 70
     0
  9
$AUPREC
 70
     3
  9
$MENU
  1
.
  9
$ELEVATION
 40
0.0
  9
$PELEVATION
 40
0.0
  9
$THICKNESS
 40
0.0
  9
$LIMCHECK
 70
     0
  9
$CHAMFERA
 40
0.0
  9
$CHAMFERB
 40
0.0
  9
$CHAMFERC
 40
0.0
  9
$CHAMFERD
 40
0.0
  9
$SKPOLY
 70
     0
  9
$TDCREATE
 40
2458246.426581632
  9
$TDUCREATE
 40
2458246.634914965
  9
$TDUPDATE
 40
2458246.426612384
  9
$TDUUPDATE
 40
2458246.634945718
  9
$TDINDWG
 40
0.0000000116
  9
$TDUSRTIMER
 40
0.0000000116
  9
$USRTIMER
 70
     1
  9
$ANGBASE
 50
0.0
  9
$ANGDIR
 70
     0
  9
$PDMODE
 70
     0
  9
$PDSIZE
 40
-1.0
  9
$PLINEWID
 40
0.0
  9
$SPLFRAME
 70
     0
  9
$SPLINETYPE
 70
     6
  9
$SPLINESEGS
 70
     8
  9
$HANDSEED
  5
524
  9
$SURFTAB1
 70
     6
  9
$SURFTAB2
 70
     6
  9
$SURFTYPE
 70
     6
  9
$SURFU
 70
     6
  9
$SURFV
 70
     6
  9
$UCSBASE
  2

  9
$UCSNAME
  2

  9
$UCSORG
 10
0.0
 20
0.0
 30
0.0
  9
$UCSXDIR
 10
1.0
 20
0.0
 30
0.0
  9
$UCSYDIR
 10
0.0
 20
1.0
 30
0.0
  9
$UCSORTHOREF
  2

  9
$UCSORTHOVIEW
 70
     0
  9
$UCSORGTOP
 10
0.0
 20
0.0
 30
0.0
  9
$UCSORGBOTTOM
 10
0.0
 20
0.0
 30
0.0
  9
$UCSORGLEFT
 10
0.0
 20
0.0
 30
0.0
  9
$UCSORGRIGHT
 10
0.0
 20
0.0
 30
0.0
  9
$UCSORGFRONT
 10
0.0
 20
0.0
 30
0.0
  9
$UCSORGBACK
 10
0.0
 20
0.0
 30
0.0
  9
$PUCSBASE
  2

  9
$PUCSNAME
  2

  9
$PUCSORG
 10
0.0
 20
0.0
 30
0.0
  9
$PUCSXDIR
 10
1.0
 20
0.0
 30
0.0
  9
$PUCSYDIR
 10
0.0
 20
1.0
 30
0.0
  9
$PUCSORTHOREF
  2

  9
$PUCSORTHOVIEW
 70
     0
  9
$PUCSORGTOP
 10
0.0
 20
0.0
 30
0.0
  9
$PUCSORGBOTTOM
 10
0.0
 20
0.0
 30
0.0
  9
$PUCSORGLEFT
 10
0.0
 20
0.0
 30
0.0
  9
$PUCSORGRIGHT
 10
0.0
 20
0.0
 30
0.0
  9
$PUCSORGFRONT
 10
0.0
 20
0.0
 30
0.0
  9
$PUCSORGBACK
 10
0.0
 20
0.0
 30
0.0
  9
$USERI1
 70
     0
  9
$USERI2
 70
     0
  9
$USERI3
 70
     0
  9
$USERI4
 70
     0
  9
$USERI5
 70
     0
  9
$USERR1
 40
0.0
  9
$USERR2
 40
0.0
  9
$USERR3
 40
0.0
  9
$USERR4
 40
0.0
  9
$USERR5
 40
0.0
  9
$WORLDVIEW
 70
     1
  9
$SHADEDGE
 70
     3
  9
$SHADEDIF
 70
    70
  9
$TILEMODE
 70
     1
  9
$MAXACTVP
 70
    64
  9
$PINSBASE
 10
0.0
 20
0.0
 30
0.0
  9
$PLIMCHECK
 70
     0
  9
$PEXTMIN
 10
1.0000000000E+20
 20
1.0000000000E+20
 30
1.0000000000E+20
  9
$PEXTMAX
 10
-1.0000000000E+20
 20
-1.0000000000E+20
 30
-1.0000000000E+20
  9
$PLIMMIN
 10
0.0
 20
0.0
  9
$PLIMMAX
 10
420.0
 20
297.0
  9
$UNITMODE
 70
     0
  9
$VISRETAIN
 70
     1
  9
$PLINEGEN
 70
     0
  9
$PSLTSCALE
 70
     1
  9
$TREEDEPTH
 70
  3020
  9
$CMLSTYLE
  2
Standard
  9
$CMLJUST
 70
     0
  9
$CMLSCALE
 40
20.0
  9
$PROXYGRAPHICS
 70
     1
  9
$MEASUREMENT
 70
     1
  9
$CELWEIGHT
370
    -1
  9
$ENDCAPS
280
     0
  9
$JOINSTYLE
280
     0
  9
$LWDISPLAY
290
     1
  9
$INSUNITS
 70
     4
  9
$HYPERLINKBASE
  1

  9
$STYLESHEET
  1

  9
$XEDIT
290
     1
  9
$CEPSNTYPE
380
     0
  9
$PSTYLEMODE
290
     1
  9
$FINGERPRINTGUID
  2
{6CFFEE3A-9FAE-4C59-86EB-5768097E1173}
  9
$VERSIONGUID
  2
{FAEB1C32-E019-11D5-929B-00C0DF256EC4}
  9
$EXTNAMES
290
     1
  9
$PSVPSCALE
 40
0.0
  9
$OLESTARTUP
290
     0
  0
ENDSEC
  0
SECTION
  2
CLASSES
  0
CLASS
  1
ACDBDICTIONARYWDFLT
  2
AcDbDictionaryWithDefault
  3
ObjectDBX Classes
 90
        0
280
     0
281
     0
  0
CLASS
  1
VISUALSTYLE
  2
AcDbVisualStyle
  3
ObjectDBX Classes
 90
     4095
280
     0
281
     0
  0
CLASS
  1
MATERIAL
  2
AcDbMaterial
  3
ObjectDBX Classes
 90
     1153
280
     0
281
     0
  0
CLASS
  1
SCALE
  2
AcDbScale
  3
ObjectDBX Classes
 90
     1153
280
     0
281
     0
  0
CLASS
  1
TABLESTYLE
  2
AcDbTableStyle
  3
ObjectDBX Classes
 90
     4095
280
     0
281
     0
  0
CLASS
  1
MLEADERSTYLE
  2
AcDbMLeaderStyle
  3
ACDB_MLEADERSTYLE_CLASS
 90
     4095
280
     0
281
     0
  0
CLASS
  1
SUN
  2
AcDbSun
  3
SCENEOE
 90
     1153
280
     0
281
     0
  0
CLASS
  1
ACDBPLACEHOLDER
  2
AcDbPlaceHolder
  3
ObjectDBX Classes
 90
        0
280
     0
281
     0
  0
CLASS
  1
LAYOUT
  2
AcDbLayout
  3
ObjectDBX Classes
 90
        0
280
     0
281
     0
  0
ENDSEC
  0
SECTION
  2
TABLES
  0
TABLE
  2
VPORT
  5
8
330
0
100
AcDbSymbolTable
 70
     1
  0
VPORT
  5
29
330
8
100
AcDbSymbolTableRecord
100
AcDbViewportTableRecord
  2
*Active
 70
     0
 10
0.0
 20
0.0
 11
1.0
 21
1.0
 12
0.0
 22
0.0
 13
0.0
 23
0.0
 14
10.0
 24
10.0
 15
10.0
 25
10.0
 16
0.0
 26
0.0
 36
1.0
 17
0.0
 27
0.0
 37
0.0
 40
542.5672784935
 41
1.0001235784
 42
50.0
 43
0.0
 44
0.0
 50
0.0
 51
0.0
 71
     0
 72
   100
 73
     1
 74
     3
 75
     0
 76
     0
 77
     0
 78
     0
281
     0
 65
     1
110
0.0
120
0.0
130
0.0
111
1.0
121
0.0
131
0.0
112
0.0
122
1.0
132
0.0
 79
     0
146
0.0
  0
ENDTAB
  0
TABLE
  2
LTYPE
  5
5
330
0
100
AcDbSymbolTable
 70
     6
  0
LTYPE
  5
14
330
5
100
AcDbSymbolTableRecord
100
AcDbLinetypeTableRecord
  2
ByBlock
 70
     0
  3

 72
    65
 73
     0
 40
0.0
  0
LTYPE
  5
15
330
5
100
AcDbSymbolTableRecord
100
AcDbLinetypeTableRecord
  2
ByLayer
 70
     0
  3

 72
    65
 73
     0
 40
0.0
  0
LTYPE
  5
16
330
5
100
AcDbSymbolTableRecord
100
AcDbLinetypeTableRecord
  2
Continuous
 70
     0
  3
Solid line
 72
    65
 73
     0
 40
0.0
  0
LTYPE
  5
6E
330
5
100
AcDbSymbolTableRecord
100
AcDbLinetypeTableRecord
  2
HIDDEN
 70
     0
  3
Hidden __ __ __ __ __ __ __ __ __ __ __ __ __ __
 72
    65
 73
     2
 40
1.905
 49
1.27
 74
     0
 49
-0.635
 74
     0
  0
LTYPE
  5
6F
330
5
100
AcDbSymbolTableRecord
100
AcDbLinetypeTableRecord
  2
PHANTOM
 70
     0
  3
Phantom ______  __  __  ______  __  __  ______
 72
    65
 73
     6
 40
12.7
 49
6.35
 74
     0
 49
-1.27
 74
     0
 49
1.27
 74
     0
 49
-1.27
 74
     0
 49
1.27
 74
     0
 49
-1.27
 74
     0
  0
LTYPE
  5
70
330
5
100
AcDbSymbolTableRecord
100
AcDbLinetypeTableRecord
  2
CENTER
 70
     0
  3
Center ____ _ ____ _ ____ _ ____ _ ____ _ ____
 72
    65
 73
     4
 40
10.16
 49
6.35
 74
     0
 49
-1.27
 74
     0
 49
1.27
 74
     0
 49
-1.27
 74
     0
  0
LTYPE
  5
71
330
5
100
AcDbSymbolTableRecord
100
AcDbLinetypeTableRecord
  2
CENTERX2
 70
     0
  3
Center (2x) ________  __  ________  __  _____
 72
    65
 73
     4
 40
20.32
 49
12.7
 74
     0
 49
-2.54
 74
     0
 49
2.54
 74
     0
 49
-2.54
 74
     0
  0
LTYPE
  5
72
330
5
100
AcDbSymbolTableRecord
100
AcDbLinetypeTableRecord
  2
DOT2
 70
     0
  3
Dot (.5x) ........................................
 72
    65
 73
     2
 40
0.635
 49
0.0
 74
     0
 49
-0.635
 74
     0
  0
ENDTAB
  0
TABLE
  2
LAYER
  5
2
330
0
100
AcDbSymbolTable
 70
     1
  0
LAYER
  5
10
330
2
100
AcDbSymbolTableRecord
100
AcDbLayerTableRecord
  2
0
 70
     0
 62
     7
  6
Continuous
370
    -3
390
F
  0
ENDTAB
  0
TABLE
  2
STYLE
  5
3
330
0
100
AcDbSymbolTable
 70
     1
  0
STYLE
  5
11
330
3
100
AcDbSymbolTableRecord
100
AcDbTextStyleTableRecord
  2
Standard
 70
     0
 40
0.0
 41
1.0
 50
0.0
 71
     0
 42
6.35
  3
txt
  4

  0
ENDTAB
  0
TABLE
  2
VIEW
  5
6
330
0
100
AcDbSymbolTable
 70
     0
  0
ENDTAB
  0
TABLE
  2
UCS
  5
7
330
0
100
AcDbSymbolTable
 70
     0
  0
ENDTAB
  0
TABLE
  2
APPID
  5
9
330
0
100
AcDbSymbolTable
 70
     1
  0
APPID
  5
12
330
9
100
AcDbSymbolTableRecord
100
AcDbRegAppTableRecord
  2
ACAD
 70
     0
  0
ENDTAB
  0
TABLE
  2
DIMSTYLE
  5
A
330
0
100
AcDbSymbolTable
 70
     1
100
AcDbDimStyleTable
  0
DIMSTYLE
105
27
330
A
100
AcDbSymbolTableRecord
100
AcDbDimStyleTableRecord
  2
ISO-25
 70
     0
 41
2.5
 42
0.625
 43
3.75
 44
1.25
 73
     0
 74
     0
 77
     1
 78
     8
140
2.5
141
2.5
143
0.0393700787
147
0.625
171
     3
172
     1
178
     0
271
     2
272
     2
274
     3
278
    44
283
     0
284
     8
340
11
  0
ENDTAB
  0
TABLE
  2
BLOCK_RECORD
  5
1
330
0
100
AcDbSymbolTable
 70
     1
  0
BLOCK_RECORD
  5
1F
330
1
100
AcDbSymbolTableRecord
100
AcDbBlockTableRecord
  2
*Model_Space
340
22
  0
BLOCK_RECORD
  5
1B
330
1
100
AcDbSymbolTableRecord
100
AcDbBlockTableRecord
  2
*Paper_Space
340
1E
  0
BLOCK_RECORD
  5
23
330
1
100
AcDbSymbolTableRecord
100
AcDbBlockTableRecord
  2
*Paper_Space0
340
26
  0
ENDTAB
  0
ENDSEC
  0
SECTION
  2
BLOCKS
  0
BLOCK
  5
20
330
1F
100
AcDbEntity
  8
0
100
AcDbBlockBegin
  2
*Model_Space
 70
     0
 10
0.0
 20
0.0
 30
0.0
  3
*Model_Space
  1

  0
ENDBLK
  5
21
330
1F
100
AcDbEntity
  8
0
100
AcDbBlockEnd
  0
BLOCK
  5
1C
330
1B
100
AcDbEntity
 67
     1
  8
0
100
AcDbBlockBegin
  2
*Paper_Space
 70
     0
 10
0.0
 20
0.0
 30
0.0
  3
*Paper_Space
  1

  0
ENDBLK
  5
1D
330
1B
100
AcDbEntity
 67
     1
  8
0
100
AcDbBlockEnd
  0
BLOCK
  5
24
330
23
100
AcDbEntity
  8
0
100
AcDbBlockBegin
  2
*Paper_Space0
 70
     0
 10
0.0
 20
0.0
 30
0.0
  3
*Paper_Space0
  1

  0
ENDBLK
  5
25
330
23
100
AcDbEntity
  8
0
100
AcDbBlockEnd
  0
ENDSEC
  0
SECTION
  2
ENTITIES
  0
CIRCLE
  5
2CB
330
1F
100
AcDbEntity
  8
0
  6
Continuous
 62
     7
370
    15
100
AcDbCircle
 10
0.0
 20
0.0
 30
0.0
 40
0.4999999999999999
  0
LINE
  5
2CC
330
1F
100
AcDbEntity
  8
0
  6
Continuous
 62
     7
370
    15
100
AcDbLine
 10
-265.9972196495
 20
1.2161984733
 30
0.0
 11
-265.9972196495
 21
-1.2161984733
 31
0.0
  0
LINE
  5
2CD
330
1F
100
AcDbEntity
  8
0
  6
Continuous
 62
     7
370
    15
100
AcDbLine
 10
-265.7129657885
 20
12.3539391236
 30
0.0
 11
-265.8148240008
 21
9.9236758024
 31
0.0
  0
LINE
  5
2CE
330
1F
100
AcDbEntity
  8
0
  6
Continuous
 62
     7
370
    15
100
AcDbLine
 10
-264.9625610957
 20
23.4700067667
 30
0.0
 11
-265.1660988263
 21
21.0461405786
 31
0.0
  0
LINE
  5
2CF
330
1F
100
AcDbEntity
  8
0
  6
Continuous
 62
     7
370
    15
100
AcDbLine
 10
-263.7473220357
 20
34.5449000429
 30
0.0
 11
-264.0521822104
 21
32.1316832727
 31
0.0
  0
LINE
  5
2D0
330
1F
100
AcDbEntity
  8
0
  6
Continuous
 62
     7
370
    15
100
AcDbLine
 10
-262.069380551
 20
45.5591898259
 30
0.0
 11
-262.4750283413
 21
43.1608560759
 31
0.0
  0
LINE
  5
2D1
330
1F
100
AcDbEntity
  8
0
  6
Continuous
 62
     7
370
    15
100
AcDbLine
 10
-259.9316803211
 20
56.4935533088
 30
0.0
 11
-260.437404083
 21
54.1143100715
 31
0.0
  0
LINE
  5
2D2
330
1F
100
AcDbEntity
  8
0
  6
Continuous
 62
     7
370
    15
100
AcDbLine
 10
-257.3379715985
 20
67.3288079026
 30
0.0
 11
-257.9428841207
 21
64.972829179
 31
0.0
  0
LINE
  5
2D3
330
1F
100
AcDbEntity
  8
0
  6
Continuous
 62
     7
370
    15
100
AcDbLine
 10
-254.2928046296
 20
78.0459448889
 30
0.0
 11
-254.99584469
 21
75.7173638662
 31
0.0
  0
LINE
  5
2D4
330
1F
100
AcDbEntity
  8
0
  6
Continuous
 62
     7
370
    15
100
AcDbLine
 10
-250.8015216722
 20
88.6261627676
 30
0.0
 11
-251.6014558996
 21
86.3290645682
 31
0.0
  0
LINE
  5
2D5
330
1F
100
AcDbEntity
  8
0
  6
Continuous
 62
     7
370
    15
100
AcDbLine
 10
-246.8702476228
 20
99.0509002415
 30
0.0
 11
-247.7656726607
 21
96.7893147562
 31
0.0
  0
LINE
  5
2D6
330
1F
100
AcDbEntity
  8
0
  6
Continuous
 62
     7
370
    15
100
AcDbLine
 10
-242.505879272
 20
109.3018687786
 30
0.0
 11
-243.4952242407
 21
107.0797635969
 31
0.0
  0
LINE
  5
2D7
330
1F
100
AcDbEntity
  8
0
  6
Continuous
 62
     7
370
    15
100
AcDbLine
 10
-237.716073205
 20
119.3610846969
 30
0.0
 11
-238.7976024572
 21
117.1823581462
 31
0.0
  0
LINE
  5
2D8
330
1F
100
AcDbEntity
  8
0
  6
Continuous
 62
     7
370
    15
100
AcDbLine
 10
-232.509232369
 20
129.2109007134
 30
0.0
 11
-233.6810485349
 21
127.0793750206
 31
0.0
  0
LINE
  5
2D9
330
1F
100
AcDbEntity
  8
0
  6
Continuous
 62
     7
370
    15
100
AcDbLine
 10
-226.8944913323
 20
138.8340369039
 30
0.0
 11
-228.1545386482
 21
136.7534514893
 31
0.0
  0
LINE
  5
2DA
330
1F
100
AcDbEntity
  8
0
  6
Continuous
 62
     7
370
    15
100
AcDbLine
 10
-220.8817002586
 20
148.2136110176
 30
0.0
 11
-222.2277681732
 21
146.1876159349
 31
0.0
  0
LINE
  5
2DB
330
1F
100
AcDbEntity
  8
0
  6
Continuous
 62
     7
370
    15
100
AcDbLine
 10
-214.4814076265
 20
157.3331680942
 30
0.0
 11
-215.9111346794
 21
155.3653176274
 31
0.0
  0
LINE
  5
2DC
330
1F
100
AcDbEntity
  8
0
  6
Continuous
 62
     7
370
    15
100
AcDbLine
 10
-207.7048417241
 20
166.1767093318
 30
0.0
 11
-209.2157196883
 21
164.2704557592
 31
0.0
  0
LINE
  5
2DD
330
1F
100
AcDbEntity
  8
0
  6
Continuous
 62
     7
370
    15
100
AcDbLine
 10
-200.5638909508
 20
174.7287201541
 30
0.0
 11
-202.1532692328
 21
172.8874076921
 31
0.0
  0
LINE
  5
2DE
330
1F
100
AcDbEntity
  8
0
  6
Continuous
 62
     7
370
    15
100
AcDbLine
 10
-193.0710829607
 20
182.9741974279
 30
0.0
 11
-194.736173251
 21
181.2010563644
 31
0.0
  0
LINE
  5
2DF
330
1F
100
AcDbEntity
  8
0
  6
Continuous
 62
     7
370
    15
100
AcDbLine
 10
-185.2395626851
 20
190.8986757844
 30
0.0
 11
-186.9774438494
 21
189.1968168113
 31
0.0
  0
LINE
  5
2E0
330
1F
100
AcDbEntity
  8
0
  6
Continuous
 62
     7
370
    15
100
AcDbLine
 10
-177.0830692717
 20
198.4882529958
 30
0.0
 11
-178.890692476
 21
196.860661752
 31
0.0
  0
LINE
  5
2E1
330
1F
100
AcDbEntity
  8
0
  6
Continuous
 62
     7
370
    15
100
AcDbLine
 10
-168.6159119815
 20
205.7296143647
 30
0.0
 11
-170.4901060406
 21
204.1791461983
 31
0.0
  0
LINE
  5
2E2
330
1F
100
AcDbEntity
  8
0
  6
Continuous
 62
     7
370
    15
100
AcDbLine
 10
-159.8529450857
 20
212.6100560826
 30
0.0
 11
-161.7904220262
 21
211.1394310416
 31
0.0
  0
LINE
  5
2E3
330
1F
100
AcDbEntity
  8
0
  6
Continuous
 62
     7
370
    15
100
AcDbLine
 10
-150.8095418058
 20
219.1175075167
 30
0.0
 11
-152.8069026348
 21
217.7293055773
 31
0.0
  0
LINE
  5
2E4
330
1F
100
AcDbEntity
  8
0
  6
Continuous
 62
     7
370
    15
100
AcDbLine
 10
-141.5015673442
 20
225.240552386
 30
0.0
 11
-143.5553080121
 21
223.937208926
 31
0.0
  0
LINE
  5
2E5
330
1F
100
AcDbEntity
  8
0
  6
Continuous
 62
     7
370
    15
100
AcDbLine
 10
-131.9453510508
 20
230.9684487892
 30
0.0
 11
-134.0518685987
 21
229.7522503159
 31
0.0
  0
LINE
  5
2E6
330
1F
100
AcDbEntity
  8
0
  6
Continuous
 62
     7
370
    15
100
AcDbLine
 10
-122.1576577764
 20
236.2911480496
 30
0.0
 11
-124.3132566566
 21
235.1642281884
 31
0.0
  0
LINE
  5
2E7
330
1F
100
AcDbEntity
  8
0
  6
Continuous
 62
     7
370
    15
100
AcDbLine
 10
-112.1556584608
 20
241.199312344
 30
0.0
 11
-114.3565570205
 21
240.1636480953
 31
0.0
  0
LINE
  5
2E8
330
1F
100
AcDbEntity
  8
0
  6
Continuous
 62
     7
370
    15
100
AcDbLine
 10
-101.9569000096
 20
245.6843310845
 30
0.0
 11
-104.1992371247
 21
244.7417393553
 31
0.0
  0
LINE
  5
2E9
330
1F
100
AcDbEntity
  8
0
  6
Continuous
 62
     7
370
    15
100
AcDbLine
 10
-91.5792745105
 20
249.7383360242
 30
0.0
 11
-93.8591163598
 21
248.8904704406
 31
0.0
  0
LINE
  5
2EA
330
1F
100
AcDbEntity
  8
0
  6
Continuous
 62
     7
370
    15
100
AcDbLine
 10
-81.040987845
 20
253.3542150609
 30
0.0
 11
-83.3543348113
 21
252.6025630673
 31
0.0
  0
LINE
  5
2EB
330
1F
100
AcDbEntity
  8
0
  6
Continuous
 62
     7
370
    15
100
AcDbLine
 10
-70.360527749
 20
256.5256247139
 30
0.0
 11
-72.7033214356
 21
255.8715049634
 31
0.0
  0
LINE
  5
2EC
330
1F
100
AcDbEntity
  8
0
  6
Continuous
 62
     7
370
    15
100
AcDbLine
 10
-59.5566313787
 20
259.2470012533
 30
0.0
 11
-61.9247617293
 21
258.6915612941
 31
0.0
  0
LINE
  5
2ED
330
1F
100
AcDbEntity
  8
0
  6
Continuous
 62
     7
370
    15
100
AcDbLine
 10
-48.6482524394
 20
261.5135704597
 30
0.0
 11
-51.0375649488
 21
261.0577847223
 31
0.0
  0
LINE
  5
2EE
330
1F
100
AcDbEntity
  8
0
  6
Continuous
 62
     7
370
    15
100
AcDbLine
 10
-37.6545279345
 20
263.3213560007
 30
0.0
 11
-40.0608309366
 21
262.966024088
 31
0.0
  0
LINE
  5
2EF
330
1F
100
AcDbEntity
  8
0
  6
Continuous
 62
     7
370
    15
100
AcDbLine
 10
-26.5947445926
 20
264.667186406
 30
0.0
 11
-29.0138166142
 21
264.4129316911
 31
0.0
  0
LINE
  5
2F0
330
1F
100
AcDbEntity
  8
0
  6
Continuous
 62
     7
370
    15
100
AcDbLine
 10
-15.4883050317
 20
265.5487006318
 30
0.0
 11
-17.9159021986
 21
265.3959691638
 31
0.0
  0
LINE
  5
2F1
330
1F
100
AcDbEntity
  8
0
  6
Continuous
 62
     7
370
    15
100
AcDbLine
 10
-4.3546937208
 20
265.9643522027
 30
0.0
 11
-6.7865572026
 21
265.9134119245
 31
0.0
  0
LINE
  5
2F2
330
1F
100
AcDbEntity
  8
0
  6
Continuous
 62
     7
370
    15
100
AcDbLine
 10
6.7865572026
 20
265.9134119245
 30
0.0
 11
4.3546937208
 21
265.9643522027
 31
0.0
  0
LINE
  5
2F3
330
1F
100
AcDbEntity
  8
0
  6
Continuous
 62
     7
370
    15
100
AcDbLine
 10
17.9159021986
 20
265.3959691638
 30
0.0
 11
15.4883050317
 21
265.5487006318
 31
0.0
  0
LINE
  5
2F4
330
1F
100
AcDbEntity
  8
0
  6
Continuous
 62
     7
370
    15
100
AcDbLine
 10
29.0138166142
 20
264.4129316911
 30
0.0
 11
26.5947445926
 21
264.667186406
 31
0.0
  0
LINE
  5
2F5
330
1F
100
AcDbEntity
  8
0
  6
Continuous
 62
     7
370
    15
100
AcDbLine
 10
40.0608309366
 20
262.966024088
 30
0.0
 11
37.6545279345
 21
263.3213560007
 31
0.0
  0
LINE
  5
2F6
330
1F
100
AcDbEntity
  8
0
  6
Continuous
 62
     7
370
    15
100
AcDbLine
 10
51.0375649488
 20
261.0577847223
 30
0.0
 11
48.6482524394
 21
261.5135704597
 31
0.0
  0
LINE
  5
2F7
330
1F
100
AcDbEntity
  8
0
  6
Continuous
 62
     7
370
    15
100
AcDbLine
 10
61.9247617293
 20
258.6915612941
 30
0.0
 11
59.5566313787
 21
259.2470012533
 31
0.0
  0
LINE
  5
2F8
330
1F
100
AcDbEntity
  8
0
  6
Continuous
 62
     7
370
    15
100
AcDbLine
 10
72.7033214356
 20
255.8715049634
 30
0.0
 11
70.360527749
 21
256.5256247139
 31
0.0
  0
LINE
  5
2F9
330
1F
100
AcDbEntity
  8
0
  6
Continuous
 62
     7
370
    15
100
AcDbLine
 10
83.3543348113
 20
252.6025630673
 30
0.0
 11
81.040987845
 21
253.3542150609
 31
0.0
  0
LINE
  5
2FA
330
1F
100
AcDbEntity
  8
0
  6
Continuous
 62
     7
370
    15
100
AcDbLine
 10
93.8591163598
 20
248.8904704406
 30
0.0
 11
91.5792745105
 21
249.7383360242
 31
0.0
  0
LINE
  5
2FB
330
1F
100
AcDbEntity
  8
0
  6
Continuous
 62
     7
370
    15
100
AcDbLine
 10
104.1992371247
 20
244.7417393553
 30
0.0
 11
101.9569000095
 21
245.6843310845
 31
0.0
  0
LINE
  5
2FC
330
1F
100
AcDbEntity
  8
0
  6
Continuous
 62
     7
370
    15
100
AcDbLine
 10
114.3565570205
 20
240.1636480953
 30
0.0
 11
112.1556584608
 21
241.199312344
 31
0.0
  0
LINE
  5
2FD
330
1F
100
AcDbEntity
  8
0
  6
Continuous
 62
     7
370
    15
100
AcDbLine
 10
124.3132566566
 20
235.1642281884
 30
0.0
 11
122.1576577764
 21
236.2911480496
 31
0.0
  0
LINE
  5
2FE
330
1F
100
AcDbEntity
  8
0
  6
Continuous
 62
     7
370
    15
100
AcDbLine
 10
134.0518685987
 20
229.7522503159
 30
0.0
 11
131.9453510508
 21
230.9684487892
 31
0.0
  0
LINE
  5
2FF
330
1F
100
AcDbEntity
  8
0
  6
Continuous
 62
     7
370
    15
100
AcDbLine
 10
143.5553080121
 20
223.937208926
 30
0.0
 11
141.5015673442
 21
225.240552386
 31
0.0
  0
LINE
  5
300
330
1F
100
AcDbEntity
  8
0
  6
Continuous
 62
     7
370
    15
100
AcDbLine
 10
152.8069026348
 20
217.7293055773
 30
0.0
 11
150.8095418058
 21
219.1175075167
 31
0.0
  0
LINE
  5
301
330
1F
100
AcDbEntity
  8
0
  6
Continuous
 62
     7
370
    15
100
AcDbLine
 10
161.7904220262
 20
211.1394310416
 30
0.0
 11
159.8529450857
 21
212.6100560826
 31
0.0
  0
LINE
  5
302
330
1F
100
AcDbEntity
  8
0
  6
Continuous
 62
     7
370
    15
100
AcDbLine
 10
170.4901060406
 20
204.1791461983
 30
0.0
 11
168.6159119815
 21
205.7296143647
 31
0.0
  0
LINE
  5
303
330
1F
100
AcDbEntity
  8
0
  6
Continuous
 62
     7
370
    15
100
AcDbLine
 10
178.890692476
 20
196.860661752
 30
0.0
 11
177.0830692717
 21
198.4882529958
 31
0.0
  0
LINE
  5
304
330
1F
100
AcDbEntity
  8
0
  6
Continuous
 62
     7
370
    15
100
AcDbLine
 10
186.9774438494
 20
189.1968168113
 30
0.0
 11
185.2395626851
 21
190.8986757844
 31
0.0
  0
LINE
  5
305
330
1F
100
AcDbEntity
  8
0
  6
Continuous
 62
     7
370
    15
100
AcDbLine
 10
194.736173251
 20
181.2010563644
 30
0.0
 11
193.0710829607
 21
182.9741974279
 31
0.0
  0
LINE
  5
306
330
1F
100
AcDbEntity
  8
0
  6
Continuous
 62
     7
370
    15
100
AcDbLine
 10
202.1532692328
 20
172.8874076921
 30
0.0
 11
200.5638909508
 21
174.7287201541
 31
0.0
  0
LINE
  5
307
330
1F
100
AcDbEntity
  8
0
  6
Continuous
 62
     7
370
    15
100
AcDbLine
 10
209.2157196883
 20
164.2704557592
 30
0.0
 11
207.7048417241
 21
166.1767093318
 31
0.0
  0
LINE
  5
308
330
1F
100
AcDbEntity
  8
0
  6
Continuous
 62
     7
370
    15
100
AcDbLine
 10
215.9111346794
 20
155.3653176274
 30
0.0
 11
214.4814076265
 21
157.3331680942
 31
0.0
  0
LINE
  5
309
330
1F
100
AcDbEntity
  8
0
  6
Continuous
 62
     7
370
    15
100
AcDbLine
 10
222.2277681732
 20
146.1876159349
 30
0.0
 11
220.8817002586
 21
148.2136110176
 31
0.0
  0
LINE
  5
30A
330
1F
100
AcDbEntity
  8
0
  6
Continuous
 62
     7
370
    15
100
AcDbLine
 10
228.1545386482
 20
136.7534514893
 30
0.0
 11
226.8944913323
 21
138.8340369039
 31
0.0
  0
LINE
  5
30B
330
1F
100
AcDbEntity
  8
0
  6
Continuous
 62
     7
370
    15
100
AcDbLine
 10
233.6810485349
 20
127.0793750206
 30
0.0
 11
232.509232369
 21
129.2109007134
 31
0.0
  0
LINE
  5
30C
330
1F
100
AcDbEntity
  8
0
  6
Continuous
 62
     7
370
    15
100
AcDbLine
 10
238.7976024572
 20
117.1823581462
 30
0.0
 11
237.716073205
 21
119.3610846969
 31
0.0
  0
LINE
  5
30D
330
1F
100
AcDbEntity
  8
0
  6
Continuous
 62
     7
370
    15
100
AcDbLine
 10
243.4952242407
 20
107.0797635969
 30
0.0
 11
242.505879272
 21
109.3018687786
 31
0.0
  0
LINE
  5
30E
330
1F
100
AcDbEntity
  8
0
  6
Continuous
 62
     7
370
    15
100
AcDbLine
 10
247.7656726607
 20
96.7893147562
 30
0.0
 11
246.8702476228
 21
99.0509002415
 31
0.0
  0
LINE
  5
30F
330
1F
100
AcDbEntity
  8
0
  6
Continuous
 62
     7
370
    15
100
AcDbLine
 10
251.6014558996
 20
86.3290645682
 30
0.0
 11
250.8015216722
 21
88.6261627676
 31
0.0
  0
LINE
  5
310
330
1F
100
AcDbEntity
  8
0
  6
Continuous
 62
     7
370
    15
100
AcDbLine
 10
254.99584469
 20
75.7173638662
 30
0.0
 11
254.2928046296
 21
78.0459448889
 31
0.0
  0
LINE
  5
311
330
1F
100
AcDbEntity
  8
0
  6
Continuous
 62
     7
370
    15
100
AcDbLine
 10
257.9428841207
 20
64.972829179
 30
0.0
 11
257.3379715985
 21
67.3288079026
 31
0.0
  0
LINE
  5
312
330
1F
100
AcDbEntity
  8
0
  6
Continuous
 62
     7
370
    15
100
AcDbLine
 10
260.437404083
 20
54.1143100715
 30
0.0
 11
259.9316803211
 21
56.4935533088
 31
0.0
  0
LINE
  5
313
330
1F
100
AcDbEntity
  8
0
  6
Continuous
 62
     7
370
    15
100
AcDbLine
 10
262.4750283413
 20
43.160856076
 30
0.0
 11
262.069380551
 21
45.5591898259
 31
0.0
  0
LINE
  5
314
330
1F
100
AcDbEntity
  8
0
  6
Continuous
 62
     7
370
    15
100
AcDbLine
 10
264.0521822104
 20
32.1316832727
 30
0.0
 11
263.7473220357
 21
34.5449000429
 31
0.0
  0
LINE
  5
315
330
1F
100
AcDbEntity
  8
0
  6
Continuous
 62
     7
370
    15
100
AcDbLine
 10
265.1660988263
 20
21.0461405786
 30
0.0
 11
264.9625610957
 21
23.4700067667
 31
0.0
  0
LINE
  5
316
330
1F
100
AcDbEntity
  8
0
  6
Continuous
 62
     7
370
    15
100
AcDbLine
 10
265.8148240008
 20
9.9236758024
 30
0.0
 11
265.7129657885
 21
12.3539391236
 31
0.0
  0
LINE
  5
317
330
1F
100
AcDbEntity
  8
0
  6
Continuous
 62
     7
370
    15
100
AcDbLine
 10
265.9972196495
 20
-1.2161984733
 30
0.0
 11
265.9972196495
 21
1.2161984733
 31
0.0
  0
LINE
  5
318
330
1F
100
AcDbEntity
  8
0
  6
Continuous
 62
     7
370
    15
100
AcDbLine
 10
265.7129657885
 20
-12.3539391236
 30
0.0
 11
265.8148240008
 21
-9.9236758024
 31
0.0
  0
LINE
  5
319
330
1F
100
AcDbEntity
  8
0
  6
Continuous
 62
     7
370
    15
100
AcDbLine
 10
264.9625610957
 20
-23.4700067667
 30
0.0
 11
265.1660988263
 21
-21.0461405786
 31
0.0
  0
LINE
  5
31A
330
1F
100
AcDbEntity
  8
0
  6
Continuous
 62
     7
370
    15
100
AcDbLine
 10
263.7473220357
 20
-34.5449000429
 30
0.0
 11
264.0521822104
 21
-32.1316832727
 31
0.0
  0
LINE
  5
31B
330
1F
100
AcDbEntity
  8
0
  6
Continuous
 62
     7
370
    15
100
AcDbLine
 10
262.069380551
 20
-45.5591898259
 30
0.0
 11
262.4750283413
 21
-43.1608560759
 31
0.0
  0
LINE
  5
31C
330
1F
100
AcDbEntity
  8
0
  6
Continuous
 62
     7
370
    15
100
AcDbLine
 10
259.9316803211
 20
-56.4935533088
 30
0.0
 11
260.437404083
 21
-54.1143100715
 31
0.0
  0
LINE
  5
31D
330
1F
100
AcDbEntity
  8
0
  6
Continuous
 62
     7
370
    15
100
AcDbLine
 10
257.3379715985
 20
-67.3288079026
 30
0.0
 11
257.9428841207
 21
-64.972829179
 31
0.0
  0
LINE
  5
31E
330
1F
100
AcDbEntity
  8
0
  6
Continuous
 62
     7
370
    15
100
AcDbLine
 10
254.2928046296
 20
-78.0459448889
 30
0.0
 11
254.99584469
 21
-75.7173638662
 31
0.0
  0
LINE
  5
31F
330
1F
100
AcDbEntity
  8
0
  6
Continuous
 62
     7
370
    15
100
AcDbLine
 10
250.8015216722
 20
-88.6261627676
 30
0.0
 11
251.6014558996
 21
-86.3290645682
 31
0.0
  0
LINE
  5
320
330
1F
100
AcDbEntity
  8
0
  6
Continuous
 62
     7
370
    15
100
AcDbLine
 10
246.8702476228
 20
-99.0509002415
 30
0.0
 11
247.7656726607
 21
-96.7893147562
 31
0.0
  0
LINE
  5
321
330
1F
100
AcDbEntity
  8
0
  6
Continuous
 62
     7
370
    15
100
AcDbLine
 10
242.505879272
 20
-109.3018687786
 30
0.0
 11
243.4952242407
 21
-107.0797635969
 31
0.0
  0
LINE
  5
322
330
1F
100
AcDbEntity
  8
0
  6
Continuous
 62
     7
370
    15
100
AcDbLine
 10
237.716073205
 20
-119.3610846969
 30
0.0
 11
238.7976024572
 21
-117.1823581462
 31
0.0
  0
LINE
  5
323
330
1F
100
AcDbEntity
  8
0
  6
Continuous
 62
     7
370
    15
100
AcDbLine
 10
232.509232369
 20
-129.2109007134
 30
0.0
 11
233.6810485349
 21
-127.0793750206
 31
0.0
  0
LINE
  5
324
330
1F
100
AcDbEntity
  8
0
  6
Continuous
 62
     7
370
    15
100
AcDbLine
 10
226.8944913323
 20
-138.8340369039
 30
0.0
 11
228.1545386482
 21
-136.7534514893
 31
0.0
  0
LINE
  5
325
330
1F
100
AcDbEntity
  8
0
  6
Continuous
 62
     7
370
    15
100
AcDbLine
 10
220.8817002586
 20
-148.2136110176
 30
0.0
 11
222.2277681732
 21
-146.1876159349
 31
0.0
  0
LINE
  5
326
330
1F
100
AcDbEntity
  8
0
  6
Continuous
 62
     7
370
    15
100
AcDbLine
 10
214.4814076265
 20
-157.3331680942
 30
0.0
 11
215.9111346794
 21
-155.3653176273
 31
0.0
  0
LINE
  5
327
330
1F
100
AcDbEntity
  8
0
  6
Continuous
 62
     7
370
    15
100
AcDbLine
 10
207.7048417241
 20
-166.1767093318
 30
0.0
 11
209.2157196883
 21
-164.2704557592
 31
0.0
  0
LINE
  5
328
330
1F
100
AcDbEntity
  8
0
  6
Continuous
 62
     7
370
    15
100
AcDbLine
 10
200.5638909508
 20
-174.7287201541
 30
0.0
 11
202.1532692328
 21
-172.8874076921
 31
0.0
  0
LINE
  5
329
330
1F
100
AcDbEntity
  8
0
  6
Continuous
 62
     7
370
    15
100
AcDbLine
 10
193.0710829607
 20
-182.9741974279
 30
0.0
 11
194.736173251
 21
-181.2010563644
 31
0.0
  0
LINE
  5
32A
330
1F
100
AcDbEntity
  8
0
  6
Continuous
 62
     7
370
    15
100
AcDbLine
 10
185.2395626851
 20
-190.8986757844
 30
0.0
 11
186.9774438494
 21
-189.1968168113
 31
0.0
  0
LINE
  5
32B
330
1F
100
AcDbEntity
  8
0
  6
Continuous
 62
     7
370
    15
100
AcDbLine
 10
177.0830692717
 20
-198.4882529958
 30
0.0
 11
178.890692476
 21
-196.860661752
 31
0.0
  0
LINE
  5
32C
330
1F
100
AcDbEntity
  8
0
  6
Continuous
 62
     7
370
    15
100
AcDbLine
 10
168.6159119815
 20
-205.7296143647
 30
0.0
 11
170.4901060406
 21
-204.1791461983
 31
0.0
  0
LINE
  5
32D
330
1F
100
AcDbEntity
  8
0
  6
Continuous
 62
     7
370
    15
100
AcDbLine
 10
159.8529450857
 20
-212.6100560826
 30
0.0
 11
161.7904220262
 21
-211.1394310416
 31
0.0
  0
LINE
  5
32E
330
1F
100
AcDbEntity
  8
0
  6
Continuous
 62
     7
370
    15
100
AcDbLine
 10
150.8095418058
 20
-219.1175075167
 30
0.0
 11
152.8069026348
 21
-217.7293055773
 31
0.0
  0
LINE
  5
32F
330
1F
100
AcDbEntity
  8
0
  6
Continuous
 62
     7
370
    15
100
AcDbLine
 10
141.5015673442
 20
-225.240552386
 30
0.0
 11
143.5553080121
 21
-223.937208926
 31
0.0
  0
LINE
  5
330
330
1F
100
AcDbEntity
  8
0
  6
Continuous
 62
     7
370
    15
100
AcDbLine
 10
131.9453510508
 20
-230.9684487892
 30
0.0
 11
134.0518685987
 21
-229.7522503159
 31
0.0
  0
LINE
  5
331
330
1F
100
AcDbEntity
  8
0
  6
Continuous
 62
     7
370
    15
100
AcDbLine
 10
122.1576577764
 20
-236.2911480496
 30
0.0
 11
124.3132566566
 21
-235.1642281884
 31
0.0
  0
LINE
  5
332
330
1F
100
AcDbEntity
  8
0
  6
Continuous
 62
     7
370
    15
100
AcDbLine
 10
112.1556584608
 20
-241.199312344
 30
0.0
 11
114.3565570205
 21
-240.1636480953
 31
0.0
  0
LINE
  5
333
330
1F
100
AcDbEntity
  8
0
  6
Continuous
 62
     7
370
    15
100
AcDbLine
 10
101.9569000096
 20
-245.6843310845
 30
0.0
 11
104.1992371247
 21
-244.7417393553
 31
0.0
  0
LINE
  5
334
330
1F
100
AcDbEntity
  8
0
  6
Continuous
 62
     7
370
    15
100
AcDbLine
 10
91.5792745105
 20
-249.7383360242
 30
0.0
 11
93.8591163598
 21
-248.8904704406
 31
0.0
  0
LINE
  5
335
330
1F
100
AcDbEntity
  8
0
  6
Continuous
 62
     7
370
    15
100
AcDbLine
 10
81.040987845
 20
-253.3542150609
 30
0.0
 11
83.3543348113
 21
-252.6025630673
 31
0.0
  0
LINE
  5
336
330
1F
100
AcDbEntity
  8
0
  6
Continuous
 62
     7
370
    15
100
AcDbLine
 10
70.360527749
 20
-256.5256247139
 30
0.0
 11
72.7033214356
 21
-255.8715049634
 31
0.0
  0
LINE
  5
337
330
1F
100
AcDbEntity
  8
0
  6
Continuous
 62
     7
370
    15
100
AcDbLine
 10
59.5566313787
 20
-259.2470012533
 30
0.0
 11
61.9247617293
 21
-258.6915612941
 31
0.0
  0
LINE
  5
338
330
1F
100
AcDbEntity
  8
0
  6
Continuous
 62
     7
370
    15
100
AcDbLine
 10
48.6482524394
 20
-261.5135704597
 30
0.0
 11
51.0375649488
 21
-261.0577847223
 31
0.0
  0
LINE
  5
339
330
1F
100
AcDbEntity
  8
0
  6
Continuous
 62
     7
370
    15
100
AcDbLine
 10
37.6545279346
 20
-263.3213560007
 30
0.0
 11
40.0608309366
 21
-262.966024088
 31
0.0
  0
LINE
  5
33A
330
1F
100
AcDbEntity
  8
0
  6
Continuous
 62
     7
370
    15
100
AcDbLine
 10
26.5947445926
 20
-264.667186406
 30
0.0
 11
29.0138166143
 21
-264.4129316911
 31
0.0
  0
LINE
  5
33B
330
1F
100
AcDbEntity
  8
0
  6
Continuous
 62
     7
370
    15
100
AcDbLine
 10
15.4883050317
 20
-265.5487006318
 30
0.0
 11
17.9159021986
 21
-265.3959691638
 31
0.0
  0
LINE
  5
33C
330
1F
100
AcDbEntity
  8
0
  6
Continuous
 62
     7
370
    15
100
AcDbLine
 10
4.3546937208
 20
-265.9643522027
 30
0.0
 11
6.7865572026
 21
-265.9134119245
 31
0.0
  0
LINE
  5
33D
330
1F
100
AcDbEntity
  8
0
  6
Continuous
 62
     7
370
    15
100
AcDbLine
 10
-6.7865572026
 20
-265.9134119245
 30
0.0
 11
-4.3546937208
 21
-265.9643522027
 31
0.0
  0
LINE
  5
33E
330
1F
100
AcDbEntity
  8
0
  6
Continuous
 62
     7
370
    15
100
AcDbLine
 10
-17.9159021986
 20
-265.3959691638
 30
0.0
 11
-15.4883050317
 21
-265.5487006318
 31
0.0
  0
LINE
  5
33F
330
1F
100
AcDbEntity
  8
0
  6
Continuous
 62
     7
370
    15
100
AcDbLine
 10
-29.0138166142
 20
-264.4129316911
 30
0.0
 11
-26.5947445926
 21
-264.667186406
 31
0.0
  0
LINE
  5
340
330
1F
100
AcDbEntity
  8
0
  6
Continuous
 62
     7
370
    15
100
AcDbLine
 10
-40.0608309366
 20
-262.966024088
 30
0.0
 11
-37.6545279345
 21
-263.3213560007
 31
0.0
  0
LINE
  5
341
330
1F
100
AcDbEntity
  8
0
  6
Continuous
 62
     7
370
    15
100
AcDbLine
 10
-51.0375649488
 20
-261.0577847223
 30
0.0
 11
-48.6482524394
 21
-261.5135704597
 31
0.0
  0
LINE
  5
342
330
1F
100
AcDbEntity
  8
0
  6
Continuous
 62
     7
370
    15
100
AcDbLine
 10
-61.9247617293
 20
-258.6915612941
 30
0.0
 11
-59.5566313787
 21
-259.2470012533
 31
0.0
  0
LINE
  5
343
330
1F
100
AcDbEntity
  8
0
  6
Continuous
 62
     7
370
    15
100
AcDbLine
 10
-72.7033214356
 20
-255.8715049634
 30
0.0
 11
-70.360527749
 21
-256.5256247139
 31
0.0
  0
LINE
  5
344
330
1F
100
AcDbEntity
  8
0
  6
Continuous
 62
     7
370
    15
100
AcDbLine
 10
-83.3543348113
 20
-252.6025630673
 30
0.0
 11
-81.040987845
 21
-253.3542150609
 31
0.0
  0
LINE
  5
345
330
1F
100
AcDbEntity
  8
0
  6
Continuous
 62
     7
370
    15
100
AcDbLine
 10
-93.8591163598
 20
-248.8904704406
 30
0.0
 11
-91.5792745105
 21
-249.7383360242
 31
0.0
  0
LINE
  5
346
330
1F
100
AcDbEntity
  8
0
  6
Continuous
 62
     7
370
    15
100
AcDbLine
 10
-104.1992371247
 20
-244.7417393553
 30
0.0
 11
-101.9569000096
 21
-245.6843310845
 31
0.0
  0
LINE
  5
347
330
1F
100
AcDbEntity
  8
0
  6
Continuous
 62
     7
370
    15
100
AcDbLine
 10
-114.3565570205
 20
-240.1636480953
 30
0.0
 11
-112.1556584608
 21
-241.199312344
 31
0.0
  0
LINE
  5
348
330
1F
100
AcDbEntity
  8
0
  6
Continuous
 62
     7
370
    15
100
AcDbLine
 10
-124.3132566566
 20
-235.1642281884
 30
0.0
 11
-122.1576577764
 21
-236.2911480496
 31
0.0
  0
LINE
  5
349
330
1F
100
AcDbEntity
  8
0
  6
Continuous
 62
     7
370
    15
100
AcDbLine
 10
-134.0518685987
 20
-229.7522503159
 30
0.0
 11
-131.9453510508
 21
-230.9684487892
 31
0.0
  0
LINE
  5
34A
330
1F
100
AcDbEntity
  8
0
  6
Continuous
 62
     7
370
    15
100
AcDbLine
 10
-143.5553080121
 20
-223.937208926
 30
0.0
 11
-141.5015673442
 21
-225.240552386
 31
0.0
  0
LINE
  5
34B
330
1F
100
AcDbEntity
  8
0
  6
Continuous
 62
     7
370
    15
100
AcDbLine
 10
-152.8069026348
 20
-217.7293055773
 30
0.0
 11
-150.8095418058
 21
-219.1175075167
 31
0.0
  0
LINE
  5
34C
330
1F
100
AcDbEntity
  8
0
  6
Continuous
 62
     7
370
    15
100
AcDbLine
 10
-161.7904220262
 20
-211.1394310416
 30
0.0
 11
-159.8529450857
 21
-212.6100560826
 31
0.0
  0
LINE
  5
34D
330
1F
100
AcDbEntity
  8
0
  6
Continuous
 62
     7
370
    15
100
AcDbLine
 10
-170.4901060406
 20
-204.1791461983
 30
0.0
 11
-168.6159119815
 21
-205.7296143647
 31
0.0
  0
LINE
  5
34E
330
1F
100
AcDbEntity
  8
0
  6
Continuous
 62
     7
370
    15
100
AcDbLine
 10
-178.890692476
 20
-196.860661752
 30
0.0
 11
-177.0830692717
 21
-198.4882529958
 31
0.0
  0
LINE
  5
34F
330
1F
100
AcDbEntity
  8
0
  6
Continuous
 62
     7
370
    15
100
AcDbLine
 10
-186.9774438494
 20
-189.1968168113
 30
0.0
 11
-185.2395626851
 21
-190.8986757844
 31
0.0
  0
LINE
  5
350
330
1F
100
AcDbEntity
  8
0
  6
Continuous
 62
     7
370
    15
100
AcDbLine
 10
-194.736173251
 20
-181.2010563644
 30
0.0
 11
-193.0710829607
 21
-182.9741974279
 31
0.0
  0
LINE
  5
351
330
1F
100
AcDbEntity
  8
0
  6
Continuous
 62
     7
370
    15
100
AcDbLine
 10
-202.1532692328
 20
-172.8874076921
 30
0.0
 11
-200.5638909508
 21
-174.7287201541
 31
0.0
  0
LINE
  5
352
330
1F
100
AcDbEntity
  8
0
  6
Continuous
 62
     7
370
    15
100
AcDbLine
 10
-209.2157196883
 20
-164.2704557592
 30
0.0
 11
-207.7048417241
 21
-166.1767093318
 31
0.0
  0
LINE
  5
353
330
1F
100
AcDbEntity
  8
0
  6
Continuous
 62
     7
370
    15
100
AcDbLine
 10
-215.9111346794
 20
-155.3653176274
 30
0.0
 11
-214.4814076265
 21
-157.3331680942
 31
0.0
  0
LINE
  5
354
330
1F
100
AcDbEntity
  8
0
  6
Continuous
 62
     7
370
    15
100
AcDbLine
 10
-222.2277681732
 20
-146.1876159349
 30
0.0
 11
-220.8817002586
 21
-148.2136110176
 31
0.0
  0
LINE
  5
355
330
1F
100
AcDbEntity
  8
0
  6
Continuous
 62
     7
370
    15
100
AcDbLine
 10
-228.1545386482
 20
-136.7534514893
 30
0.0
 11
-226.8944913323
 21
-138.8340369039
 31
0.0
  0
LINE
  5
356
330
1F
100
AcDbEntity
  8
0
  6
Continuous
 62
     7
370
    15
100
AcDbLine
 10
-233.6810485349
 20
-127.0793750206
 30
0.0
 11
-232.509232369
 21
-129.2109007134
 31
0.0
  0
LINE
  5
357
330
1F
100
AcDbEntity
  8
0
  6
Continuous
 62
     7
370
    15
100
AcDbLine
 10
-238.7976024572
 20
-117.1823581462
 30
0.0
 11
-237.716073205
 21
-119.3610846969
 31
0.0
  0
LINE
  5
358
330
1F
100
AcDbEntity
  8
0
  6
Continuous
 62
     7
370
    15
100
AcDbLine
 10
-243.4952242407
 20
-107.0797635969
 30
0.0
 11
-242.505879272
 21
-109.3018687786
 31
0.0
  0
LINE
  5
359
330
1F
100
AcDbEntity
  8
0
  6
Continuous
 62
     7
370
    15
100
AcDbLine
 10
-247.7656726607
 20
-96.7893147562
 30
0.0
 11
-246.8702476228
 21
-99.0509002415
 31
0.0
  0
LINE
  5
35A
330
1F
100
AcDbEntity
  8
0
  6
Continuous
 62
     7
370
    15
100
AcDbLine
 10
-251.6014558996
 20
-86.3290645682
 30
0.0
 11
-250.8015216722
 21
-88.6261627676
 31
0.0
  0
LINE
  5
35B
330
1F
100
AcDbEntity
  8
0
  6
Continuous
 62
     7
370
    15
100
AcDbLine
 10
-254.99584469
 20
-75.7173638662
 30
0.0
 11
-254.2928046296
 21
-78.0459448889
 31
0.0
  0
LINE
  5
35C
330
1F
100
AcDbEntity
  8
0
  6
Continuous
 62
     7
370
    15
100
AcDbLine
 10
-257.9428841207
 20
-64.972829179
 30
0.0
 11
-257.3379715985
 21
-67.3288079026
 31
0.0
  0
LINE
  5
35D
330
1F
100
AcDbEntity
  8
0
  6
Continuous
 62
     7
370
    15
100
AcDbLine
 10
-260.437404083
 20
-54.1143100715
 30
0.0
 11
-259.9316803211
 21
-56.4935533088
 31
0.0
  0
LINE
  5
35E
330
1F
100
AcDbEntity
  8
0
  6
Continuous
 62
     7
370
    15
100
AcDbLine
 10
-262.4750283413
 20
-43.1608560759
 30
0.0
 11
-262.069380551
 21
-45.5591898259
 31
0.0
  0
LINE
  5
35F
330
1F
100
AcDbEntity
  8
0
  6
Continuous
 62
     7
370
    15
100
AcDbLine
 10
-264.0521822104
 20
-32.1316832727
 30
0.0
 11
-263.7473220357
 21
-34.5449000429
 31
0.0
  0
LINE
  5
360
330
1F
100
AcDbEntity
  8
0
  6
Continuous
 62
     7
370
    15
100
AcDbLine
 10
-265.1660988263
 20
-21.0461405786
 30
0.0
 11
-264.9625610957
 21
-23.4700067667
 31
0.0
  0
LINE
  5
361
330
1F
100
AcDbEntity
  8
0
  6
Continuous
 62
     7
370
    15
100
AcDbLine
 10
-265.8148240008
 20
-9.9236758024
 30
0.0
 11
-265.7129657885
 21
-12.3539391236
 31
0.0
  0
ARC
  5
362
330
1F
100
AcDbEntity
  8
0
  6
Continuous
 62
     7
370
    15
100
AcDbCircle
 10
-227.0907443472
 20
-96.3096246688
 30
0.0
 40
105.0000000000102
100
AcDbArc
 50
107.1730248275
 51
111.7487923222
  0
ARC
  5
363
330
1F
100
AcDbEntity
  8
0
  6
Continuous
 62
     7
370
    15
100
AcDbCircle
 10
-0.0000000046
 20
0.0000000001
 30
0.0
 40
258.1239999953717
100
AcDbArc
 50
178.4899601534
 51
179.1100398466
  0
ARC
  5
364
330
1F
100
AcDbEntity
  8
0
  6
Continuous
 62
     7
370
    15
100
AcDbCircle
 10
-222.858518688
 20
105.7347181402
 30
0.0
 40
104.9999999999686
100
AcDbArc
 50
245.8512076778
 51
250.4269751725
  0
ARC
  5
365
330
1F
100
AcDbEntity
  8
0
  6
Continuous
 62
     7
370
    15
100
AcDbCircle
 10
-230.9245756748
 20
-86.7155713895
 30
0.0
 40
105.0000000000101
100
AcDbArc
 50
104.7730248275
 51
109.3487923222
  0
ARC
  5
366
330
1F
100
AcDbEntity
  8
0
  6
Continuous
 62
     7
370
    15
100
AcDbCircle
 10
-0.0000000005
 20
0.0
 30
0.0
 40
258.1239999994872
100
AcDbArc
 50
176.0899601535
 51
176.7100398465
  0
ARC
  5
367
330
1F
100
AcDbEntity
  8
0
  6
Continuous
 62
     7
370
    15
100
AcDbCircle
 10
-218.2353234592
 20
114.9743169872
 30
0.0
 40
105.0000000000365
100
AcDbArc
 50
243.4512076778
 51
248.0269751725
  0
ARC
  5
368
330
1F
100
AcDbEntity
  8
0
  6
Continuous
 62
     7
370
    15
100
AcDbCircle
 10
-234.353286828
 20
-76.9693895318
 30
0.0
 40
105.0000000000189
100
AcDbArc
 50
102.3730248275
 51
106.9487923222
  0
ARC
  5
369
330
1F
100
AcDbEntity
  8
0
  6
Continuous
 62
     7
370
    15
100
AcDbCircle
 10
-0.0000000038
 20
0.0000000004
 30
0.0
 40
258.1239999961574
100
AcDbArc
 50
173.6899601534
 51
174.3100398466
  0
ARC
  5
36A
330
1F
100
AcDbEntity
  8
0
  6
Continuous
 62
     7
370
    15
100
AcDbCircle
 10
-213.2292693162
 20
124.0122118136
 30
0.0
 40
105.0000000000157
100
AcDbArc
 50
241.0512076778
 51
245.6269751725
  0
ARC
  5
36B
330
1F
100
AcDbEntity
  8
0
  6
Continuous
 62
     7
370
    15
100
AcDbCircle
 10
-237.3708626824
 20
-67.0881772105
 30
0.0
 40
105.0000000000164
100
AcDbArc
 50
99.9730248275
 51
104.5487923222
  0
ARC
  5
36C
330
1F
100
AcDbEntity
  8
0
  6
Continuous
 62
     7
370
    15
100
AcDbCircle
 10
-0.0000000024
 20
0.0000000004
 30
0.0
 40
258.1239999975538
100
AcDbArc
 50
171.2899601534
 51
171.9100398466
  0
ARC
  5
36D
330
1F
100
AcDbEntity
  8
0
  6
Continuous
 62
     7
370
    15
100
AcDbCircle
 10
-207.849138579
 20
132.8325470808
 30
0.0
 40
105.0000000000101
100
AcDbArc
 50
238.6512076778
 51
243.2269751725
  0
ARC
  5
36E
330
1F
100
AcDbEntity
  8
0
  6
Continuous
 62
     7
370
    15
100
AcDbCircle
 10
-239.9720093844
 20
-57.0892694296
 30
0.0
 40
105.0000000000134
100
AcDbArc
 50
97.5730248275
 51
102.1487923222
  0
ARC
  5
36F
330
1F
100
AcDbEntity
  8
0
  6
Continuous
 62
     7
370
    15
100
AcDbCircle
 10
-0.0000000017
 20
0.0000000003
 30
0.0
 40
258.1239999982369
100
AcDbArc
 50
168.8899601535
 51
169.5100398466
  0
ARC
  5
370
330
1F
100
AcDbEntity
  8
0
  6
Continuous
 62
     7
370
    15
100
AcDbCircle
 10
-202.1043698251
 20
141.4198489237
 30
0.0
 40
105.0000000000076
100
AcDbArc
 50
236.2512076778
 51
240.8269751725
  0
ARC
  5
371
330
1F
100
AcDbEntity
  8
0
  6
Continuous
 62
     7
370
    15
100
AcDbCircle
 10
-242.152163639
 20
-46.9902076711
 30
0.0
 40
105.0000000000122
100
AcDbArc
 50
95.1730248275
 51
99.7487923222
  0
ARC
  5
372
330
1F
100
AcDbEntity
  8
0
  6
Continuous
 62
     7
370
    15
100
AcDbCircle
 10
-0.0000000016
 20
0.0000000004
 30
0.0
 40
258.123999998369
100
AcDbArc
 50
166.4899601535
 51
167.1100398466
  0
ARC
  5
373
330
1F
100
AcDbEntity
  8
0
  6
Continuous
 62
     7
370
    15
100
AcDbCircle
 10
-196.005041331
 20
149.7590522967
 30
0.0
 40
105.0000000000367
100
AcDbArc
 50
233.8512076778
 51
238.4269751725
  0
ARC
  5
374
330
1F
100
AcDbEntity
  8
0
  6
Continuous
 62
     7
370
    15
100
AcDbCircle
 10
-243.9075007146
 20
-36.8087091209
 30
0.0
 40
104.9999999999813
100
AcDbArc
 50
92.7730248275
 51
97.3487923222
  0
ARC
  5
375
330
1F
100
AcDbEntity
  8
0
  6
Continuous
 62
     7
370
    15
100
AcDbCircle
 10
-0.0000000026
 20
0.0000000007
 30
0.0
 40
258.1239999972531
100
AcDbArc
 50
164.0899601534
 51
164.7100398466
  0
ARC
  5
376
330
1F
100
AcDbEntity
  8
0
  6
Continuous
 62
     7
370
    15
100
AcDbCircle
 10
-189.5618533915
 20
157.8355274036
 30
0.0
 40
105.000000000028
100
AcDbArc
 50
231.4512076778
 51
236.0269751725
  0
ARC
  5
377
330
1F
100
AcDbEntity
  8
0
  6
Continuous
 62
     7
370
    15
100
AcDbCircle
 10
-245.2349411537
 20
-26.5626355874
 30
0.0
 40
105.0000000000424
100
AcDbArc
 50
90.3730248275
 51
94.9487923222
  0
ARC
  5
378
330
1F
100
AcDbEntity
  8
0
  6
Continuous
 62
     7
370
    15
100
AcDbCircle
 10
-0.0000000032
 20
0.000000001
 30
0.0
 40
258.1239999966435
100
AcDbArc
 50
161.6899601534
 51
162.3100398466
  0
ARC
  5
379
330
1F
100
AcDbEntity
  8
0
  6
Continuous
 62
     7
370
    15
100
AcDbCircle
 10
-182.7861095476
 20
165.6351053625
 30
0.0
 40
104.999999999976
100
AcDbArc
 50
229.0512076778
 51
233.6269751725
  0
ARC
  5
37A
330
1F
100
AcDbEntity
  8
0
  6
Continuous
 62
     7
370
    15
100
AcDbCircle
 10
-246.1321561746
 20
-16.2699621649
 30
0.0
 40
105.0000000000185
100
AcDbArc
 50
87.9730248275
 51
92.5487923222
  0
ARC
  5
37B
330
1F
100
AcDbEntity
  8
0
  6
Continuous
 62
     7
370
    15
100
AcDbCircle
 10
-0.0000000017
 20
0.0000000006
 30
0.0
 40
258.1239999981414
100
AcDbArc
 50
159.2899601535
 51
159.9100398466
  0
ARC
  5
37C
330
1F
100
AcDbEntity
  8
0
  6
Continuous
 62
     7
370
    15
100
AcDbCircle
 10
-175.6896967564
 20
173.1441030634
 30
0.0
 40
105.0000000000175
100
AcDbArc
 50
226.6512076778
 51
231.2269751725
  0
ARC
  5
37D
330
1F
100
AcDbEntity
  8
0
  6
Continuous
 62
     7
370
    15
100
AcDbCircle
 10
-246.5975717573
 20
-5.9487457002
 30
0.0
 40
105.000000000034
100
AcDbArc
 50
85.5730248275
 51
90.1487923222
  0
ARC
  5
37E
330
1F
100
AcDbEntity
  8
0
  6
Continuous
 62
     7
370
    15
100
AcDbCircle
 10
-0.000000004
 20
0.0000000017
 30
0.0
 40
258.1239999956831
100
AcDbArc
 50
156.8899601534
 51
157.5100398466
  0
ARC
  5
37F
330
1F
100
AcDbEntity
  8
0
  6
Continuous
 62
     7
370
    15
100
AcDbCircle
 10
-168.2850645373
 20
180.3493471728
 30
0.0
 40
105.0000000000119
100
AcDbArc
 50
224.2512076778
 51
228.8269751725
  0
ARC
  5
380
330
1F
100
AcDbEntity
  8
0
  6
Continuous
 62
     7
370
    15
100
AcDbCircle
 10
-246.6303714047
 20
4.3829068859
 30
0.0
 40
105.0000000000344
100
AcDbArc
 50
83.1730248275
 51
87.7487923222
  0
ARC
  5
381
330
1F
100
AcDbEntity
  8
0
  6
Continuous
 62
     7
370
    15
100
AcDbCircle
 10
-0.0000000022
 20
0.000000001
 30
0.0
 40
258.123999997604
100
AcDbArc
 50
154.4899601534
 51
155.1100398466
  0
ARC
  5
382
330
1F
100
AcDbEntity
  8
0
  6
Continuous
 62
     7
370
    15
100
AcDbCircle
 10
-160.5852031314
 20
187.2381972441
 30
0.0
 40
105.0000000000001
100
AcDbArc
 50
221.8512076778
 51
226.4269751725
  0
ARC
  5
383
330
1F
100
AcDbEntity
  8
0
  6
Continuous
 62
     7
370
    15
100
AcDbCircle
 10
-246.2304975751
 20
14.7068703639
 30
0.0
 40
105.0000000000372
100
AcDbArc
 50
80.7730248275
 51
85.3487923222
  0
ARC
  5
384
330
1F
100
AcDbEntity
  8
0
  6
Continuous
 62
     7
370
    15
100
AcDbCircle
 10
-0.0000000029
 20
0.0000000015
 30
0.0
 40
258.1239999966789
100
AcDbArc
 50
152.0899601534
 51
152.7100398466
  0
ARC
  5
385
330
1F
100
AcDbEntity
  8
0
  6
Continuous
 62
     7
370
    15
100
AcDbCircle
 10
-152.603620712
 20
193.7985678935
 30
0.0
 40
105.0000000000046
100
AcDbArc
 50
219.4512076778
 51
224.0269751725
  0
ARC
  5
386
330
1F
100
AcDbEntity
  8
0
  6
Continuous
 62
     7
370
    15
100
AcDbCircle
 10
-245.3986517831
 20
25.0050329939
 30
0.0
 40
104.9999999999965
100
AcDbArc
 50
78.3730248275
 51
82.9487923222
  0
ARC
  5
387
330
1F
100
AcDbEntity
  8
0
  6
Continuous
 62
     7
370
    15
100
AcDbCircle
 10
-0.0000000023
 20
0.0000000013
 30
0.0
 40
258.1239999973652
100
AcDbArc
 50
149.6899601534
 51
150.3100398466
  0
ARC
  5
388
330
1F
100
AcDbEntity
  8
0
  6
Continuous
 62
     7
370
    15
100
AcDbCircle
 10
-144.3543196868
 20
200.0189500016
 30
0.0
 40
104.999999999984
100
AcDbArc
 50
217.0512076778
 51
221.6269751725
  0
ARC
  5
389
330
1F
100
AcDbEntity
  8
0
  6
Continuous
 62
     7
370
    15
100
AcDbCircle
 10
-244.1362933689
 20
35.2593282992
 30
0.0
 40
105.000000000067
100
AcDbArc
 50
75.9730248275
 51
80.5487923222
  0
ARC
  5
38A
330
1F
100
AcDbEntity
  8
0
  6
Continuous
 62
     7
370
    15
100
AcDbCircle
 10
-0.0000000056
 20
0.0000000036
 30
0.0
 40
258.1239999933684
100
AcDbArc
 50
147.2899601534
 51
147.9100398466
  0
ARC
  5
38B
330
1F
100
AcDbEntity
  8
0
  6
Continuous
 62
     7
370
    15
100
AcDbCircle
 10
-135.8517721329
 20
205.8884309046
 30
0.0
 40
104.9999999999897
100
AcDbArc
 50
214.6512076778
 51
219.2269751725
  0
ARC
  5
38C
330
1F
100
AcDbEntity
  8
0
  6
Continuous
 62
     7
370
    15
100
AcDbCircle
 10
-242.445636938
 20
45.4517667616
 30
0.0
 40
105.0000000000237
100
AcDbArc
 50
73.5730248275
 51
78.1487923222
  0
ARC
  5
38D
330
1F
100
AcDbEntity
  8
0
  6
Continuous
 62
     7
370
    15
100
AcDbCircle
 10
-0.0000000038
 20
0.0000000027
 30
0.0
 40
258.1239999953308
100
AcDbArc
 50
144.8899601534
 51
145.5100398466
  0
ARC
  5
38E
330
1F
100
AcDbEntity
  8
0
  6
Continuous
 62
     7
370
    15
100
AcDbCircle
 10
-127.110894408
 20
211.3967135383
 30
0.0
 40
105.000000000002
100
AcDbArc
 50
212.2512076778
 51
216.8269751725
  0
ARC
  5
38F
330
1F
100
AcDbEntity
  8
0
  6
Continuous
 62
     7
370
    15
100
AcDbCircle
 10
-240.3296484763
 20
55.5644673804
 30
0.0
 40
105.0000000000203
100
AcDbArc
 50
71.1730248275
 51
75.7487923222
  0
ARC
  5
390
330
1F
100
AcDbEntity
  8
0
  6
Continuous
 62
     7
370
    15
100
AcDbCircle
 10
-0.000000002
 20
0.0000000015
 30
0.0
 40
258.1239999974485
100
AcDbArc
 50
142.4899601534
 51
143.1100398466
  0
ARC
  5
391
330
1F
100
AcDbEntity
  8
0
  6
Continuous
 62
     7
370
    15
100
AcDbCircle
 10
-118.1470209817
 20
216.5341345034
 30
0.0
 40
104.9999999999603
100
AcDbArc
 50
209.8512076778
 51
214.4269751725
  0
ARC
  5
392
330
1F
100
AcDbEntity
  8
0
  6
Continuous
 62
     7
370
    15
100
AcDbCircle
 10
-237.7920401466
 20
65.5796890425
 30
0.0
 40
105.00000000001
100
AcDbArc
 50
68.7730248275
 51
73.3487923222
  0
ARC
  5
393
330
1F
100
AcDbEntity
  8
0
  6
Continuous
 62
     7
370
    15
100
AcDbCircle
 10
-0.0000000019
 20
0.0000000016
 30
0.0
 40
258.123999997566
100
AcDbArc
 50
140.0899601534
 51
140.7100398466
  0
ARC
  5
394
330
1F
100
AcDbEntity
  8
0
  6
Continuous
 62
     7
370
    15
100
AcDbCircle
 10
-108.9758775339
 20
221.2916810179
 30
0.0
 40
104.9999999999931
100
AcDbArc
 50
207.4512076778
 51
212.0269751725
  0
ARC
  5
395
330
1F
100
AcDbEntity
  8
0
  6
Continuous
 62
     7
370
    15
100
AcDbCircle
 10
-234.8372637763
 20
75.4798616459
 30
0.0
 40
105.0000000000272
100
AcDbArc
 50
66.3730248275
 51
70.9487923222
  0
ARC
  5
396
330
1F
100
AcDbEntity
  8
0
  6
Continuous
 62
     7
370
    15
100
AcDbCircle
 10
-0.0000000031
 20
0.0000000028
 30
0.0
 40
258.1239999958623
100
AcDbArc
 50
137.6899601534
 51
138.3100398466
  0
ARC
  5
397
330
1F
100
AcDbEntity
  8
0
  6
Continuous
 62
     7
370
    15
100
AcDbCircle
 10
-99.6135533668
 20
225.6610067283
 30
0.0
 40
104.999999999967
100
AcDbArc
 50
205.0512076778
 51
209.6269751725
  0
ARC
  5
398
330
1F
100
AcDbEntity
  8
0
  6
Continuous
 62
     7
370
    15
100
AcDbCircle
 10
-231.470503047
 20
85.2476169237
 30
0.0
 40
105.000000000027
100
AcDbArc
 50
63.9730248275
 51
68.5487923222
  0
ARC
  5
399
330
1F
100
AcDbEntity
  8
0
  6
Continuous
 62
     7
370
    15
100
AcDbCircle
 10
-0.0000000018
 20
0.0000000017
 30
0.0
 40
258.1239999975213
100
AcDbArc
 50
135.2899601534
 51
135.9100398466
  0
ARC
  5
39A
330
1F
100
AcDbEntity
  8
0
  6
Continuous
 62
     7
370
    15
100
AcDbCircle
 10
-90.0764731781
 20
229.6344463529
 30
0.0
 40
104.9999999999905
100
AcDbArc
 50
202.6512076778
 51
207.2269751725
  0
ARC
  5
39B
330
1F
100
AcDbEntity
  8
0
  6
Continuous
 62
     7
370
    15
100
AcDbCircle
 10
-227.6976644012
 20
94.8658189142
 30
0.0
 40
104.9999999999984
100
AcDbArc
 50
61.5730248275
 51
66.1487923222
  0
ARC
  5
39C
330
1F
100
AcDbEntity
  8
0
  6
Continuous
 62
     7
370
    15
100
AcDbCircle
 10
-0.0000000034
 20
0.0000000036
 30
0.0
 40
258.1239999949971
100
AcDbArc
 50
132.8899601534
 51
133.5100398466
  0
ARC
  5
39D
330
1F
100
AcDbEntity
  8
0
  6
Continuous
 62
     7
370
    15
100
AcDbCircle
 10
-80.3813682472
 20
233.2050291283
 30
0.0
 40
105.0000000000093
100
AcDbArc
 50
200.2512076778
 51
204.8269751725
  0
ARC
  5
39E
330
1F
100
AcDbEntity
  8
0
  6
Continuous
 62
     7
370
    15
100
AcDbCircle
 10
-223.5253666798
 20
104.3175940225
 30
0.0
 40
105.0000000000528
100
AcDbArc
 50
59.1730248275
 51
63.7487923222
  0
ARC
  5
39F
330
1F
100
AcDbEntity
  8
0
  6
Continuous
 62
     7
370
    15
100
AcDbCircle
 10
-0.0000000019
 20
0.0000000022
 30
0.0
 40
258.1239999971519
100
AcDbArc
 50
130.4899601534
 51
131.1100398466
  0
ARC
  5
3A0
330
1F
100
AcDbEntity
  8
0
  6
Continuous
 62
     7
370
    15
100
AcDbCircle
 10
-70.5452470827
 20
236.3664910389
 30
0.0
 40
105.0000000000041
100
AcDbArc
 50
197.8512076778
 51
202.4269751725
  0
ARC
  5
3A1
330
1F
100
AcDbEntity
  8
0
  6
Continuous
 62
     7
370
    15
100
AcDbCircle
 10
-218.9609295109
 20
113.5863606236
 30
0.0
 40
105.0000000000815
100
AcDbArc
 50
56.7730248275
 51
61.3487923222
  0
ARC
  5
3A2
330
1F
100
AcDbEntity
  8
0
  6
Continuous
 62
     7
370
    15
100
AcDbCircle
 10
-0.0000000017
 20
0.0000000021
 30
0.0
 40
258.1239999973203
100
AcDbArc
 50
128.0899601534
 51
128.7100398466
  0
ARC
  5
3A3
330
1F
100
AcDbEntity
  8
0
  6
Continuous
 62
     7
370
    15
100
AcDbCircle
 10
-60.5853655834
 20
239.1132858064
 30
0.0
 40
104.9999999999625
100
AcDbArc
 50
195.4512076778
 51
200.0269751725
  0
ARC
  5
3A4
330
1F
100
AcDbEntity
  8
0
  6
Continuous
 62
     7
370
    15
100
AcDbCircle
 10
-214.0123604682
 20
122.6558581514
 30
0.0
 40
105.0000000000599
100
AcDbArc
 50
54.3730248275
 51
58.9487923222
  0
ARC
  5
3A5
330
1F
100
AcDbEntity
  8
0
  6
Continuous
 62
     7
370
    15
100
AcDbCircle
 10
-0.0000000027
 20
0.0000000037
 30
0.0
 40
258.1239999954293
100
AcDbArc
 50
125.6899601534
 51
126.3100398466
  0
ARC
  5
3A6
330
1F
100
AcDbEntity
  8
0
  6
Continuous
 62
     7
370
    15
100
AcDbCircle
 10
-50.5191967657
 20
241.4405946194
 30
0.0
 40
105.0000000000287
100
AcDbArc
 50
193.0512076778
 51
197.6269751725
  0
ARC
  5
3A7
330
1F
100
AcDbEntity
  8
0
  6
Continuous
 62
     7
370
    15
100
AcDbCircle
 10
-208.6883410233
 20
131.5101756252
 30
0.0
 40
105.0000000000224
100
AcDbArc
 50
51.9730248275
 51
56.5487923222
  0
ARC
  5
3A8
330
1F
100
AcDbEntity
  8
0
  6
Continuous
 62
     7
370
    15
100
AcDbCircle
 10
-0.0000000022
 20
0.0000000033
 30
0.0
 40
258.1239999960637
100
AcDbArc
 50
123.2899601534
 51
123.9100398466
  0
ARC
  5
3A9
330
1F
100
AcDbEntity
  8
0
  6
Continuous
 62
     7
370
    15
100
AcDbCircle
 10
-40.3644001105
 20
243.3443345873
 30
0.0
 40
104.9999999999781
100
AcDbArc
 50
190.6512076778
 51
195.2269751725
  0
ARC
  5
3AA
330
1F
100
AcDbEntity
  8
0
  6
Continuous
 62
     7
370
    15
100
AcDbCircle
 10
-202.9982113154
 20
140.1337795634
 30
0.0
 40
104.9999999999939
100
AcDbArc
 50
49.5730248275
 51
54.1487923222
  0
ARC
  5
3AB
330
1F
100
AcDbEntity
  8
0
  6
Continuous
 62
     7
370
    15
100
AcDbCircle
 10
-0.0000000014
 20
0.0000000024
 30
0.0
 40
258.1239999972346
100
AcDbArc
 50
120.8899601534
 51
121.5100398466
  0
ARC
  5
3AC
330
1F
100
AcDbEntity
  8
0
  6
Continuous
 62
     7
370
    15
100
AcDbCircle
 10
-30.1387905815
 20
244.8211659034
 30
0.0
 40
104.9999999999953
100
AcDbArc
 50
188.2512076778
 51
192.8269751725
  0
ARC
  5
3AD
330
1F
100
AcDbEntity
  8
0
  6
Continuous
 62
     7
370
    15
100
AcDbCircle
 10
-196.9519537657
 20
148.5115412345
 30
0.0
 40
105.0000000000324
100
AcDbArc
 50
47.1730248275
 51
51.7487923222
  0
ARC
  5
3AE
330
1F
100
AcDbEntity
  8
0
  6
Continuous
 62
     7
370
    15
100
AcDbCircle
 10
-0.0000000017
 20
0.000000003
 30
0.0
 40
258.1239999965219
100
AcDbArc
 50
118.4899601534
 51
119.1100398466
  0
ARC
  5
3AF
330
1F
100
AcDbEntity
  8
0
  6
Continuous
 62
     7
370
    15
100
AcDbCircle
 10
-19.8603073725
 20
245.8684977037
 30
0.0
 40
104.9999999999995
100
AcDbArc
 50
185.8512076778
 51
190.4269751725
  0
ARC
  5
3B0
330
1F
100
AcDbEntity
  8
0
  6
Continuous
 62
     7
370
    15
100
AcDbCircle
 10
-190.5601755644
 20
156.6287631978
 30
0.0
 40
105.0000000000326
100
AcDbArc
 50
44.7730248275
 51
49.3487923222
  0
ARC
  5
3B1
330
1F
100
AcDbEntity
  8
0
  6
Continuous
 62
     7
370
    15
100
AcDbCircle
 10
-0.0000000011
 20
0.0000000022
 30
0.0
 40
258.1239999975667
100
AcDbArc
 50
116.0899601534
 51
116.7100398466
  0
ARC
  5
3B2
330
1F
100
AcDbEntity
  8
0
  6
Continuous
 62
     7
370
    15
100
AcDbCircle
 10
-9.546982436
 20
246.4844926123
 30
0.0
 40
104.9999999999793
100
AcDbArc
 50
183.4512076778
 51
188.0269751725
  0
ARC
  5
3B3
330
1F
100
AcDbEntity
  8
0
  6
Continuous
 62
     7
370
    15
100
AcDbCircle
 10
-183.8340900623
 20
164.4712050876
 30
0.0
 40
105.0000000000059
100
AcDbArc
 50
42.3730248275
 51
46.9487923222
  0
ARC
  5
3B4
330
1F
100
AcDbEntity
  8
0
  6
Continuous
 62
     7
370
    15
100
AcDbCircle
 10
-0.0000000017
 20
0.0000000038
 30
0.0
 40
258.1239999958801
100
AcDbArc
 50
113.6899601534
 51
114.3100398466
  0
ARC
  5
3B5
330
1F
100
AcDbEntity
  8
0
  6
Continuous
 62
     7
370
    15
100
AcDbCircle
 10
0.7830911519
 20
246.668069965
 30
0.0
 40
104.9999999999675
100
AcDbArc
 50
181.0512076778
 51
185.6269751725
  0
ARC
  5
3B6
330
1F
100
AcDbEntity
  8
0
  6
Continuous
 62
     7
370
    15
100
AcDbCircle
 10
-176.7854970991
 20
172.0251085959
 30
0.0
 40
105.0000000000423
100
AcDbArc
 50
39.9730248275
 51
44.5487923222
  0
ARC
  5
3B7
330
1F
100
AcDbEntity
  8
0
  6
Continuous
 62
     7
370
    15
100
AcDbCircle
 10
-0.0000000012
 20
0.0000000031
 30
0.0
 40
258.1239999966625
100
AcDbArc
 50
111.2899601534
 51
111.9100398466
  0
ARC
  5
3B8
330
1F
100
AcDbEntity
  8
0
  6
Continuous
 62
     7
370
    15
100
AcDbCircle
 10
11.1117909319
 20
246.4189077045
 30
0.0
 40
104.9999999999877
100
AcDbArc
 50
178.6512076778
 51
183.2269751725
  0
ARC
  5
3B9
330
1F
100
AcDbEntity
  8
0
  6
Continuous
 62
     7
370
    15
100
AcDbCircle
 10
-169.4267623018
 20
179.2772216093
 30
0.0
 40
105.0000000000674
100
AcDbArc
 50
37.5730248275
 51
42.1487923222
  0
ARC
  5
3BA
330
1F
100
AcDbEntity
  8
0
  6
Continuous
 62
     7
370
    15
100
AcDbCircle
 10
-0.000000001
 20
0.0000000029
 30
0.0
 40
258.1239999969683
100
AcDbArc
 50
108.8899601534
 51
109.5100398466
  0
ARC
  5
3BB
330
1F
100
AcDbEntity
  8
0
  6
Continuous
 62
     7
370
    15
100
AcDbCircle
 10
21.4209968547
 20
245.7374429462
 30
0.0
 40
104.9999999999904
100
AcDbArc
 50
176.2512076778
 51
180.8269751725
  0
ARC
  5
3BC
330
1F
100
AcDbEntity
  8
0
  6
Continuous
 62
     7
370
    15
100
AcDbCircle
 10
-161.7707953918
 20
186.2148214572
 30
0.0
 40
105.0000000000074
100
AcDbArc
 50
35.1730248275
 51
39.7487923222
  0
ARC
  5
3BD
330
1F
100
AcDbEntity
  8
0
  6
Continuous
 62
     7
370
    15
100
AcDbCircle
 10
-0.0000000009
 20
0.0000000029
 30
0.0
 40
258.1239999969702
100
AcDbArc
 50
106.4899601534
 51
107.1100398466
  0
ARC
  5
3BE
330
1F
100
AcDbEntity
  8
0
  6
Continuous
 62
     7
370
    15
100
AcDbCircle
 10
31.6926230701
 20
244.6248712109
 30
0.0
 40
104.9999999999888
100
AcDbArc
 50
173.8512076778
 51
178.4269751725
  0
ARC
  5
3BF
330
1F
100
AcDbEntity
  8
0
  6
Continuous
 62
     7
370
    15
100
AcDbCircle
 10
-153.8310275366
 20
192.8257372319
 30
0.0
 40
105.0000000000215
100
AcDbArc
 50
32.7730248275
 51
37.3487923222
  0
ARC
  5
3C0
330
1F
100
AcDbEntity
  8
0
  6
Continuous
 62
     7
370
    15
100
AcDbCircle
 10
-0.0000000002
 20
0.0000000006
 30
0.0
 40
258.123999999363
100
AcDbArc
 50
104.0899601535
 51
104.7100398465
  0
ARC
  5
3C1
330
1F
100
AcDbEntity
  8
0
  6
Continuous
 62
     7
370
    15
100
AcDbCircle
 10
41.9086496554
 20
243.0831443273
 30
0.0
 40
104.9999999999777
100
AcDbArc
 50
171.4512076778
 51
176.0269751725
  0
ARC
  5
3C2
330
1F
100
AcDbEntity
  8
0
  6
Continuous
 62
     7
370
    15
100
AcDbCircle
 10
-145.6213877869
 20
199.098371141
 30
0.0
 40
104.9999999999976
100
AcDbArc
 50
30.3730248275
 51
34.9487923222
  0
ARC
  5
3C3
330
1F
100
AcDbEntity
  8
0
  6
Continuous
 62
     7
370
    15
100
AcDbCircle
 10
-0.0000000011
 20
0.0000000051
 30
0.0
 40
258.1239999947716
100
AcDbArc
 50
101.6899601534
 51
102.3100398466
  0
ARC
  5
3C4
330
1F
100
AcDbEntity
  8
0
  6
Continuous
 62
     7
370
    15
100
AcDbCircle
 10
52.0511542286
 20
241.1149670084
 30
0.0
 40
105.000000000015
100
AcDbArc
 50
169.0512076778
 51
173.6269751725
  0
ARC
  5
3C5
330
1F
100
AcDbEntity
  8
0
  6
Continuous
 62
     7
370
    15
100
AcDbCircle
 10
-137.1562786407
 20
205.021718853
 30
0.0
 40
105.0000000000241
100
AcDbArc
 50
27.9730248275
 51
32.5487923222
  0
ARC
  5
3C6
330
1F
100
AcDbEntity
  8
0
  6
Continuous
 62
     7
370
    15
100
AcDbCircle
 10
-0.0000000005
 20
0.0000000031
 30
0.0
 40
258.1239999968982
100
AcDbArc
 50
99.2899601534
 51
99.9100398466
  0
ARC
  5
3C7
330
1F
100
AcDbEntity
  8
0
  6
Continuous
 62
     7
370
    15
100
AcDbCircle
 10
62.1023433902
 20
238.723792106
 30
0.0
 40
104.9999999999969
100
AcDbArc
 50
166.6512076778
 51
171.2269751725
  0
ARC
  5
3C8
330
1F
100
AcDbEntity
  8
0
  6
Continuous
 62
     7
370
    15
100
AcDbCircle
 10
-128.4505507757
 20
210.5853888033
 30
0.0
 40
105.0000000000282
100
AcDbArc
 50
25.5730248275
 51
30.1487923222
  0
ARC
  5
3C9
330
1F
100
AcDbEntity
  8
0
  6
Continuous
 62
     7
370
    15
100
AcDbCircle
 10
-0.0000000002
 20
0.0000000014
 30
0.0
 40
258.1239999986316
100
AcDbArc
 50
96.8899601535
 51
97.5100398465
  0
ARC
  5
3CA
330
1F
100
AcDbEntity
  8
0
  6
Continuous
 62
     7
370
    15
100
AcDbCircle
 10
72.0445839389
 20
235.9138145533
 30
0.0
 40
104.9999999999732
100
AcDbArc
 50
164.2512076778
 51
168.8269751725
  0
ARC
  5
3CB
330
1F
100
AcDbEntity
  8
0
  6
Continuous
 62
     7
370
    15
100
AcDbCircle
 10
-119.5194769968
 20
215.7796204242
 30
0.0
 40
105.0000000000208
100
AcDbArc
 50
23.1730248275
 51
27.7487923222
  0
ARC
  5
3CC
330
1F
100
AcDbEntity
  8
0
  6
Continuous
 62
     7
370
    15
100
AcDbCircle
 10
-0.0000000006
 20
0.0000000066
 30
0.0
 40
258.1239999934255
100
AcDbArc
 50
94.4899601534
 51
95.1100398466
  0
ARC
  5
3CD
330
1F
100
AcDbEntity
  8
0
  6
Continuous
 62
     7
370
    15
100
AcDbCircle
 10
81.8604338065
 20
232.6899640058
 30
0.0
 40
104.9999999999911
100
AcDbArc
 50
161.8512076778
 51
166.4269751725
  0
ARC
  5
3CE
330
1F
100
AcDbEntity
  8
0
  6
Continuous
 62
     7
370
    15
100
AcDbCircle
 10
-110.3787254423
 20
220.5953012685
 30
0.0
 40
105.0000000000425
100
AcDbArc
 50
20.7730248275
 51
25.3487923222
  0
ARC
  5
3CF
330
1F
100
AcDbEntity
  8
0
  6
Continuous
 62
     7
370
    15
100
AcDbCircle
 10
-0.0000000001
 20
0.0000000021
 30
0.0
 40
258.1239999979263
100
AcDbArc
 50
92.0899601535
 51
92.7100398466
  0
ARC
  5
3D0
330
1F
100
AcDbEntity
  8
0
  6
Continuous
 62
     7
370
    15
100
AcDbCircle
 10
91.5326726568
 20
229.0578961929
 30
0.0
 40
104.9999999999902
100
AcDbArc
 50
159.4512076778
 51
164.0269751725
  0
ARC
  5
3D1
330
1F
100
AcDbEntity
  8
0
  6
Continuous
 62
     7
370
    15
100
AcDbCircle
 10
-101.0443320964
 20
225.0239829956
 30
0.0
 40
105.0000000000568
100
AcDbArc
 50
18.3730248275
 51
22.9487923222
  0
ARC
  5
3D2
330
1F
100
AcDbEntity
  8
0
  6
Continuous
 62
     7
370
    15
100
AcDbCircle
 10
0.0
 20
0.0000000024
 30
0.0
 40
258.1239999975605
100
AcDbArc
 50
89.6899601534
 51
90.3100398466
  0
ARC
  5
3D3
330
1F
100
AcDbEntity
  8
0
  6
Continuous
 62
     7
370
    15
100
AcDbCircle
 10
101.0443320963
 20
225.0239829956
 30
0.0
 40
105.0000000000076
100
AcDbArc
 50
157.0512076778
 51
161.6269751725
  0
ARC
  5
3D4
330
1F
100
AcDbEntity
  8
0
  6
Continuous
 62
     7
370
    15
100
AcDbCircle
 10
-91.5326726569
 20
229.0578961928
 30
0.0
 40
105.0000000000299
100
AcDbArc
 50
15.9730248275
 51
20.5487923222
  0
ARC
  5
3D5
330
1F
100
AcDbEntity
  8
0
  6
Continuous
 62
     7
370
    15
100
AcDbCircle
 10
0.0000000002
 20
0.0000000044
 30
0.0
 40
258.1239999955565
100
AcDbArc
 50
87.2899601534
 51
87.9100398466
  0
ARC
  5
3D6
330
1F
100
AcDbEntity
  8
0
  6
Continuous
 62
     7
370
    15
100
AcDbCircle
 10
110.3787254422
 20
220.5953012685
 30
0.0
 40
105.000000000018
100
AcDbArc
 50
154.6512076778
 51
159.2269751725
  0
ARC
  5
3D7
330
1F
100
AcDbEntity
  8
0
  6
Continuous
 62
     7
370
    15
100
AcDbCircle
 10
-81.8604338066
 20
232.6899640058
 30
0.0
 40
105.0000000000537
100
AcDbArc
 50
13.5730248275
 51
18.1487923222
  0
ARC
  5
3D8
330
1F
100
AcDbEntity
  8
0
  6
Continuous
 62
     7
370
    15
100
AcDbCircle
 10
0.0000000004
 20
0.0000000053
 30
0.0
 40
258.1239999947237
100
AcDbArc
 50
84.8899601534
 51
85.5100398466
  0
ARC
  5
3D9
330
1F
100
AcDbEntity
  8
0
  6
Continuous
 62
     7
370
    15
100
AcDbCircle
 10
119.5194769968
 20
215.7796204242
 30
0.0
 40
105.0000000000147
100
AcDbArc
 50
152.2512076778
 51
156.8269751725
  0
ARC
  5
3DA
330
1F
100
AcDbEntity
  8
0
  6
Continuous
 62
     7
370
    15
100
AcDbCircle
 10
-72.0445839389
 20
235.9138145532
 30
0.0
 40
105.0000000000275
100
AcDbArc
 50
11.1730248275
 51
15.7487923222
  0
ARC
  5
3DB
330
1F
100
AcDbEntity
  8
0
  6
Continuous
 62
     7
370
    15
100
AcDbCircle
 10
0.0000000006
 20
0.0000000049
 30
0.0
 40
258.1239999950889
100
AcDbArc
 50
82.4899601534
 51
83.1100398466
  0
ARC
  5
3DC
330
1F
100
AcDbEntity
  8
0
  6
Continuous
 62
     7
370
    15
100
AcDbCircle
 10
128.4505507756
 20
210.5853888033
 30
0.0
 40
105.0000000000175
100
AcDbArc
 50
149.8512076778
 51
154.4269751725
  0
ARC
  5
3DD
330
1F
100
AcDbEntity
  8
0
  6
Continuous
 62
     7
370
    15
100
AcDbCircle
 10
-62.1023433902
 20
238.7237921059
 30
0.0
 40
105.0000000000338
100
AcDbArc
 50
8.7730248275
 51
13.3487923222
  0
ARC
  5
3DE
330
1F
100
AcDbEntity
  8
0
  6
Continuous
 62
     7
370
    15
100
AcDbCircle
 10
0.0000000008
 20
0.0000000046
 30
0.0
 40
258.1239999953588
100
AcDbArc
 50
80.0899601534
 51
80.7100398466
  0
ARC
  5
3DF
330
1F
100
AcDbEntity
  8
0
  6
Continuous
 62
     7
370
    15
100
AcDbCircle
 10
137.1562786407
 20
205.021718853
 30
0.0
 40
105.0000000000067
100
AcDbArc
 50
147.4512076778
 51
152.0269751725
  0
ARC
  5
3E0
330
1F
100
AcDbEntity
  8
0
  6
Continuous
 62
     7
370
    15
100
AcDbCircle
 10
-52.0511542287
 20
241.1149670084
 30
0.0
 40
105.0000000000491
100
AcDbArc
 50
6.3730248275
 51
10.9487923222
  0
ARC
  5
3E1
330
1F
100
AcDbEntity
  8
0
  6
Continuous
 62
     7
370
    15
100
AcDbCircle
 10
0.0000000012
 20
0.0000000055
 30
0.0
 40
258.1239999943506
100
AcDbArc
 50
77.6899601534
 51
78.3100398466
  0
ARC
  5
3E2
330
1F
100
AcDbEntity
  8
0
  6
Continuous
 62
     7
370
    15
100
AcDbCircle
 10
145.6213877869
 20
199.098371141
 30
0.0
 40
104.9999999999822
100
AcDbArc
 50
145.0512076778
 51
149.6269751725
  0
ARC
  5
3E3
330
1F
100
AcDbEntity
  8
0
  6
Continuous
 62
     7
370
    15
100
AcDbCircle
 10
-41.9086496555
 20
243.0831443273
 30
0.0
 40
105.0000000000131
100
AcDbArc
 50
3.9730248275
 51
8.5487923222
  0
ARC
  5
3E4
330
1F
100
AcDbEntity
  8
0
  6
Continuous
 62
     7
370
    15
100
AcDbCircle
 10
0.0000000003
 20
0.0000000012
 30
0.0
 40
258.1239999987365
100
AcDbArc
 50
75.2899601535
 51
75.9100398466
  0
ARC
  5
3E5
330
1F
100
AcDbEntity
  8
0
  6
Continuous
 62
     7
370
    15
100
AcDbCircle
 10
153.8310275366
 20
192.825737232
 30
0.0
 40
104.9999999999898
100
AcDbArc
 50
142.6512076778
 51
147.2269751725
  0
ARC
  5
3E6
330
1F
100
AcDbEntity
  8
0
  6
Continuous
 62
     7
370
    15
100
AcDbCircle
 10
-31.6926230702
 20
244.6248712109
 30
0.0
 40
105.0000000000491
100
AcDbArc
 50
1.5730248275
 51
6.1487923222
  0
ARC
  5
3E7
330
1F
100
AcDbEntity
  8
0
  6
Continuous
 62
     7
370
    15
100
AcDbCircle
 10
0.0000000012
 20
0.0000000039
 30
0.0
 40
258.1239999958814
100
AcDbArc
 50
72.8899601534
 51
73.5100398466
  0
ARC
  5
3E8
330
1F
100
AcDbEntity
  8
0
  6
Continuous
 62
     7
370
    15
100
AcDbCircle
 10
161.7707953917
 20
186.2148214572
 30
0.0
 40
104.9999999999518
100
AcDbArc
 50
140.2512076778
 51
144.8269751725
  0
ARC
  5
3E9
330
1F
100
AcDbEntity
  8
0
  6
Continuous
 62
     7
370
    15
100
AcDbCircle
 10
-21.4209968547
 20
245.7374429462
 30
0.0
 40
105.0000000000278
100
AcDbArc
 50
359.1730248275
 51
3.7487923222
  0
ARC
  5
3EA
330
1F
100
AcDbEntity
  8
0
  6
Continuous
 62
     7
370
    15
100
AcDbCircle
 10
0.0000000011
 20
0.0000000031
 30
0.0
 40
258.1239999967428
100
AcDbArc
 50
70.4899601534
 51
71.1100398466
  0
ARC
  5
3EB
330
1F
100
AcDbEntity
  8
0
  6
Continuous
 62
     7
370
    15
100
AcDbCircle
 10
169.4267623017
 20
179.2772216093
 30
0.0
 40
104.9999999999889
100
AcDbArc
 50
137.8512076778
 51
142.4269751725
  0
ARC
  5
3EC
330
1F
100
AcDbEntity
  8
0
  6
Continuous
 62
     7
370
    15
100
AcDbCircle
 10
-11.1117909319
 20
246.4189077045
 30
0.0
 40
105.0000000000353
100
AcDbArc
 50
356.7730248275
 51
1.3487923222
  0
ARC
  5
3ED
330
1F
100
AcDbEntity
  8
0
  6
Continuous
 62
     7
370
    15
100
AcDbCircle
 10
0.0000000012
 20
0.000000003
 30
0.0
 40
258.1239999967208
100
AcDbArc
 50
68.0899601534
 51
68.7100398466
  0
ARC
  5
3EE
330
1F
100
AcDbEntity
  8
0
  6
Continuous
 62
     7
370
    15
100
AcDbCircle
 10
176.785497099
 20
172.025108596
 30
0.0
 40
104.9999999999875
100
AcDbArc
 50
135.4512076778
 51
140.0269751725
  0
ARC
  5
3EF
330
1F
100
AcDbEntity
  8
0
  6
Continuous
 62
     7
370
    15
100
AcDbCircle
 10
-0.783091152
 20
246.668069965
 30
0.0
 40
105.0000000000414
100
AcDbArc
 50
354.3730248275
 51
358.9487923222
  0
ARC
  5
3F0
330
1F
100
AcDbEntity
  8
0
  6
Continuous
 62
     7
370
    15
100
AcDbCircle
 10
0.0000000012
 20
0.0000000027
 30
0.0
 40
258.123999997098
100
AcDbArc
 50
65.6899601534
 51
66.3100398466
  0
ARC
  5
3F1
330
1F
100
AcDbEntity
  8
0
  6
Continuous
 62
     7
370
    15
100
AcDbCircle
 10
183.8340900623
 20
164.4712050876
 30
0.0
 40
104.9999999999741
100
AcDbArc
 50
133.0512076778
 51
137.6269751725
  0
ARC
  5
3F2
330
1F
100
AcDbEntity
  8
0
  6
Continuous
 62
     7
370
    15
100
AcDbCircle
 10
9.5469824359
 20
246.4844926124
 30
0.0
 40
105.0000000000051
100
AcDbArc
 50
351.9730248275
 51
356.5487923222
  0
ARC
  5
3F3
330
1F
100
AcDbEntity
  8
0
  6
Continuous
 62
     7
370
    15
100
AcDbCircle
 10
0.0000000022
 20
0.0000000045
 30
0.0
 40
258.123999994959
100
AcDbArc
 50
63.2899601534
 51
63.9100398466
  0
ARC
  5
3F4
330
1F
100
AcDbEntity
  8
0
  6
Continuous
 62
     7
370
    15
100
AcDbCircle
 10
190.5601755644
 20
156.6287631978
 30
0.0
 40
105.0000000000094
100
AcDbArc
 50
130.6512076778
 51
135.2269751725
  0
ARC
  5
3F5
330
1F
100
AcDbEntity
  8
0
  6
Continuous
 62
     7
370
    15
100
AcDbCircle
 10
19.8603073725
 20
245.8684977037
 30
0.0
 40
105.0000000000359
100
AcDbArc
 50
349.5730248275
 51
354.1487923222
  0
ARC
  5
3F6
330
1F
100
AcDbEntity
  8
0
  6
Continuous
 62
     7
370
    15
100
AcDbCircle
 10
0.0000000014
 20
0.0000000025
 30
0.0
 40
258.1239999971874
100
AcDbArc
 50
60.8899601534
 51
61.5100398466
  0
ARC
  5
3F7
330
1F
100
AcDbEntity
  8
0
  6
Continuous
 62
     7
370
    15
100
AcDbCircle
 10
196.9519537657
 20
148.5115412346
 30
0.0
 40
105.0000000000134
100
AcDbArc
 50
128.2512076778
 51
132.8269751725
  0
ARC
  5
3F8
330
1F
100
AcDbEntity
  8
0
  6
Continuous
 62
     7
370
    15
100
AcDbCircle
 10
30.1387905814
 20
244.8211659034
 30
0.0
 40
105.0000000000147
100
AcDbArc
 50
347.1730248275
 51
351.7487923222
  0
ARC
  5
3F9
330
1F
100
AcDbEntity
  8
0
  6
Continuous
 62
     7
370
    15
100
AcDbCircle
 10
0.0000000011
 20
0.0000000019
 30
0.0
 40
258.1239999978145
100
AcDbArc
 50
58.4899601535
 51
59.1100398466
  0
ARC
  5
3FA
330
1F
100
AcDbEntity
  8
0
  6
Continuous
 62
     7
370
    15
100
AcDbCircle
 10
202.9982113155
 20
140.1337795634
 30
0.0
 40
105.0000000000302
100
AcDbArc
 50
125.8512076778
 51
130.4269751725
  0
ARC
  5
3FB
330
1F
100
AcDbEntity
  8
0
  6
Continuous
 62
     7
370
    15
100
AcDbCircle
 10
40.3644001104
 20
243.3443345873
 30
0.0
 40
104.9999999999992
100
AcDbArc
 50
344.7730248275
 51
349.3487923222
  0
ARC
  5
3FC
330
1F
100
AcDbEntity
  8
0
  6
Continuous
 62
     7
370
    15
100
AcDbCircle
 10
0.000000002
 20
0.000000003
 30
0.0
 40
258.1239999963984
100
AcDbArc
 50
56.0899601534
 51
56.7100398466
  0
ARC
  5
3FD
330
1F
100
AcDbEntity
  8
0
  6
Continuous
 62
     7
370
    15
100
AcDbCircle
 10
208.6883410232
 20
131.5101756252
 30
0.0
 40
104.9999999999763
100
AcDbArc
 50
123.4512076778
 51
128.0269751725
  0
ARC
  5
3FE
330
1F
100
AcDbEntity
  8
0
  6
Continuous
 62
     7
370
    15
100
AcDbCircle
 10
50.5191967657
 20
241.4405946194
 30
0.0
 40
105.0000000000157
100
AcDbArc
 50
342.3730248275
 51
346.9487923222
  0
ARC
  5
3FF
330
1F
100
AcDbEntity
  8
0
  6
Continuous
 62
     7
370
    15
100
AcDbCircle
 10
0.0000000009
 20
0.0000000012
 30
0.0
 40
258.1239999984884
100
AcDbArc
 50
53.6899601535
 51
54.3100398466
  0
ARC
  5
400
330
1F
100
AcDbEntity
  8
0
  6
Continuous
 62
     7
370
    15
100
AcDbCircle
 10
214.0123604681
 20
122.6558581514
 30
0.0
 40
105.0000000000305
100
AcDbArc
 50
121.0512076778
 51
125.6269751725
  0
ARC
  5
401
330
1F
100
AcDbEntity
  8
0
  6
Continuous
 62
     7
370
    15
100
AcDbCircle
 10
60.5853655833
 20
239.1132858064
 30
0.0
 40
105.0000000000487
100
AcDbArc
 50
339.9730248275
 51
344.5487923222
  0
ARC
  5
402
330
1F
100
AcDbEntity
  8
0
  6
Continuous
 62
     7
370
    15
100
AcDbCircle
 10
0.0000000027
 20
0.0000000034
 30
0.0
 40
258.1239999956945
100
AcDbArc
 50
51.2899601534
 51
51.9100398466
  0
ARC
  5
403
330
1F
100
AcDbEntity
  8
0
  6
Continuous
 62
     7
370
    15
100
AcDbCircle
 10
218.9609295109
 20
113.5863606237
 30
0.0
 40
104.999999999987
100
AcDbArc
 50
118.6512076778
 51
123.2269751725
  0
ARC
  5
404
330
1F
100
AcDbEntity
  8
0
  6
Continuous
 62
     7
370
    15
100
AcDbCircle
 10
70.5452470827
 20
236.3664910389
 30
0.0
 40
105.0000000000225
100
AcDbArc
 50
337.5730248275
 51
342.1487923222
  0
ARC
  5
405
330
1F
100
AcDbEntity
  8
0
  6
Continuous
 62
     7
370
    15
100
AcDbCircle
 10
0.0000000024
 20
0.0000000028
 30
0.0
 40
258.1239999962647
100
AcDbArc
 50
48.8899601534
 51
49.5100398466
  0
ARC
  5
406
330
1F
100
AcDbEntity
  8
0
  6
Continuous
 62
     7
370
    15
100
AcDbCircle
 10
223.5253666798
 20
104.3175940226
 30
0.0
 40
104.9999999999875
100
AcDbArc
 50
116.2512076778
 51
120.8269751725
  0
ARC
  5
407
330
1F
100
AcDbEntity
  8
0
  6
Continuous
 62
     7
370
    15
100
AcDbCircle
 10
80.3813682472
 20
233.2050291283
 30
0.0
 40
105.0000000000559
100
AcDbArc
 50
335.1730248275
 51
339.7487923222
  0
ARC
  5
408
330
1F
100
AcDbEntity
  8
0
  6
Continuous
 62
     7
370
    15
100
AcDbCircle
 10
0.0000000036
 20
0.0000000038
 30
0.0
 40
258.1239999947491
100
AcDbArc
 50
46.4899601534
 51
47.1100398466
  0
ARC
  5
409
330
1F
100
AcDbEntity
  8
0
  6
Continuous
 62
     7
370
    15
100
AcDbCircle
 10
227.6976644011
 20
94.8658189142
 30
0.0
 40
104.9999999999584
100
AcDbArc
 50
113.8512076778
 51
118.4269751725
  0
ARC
  5
40A
330
1F
100
AcDbEntity
  8
0
  6
Continuous
 62
     7
370
    15
100
AcDbCircle
 10
90.076473178
 20
229.6344463529
 30
0.0
 40
105.0000000000846
100
AcDbArc
 50
332.7730248275
 51
337.3487923222
  0
ARC
  5
40B
330
1F
100
AcDbEntity
  8
0
  6
Continuous
 62
     7
370
    15
100
AcDbCircle
 10
0.000000002
 20
0.000000002
 30
0.0
 40
258.1239999971446
100
AcDbArc
 50
44.0899601534
 51
44.7100398466
  0
ARC
  5
40C
330
1F
100
AcDbEntity
  8
0
  6
Continuous
 62
     7
370
    15
100
AcDbCircle
 10
231.470503047
 20
85.2476169238
 30
0.0
 40
104.9999999999878
100
AcDbArc
 50
111.4512076778
 51
116.0269751725
  0
ARC
  5
40D
330
1F
100
AcDbEntity
  8
0
  6
Continuous
 62
     7
370
    15
100
AcDbCircle
 10
99.6135533667
 20
225.6610067284
 30
0.0
 40
105.0000000000163
100
AcDbArc
 50
330.3730248275
 51
334.9487923222
  0
ARC
  5
40E
330
1F
100
AcDbEntity
  8
0
  6
Continuous
 62
     7
370
    15
100
AcDbCircle
 10
0.0000000021
 20
0.0000000019
 30
0.0
 40
258.1239999972265
100
AcDbArc
 50
41.6899601534
 51
42.3100398466
  0
ARC
  5
40F
330
1F
100
AcDbEntity
  8
0
  6
Continuous
 62
     7
370
    15
100
AcDbCircle
 10
234.8372637762
 20
75.479861646
 30
0.0
 40
104.9999999999598
100
AcDbArc
 50
109.0512076778
 51
113.6269751725
  0
ARC
  5
410
330
1F
100
AcDbEntity
  8
0
  6
Continuous
 62
     7
370
    15
100
AcDbCircle
 10
108.9758775339
 20
221.2916810179
 30
0.0
 40
105.00000000004
100
AcDbArc
 50
327.9730248275
 51
332.5487923222
  0
ARC
  5
411
330
1F
100
AcDbEntity
  8
0
  6
Continuous
 62
     7
370
    15
100
AcDbCircle
 10
0.0000000006
 20
0.0000000005
 30
0.0
 40
258.1239999992431
100
AcDbArc
 50
39.2899601535
 51
39.9100398465
  0
ARC
  5
412
330
1F
100
AcDbEntity
  8
0
  6
Continuous
 62
     7
370
    15
100
AcDbCircle
 10
237.7920401466
 20
65.5796890425
 30
0.0
 40
105.0000000000023
100
AcDbArc
 50
106.6512076778
 51
111.2269751725
  0
ARC
  5
413
330
1F
100
AcDbEntity
  8
0
  6
Continuous
 62
     7
370
    15
100
AcDbCircle
 10
118.1470209817
 20
216.5341345035
 30
0.0
 40
104.9999999999974
100
AcDbArc
 50
325.5730248275
 51
330.1487923222
  0
ARC
  5
414
330
1F
100
AcDbEntity
  8
0
  6
Continuous
 62
     7
370
    15
100
AcDbCircle
 10
0.0000000018
 20
0.0000000013
 30
0.0
 40
258.1239999977727
100
AcDbArc
 50
36.8899601535
 51
37.5100398466
  0
ARC
  5
415
330
1F
100
AcDbEntity
  8
0
  6
Continuous
 62
     7
370
    15
100
AcDbCircle
 10
240.3296484763
 20
55.5644673805
 30
0.0
 40
104.9999999999956
100
AcDbArc
 50
104.2512076778
 51
108.8269751725
  0
ARC
  5
416
330
1F
100
AcDbEntity
  8
0
  6
Continuous
 62
     7
370
    15
100
AcDbCircle
 10
127.1108944079
 20
211.3967135384
 30
0.0
 40
105.0000000000616
100
AcDbArc
 50
323.1730248275
 51
327.7487923222
  0
ARC
  5
417
330
1F
100
AcDbEntity
  8
0
  6
Continuous
 62
     7
370
    15
100
AcDbCircle
 10
0.0000000018
 20
0.0000000012
 30
0.0
 40
258.1239999978365
100
AcDbArc
 50
34.4899601535
 51
35.1100398466
  0
ARC
  5
418
330
1F
100
AcDbEntity
  8
0
  6
Continuous
 62
     7
370
    15
100
AcDbCircle
 10
242.4456369379
 20
45.4517667616
 30
0.0
 40
105.0000000000147
100
AcDbArc
 50
101.8512076778
 51
106.4269751725
  0
ARC
  5
419
330
1F
100
AcDbEntity
  8
0
  6
Continuous
 62
     7
370
    15
100
AcDbCircle
 10
135.8517721329
 20
205.8884309046
 30
0.0
 40
105.000000000013
100
AcDbArc
 50
320.7730248275
 51
325.3487923222
  0
ARC
  5
41A
330
1F
100
AcDbEntity
  8
0
  6
Continuous
 62
     7
370
    15
100
AcDbCircle
 10
0.0000000022
 20
0.0000000014
 30
0.0
 40
258.1239999974413
100
AcDbArc
 50
32.0899601535
 51
32.7100398466
  0
ARC
  5
41B
330
1F
100
AcDbEntity
  8
0
  6
Continuous
 62
     7
370
    15
100
AcDbCircle
 10
244.1362933688
 20
35.2593282993
 30
0.0
 40
104.9999999999729
100
AcDbArc
 50
99.4512076778
 51
104.0269751725
  0
ARC
  5
41C
330
1F
100
AcDbEntity
  8
0
  6
Continuous
 62
     7
370
    15
100
AcDbCircle
 10
144.3543196867
 20
200.0189500017
 30
0.0
 40
105.0000000000402
100
AcDbArc
 50
318.3730248275
 51
322.9487923222
  0
ARC
  5
41D
330
1F
100
AcDbEntity
  8
0
  6
Continuous
 62
     7
370
    15
100
AcDbCircle
 10
0.0000000034
 20
0.000000002
 30
0.0
 40
258.1239999960367
100
AcDbArc
 50
29.6899601534
 51
30.3100398466
  0
ARC
  5
41E
330
1F
100
AcDbEntity
  8
0
  6
Continuous
 62
     7
370
    15
100
AcDbCircle
 10
245.3986517831
 20
25.005032994
 30
0.0
 40
104.9999999999745
100
AcDbArc
 50
97.0512076778
 51
101.6269751725
  0
ARC
  5
41F
330
1F
100
AcDbEntity
  8
0
  6
Continuous
 62
     7
370
    15
100
AcDbCircle
 10
152.603620712
 20
193.7985678936
 30
0.0
 40
105.0000000000225
100
AcDbArc
 50
315.9730248275
 51
320.5487923222
  0
ARC
  5
420
330
1F
100
AcDbEntity
  8
0
  6
Continuous
 62
     7
370
    15
100
AcDbCircle
 10
0.0000000041
 20
0.0000000021
 30
0.0
 40
258.123999995412
100
AcDbArc
 50
27.2899601534
 51
27.9100398466
  0
ARC
  5
421
330
1F
100
AcDbEntity
  8
0
  6
Continuous
 62
     7
370
    15
100
AcDbCircle
 10
246.2304975751
 20
14.706870364
 30
0.0
 40
104.9999999999932
100
AcDbArc
 50
94.6512076778
 51
99.2269751725
  0
ARC
  5
422
330
1F
100
AcDbEntity
  8
0
  6
Continuous
 62
     7
370
    15
100
AcDbCircle
 10
160.5852031314
 20
187.2381972442
 30
0.0
 40
105.0000000000438
100
AcDbArc
 50
313.5730248275
 51
318.1487923222
  0
ARC
  5
423
330
1F
100
AcDbEntity
  8
0
  6
Continuous
 62
     7
370
    15
100
AcDbCircle
 10
0.0000000029
 20
0.0000000013
 30
0.0
 40
258.1239999968304
100
AcDbArc
 50
24.8899601534
 51
25.5100398466
  0
ARC
  5
424
330
1F
100
AcDbEntity
  8
0
  6
Continuous
 62
     7
370
    15
100
AcDbCircle
 10
246.6303714047
 20
4.3829068859
 30
0.0
 40
104.9999999999653
100
AcDbArc
 50
92.2512076778
 51
96.8269751725
  0
ARC
  5
425
330
1F
100
AcDbEntity
  8
0
  6
Continuous
 62
     7
370
    15
100
AcDbCircle
 10
168.2850645373
 20
180.3493471728
 30
0.0
 40
105.0000000000394
100
AcDbArc
 50
311.1730248275
 51
315.7487923222
  0
ARC
  5
426
330
1F
100
AcDbEntity
  8
0
  6
Continuous
 62
     7
370
    15
100
AcDbCircle
 10
0.0000000028
 20
0.0000000012
 30
0.0
 40
258.1239999970057
100
AcDbArc
 50
22.4899601534
 51
23.1100398466
  0
ARC
  5
427
330
1F
100
AcDbEntity
  8
0
  6
Continuous
 62
     7
370
    15
100
AcDbCircle
 10
246.5975717573
 20
-5.9487457001
 30
0.0
 40
104.9999999999959
100
AcDbArc
 50
89.8512076778
 51
94.4269751725
  0
ARC
  5
428
330
1F
100
AcDbEntity
  8
0
  6
Continuous
 62
     7
370
    15
100
AcDbCircle
 10
175.6896967564
 20
173.1441030634
 30
0.0
 40
105.0000000000365
100
AcDbArc
 50
308.7730248275
 51
313.3487923222
  0
ARC
  5
429
330
1F
100
AcDbEntity
  8
0
  6
Continuous
 62
     7
370
    15
100
AcDbCircle
 10
0.0000000019
 20
0.0000000007
 30
0.0
 40
258.123999997987
100
AcDbArc
 50
20.0899601535
 51
20.7100398466
  0
ARC
  5
42A
330
1F
100
AcDbEntity
  8
0
  6
Continuous
 62
     7
370
    15
100
AcDbCircle
 10
246.1321561746
 20
-16.2699621648
 30
0.0
 40
104.9999999999835
100
AcDbArc
 50
87.4512076778
 51
92.0269751725
  0
ARC
  5
42B
330
1F
100
AcDbEntity
  8
0
  6
Continuous
 62
     7
370
    15
100
AcDbCircle
 10
182.7861095476
 20
165.6351053625
 30
0.0
 40
105.0000000000215
100
AcDbArc
 50
306.3730248275
 51
310.9487923222
  0
ARC
  5
42C
330
1F
100
AcDbEntity
  8
0
  6
Continuous
 62
     7
370
    15
100
AcDbCircle
 10
0.000000003
 20
0.000000001
 30
0.0
 40
258.1239999968536
100
AcDbArc
 50
17.6899601534
 51
18.3100398466
  0
ARC
  5
42D
330
1F
100
AcDbEntity
  8
0
  6
Continuous
 62
     7
370
    15
100
AcDbCircle
 10
245.2349411537
 20
-26.5626355873
 30
0.0
 40
105.0000000000067
100
AcDbArc
 50
85.0512076778
 51
89.6269751725
  0
ARC
  5
42E
330
1F
100
AcDbEntity
  8
0
  6
Continuous
 62
     7
370
    15
100
AcDbCircle
 10
189.5618533915
 20
157.8355274036
 30
0.0
 40
105.0000000000354
100
AcDbArc
 50
303.9730248275
 51
308.5487923222
  0
ARC
  5
42F
330
1F
100
AcDbEntity
  8
0
  6
Continuous
 62
     7
370
    15
100
AcDbCircle
 10
0.0000000023
 20
0.0000000007
 30
0.0
 40
258.1239999975708
100
AcDbArc
 50
15.2899601534
 51
15.9100398466
  0
ARC
  5
430
330
1F
100
AcDbEntity
  8
0
  6
Continuous
 62
     7
370
    15
100
AcDbCircle
 10
243.9075007146
 20
-36.8087091209
 30
0.0
 40
104.9999999999813
100
AcDbArc
 50
82.6512076778
 51
87.2269751725
  0
ARC
  5
431
330
1F
100
AcDbEntity
  8
0
  6
Continuous
 62
     7
370
    15
100
AcDbCircle
 10
196.005041331
 20
149.7590522967
 30
0.0
 40
105.0000000000195
100
AcDbArc
 50
301.5730248275
 51
306.1487923222
  0
ARC
  5
432
330
1F
100
AcDbEntity
  8
0
  6
Continuous
 62
     7
370
    15
100
AcDbCircle
 10
0.0000000031
 20
0.0000000007
 30
0.0
 40
258.1239999968463
100
AcDbArc
 50
12.8899601534
 51
13.5100398466
  0
ARC
  5
433
330
1F
100
AcDbEntity
  8
0
  6
Continuous
 62
     7
370
    15
100
AcDbCircle
 10
242.152163639
 20
-46.9902076711
 30
0.0
 40
104.9999999999762
100
AcDbArc
 50
80.2512076778
 51
84.8269751725
  0
ARC
  5
434
330
1F
100
AcDbEntity
  8
0
  6
Continuous
 62
     7
370
    15
100
AcDbCircle
 10
202.1043698251
 20
141.4198489237
 30
0.0
 40
105.0000000000249
100
AcDbArc
 50
299.1730248275
 51
303.7487923222
  0
ARC
  5
435
330
1F
100
AcDbEntity
  8
0
  6
Continuous
 62
     7
370
    15
100
AcDbCircle
 10
0.0000000016
 20
0.0000000003
 30
0.0
 40
258.1239999983607
100
AcDbArc
 50
10.4899601535
 51
11.1100398466
  0
ARC
  5
436
330
1F
100
AcDbEntity
  8
0
  6
Continuous
 62
     7
370
    15
100
AcDbCircle
 10
239.9720093844
 20
-57.0892694296
 30
0.0
 40
104.9999999999901
100
AcDbArc
 50
77.8512076778
 51
82.4269751725
  0
ARC
  5
437
330
1F
100
AcDbEntity
  8
0
  6
Continuous
 62
     7
370
    15
100
AcDbCircle
 10
207.849138579
 20
132.8325470808
 30
0.0
 40
105.00000000004
100
AcDbArc
 50
296.7730248275
 51
301.3487923222
  0
ARC
  5
438
330
1F
100
AcDbEntity
  8
0
  6
Continuous
 62
     7
370
    15
100
AcDbCircle
 10
-0.0000000011
 20
-0.0000000002
 30
0.0
 40
258.1240000011401
100
AcDbArc
 50
8.0899601535
 51
8.7100398465
  0
ARC
  5
439
330
1F
100
AcDbEntity
  8
0
  6
Continuous
 62
     7
370
    15
100
AcDbCircle
 10
237.3708626824
 20
-67.0881772105
 30
0.0
 40
105.0000000000086
100
AcDbArc
 50
75.4512076778
 51
80.0269751725
  0
ARC
  5
43A
330
1F
100
AcDbEntity
  8
0
  6
Continuous
 62
     7
370
    15
100
AcDbCircle
 10
213.2292693162
 20
124.0122118136
 30
0.0
 40
105.0000000000169
100
AcDbArc
 50
294.3730248275
 51
298.9487923222
  0
ARC
  5
43B
330
1F
100
AcDbEntity
  8
0
  6
Continuous
 62
     7
370
    15
100
AcDbCircle
 10
0.0000000062
 20
0.0000000006
 30
0.0
 40
258.1239999937996
100
AcDbArc
 50
5.6899601534
 51
6.3100398466
  0
ARC
  5
43C
330
1F
100
AcDbEntity
  8
0
  6
Continuous
 62
     7
370
    15
100
AcDbCircle
 10
234.353286828
 20
-76.9693895318
 30
0.0
 40
104.9999999999804
100
AcDbArc
 50
73.0512076778
 51
77.6269751725
  0
ARC
  5
43D
330
1F
100
AcDbEntity
  8
0
  6
Continuous
 62
     7
370
    15
100
AcDbCircle
 10
218.2353234592
 20
114.9743169872
 30
0.0
 40
105.0000000000531
100
AcDbArc
 50
291.9730248275
 51
296.5487923222
  0
ARC
  5
43E
330
1F
100
AcDbEntity
  8
0
  6
Continuous
 62
     7
370
    15
100
AcDbCircle
 10
0.0000000005
 20
0.0
 30
0.0
 40
258.1239999994982
100
AcDbArc
 50
3.2899601535
 51
3.9100398465
  0
ARC
  5
43F
330
1F
100
AcDbEntity
  8
0
  6
Continuous
 62
     7
370
    15
100
AcDbCircle
 10
230.9245756748
 20
-86.7155713895
 30
0.0
 40
104.9999999999809
100
AcDbArc
 50
70.6512076778
 51
75.2269751725
  0
ARC
  5
440
330
1F
100
AcDbEntity
  8
0
  6
Continuous
 62
     7
370
    15
100
AcDbCircle
 10
222.858518688
 20
105.7347181403
 30
0.0
 40
105.0000000000075
100
AcDbArc
 50
289.5730248275
 51
294.1487923222
  0
ARC
  5
441
330
1F
100
AcDbEntity
  8
0
  6
Continuous
 62
     7
370
    15
100
AcDbCircle
 10
0.0000000016
 20
0.0
 30
0.0
 40
258.1239999983918
100
AcDbArc
 50
0.8899601535
 51
1.5100398466
  0
ARC
  5
442
330
1F
100
AcDbEntity
  8
0
  6
Continuous
 62
     7
370
    15
100
AcDbCircle
 10
227.0907443472
 20
-96.3096246688
 30
0.0
 40
104.9999999999889
100
AcDbArc
 50
68.2512076778
 51
72.8269751725
  0
ARC
  5
443
330
1F
100
AcDbEntity
  8
0
  6
Continuous
 62
     7
370
    15
100
AcDbCircle
 10
227.0907443472
 20
96.3096246688
 30
0.0
 40
105.0000000000144
100
AcDbArc
 50
287.1730248275
 51
291.7487923222
  0
ARC
  5
444
330
1F
100
AcDbEntity
  8
0
  6
Continuous
 62
     7
370
    15
100
AcDbCircle
 10
0.0000000046
 20
-0.0000000001
 30
0.0
 40
258.1239999953712
100
AcDbArc
 50
358.4899601534
 51
359.1100398466
  0
ARC
  5
445
330
1F
100
AcDbEntity
  8
0
  6
Continuous
 62
     7
370
    15
100
AcDbCircle
 10
222.858518688
 20
-105.7347181402
 30
0.0
 40
104.9999999999947
100
AcDbArc
 50
65.8512076778
 51
70.4269751725
  0
ARC
  5
446
330
1F
100
AcDbEntity
  8
0
  6
Continuous
 62
     7
370
    15
100
AcDbCircle
 10
230.9245756748
 20
86.7155713895
 30
0.0
 40
105.0000000000309
100
AcDbArc
 50
284.7730248275
 51
289.3487923222
  0
ARC
  5
447
330
1F
100
AcDbEntity
  8
0
  6
Continuous
 62
     7
370
    15
100
AcDbCircle
 10
0.0000000059
 20
-0.0000000004
 30
0.0
 40
258.1239999941025
100
AcDbArc
 50
356.0899601534
 51
356.7100398466
  0
ARC
  5
448
330
1F
100
AcDbEntity
  8
0
  6
Continuous
 62
     7
370
    15
100
AcDbCircle
 10
218.2353234592
 20
-114.9743169872
 30
0.0
 40
105.0000000000086
100
AcDbArc
 50
63.4512076778
 51
68.0269751725
  0
ARC
  5
449
330
1F
100
AcDbEntity
  8
0
  6
Continuous
 62
     7
370
    15
100
AcDbCircle
 10
234.353286828
 20
76.9693895318
 30
0.0
 40
105.0000000000198
100
AcDbArc
 50
282.3730248275
 51
286.9487923222
  0
ARC
  5
44A
330
1F
100
AcDbEntity
  8
0
  6
Continuous
 62
     7
370
    15
100
AcDbCircle
 10
0.0000000021
 20
-0.0000000002
 30
0.0
 40
258.1239999978967
100
AcDbArc
 50
353.6899601535
 51
354.3100398466
  0
ARC
  5
44B
330
1F
100
AcDbEntity
  8
0
  6
Continuous
 62
     7
370
    15
100
AcDbCircle
 10
213.2292693162
 20
-124.0122118136
 30
0.0
 40
105.0000000000099
100
AcDbArc
 50
61.0512076778
 51
65.6269751725
  0
ARC
  5
44C
330
1F
100
AcDbEntity
  8
0
  6
Continuous
 62
     7
370
    15
100
AcDbCircle
 10
237.3708626824
 20
67.0881772105
 30
0.0
 40
105.000000000034
100
AcDbArc
 50
279.9730248275
 51
284.5487923222
  0
ARC
  5
44D
330
1F
100
AcDbEntity
  8
0
  6
Continuous
 62
     7
370
    15
100
AcDbCircle
 10
0.0000000036
 20
-0.0000000005
 30
0.0
 40
258.1239999964105
100
AcDbArc
 50
351.2899601535
 51
351.9100398466
  0
ARC
  5
44E
330
1F
100
AcDbEntity
  8
0
  6
Continuous
 62
     7
370
    15
100
AcDbCircle
 10
207.849138579
 20
-132.8325470808
 30
0.0
 40
104.9999999999813
100
AcDbArc
 50
58.6512076778
 51
63.2269751725
  0
ARC
  5
44F
330
1F
100
AcDbEntity
  8
0
  6
Continuous
 62
     7
370
    15
100
AcDbCircle
 10
239.9720093844
 20
57.0892694296
 30
0.0
 40
105.0000000000299
100
AcDbArc
 50
277.5730248275
 51
282.1487923222
  0
ARC
  5
450
330
1F
100
AcDbEntity
  8
0
  6
Continuous
 62
     7
370
    15
100
AcDbCircle
 10
0.0000000034
 20
-0.0000000007
 30
0.0
 40
258.1239999964878
100
AcDbArc
 50
348.8899601535
 51
349.5100398466
  0
ARC
  5
451
330
1F
100
AcDbEntity
  8
0
  6
Continuous
 62
     7
370
    15
100
AcDbCircle
 10
202.1043698251
 20
-141.4198489236
 30
0.0
 40
104.999999999967
100
AcDbArc
 50
56.2512076778
 51
60.8269751725
  0
ARC
  5
452
330
1F
100
AcDbEntity
  8
0
  6
Continuous
 62
     7
370
    15
100
AcDbCircle
 10
242.152163639
 20
46.9902076711
 30
0.0
 40
105.0000000000226
100
AcDbArc
 50
275.1730248275
 51
279.7487923222
  0
ARC
  5
453
330
1F
100
AcDbEntity
  8
0
  6
Continuous
 62
     7
370
    15
100
AcDbCircle
 10
0.0000000018
 20
-0.0000000004
 30
0.0
 40
258.1239999981548
100
AcDbArc
 50
346.4899601535
 51
347.1100398466
  0
ARC
  5
454
330
1F
100
AcDbEntity
  8
0
  6
Continuous
 62
     7
370
    15
100
AcDbCircle
 10
196.0050413311
 20
-149.7590522967
 30
0.0
 40
104.9999999999958
100
AcDbArc
 50
53.8512076778
 51
58.4269751725
  0
ARC
  5
455
330
1F
100
AcDbEntity
  8
0
  6
Continuous
 62
     7
370
    15
100
AcDbCircle
 10
243.9075007146
 20
36.808709121
 30
0.0
 40
105.0000000000001
100
AcDbArc
 50
272.7730248275
 51
277.3487923222
  0
ARC
  5
456
330
1F
100
AcDbEntity
  8
0
  6
Continuous
 62
     7
370
    15
100
AcDbCircle
 10
0.000000004
 20
-0.0000000011
 30
0.0
 40
258.1239999957999
100
AcDbArc
 50
344.0899601534
 51
344.7100398466
  0
ARC
  5
457
330
1F
100
AcDbEntity
  8
0
  6
Continuous
 62
     7
370
    15
100
AcDbCircle
 10
189.5618533916
 20
-157.8355274036
 30
0.0
 40
104.9999999999876
100
AcDbArc
 50
51.4512076778
 51
56.0269751725
  0
ARC
  5
458
330
1F
100
AcDbEntity
  8
0
  6
Continuous
 62
     7
370
    15
100
AcDbCircle
 10
245.2349411537
 20
26.5626355874
 30
0.0
 40
105.0000000000211
100
AcDbArc
 50
270.3730248275
 51
274.9487923222
  0
ARC
  5
459
330
1F
100
AcDbEntity
  8
0
  6
Continuous
 62
     7
370
    15
100
AcDbCircle
 10
0.0000000029
 20
-0.000000001
 30
0.0
 40
258.1239999969004
100
AcDbArc
 50
341.6899601535
 51
342.3100398466
  0
ARC
  5
45A
330
1F
100
AcDbEntity
  8
0
  6
Continuous
 62
     7
370
    15
100
AcDbCircle
 10
182.7861095476
 20
-165.6351053625
 30
0.0
 40
104.9999999999676
100
AcDbArc
 50
49.0512076778
 51
53.6269751725
  0
ARC
  5
45B
330
1F
100
AcDbEntity
  8
0
  6
Continuous
 62
     7
370
    15
100
AcDbCircle
 10
246.1321561746
 20
16.2699621649
 30
0.0
 40
105.0000000000142
100
AcDbArc
 50
267.9730248275
 51
272.5487923222
  0
ARC
  5
45C
330
1F
100
AcDbEntity
  8
0
  6
Continuous
 62
     7
370
    15
100
AcDbCircle
 10
0.0000000054
 20
-0.000000002
 30
0.0
 40
258.1239999942384
100
AcDbArc
 50
339.2899601534
 51
339.9100398466
  0
ARC
  5
45D
330
1F
100
AcDbEntity
  8
0
  6
Continuous
 62
     7
370
    15
100
AcDbCircle
 10
175.6896967564
 20
-173.1441030634
 30
0.0
 40
104.9999999999872
100
AcDbArc
 50
46.6512076778
 51
51.2269751725
  0
ARC
  5
45E
330
1F
100
AcDbEntity
  8
0
  6
Continuous
 62
     7
370
    15
100
AcDbCircle
 10
246.5975717573
 20
5.9487457002
 30
0.0
 40
105.0000000000389
100
AcDbArc
 50
265.5730248275
 51
270.1487923222
  0
ARC
  5
45F
330
1F
100
AcDbEntity
  8
0
  6
Continuous
 62
     7
370
    15
100
AcDbCircle
 10
0.0000000045
 20
-0.0000000019
 30
0.0
 40
258.1239999951242
100
AcDbArc
 50
336.8899601534
 51
337.5100398466
  0
ARC
  5
460
330
1F
100
AcDbEntity
  8
0
  6
Continuous
 62
     7
370
    15
100
AcDbCircle
 10
168.2850645374
 20
-180.3493471728
 30
0.0
 40
104.9999999999912
100
AcDbArc
 50
44.2512076778
 51
48.8269751725
  0
ARC
  5
461
330
1F
100
AcDbEntity
  8
0
  6
Continuous
 62
     7
370
    15
100
AcDbCircle
 10
246.6303714047
 20
-4.3829068859
 30
0.0
 40
105.0000000000058
100
AcDbArc
 50
263.1730248275
 51
267.7487923222
  0
ARC
  5
462
330
1F
100
AcDbEntity
  8
0
  6
Continuous
 62
     7
370
    15
100
AcDbCircle
 10
0.0000000019
 20
-0.0000000009
 30
0.0
 40
258.1239999979096
100
AcDbArc
 50
334.4899601535
 51
335.1100398466
  0
ARC
  5
463
330
1F
100
AcDbEntity
  8
0
  6
Continuous
 62
     7
370
    15
100
AcDbCircle
 10
160.5852031314
 20
-187.2381972441
 30
0.0
 40
104.9999999999942
100
AcDbArc
 50
41.8512076778
 51
46.4269751725
  0
ARC
  5
464
330
1F
100
AcDbEntity
  8
0
  6
Continuous
 62
     7
370
    15
100
AcDbCircle
 10
246.2304975751
 20
-14.7068703639
 30
0.0
 40
105.0000000000462
100
AcDbArc
 50
260.7730248275
 51
265.3487923222
  0
ARC
  5
465
330
1F
100
AcDbEntity
  8
0
  6
Continuous
 62
     7
370
    15
100
AcDbCircle
 10
0.0000000015
 20
-0.0000000008
 30
0.0
 40
258.1239999982759
100
AcDbArc
 50
332.0899601535
 51
332.7100398466
  0
ARC
  5
466
330
1F
100
AcDbEntity
  8
0
  6
Continuous
 62
     7
370
    15
100
AcDbCircle
 10
152.603620712
 20
-193.7985678935
 30
0.0
 40
104.9999999999943
100
AcDbArc
 50
39.4512076778
 51
44.0269751725
  0
ARC
  5
467
330
1F
100
AcDbEntity
  8
0
  6
Continuous
 62
     7
370
    15
100
AcDbCircle
 10
245.3986517831
 20
-25.0050329939
 30
0.0
 40
105.0000000000143
100
AcDbArc
 50
258.3730248275
 51
262.9487923222
  0
ARC
  5
468
330
1F
100
AcDbEntity
  8
0
  6
Continuous
 62
     7
370
    15
100
AcDbCircle
 10
0.0000000032
 20
-0.0000000018
 30
0.0
 40
258.1239999963289
100
AcDbArc
 50
329.6899601534
 51
330.3100398466
  0
ARC
  5
469
330
1F
100
AcDbEntity
  8
0
  6
Continuous
 62
     7
370
    15
100
AcDbCircle
 10
144.3543196868
 20
-200.0189500017
 30
0.0
 40
104.9999999999983
100
AcDbArc
 50
37.0512076778
 51
41.6269751725
  0
ARC
  5
46A
330
1F
100
AcDbEntity
  8
0
  6
Continuous
 62
     7
370
    15
100
AcDbCircle
 10
244.1362933689
 20
-35.2593282993
 30
0.0
 40
105.0000000000211
100
AcDbArc
 50
255.9730248275
 51
260.5487923222
  0
ARC
  5
46B
330
1F
100
AcDbEntity
  8
0
  6
Continuous
 62
     7
370
    15
100
AcDbCircle
 10
0.0000000039
 20
-0.0000000025
 30
0.0
 40
258.1239999953634
100
AcDbArc
 50
327.2899601534
 51
327.9100398466
  0
ARC
  5
46C
330
1F
100
AcDbEntity
  8
0
  6
Continuous
 62
     7
370
    15
100
AcDbCircle
 10
135.8517721329
 20
-205.8884309046
 30
0.0
 40
105.0000000000248
100
AcDbArc
 50
34.6512076778
 51
39.2269751725
  0
ARC
  5
46D
330
1F
100
AcDbEntity
  8
0
  6
Continuous
 62
     7
370
    15
100
AcDbCircle
 10
242.445636938
 20
-45.4517667616
 30
0.0
 40
105.000000000021
100
AcDbArc
 50
253.5730248275
 51
258.1487923222
  0
ARC
  5
46E
330
1F
100
AcDbEntity
  8
0
  6
Continuous
 62
     7
370
    15
100
AcDbCircle
 10
0.0000000025
 20
-0.0000000017
 30
0.0
 40
258.1239999969563
100
AcDbArc
 50
324.8899601535
 51
325.5100398466
  0
ARC
  5
46F
330
1F
100
AcDbEntity
  8
0
  6
Continuous
 62
     7
370
    15
100
AcDbCircle
 10
127.110894408
 20
-211.3967135383
 30
0.0
 40
104.9999999999895
100
AcDbArc
 50
32.2512076778
 51
36.8269751725
  0
ARC
  5
470
330
1F
100
AcDbEntity
  8
0
  6
Continuous
 62
     7
370
    15
100
AcDbCircle
 10
240.3296484763
 20
-55.5644673804
 30
0.0
 40
105.0000000000124
100
AcDbArc
 50
251.1730248275
 51
255.7487923222
  0
ARC
  5
471
330
1F
100
AcDbEntity
  8
0
  6
Continuous
 62
     7
370
    15
100
AcDbCircle
 10
0.0000000017
 20
-0.0000000013
 30
0.0
 40
258.123999997831
100
AcDbArc
 50
322.4899601535
 51
323.1100398466
  0
ARC
  5
472
330
1F
100
AcDbEntity
  8
0
  6
Continuous
 62
     7
370
    15
100
AcDbCircle
 10
118.1470209817
 20
-216.5341345035
 30
0.0
 40
105.0000000000074
100
AcDbArc
 50
29.8512076778
 51
34.4269751725
  0
ARC
  5
473
330
1F
100
AcDbEntity
  8
0
  6
Continuous
 62
     7
370
    15
100
AcDbCircle
 10
237.7920401466
 20
-65.5796890425
 30
0.0
 40
104.9999999999893
100
AcDbArc
 50
248.7730248275
 51
253.3487923222
  0
ARC
  5
474
330
1F
100
AcDbEntity
  8
0
  6
Continuous
 62
     7
370
    15
100
AcDbCircle
 10
0.0000000025
 20
-0.000000002
 30
0.0
 40
258.1239999968173
100
AcDbArc
 50
320.0899601535
 51
320.7100398466
  0
ARC
  5
475
330
1F
100
AcDbEntity
  8
0
  6
Continuous
 62
     7
370
    15
100
AcDbCircle
 10
108.9758775339
 20
-221.2916810179
 30
0.0
 40
105.0000000000047
100
AcDbArc
 50
27.4512076778
 51
32.0269751725
  0
ARC
  5
476
330
1F
100
AcDbEntity
  8
0
  6
Continuous
 62
     7
370
    15
100
AcDbCircle
 10
234.8372637763
 20
-75.4798616459
 30
0.0
 40
105.0000000000273
100
AcDbArc
 50
246.3730248275
 51
250.9487923222
  0
ARC
  5
477
330
1F
100
AcDbEntity
  8
0
  6
Continuous
 62
     7
370
    15
100
AcDbCircle
 10
0.0000000032
 20
-0.0000000029
 30
0.0
 40
258.1239999956677
100
AcDbArc
 50
317.6899601534
 51
318.3100398466
  0
ARC
  5
478
330
1F
100
AcDbEntity
  8
0
  6
Continuous
 62
     7
370
    15
100
AcDbCircle
 10
99.6135533668
 20
-225.6610067283
 30
0.0
 40
104.999999999994
100
AcDbArc
 50
25.0512076778
 51
29.6269751725
  0
ARC
  5
479
330
1F
100
AcDbEntity
  8
0
  6
Continuous
 62
     7
370
    15
100
AcDbCircle
 10
231.470503047
 20
-85.2476169238
 30
0.0
 40
104.999999999997
100
AcDbArc
 50
243.9730248275
 51
248.5487923222
  0
ARC
  5
47A
330
1F
100
AcDbEntity
  8
0
  6
Continuous
 62
     7
370
    15
100
AcDbCircle
 10
0.000000002
 20
-0.000000002
 30
0.0
 40
258.1239999971479
100
AcDbArc
 50
315.2899601535
 51
315.9100398466
  0
ARC
  5
47B
330
1F
100
AcDbEntity
  8
0
  6
Continuous
 62
     7
370
    15
100
AcDbCircle
 10
90.0764731781
 20
-229.6344463529
 30
0.0
 40
104.9999999999769
100
AcDbArc
 50
22.6512076778
 51
27.2269751725
  0
ARC
  5
47C
330
1F
100
AcDbEntity
  8
0
  6
Continuous
 62
     7
370
    15
100
AcDbCircle
 10
227.6976644012
 20
-94.8658189141
 30
0.0
 40
105.0000000000331
100
AcDbArc
 50
241.5730248275
 51
246.1487923222
  0
ARC
  5
47D
330
1F
100
AcDbEntity
  8
0
  6
Continuous
 62
     7
370
    15
100
AcDbCircle
 10
0.0000000032
 20
-0.0000000034
 30
0.0
 40
258.1239999952796
100
AcDbArc
 50
312.8899601534
 51
313.5100398466
  0
ARC
  5
47E
330
1F
100
AcDbEntity
  8
0
  6
Continuous
 62
     7
370
    15
100
AcDbCircle
 10
80.3813682472
 20
-233.2050291282
 30
0.0
 40
104.9999999999905
100
AcDbArc
 50
20.2512076778
 51
24.8269751725
  0
ARC
  5
47F
330
1F
100
AcDbEntity
  8
0
  6
Continuous
 62
     7
370
    15
100
AcDbCircle
 10
223.5253666798
 20
-104.3175940226
 30
0.0
 40
104.9999999999825
100
AcDbArc
 50
239.1730248275
 51
243.7487923222
  0
ARC
  5
480
330
1F
100
AcDbEntity
  8
0
  6
Continuous
 62
     7
370
    15
100
AcDbCircle
 10
0.0000000025
 20
-0.0000000029
 30
0.0
 40
258.1239999961411
100
AcDbArc
 50
310.4899601534
 51
311.1100398466
  0
ARC
  5
481
330
1F
100
AcDbEntity
  8
0
  6
Continuous
 62
     7
370
    15
100
AcDbCircle
 10
70.5452470827
 20
-236.3664910389
 30
0.0
 40
105.0000000000025
100
AcDbArc
 50
17.8512076778
 51
22.4269751725
  0
ARC
  5
482
330
1F
100
AcDbEntity
  8
0
  6
Continuous
 62
     7
370
    15
100
AcDbCircle
 10
218.9609295109
 20
-113.5863606237
 30
0.0
 40
104.9999999999992
100
AcDbArc
 50
236.7730248275
 51
241.3487923222
  0
ARC
  5
483
330
1F
100
AcDbEntity
  8
0
  6
Continuous
 62
     7
370
    15
100
AcDbCircle
 10
0.000000002
 20
-0.0000000025
 30
0.0
 40
258.1239999967865
100
AcDbArc
 50
308.0899601535
 51
308.7100398466
  0
ARC
  5
484
330
1F
100
AcDbEntity
  8
0
  6
Continuous
 62
     7
370
    15
100
AcDbCircle
 10
60.5853655834
 20
-239.1132858064
 30
0.0
 40
104.9999999999832
100
AcDbArc
 50
15.4512076778
 51
20.0269751725
  0
ARC
  5
485
330
1F
100
AcDbEntity
  8
0
  6
Continuous
 62
     7
370
    15
100
AcDbCircle
 10
214.0123604681
 20
-122.6558581514
 30
0.0
 40
105.0000000000252
100
AcDbArc
 50
234.3730248275
 51
238.9487923222
  0
ARC
  5
486
330
1F
100
AcDbEntity
  8
0
  6
Continuous
 62
     7
370
    15
100
AcDbCircle
 10
0.0000000024
 20
-0.0000000033
 30
0.0
 40
258.1239999958671
100
AcDbArc
 50
305.6899601534
 51
306.3100398466
  0
ARC
  5
487
330
1F
100
AcDbEntity
  8
0
  6
Continuous
 62
     7
370
    15
100
AcDbCircle
 10
50.5191967657
 20
-241.4405946193
 30
0.0
 40
104.9999999999855
100
AcDbArc
 50
13.0512076778
 51
17.6269751725
  0
ARC
  5
488
330
1F
100
AcDbEntity
  8
0
  6
Continuous
 62
     7
370
    15
100
AcDbCircle
 10
208.6883410233
 20
-131.5101756251
 30
0.0
 40
105.0000000000827
100
AcDbArc
 50
231.9730248275
 51
236.5487923222
  0
ARC
  5
489
330
1F
100
AcDbEntity
  8
0
  6
Continuous
 62
     7
370
    15
100
AcDbCircle
 10
0.0000000027
 20
-0.0000000041
 30
0.0
 40
258.1239999951331
100
AcDbArc
 50
303.2899601534
 51
303.9100398466
  0
ARC
  5
48A
330
1F
100
AcDbEntity
  8
0
  6
Continuous
 62
     7
370
    15
100
AcDbCircle
 10
40.3644001104
 20
-243.3443345873
 30
0.0
 40
105.0000000000163
100
AcDbArc
 50
10.6512076778
 51
15.2269751725
  0
ARC
  5
48B
330
1F
100
AcDbEntity
  8
0
  6
Continuous
 62
     7
370
    15
100
AcDbCircle
 10
202.9982113154
 20
-140.1337795634
 30
0.0
 40
105.0000000000148
100
AcDbArc
 50
229.5730248275
 51
234.1487923222
  0
ARC
  5
48C
330
1F
100
AcDbEntity
  8
0
  6
Continuous
 62
     7
370
    15
100
AcDbCircle
 10
0.0000000015
 20
-0.0000000025
 30
0.0
 40
258.1239999970874
100
AcDbArc
 50
300.8899601535
 51
301.5100398466
  0
ARC
  5
48D
330
1F
100
AcDbEntity
  8
0
  6
Continuous
 62
     7
370
    15
100
AcDbCircle
 10
30.1387905815
 20
-244.8211659034
 30
0.0
 40
104.9999999999873
100
AcDbArc
 50
8.2512076778
 51
12.8269751725
  0
ARC
  5
48E
330
1F
100
AcDbEntity
  8
0
  6
Continuous
 62
     7
370
    15
100
AcDbCircle
 10
196.9519537657
 20
-148.5115412346
 30
0.0
 40
105.0000000000071
100
AcDbArc
 50
227.1730248275
 51
231.7487923222
  0
ARC
  5
48F
330
1F
100
AcDbEntity
  8
0
  6
Continuous
 62
     7
370
    15
100
AcDbCircle
 10
0.0000000017
 20
-0.0000000031
 30
0.0
 40
258.1239999964353
100
AcDbArc
 50
298.4899601534
 51
299.1100398466
  0
ARC
  5
490
330
1F
100
AcDbEntity
  8
0
  6
Continuous
 62
     7
370
    15
100
AcDbCircle
 10
19.8603073725
 20
-245.8684977037
 30
0.0
 40
104.9999999999992
100
AcDbArc
 50
5.8512076778
 51
10.4269751725
  0
ARC
  5
491
330
1F
100
AcDbEntity
  8
0
  6
Continuous
 62
     7
370
    15
100
AcDbCircle
 10
190.5601755644
 20
-156.6287631978
 30
0.0
 40
105.0000000000259
100
AcDbArc
 50
224.7730248275
 51
229.3487923222
  0
ARC
  5
492
330
1F
100
AcDbEntity
  8
0
  6
Continuous
 62
     7
370
    15
100
AcDbCircle
 10
0.0000000022
 20
-0.0000000045
 30
0.0
 40
258.1239999949835
100
AcDbArc
 50
296.0899601534
 51
296.7100398466
  0
ARC
  5
493
330
1F
100
AcDbEntity
  8
0
  6
Continuous
 62
     7
370
    15
100
AcDbCircle
 10
9.5469824359
 20
-246.4844926124
 30
0.0
 40
105.0000000000163
100
AcDbArc
 50
3.4512076778
 51
8.0269751725
  0
ARC
  5
494
330
1F
100
AcDbEntity
  8
0
  6
Continuous
 62
     7
370
    15
100
AcDbCircle
 10
183.8340900623
 20
-164.4712050875
 30
0.0
 40
105.0000000000447
100
AcDbArc
 50
222.3730248275
 51
226.9487923222
  0
ARC
  5
495
330
1F
100
AcDbEntity
  8
0
  6
Continuous
 62
     7
370
    15
100
AcDbCircle
 10
0.0000000013
 20
-0.0000000029
 30
0.0
 40
258.1239999967893
100
AcDbArc
 50
293.6899601535
 51
294.3100398466
  0
ARC
  5
496
330
1F
100
AcDbEntity
  8
0
  6
Continuous
 62
     7
370
    15
100
AcDbCircle
 10
-0.7830911519
 20
-246.668069965
 30
0.0
 40
104.9999999999792
100
AcDbArc
 50
1.0512076778
 51
5.6269751725
  0
ARC
  5
497
330
1F
100
AcDbEntity
  8
0
  6
Continuous
 62
     7
370
    15
100
AcDbCircle
 10
176.7854970991
 20
-172.0251085959
 30
0.0
 40
105.0000000000217
100
AcDbArc
 50
219.9730248275
 51
224.5487923222
  0
ARC
  5
498
330
1F
100
AcDbEntity
  8
0
  6
Continuous
 62
     7
370
    15
100
AcDbCircle
 10
0.0000000014
 20
-0.0000000037
 30
0.0
 40
258.1239999960627
100
AcDbArc
 50
291.2899601534
 51
291.9100398466
  0
ARC
  5
499
330
1F
100
AcDbEntity
  8
0
  6
Continuous
 62
     7
370
    15
100
AcDbCircle
 10
-11.1117909319
 20
-246.4189077045
 30
0.0
 40
105.0000000000015
100
AcDbArc
 50
358.6512076778
 51
3.2269751725
  0
ARC
  5
49A
330
1F
100
AcDbEntity
  8
0
  6
Continuous
 62
     7
370
    15
100
AcDbCircle
 10
169.4267623018
 20
-179.2772216093
 30
0.0
 40
105.0000000000346
100
AcDbArc
 50
217.5730248275
 51
222.1487923222
  0
ARC
  5
49B
330
1F
100
AcDbEntity
  8
0
  6
Continuous
 62
     7
370
    15
100
AcDbCircle
 10
0.0000000015
 20
-0.0000000044
 30
0.0
 40
258.1239999952894
100
AcDbArc
 50
288.8899601534
 51
289.5100398466
  0
ARC
  5
49C
330
1F
100
AcDbEntity
  8
0
  6
Continuous
 62
     7
370
    15
100
AcDbCircle
 10
-21.4209968547
 20
-245.7374429462
 30
0.0
 40
104.999999999993
100
AcDbArc
 50
356.2512076778
 51
0.8269751725
  0
ARC
  5
49D
330
1F
100
AcDbEntity
  8
0
  6
Continuous
 62
     7
370
    15
100
AcDbCircle
 10
161.7707953918
 20
-186.2148214572
 30
0.0
 40
105.0000000000083
100
AcDbArc
 50
215.1730248275
 51
219.7487923222
  0
ARC
  5
49E
330
1F
100
AcDbEntity
  8
0
  6
Continuous
 62
     7
370
    15
100
AcDbCircle
 10
0.0000000005
 20
-0.0000000018
 30
0.0
 40
258.1239999981318
100
AcDbArc
 50
286.4899601535
 51
287.1100398466
  0
ARC
  5
49F
330
1F
100
AcDbEntity
  8
0
  6
Continuous
 62
     7
370
    15
100
AcDbCircle
 10
-31.6926230701
 20
-244.6248712109
 30
0.0
 40
105.0000000000008
100
AcDbArc
 50
353.8512076778
 51
358.4269751725
  0
ARC
  5
4A0
330
1F
100
AcDbEntity
  8
0
  6
Continuous
 62
     7
370
    15
100
AcDbCircle
 10
153.8310275366
 20
-192.8257372319
 30
0.0
 40
105.0000000000474
100
AcDbArc
 50
212.7730248275
 51
217.3487923222
  0
ARC
  5
4A1
330
1F
100
AcDbEntity
  8
0
  6
Continuous
 62
     7
370
    15
100
AcDbCircle
 10
0.0000000008
 20
-0.0000000032
 30
0.0
 40
258.1239999966668
100
AcDbArc
 50
284.0899601535
 51
284.7100398466
  0
ARC
  5
4A2
330
1F
100
AcDbEntity
  8
0
  6
Continuous
 62
     7
370
    15
100
AcDbCircle
 10
-41.9086496554
 20
-243.0831443273
 30
0.0
 40
105.0000000000047
100
AcDbArc
 50
351.4512076778
 51
356.0269751725
  0
ARC
  5
4A3
330
1F
100
AcDbEntity
  8
0
  6
Continuous
 62
     7
370
    15
100
AcDbCircle
 10
145.621387787
 20
-199.098371141
 30
0.0
 40
105.0000000000462
100
AcDbArc
 50
210.3730248275
 51
214.9487923222
  0
ARC
  5
4A4
330
1F
100
AcDbEntity
  8
0
  6
Continuous
 62
     7
370
    15
100
AcDbCircle
 10
0.0000000012
 20
-0.0000000055
 30
0.0
 40
258.1239999944279
100
AcDbArc
 50
281.6899601534
 51
282.3100398466
  0
ARC
  5
4A5
330
1F
100
AcDbEntity
  8
0
  6
Continuous
 62
     7
370
    15
100
AcDbCircle
 10
-52.0511542286
 20
-241.1149670084
 30
0.0
 40
104.9999999999922
100
AcDbArc
 50
349.0512076778
 51
353.6269751725
  0
ARC
  5
4A6
330
1F
100
AcDbEntity
  8
0
  6
Continuous
 62
     7
370
    15
100
AcDbCircle
 10
137.1562786407
 20
-205.021718853
 30
0.0
 40
105.0000000000077
100
AcDbArc
 50
207.9730248275
 51
212.5487923222
  0
ARC
  5
4A7
330
1F
100
AcDbEntity
  8
0
  6
Continuous
 62
     7
370
    15
100
AcDbCircle
 10
0.0000000007
 20
-0.0000000039
 30
0.0
 40
258.1239999960105
100
AcDbArc
 50
279.2899601534
 51
279.9100398466
  0
ARC
  5
4A8
330
1F
100
AcDbEntity
  8
0
  6
Continuous
 62
     7
370
    15
100
AcDbCircle
 10
-62.1023433902
 20
-238.723792106
 30
0.0
 40
104.9999999999977
100
AcDbArc
 50
346.6512076778
 51
351.2269751725
  0
ARC
  5
4A9
330
1F
100
AcDbEntity
  8
0
  6
Continuous
 62
     7
370
    15
100
AcDbCircle
 10
128.4505507757
 20
-210.5853888033
 30
0.0
 40
105.0000000000467
100
AcDbArc
 50
205.5730248275
 51
210.1487923222
  0
ARC
  5
4AA
330
1F
100
AcDbEntity
  8
0
  6
Continuous
 62
     7
370
    15
100
AcDbCircle
 10
0.0000000003
 20
-0.0000000026
 30
0.0
 40
258.1239999974114
100
AcDbArc
 50
276.8899601535
 51
277.5100398466
  0
ARC
  5
4AB
330
1F
100
AcDbEntity
  8
0
  6
Continuous
 62
     7
370
    15
100
AcDbCircle
 10
-72.0445839389
 20
-235.9138145533
 30
0.0
 40
104.999999999986
100
AcDbArc
 50
344.2512076778
 51
348.8269751725
  0
ARC
  5
4AC
330
1F
100
AcDbEntity
  8
0
  6
Continuous
 62
     7
370
    15
100
AcDbCircle
 10
119.5194769968
 20
-215.7796204242
 30
0.0
 40
105.0000000000311
100
AcDbArc
 50
203.1730248275
 51
207.7487923222
  0
ARC
  5
4AD
330
1F
100
AcDbEntity
  8
0
  6
Continuous
 62
     7
370
    15
100
AcDbCircle
 10
0.0000000003
 20
-0.0000000035
 30
0.0
 40
258.1239999964524
100
AcDbArc
 50
274.4899601535
 51
275.1100398466
  0
ARC
  5
4AE
330
1F
100
AcDbEntity
  8
0
  6
Continuous
 62
     7
370
    15
100
AcDbCircle
 10
-81.8604338065
 20
-232.6899640058
 30
0.0
 40
105.0000000000085
100
AcDbArc
 50
341.8512076778
 51
346.4269751725
  0
ARC
  5
4AF
330
1F
100
AcDbEntity
  8
0
  6
Continuous
 62
     7
370
    15
100
AcDbCircle
 10
110.3787254423
 20
-220.5953012685
 30
0.0
 40
105.0000000000318
100
AcDbArc
 50
200.7730248275
 51
205.3487923222
  0
ARC
  5
4B0
330
1F
100
AcDbEntity
  8
0
  6
Continuous
 62
     7
370
    15
100
AcDbCircle
 10
0.0000000001
 20
-0.0000000014
 30
0.0
 40
258.1239999985787
100
AcDbArc
 50
272.0899601535
 51
272.7100398466
  0
ARC
  5
4B1
330
1F
100
AcDbEntity
  8
0
  6
Continuous
 62
     7
370
    15
100
AcDbCircle
 10
-91.5326726568
 20
-229.0578961929
 30
0.0
 40
104.9999999999757
100
AcDbArc
 50
339.4512076778
 51
344.0269751725
  0
ARC
  5
4B2
330
1F
100
AcDbEntity
  8
0
  6
Continuous
 62
     7
370
    15
100
AcDbCircle
 10
101.0443320964
 20
-225.0239829956
 30
0.0
 40
105.0000000000493
100
AcDbArc
 50
198.3730248275
 51
202.9487923222
  0
ARC
  5
4B3
330
1F
100
AcDbEntity
  8
0
  6
Continuous
 62
     7
370
    15
100
AcDbCircle
 10
0.0
 20
-0.0000000042
 30
0.0
 40
258.1239999958349
100
AcDbArc
 50
269.6899601534
 51
270.3100398466
  0
ARC
  5
4B4
330
1F
100
AcDbEntity
  8
0
  6
Continuous
 62
     7
370
    15
100
AcDbCircle
 10
-101.0443320963
 20
-225.0239829956
 30
0.0
 40
105.0000000000029
100
AcDbArc
 50
337.0512076778
 51
341.6269751725
  0
ARC
  5
4B5
330
1F
100
AcDbEntity
  8
0
  6
Continuous
 62
     7
370
    15
100
AcDbCircle
 10
91.5326726569
 20
-229.0578961928
 30
0.0
 40
105.0000000000324
100
AcDbArc
 50
195.9730248275
 51
200.5487923222
  0
ARC
  5
4B6
330
1F
100
AcDbEntity
  8
0
  6
Continuous
 62
     7
370
    15
100
AcDbCircle
 10
-0.0000000001
 20
-0.0000000027
 30
0.0
 40
258.1239999972832
100
AcDbArc
 50
267.2899601535
 51
267.9100398466
  0
ARC
  5
4B7
330
1F
100
AcDbEntity
  8
0
  6
Continuous
 62
     7
370
    15
100
AcDbCircle
 10
-110.3787254422
 20
-220.5953012685
 30
0.0
 40
104.9999999999899
100
AcDbArc
 50
334.6512076778
 51
339.2269751725
  0
ARC
  5
4B8
330
1F
100
AcDbEntity
  8
0
  6
Continuous
 62
     7
370
    15
100
AcDbCircle
 10
81.8604338065
 20
-232.6899640058
 30
0.0
 40
105.0000000000346
100
AcDbArc
 50
193.5730248275
 51
198.1487923222
  0
ARC
  5
4B9
330
1F
100
AcDbEntity
  8
0
  6
Continuous
 62
     7
370
    15
100
AcDbCircle
 10
-0.0000000004
 20
-0.0000000053
 30
0.0
 40
258.1239999947264
100
AcDbArc
 50
264.8899601534
 51
265.5100398466
  0
ARC
  5
4BA
330
1F
100
AcDbEntity
  8
0
  6
Continuous
 62
     7
370
    15
100
AcDbCircle
 10
-119.5194769968
 20
-215.7796204242
 30
0.0
 40
105.0000000000023
100
AcDbArc
 50
332.2512076778
 51
336.8269751725
  0
ARC
  5
4BB
330
1F
100
AcDbEntity
  8
0
  6
Continuous
 62
     7
370
    15
100
AcDbCircle
 10
72.0445839389
 20
-235.9138145533
 30
0.0
 40
105.0000000000156
100
AcDbArc
 50
191.1730248275
 51
195.7487923222
  0
ARC
  5
4BC
330
1F
100
AcDbEntity
  8
0
  6
Continuous
 62
     7
370
    15
100
AcDbCircle
 10
-0.0000000004
 20
-0.0000000031
 30
0.0
 40
258.1239999968916
100
AcDbArc
 50
262.4899601535
 51
263.1100398466
  0
ARC
  5
4BD
330
1F
100
AcDbEntity
  8
0
  6
Continuous
 62
     7
370
    15
100
AcDbCircle
 10
-128.4505507756
 20
-210.5853888033
 30
0.0
 40
105.0000000000108
100
AcDbArc
 50
329.8512076778
 51
334.4269751725
  0
ARC
  5
4BE
330
1F
100
AcDbEntity
  8
0
  6
Continuous
 62
     7
370
    15
100
AcDbCircle
 10
62.1023433902
 20
-238.7237921059
 30
0.0
 40
105.0000000000401
100
AcDbArc
 50
188.7730248275
 51
193.3487923222
  0
ARC
  5
4BF
330
1F
100
AcDbEntity
  8
0
  6
Continuous
 62
     7
370
    15
100
AcDbCircle
 10
-0.0000000005
 20
-0.0000000031
 30
0.0
 40
258.1239999968783
100
AcDbArc
 50
260.0899601534
 51
260.7100398466
  0
ARC
  5
4C0
330
1F
100
AcDbEntity
  8
0
  6
Continuous
 62
     7
370
    15
100
AcDbCircle
 10
-137.1562786407
 20
-205.021718853
 30
0.0
 40
105.0000000000015
100
AcDbArc
 50
327.4512076778
 51
332.0269751725
  0
ARC
  5
4C1
330
1F
100
AcDbEntity
  8
0
  6
Continuous
 62
     7
370
    15
100
AcDbCircle
 10
52.0511542287
 20
-241.1149670084
 30
0.0
 40
105.0000000000325
100
AcDbArc
 50
186.3730248275
 51
190.9487923222
  0
ARC
  5
4C2
330
1F
100
AcDbEntity
  8
0
  6
Continuous
 62
     7
370
    15
100
AcDbCircle
 10
-0.0000000009
 20
-0.0000000044
 30
0.0
 40
258.1239999955517
100
AcDbArc
 50
257.6899601534
 51
258.3100398466
  0
ARC
  5
4C3
330
1F
100
AcDbEntity
  8
0
  6
Continuous
 62
     7
370
    15
100
AcDbCircle
 10
-145.621387787
 20
-199.098371141
 30
0.0
 40
105.0000000000251
100
AcDbArc
 50
325.0512076778
 51
329.6269751725
  0
ARC
  5
4C4
330
1F
100
AcDbEntity
  8
0
  6
Continuous
 62
     7
370
    15
100
AcDbCircle
 10
41.9086496555
 20
-243.0831443273
 30
0.0
 40
105.0000000000267
100
AcDbArc
 50
183.9730248275
 51
188.5487923222
  0
ARC
  5
4C5
330
1F
100
AcDbEntity
  8
0
  6
Continuous
 62
     7
370
    15
100
AcDbCircle
 10
-0.0000000009
 20
-0.0000000036
 30
0.0
 40
258.1239999962602
100
AcDbArc
 50
255.2899601534
 51
255.9100398466
  0
ARC
  5
4C6
330
1F
100
AcDbEntity
  8
0
  6
Continuous
 62
     7
370
    15
100
AcDbCircle
 10
-153.8310275365
 20
-192.825737232
 30
0.0
 40
104.9999999999493
100
AcDbArc
 50
322.6512076778
 51
327.2269751725
  0
ARC
  5
4C7
330
1F
100
AcDbEntity
  8
0
  6
Continuous
 62
     7
370
    15
100
AcDbCircle
 10
31.6926230702
 20
-244.6248712109
 30
0.0
 40
105.0000000000581
100
AcDbArc
 50
181.5730248275
 51
186.1487923222
  0
ARC
  5
4C8
330
1F
100
AcDbEntity
  8
0
  6
Continuous
 62
     7
370
    15
100
AcDbCircle
 10
-0.000000001
 20
-0.0000000035
 30
0.0
 40
258.1239999963927
100
AcDbArc
 50
252.8899601535
 51
253.5100398466
  0
ARC
  5
4C9
330
1F
100
AcDbEntity
  8
0
  6
Continuous
 62
     7
370
    15
100
AcDbCircle
 10
-161.7707953917
 20
-186.2148214572
 30
0.0
 40
104.9999999999606
100
AcDbArc
 50
320.2512076778
 51
324.8269751725
  0
ARC
  5
4CA
330
1F
100
AcDbEntity
  8
0
  6
Continuous
 62
     7
370
    15
100
AcDbCircle
 10
21.4209968547
 20
-245.7374429462
 30
0.0
 40
105.0000000000447
100
AcDbArc
 50
179.1730248275
 51
183.7487923222
  0
ARC
  5
4CB
330
1F
100
AcDbEntity
  8
0
  6
Continuous
 62
     7
370
    15
100
AcDbCircle
 10
-0.000000001
 20
-0.0000000029
 30
0.0
 40
258.1239999968886
100
AcDbArc
 50
250.4899601534
 51
251.1100398466
  0
ARC
  5
4CC
330
1F
100
AcDbEntity
  8
0
  6
Continuous
 62
     7
370
    15
100
AcDbCircle
 10
-169.4267623017
 20
-179.2772216093
 30
0.0
 40
105.0000000000117
100
AcDbArc
 50
317.8512076778
 51
322.4269751725
  0
ARC
  5
4CD
330
1F
100
AcDbEntity
  8
0
  6
Continuous
 62
     7
370
    15
100
AcDbCircle
 10
11.1117909319
 20
-246.4189077045
 30
0.0
 40
105.0000000000387
100
AcDbArc
 50
176.7730248275
 51
181.3487923222
  0
ARC
  5
4CE
330
1F
100
AcDbEntity
  8
0
  6
Continuous
 62
     7
370
    15
100
AcDbCircle
 10
-0.000000001
 20
-0.0000000026
 30
0.0
 40
258.1239999972431
100
AcDbArc
 50
248.0899601535
 51
248.7100398466
  0
ARC
  5
4CF
330
1F
100
AcDbEntity
  8
0
  6
Continuous
 62
     7
370
    15
100
AcDbCircle
 10
-176.785497099
 20
-172.0251085959
 30
0.0
 40
105.0000000000118
100
AcDbArc
 50
315.4512076778
 51
320.0269751725
  0
ARC
  5
4D0
330
1F
100
AcDbEntity
  8
0
  6
Continuous
 62
     7
370
    15
100
AcDbCircle
 10
0.783091152
 20
-246.668069965
 30
0.0
 40
105.0000000000271
100
AcDbArc
 50
174.3730248275
 51
178.9487923222
  0
ARC
  5
4D1
330
1F
100
AcDbEntity
  8
0
  6
Continuous
 62
     7
370
    15
100
AcDbCircle
 10
-0.0000000013
 20
-0.0000000029
 30
0.0
 40
258.1239999967914
100
AcDbArc
 50
245.6899601534
 51
246.3100398466
  0
ARC
  5
4D2
330
1F
100
AcDbEntity
  8
0
  6
Continuous
 62
     7
370
    15
100
AcDbCircle
 10
-183.8340900623
 20
-164.4712050876
 30
0.0
 40
104.9999999999889
100
AcDbArc
 50
313.0512076778
 51
317.6269751725
  0
ARC
  5
4D3
330
1F
100
AcDbEntity
  8
0
  6
Continuous
 62
     7
370
    15
100
AcDbCircle
 10
-9.5469824359
 20
-246.4844926124
 30
0.0
 40
105.0000000000247
100
AcDbArc
 50
171.9730248275
 51
176.5487923222
  0
ARC
  5
4D4
330
1F
100
AcDbEntity
  8
0
  6
Continuous
 62
     7
370
    15
100
AcDbCircle
 10
-0.0000000016
 20
-0.0000000031
 30
0.0
 40
258.1239999965011
100
AcDbArc
 50
243.2899601534
 51
243.9100398466
  0
ARC
  5
4D5
330
1F
100
AcDbEntity
  8
0
  6
Continuous
 62
     7
370
    15
100
AcDbCircle
 10
-190.5601755644
 20
-156.6287631978
 30
0.0
 40
105.0000000000017
100
AcDbArc
 50
310.6512076778
 51
315.2269751725
  0
ARC
  5
4D6
330
1F
100
AcDbEntity
  8
0
  6
Continuous
 62
     7
370
    15
100
AcDbCircle
 10
-19.8603073725
 20
-245.8684977037
 30
0.0
 40
105.0000000000439
100
AcDbArc
 50
169.5730248275
 51
174.1487923222
  0
ARC
  5
4D7
330
1F
100
AcDbEntity
  8
0
  6
Continuous
 62
     7
370
    15
100
AcDbCircle
 10
-0.0000000016
 20
-0.0000000029
 30
0.0
 40
258.123999996647
100
AcDbArc
 50
240.8899601534
 51
241.5100398466
  0
ARC
  5
4D8
330
1F
100
AcDbEntity
  8
0
  6
Continuous
 62
     7
370
    15
100
AcDbCircle
 10
-196.9519537657
 20
-148.5115412346
 30
0.0
 40
104.9999999999945
100
AcDbArc
 50
308.2512076778
 51
312.8269751725
  0
ARC
  5
4D9
330
1F
100
AcDbEntity
  8
0
  6
Continuous
 62
     7
370
    15
100
AcDbCircle
 10
-30.1387905814
 20
-244.8211659034
 30
0.0
 40
105.00000000004
100
AcDbArc
 50
167.1730248275
 51
171.7487923222
  0
ARC
  5
4DA
330
1F
100
AcDbEntity
  8
0
  6
Continuous
 62
     7
370
    15
100
AcDbCircle
 10
-0.0000000012
 20
-0.000000002
 30
0.0
 40
258.1239999976378
100
AcDbArc
 50
238.4899601535
 51
239.1100398466
  0
ARC
  5
4DB
330
1F
100
AcDbEntity
  8
0
  6
Continuous
 62
     7
370
    15
100
AcDbCircle
 10
-202.9982113154
 20
-140.1337795634
 30
0.0
 40
105.0000000000198
100
AcDbArc
 50
305.8512076778
 51
310.4269751725
  0
ARC
  5
4DC
330
1F
100
AcDbEntity
  8
0
  6
Continuous
 62
     7
370
    15
100
AcDbCircle
 10
-40.3644001104
 20
-243.3443345873
 30
0.0
 40
105.0000000000354
100
AcDbArc
 50
164.7730248275
 51
169.3487923222
  0
ARC
  5
4DD
330
1F
100
AcDbEntity
  8
0
  6
Continuous
 62
     7
370
    15
100
AcDbCircle
 10
-0.0000000023
 20
-0.0000000034
 30
0.0
 40
258.12399999589
100
AcDbArc
 50
236.0899601534
 51
236.7100398466
  0
ARC
  5
4DE
330
1F
100
AcDbEntity
  8
0
  6
Continuous
 62
     7
370
    15
100
AcDbCircle
 10
-208.6883410233
 20
-131.5101756252
 30
0.0
 40
105.0000000000242
100
AcDbArc
 50
303.4512076778
 51
308.0269751725
  0
ARC
  5
4DF
330
1F
100
AcDbEntity
  8
0
  6
Continuous
 62
     7
370
    15
100
AcDbCircle
 10
-50.5191967657
 20
-241.4405946194
 30
0.0
 40
105.0000000000067
100
AcDbArc
 50
162.3730248275
 51
166.9487923222
  0
ARC
  5
4E0
330
1F
100
AcDbEntity
  8
0
  6
Continuous
 62
     7
370
    15
100
AcDbCircle
 10
-0.0000000017
 20
-0.0000000024
 30
0.0
 40
258.1239999970869
100
AcDbArc
 50
233.6899601535
 51
234.3100398466
  0
ARC
  5
4E1
330
1F
100
AcDbEntity
  8
0
  6
Continuous
 62
     7
370
    15
100
AcDbCircle
 10
-214.0123604682
 20
-122.6558581514
 30
0.0
 40
105.0000000000651
100
AcDbArc
 50
301.0512076778
 51
305.6269751725
  0
ARC
  5
4E2
330
1F
100
AcDbEntity
  8
0
  6
Continuous
 62
     7
370
    15
100
AcDbCircle
 10
-60.5853655833
 20
-239.1132858064
 30
0.0
 40
105.0000000000166
100
AcDbArc
 50
159.9730248275
 51
164.5487923222
  0
ARC
  5
4E3
330
1F
100
AcDbEntity
  8
0
  6
Continuous
 62
     7
370
    15
100
AcDbCircle
 10
-0.0000000025
 20
-0.0000000031
 30
0.0
 40
258.1239999960234
100
AcDbArc
 50
231.2899601534
 51
231.9100398466
  0
ARC
  5
4E4
330
1F
100
AcDbEntity
  8
0
  6
Continuous
 62
     7
370
    15
100
AcDbCircle
 10
-218.9609295109
 20
-113.5863606237
 30
0.0
 40
104.9999999999969
100
AcDbArc
 50
298.6512076778
 51
303.2269751725
  0
ARC
  5
4E5
330
1F
100
AcDbEntity
  8
0
  6
Continuous
 62
     7
370
    15
100
AcDbCircle
 10
-70.5452470826
 20
-236.3664910389
 30
0.0
 40
105.0000000000414
100
AcDbArc
 50
157.5730248275
 51
162.1487923222
  0
ARC
  5
4E6
330
1F
100
AcDbEntity
  8
0
  6
Continuous
 62
     7
370
    15
100
AcDbCircle
 10
-0.0000000023
 20
-0.0000000027
 30
0.0
 40
258.1239999964754
100
AcDbArc
 50
228.8899601535
 51
229.5100398466
  0
ARC
  5
4E7
330
1F
100
AcDbEntity
  8
0
  6
Continuous
 62
     7
370
    15
100
AcDbCircle
 10
-223.5253666798
 20
-104.3175940226
 30
0.0
 40
104.999999999985
100
AcDbArc
 50
296.2512076778
 51
300.8269751725
  0
ARC
  5
4E8
330
1F
100
AcDbEntity
  8
0
  6
Continuous
 62
     7
370
    15
100
AcDbCircle
 10
-80.3813682472
 20
-233.2050291283
 30
0.0
 40
105.0000000000497
100
AcDbArc
 50
155.1730248275
 51
159.7487923222
  0
ARC
  5
4E9
330
1F
100
AcDbEntity
  8
0
  6
Continuous
 62
     7
370
    15
100
AcDbCircle
 10
-0.0000000035
 20
-0.0000000037
 30
0.0
 40
258.123999994905
100
AcDbArc
 50
226.4899601534
 51
227.1100398466
  0
ARC
  5
4EA
330
1F
100
AcDbEntity
  8
0
  6
Continuous
 62
     7
370
    15
100
AcDbCircle
 10
-227.6976644012
 20
-94.8658189142
 30
0.0
 40
105.0000000000094
100
AcDbArc
 50
293.8512076778
 51
298.4269751725
  0
ARC
  5
4EB
330
1F
100
AcDbEntity
  8
0
  6
Continuous
 62
     7
370
    15
100
AcDbCircle
 10
-90.076473178
 20
-229.6344463529
 30
0.0
 40
105.0000000000381
100
AcDbArc
 50
152.7730248275
 51
157.3487923222
  0
ARC
  5
4EC
330
1F
100
AcDbEntity
  8
0
  6
Continuous
 62
     7
370
    15
100
AcDbCircle
 10
-0.0000000022
 20
-0.0000000021
 30
0.0
 40
258.123999996989
100
AcDbArc
 50
224.0899601535
 51
224.7100398466
  0
ARC
  5
4ED
330
1F
100
AcDbEntity
  8
0
  6
Continuous
 62
     7
370
    15
100
AcDbCircle
 10
-231.470503047
 20
-85.2476169238
 30
0.0
 40
104.9999999999607
100
AcDbArc
 50
291.4512076778
 51
296.0269751725
  0
ARC
  5
4EE
330
1F
100
AcDbEntity
  8
0
  6
Continuous
 62
     7
370
    15
100
AcDbCircle
 10
-99.6135533667
 20
-225.6610067284
 30
0.0
 40
105.00000000002
100
AcDbArc
 50
150.3730248275
 51
154.9487923222
  0
ARC
  5
4EF
330
1F
100
AcDbEntity
  8
0
  6
Continuous
 62
     7
370
    15
100
AcDbCircle
 10
-0.0000000019
 20
-0.0000000017
 30
0.0
 40
258.1239999974463
100
AcDbArc
 50
221.6899601535
 51
222.3100398466
  0
ARC
  5
4F0
330
1F
100
AcDbEntity
  8
0
  6
Continuous
 62
     7
370
    15
100
AcDbCircle
 10
-234.8372637762
 20
-75.479861646
 30
0.0
 40
104.9999999999675
100
AcDbArc
 50
289.0512076778
 51
293.6269751725
  0
ARC
  5
4F1
330
1F
100
AcDbEntity
  8
0
  6
Continuous
 62
     7
370
    15
100
AcDbCircle
 10
-108.9758775339
 20
-221.2916810179
 30
0.0
 40
105.000000000029
100
AcDbArc
 50
147.9730248275
 51
152.5487923222
  0
ARC
  5
4F2
330
1F
100
AcDbEntity
  8
0
  6
Continuous
 62
     7
370
    15
100
AcDbCircle
 10
-0.0000000015
 20
-0.0000000012
 30
0.0
 40
258.1239999980691
100
AcDbArc
 50
219.2899601535
 51
219.9100398466
  0
ARC
  5
4F3
330
1F
100
AcDbEntity
  8
0
  6
Continuous
 62
     7
370
    15
100
AcDbCircle
 10
-237.7920401466
 20
-65.5796890426
 30
0.0
 40
104.9999999999727
100
AcDbArc
 50
286.6512076778
 51
291.2269751725
  0
ARC
  5
4F4
330
1F
100
AcDbEntity
  8
0
  6
Continuous
 62
     7
370
    15
100
AcDbCircle
 10
-118.1470209817
 20
-216.5341345035
 30
0.0
 40
105.0000000000064
100
AcDbArc
 50
145.5730248275
 51
150.1487923222
  0
ARC
  5
4F5
330
1F
100
AcDbEntity
  8
0
  6
Continuous
 62
     7
370
    15
100
AcDbCircle
 10
-0.0000000023
 20
-0.0000000018
 30
0.0
 40
258.1239999970576
100
AcDbArc
 50
216.8899601535
 51
217.5100398466
  0
ARC
  5
4F6
330
1F
100
AcDbEntity
  8
0
  6
Continuous
 62
     7
370
    15
100
AcDbCircle
 10
-240.3296484763
 20
-55.5644673805
 30
0.0
 40
104.9999999999724
100
AcDbArc
 50
284.2512076778
 51
288.8269751725
  0
ARC
  5
4F7
330
1F
100
AcDbEntity
  8
0
  6
Continuous
 62
     7
370
    15
100
AcDbCircle
 10
-127.1108944079
 20
-211.3967135383
 30
0.0
 40
105.0000000000211
100
AcDbArc
 50
143.1730248275
 51
147.7487923222
  0
ARC
  5
4F8
330
1F
100
AcDbEntity
  8
0
  6
Continuous
 62
     7
370
    15
100
AcDbCircle
 10
-0.0000000019
 20
-0.0000000013
 30
0.0
 40
258.123999997698
100
AcDbArc
 50
214.4899601535
 51
215.1100398466
  0
ARC
  5
4F9
330
1F
100
AcDbEntity
  8
0
  6
Continuous
 62
     7
370
    15
100
AcDbCircle
 10
-242.4456369379
 20
-45.4517667616
 30
0.0
 40
105.0000000000021
100
AcDbArc
 50
281.8512076778
 51
286.4269751725
  0
ARC
  5
4FA
330
1F
100
AcDbEntity
  8
0
  6
Continuous
 62
     7
370
    15
100
AcDbCircle
 10
-135.8517721329
 20
-205.8884309046
 30
0.0
 40
105.00000000006
100
AcDbArc
 50
140.7730248275
 51
145.3487923222
  0
ARC
  5
4FB
330
1F
100
AcDbEntity
  8
0
  6
Continuous
 62
     7
370
    15
100
AcDbCircle
 10
-0.0000000032
 20
-0.000000002
 30
0.0
 40
258.1239999962562
100
AcDbArc
 50
212.0899601534
 51
212.7100398466
  0
ARC
  5
4FC
330
1F
100
AcDbEntity
  8
0
  6
Continuous
 62
     7
370
    15
100
AcDbCircle
 10
-244.1362933688
 20
-35.2593282993
 30
0.0
 40
104.9999999999635
100
AcDbArc
 50
279.4512076778
 51
284.0269751725
  0
ARC
  5
4FD
330
1F
100
AcDbEntity
  8
0
  6
Continuous
 62
     7
370
    15
100
AcDbCircle
 10
-144.3543196868
 20
-200.0189500017
 30
0.0
 40
105.0000000000371
100
AcDbArc
 50
138.3730248275
 51
142.9487923222
  0
ARC
  5
4FE
330
1F
100
AcDbEntity
  8
0
  6
Continuous
 62
     7
370
    15
100
AcDbCircle
 10
-0.0000000033
 20
-0.0000000019
 30
0.0
 40
258.1239999961775
100
AcDbArc
 50
209.6899601534
 51
210.3100398466
  0
ARC
  5
4FF
330
1F
100
AcDbEntity
  8
0
  6
Continuous
 62
     7
370
    15
100
AcDbCircle
 10
-245.3986517831
 20
-25.0050329939
 30
0.0
 40
105.0000000000036
100
AcDbArc
 50
277.0512076778
 51
281.6269751725
  0
ARC
  5
500
330
1F
100
AcDbEntity
  8
0
  6
Continuous
 62
     7
370
    15
100
AcDbCircle
 10
-152.603620712
 20
-193.7985678936
 30
0.0
 40
105.0000000000146
100
AcDbArc
 50
135.9730248275
 51
140.5487923222
  0
ARC
  5
501
330
1F
100
AcDbEntity
  8
0
  6
Continuous
 62
     7
370
    15
100
AcDbCircle
 10
-0.0000000042
 20
-0.0000000022
 30
0.0
 40
258.1239999952112
100
AcDbArc
 50
207.2899601534
 51
207.9100398466
  0
ARC
  5
502
330
1F
100
AcDbEntity
  8
0
  6
Continuous
 62
     7
370
    15
100
AcDbCircle
 10
-246.2304975751
 20
-14.706870364
 30
0.0
 40
104.9999999999912
100
AcDbArc
 50
274.6512076778
 51
279.2269751725
  0
ARC
  5
503
330
1F
100
AcDbEntity
  8
0
  6
Continuous
 62
     7
370
    15
100
AcDbCircle
 10
-160.5852031314
 20
-187.2381972442
 30
0.0
 40
105.0000000000336
100
AcDbArc
 50
133.5730248275
 51
138.1487923222
  0
ARC
  5
504
330
1F
100
AcDbEntity
  8
0
  6
Continuous
 62
     7
370
    15
100
AcDbCircle
 10
-0.0000000017
 20
-0.0000000008
 30
0.0
 40
258.1239999980818
100
AcDbArc
 50
204.8899601535
 51
205.5100398466
  0
ARC
  5
505
330
1F
100
AcDbEntity
  8
0
  6
Continuous
 62
     7
370
    15
100
AcDbCircle
 10
-246.6303714047
 20
-4.3829068859
 30
0.0
 40
105.000000000006
100
AcDbArc
 50
272.2512076778
 51
276.8269751725
  0
ARC
  5
506
330
1F
100
AcDbEntity
  8
0
  6
Continuous
 62
     7
370
    15
100
AcDbCircle
 10
-168.2850645373
 20
-180.3493471728
 30
0.0
 40
105.0000000000476
100
AcDbArc
 50
131.1730248275
 51
135.7487923222
  0
ARC
  5
507
330
1F
100
AcDbEntity
  8
0
  6
Continuous
 62
     7
370
    15
100
AcDbCircle
 10
-0.0000000035
 20
-0.0000000015
 30
0.0
 40
258.1239999962104
100
AcDbArc
 50
202.4899601534
 51
203.1100398466
  0
ARC
  5
508
330
1F
100
AcDbEntity
  8
0
  6
Continuous
 62
     7
370
    15
100
AcDbCircle
 10
-246.5975717573
 20
5.9487457001
 30
0.0
 40
104.9999999999918
100
AcDbArc
 50
269.8512076778
 51
274.4269751725
  0
ARC
  5
509
330
1F
100
AcDbEntity
  8
0
  6
Continuous
 62
     7
370
    15
100
AcDbCircle
 10
-175.6896967564
 20
-173.1441030634
 30
0.0
 40
104.9999999999848
100
AcDbArc
 50
128.7730248275
 51
133.3487923222
  0
ARC
  5
50A
330
1F
100
AcDbEntity
  8
0
  6
Continuous
 62
     7
370
    15
100
AcDbCircle
 10
-0.0000000025
 20
-0.0000000009
 30
0.0
 40
258.1239999973263
100
AcDbArc
 50
200.0899601535
 51
200.7100398466
  0
ARC
  5
50B
330
1F
100
AcDbEntity
  8
0
  6
Continuous
 62
     7
370
    15
100
AcDbCircle
 10
-246.1321561746
 20
16.2699621648
 30
0.0
 40
104.9999999999948
100
AcDbArc
 50
267.4512076778
 51
272.0269751725
  0
ARC
  5
50C
330
1F
100
AcDbEntity
  8
0
  6
Continuous
 62
     7
370
    15
100
AcDbCircle
 10
-182.7861095476
 20
-165.6351053625
 30
0.0
 40
105.0000000000233
100
AcDbArc
 50
126.3730248275
 51
130.9487923222
  0
ARC
  5
50D
330
1F
100
AcDbEntity
  8
0
  6
Continuous
 62
     7
370
    15
100
AcDbCircle
 10
-0.0000000036
 20
-0.0000000012
 30
0.0
 40
258.1239999962369
100
AcDbArc
 50
197.6899601534
 51
198.3100398466
  0
ARC
  5
50E
330
1F
100
AcDbEntity
  8
0
  6
Continuous
 62
     7
370
    15
100
AcDbCircle
 10
-245.2349411537
 20
26.5626355873
 30
0.0
 40
104.9999999999948
100
AcDbArc
 50
265.0512076778
 51
269.6269751725
  0
ARC
  5
50F
330
1F
100
AcDbEntity
  8
0
  6
Continuous
 62
     7
370
    15
100
AcDbCircle
 10
-189.5618533915
 20
-157.8355274036
 30
0.0
 40
105.0000000000285
100
AcDbArc
 50
123.9730248275
 51
128.5487923222
  0
ARC
  5
510
330
1F
100
AcDbEntity
  8
0
  6
Continuous
 62
     7
370
    15
100
AcDbCircle
 10
-0.0000000025
 20
-0.0000000007
 30
0.0
 40
258.1239999973706
100
AcDbArc
 50
195.2899601535
 51
195.9100398466
  0
ARC
  5
511
330
1F
100
AcDbEntity
  8
0
  6
Continuous
 62
     7
370
    15
100
AcDbCircle
 10
-243.9075007146
 20
36.8087091209
 30
0.0
 40
104.9999999999734
100
AcDbArc
 50
262.6512076778
 51
267.2269751725
  0
ARC
  5
512
330
1F
100
AcDbEntity
  8
0
  6
Continuous
 62
     7
370
    15
100
AcDbCircle
 10
-196.0050413311
 20
-149.7590522967
 30
0.0
 40
104.9999999999903
100
AcDbArc
 50
121.5730248275
 51
126.1487923222
  0
ARC
  5
513
330
1F
100
AcDbEntity
  8
0
  6
Continuous
 62
     7
370
    15
100
AcDbCircle
 10
-0.0000000032
 20
-0.0000000007
 30
0.0
 40
258.123999996729
100
AcDbArc
 50
192.8899601535
 51
193.5100398466
  0
ARC
  5
514
330
1F
100
AcDbEntity
  8
0
  6
Continuous
 62
     7
370
    15
100
AcDbCircle
 10
-242.152163639
 20
46.9902076711
 30
0.0
 40
104.999999999991
100
AcDbArc
 50
260.2512076778
 51
264.8269751725
  0
ARC
  5
515
330
1F
100
AcDbEntity
  8
0
  6
Continuous
 62
     7
370
    15
100
AcDbCircle
 10
-202.1043698251
 20
-141.4198489237
 30
0.0
 40
105.0000000000189
100
AcDbArc
 50
119.1730248275
 51
123.7487923222
  0
ARC
  5
516
330
1F
100
AcDbEntity
  8
0
  6
Continuous
 62
     7
370
    15
100
AcDbCircle
 10
-0.000000002
 20
-0.0000000004
 30
0.0
 40
258.1239999980017
100
AcDbArc
 50
190.4899601535
 51
191.1100398466
  0
ARC
  5
517
330
1F
100
AcDbEntity
  8
0
  6
Continuous
 62
     7
370
    15
100
AcDbCircle
 10
-239.9720093844
 20
57.0892694296
 30
0.0
 40
105.0000000000023
100
AcDbArc
 50
257.8512076778
 51
262.4269751725
  0
ARC
  5
518
330
1F
100
AcDbEntity
  8
0
  6
Continuous
 62
     7
370
    15
100
AcDbCircle
 10
-207.849138579
 20
-132.8325470808
 30
0.0
 40
105.0000000000302
100
AcDbArc
 50
116.7730248275
 51
121.3487923222
  0
ARC
  5
519
330
1F
100
AcDbEntity
  8
0
  6
Continuous
 62
     7
370
    15
100
AcDbCircle
 10
-0.0000000041
 20
-0.0000000006
 30
0.0
 40
258.1239999958648
100
AcDbArc
 50
188.0899601534
 51
188.7100398466
  0
ARC
  5
51A
330
1F
100
AcDbEntity
  8
0
  6
Continuous
 62
     7
370
    15
100
AcDbCircle
 10
-237.3708626824
 20
67.0881772105
 30
0.0
 40
105.0000000000208
100
AcDbArc
 50
255.4512076778
 51
260.0269751725
  0
ARC
  5
51B
330
1F
100
AcDbEntity
  8
0
  6
Continuous
 62
     7
370
    15
100
AcDbCircle
 10
-213.2292693162
 20
-124.0122118136
 30
0.0
 40
105.000000000038
100
AcDbArc
 50
114.3730248275
 51
118.9487923222
  0
ARC
  5
51C
330
1F
100
AcDbEntity
  8
0
  6
Continuous
 62
     7
370
    15
100
AcDbCircle
 10
-0.0000000085
 20
-0.0000000009
 30
0.0
 40
258.1239999914133
100
AcDbArc
 50
185.6899601534
 51
186.3100398466
  0
ARC
  5
51D
330
1F
100
AcDbEntity
  8
0
  6
Continuous
 62
     7
370
    15
100
AcDbCircle
 10
-234.353286828
 20
76.9693895318
 30
0.0
 40
105.000000000009
100
AcDbArc
 50
253.0512076778
 51
257.6269751725
  0
ARC
  5
51E
330
1F
100
AcDbEntity
  8
0
  6
Continuous
 62
     7
370
    15
100
AcDbCircle
 10
-218.2353234592
 20
-114.9743169872
 30
0.0
 40
105.0000000000431
100
AcDbArc
 50
111.9730248275
 51
116.5487923222
  0
ARC
  5
51F
330
1F
100
AcDbEntity
  8
0
  6
Continuous
 62
     7
370
    15
100
AcDbCircle
 10
0.0000000012
 20
0.0000000001
 30
0.0
 40
258.1240000012105
100
AcDbArc
 50
183.2899601535
 51
183.9100398465
  0
ARC
  5
520
330
1F
100
AcDbEntity
  8
0
  6
Continuous
 62
     7
370
    15
100
AcDbCircle
 10
-230.9245756748
 20
86.7155713895
 30
0.0
 40
104.999999999987
100
AcDbArc
 50
250.6512076778
 51
255.2269751725
  0
ARC
  5
521
330
1F
100
AcDbEntity
  8
0
  6
Continuous
 62
     7
370
    15
100
AcDbCircle
 10
-222.858518688
 20
-105.7347181403
 30
0.0
 40
105.0000000000244
100
AcDbArc
 50
109.5730248275
 51
114.1487923222
  0
ARC
  5
522
330
1F
100
AcDbEntity
  8
0
  6
Continuous
 62
     7
370
    15
100
AcDbCircle
 10
-0.0000000064
 20
-0.0000000001
 30
0.0
 40
258.1239999936443
100
AcDbArc
 50
180.8899601534
 51
181.5100398466
  0
ARC
  5
523
330
1F
100
AcDbEntity
  8
0
  6
Continuous
 62
     7
370
    15
100
AcDbCircle
 10
-227.0907443472
 20
96.3096246688
 30
0.0
 40
104.999999999975
100
AcDbArc
 50
248.2512076778
 51
252.8269751725
  0
ENDSEC
  0
SECTION
  2
OBJECTS
  0
DICTIONARY
  5
C
330
0
100
AcDbDictionary
281
     1
  3
ACAD_GROUP
350
D
  3
ACAD_LAYOUT
350
1A
  3
ACAD_MLINESTYLE
350
17
  3
ACAD_PLOTSETTINGS
350
19
  3
ACAD_PLOTSTYLENAME
350
E
  3
ACAD_SCALELIST
350
47
  0
DICTIONARY
  5
D
102
{ACAD_REACTORS
330
C
102
}
330
C
100
AcDbDictionary
281
     1
  0
DICTIONARY
  5
1A
102
{ACAD_REACTORS
330
C
102
}
330
C
100
AcDbDictionary
281
     1
  3
Layout1
350
1E
  3
Layout2
350
26
  3
Model
350
22
  0
DICTIONARY
  5
17
102
{ACAD_REACTORS
330
C
102
}
330
C
100
AcDbDictionary
281
     1
  3
Standard
350
18
  0
DICTIONARY
  5
19
102
{ACAD_REACTORS
330
C
102
}
330
C
100
AcDbDictionary
281
     1
  0
ACDBDICTIONARYWDFLT
  5
E
102
{ACAD_REACTORS
330
C
102
}
330
C
100
AcDbDictionary
281
     1
  3
Normal
350
F
100
AcDbDictionaryWithDefault
340
F
  0
DICTIONARY
  5
47
102
{ACAD_REACTORS
330
C
102
}
330
C
100
AcDbDictionary
281
     1
  3
A0
350
48
  3
A1
350
49
  3
A2
350
4A
  3
A3
350
4B
  3
A4
350
4C
  3
A5
350
4D
  3
A6
350
4E
  3
A7
350
4F
  3
A8
350
50
  3
A9
350
51
  3
B0
350
52
  3
B1
350
53
  3
B2
350
54
  3
B3
350
55
  3
B4
350
56
  3
B5
350
57
  3
B6
350
58
  3
B7
350
59
  3
B8
350
5A
  3
B9
350
5B
  3
C0
350
5C
  3
C1
350
5D
  3
C2
350
5E
  3
C3
350
5F
  3
C4
350
60
  3
C5
350
61
  3
C6
350
62
  3
C7
350
63
  3
C8
350
64
  3
C9
350
65
  3
D0
350
66
  3
D1
350
67
  3
D2
350
68
  0
LAYOUT
  5
1E
102
{ACAD_REACTORS
330
1A
102
}
330
1A
100
AcDbPlotSettings
  1

  2
none_device
  4

  6

 40
0.0
 41
0.0
 42
0.0
 43
0.0
 44
0.0
 45
0.0
 46
0.0
 47
0.0
 48
0.0
 49
0.0
140
0.0
141
0.0
142
1.0
143
1.0
 70
   688
 72
     1
 73
     0
 74
     5
  7

 75
    16
147
1.0
148
0.0
149
0.0
100
AcDbLayout
  1
Layout1
 70
     1
 71
     1
 10
0.0
 20
0.0
 11
420.0
 21
297.0
 12
0.0
 22
0.0
 32
0.0
 14
1.0000000000E+20
 24
1.0000000000E+20
 34
1.0000000000E+20
 15
-1.0000000000E+20
 25
-1.0000000000E+20
 35
-1.0000000000E+20
146
0.0
 13
0.0
 23
0.0
 33
0.0
 16
1.0
 26
0.0
 36
0.0
 17
0.0
 27
1.0
 37
0.0
 76
     0
330
1B
  0
LAYOUT
  5
26
102
{ACAD_REACTORS
330
1A
102
}
330
1A
100
AcDbPlotSettings
  1

  2
none_device
  4

  6

 40
0.0
 41
0.0
 42
0.0
 43
0.0
 44
0.0
 45
0.0
 46
0.0
 47
0.0
 48
0.0
 49
0.0
140
0.0
141
0.0
142
1.0
143
1.0
 70
   688
 72
     1
 73
     0
 74
     5
  7

 75
    16
147
1.0
148
0.0
149
0.0
100
AcDbLayout
  1
Layout2
 70
     1
 71
     2
 10
0.0
 20
0.0
 11
0.0
 21
0.0
 12
0.0
 22
0.0
 32
0.0
 14
0.0
 24
0.0
 34
0.0
 15
0.0
 25
0.0
 35
0.0
146
0.0
 13
0.0
 23
0.0
 33
0.0
 16
1.0
 26
0.0
 36
0.0
 17
0.0
 27
1.0
 37
0.0
 76
     0
330
23
  0
LAYOUT
  5
22
102
{ACAD_REACTORS
330
1A
102
}
330
1A
100
AcDbPlotSettings
  1

  2
none_device
  4
ANSI_A_(11.00_x_8.50_Inches)
  6

 40
6.35
 41
19.05
 42
6.35000508
 43
19.05000254
 44
279.4
 45
215.9
 46
133.34999746
 47
88.89999873
 48
0.0
 49
0.0
140
0.0
141
0.0
142
0.0158197893
143
1.0
 70
  1696
 72
     0
 73
     0
 74
     0
  7

 75
     0
147
0.0179189148
148
-1300.4909072572
149
0.0
100
AcDbLayout
  1
Model
 70
     1
 71
     0
 10
0.0
 20
0.0
 11
420.0
 21
297.0
 12
0.0
 22
0.0
 32
0.0
 14
-265.9972196495
 24
-265.9643522027
 34
0.0
 15
265.9972196495
 25
265.9643522027
 35
0.0
146
0.0
 13
0.0
 23
0.0
 33
0.0
 16
1.0
 26
0.0
 36
0.0
 17
0.0
 27
1.0
 37
0.0
 76
     0
330
1F
331
29
  0
MLINESTYLE
  5
18
102
{ACAD_REACTORS
330
17
102
}
330
17
100
AcDbMlineStyle
  2
Standard
 70
     0
  3

 62
   256
 51
90.0
 52
90.0
 71
     2
 49
0.5
 62
   256
  6
BYLAYER
 49
-0.5
 62
   256
  6
BYLAYER
  0
ACDBPLACEHOLDER
  5
F
102
{ACAD_REACTORS
330
E
102
}
330
E
  0
SCALE
  5
48
102
{ACAD_REACTORS
330
47
102
}
330
47
100
AcDbScale
 70
     0
300
1:1
140
1.0
141
1.0
290
     1
  0
SCALE
  5
49
102
{ACAD_REACTORS
330
47
102
}
330
47
100
AcDbScale
 70
     0
300
1:2
140
1.0
141
2.0
290
     0
  0
SCALE
  5
4A
102
{ACAD_REACTORS
330
47
102
}
330
47
100
AcDbScale
 70
     0
300
1:4
140
1.0
141
4.0
290
     0
  0
SCALE
  5
4B
102
{ACAD_REACTORS
330
47
102
}
330
47
100
AcDbScale
 70
     0
300
1:5
140
1.0
141
5.0
290
     0
  0
SCALE
  5
4C
102
{ACAD_REACTORS
330
47
102
}
330
47
100
AcDbScale
 70
     0
300
1:8
140
1.0
141
8.0
290
     0
  0
SCALE
  5
4D
102
{ACAD_REACTORS
330
47
102
}
330
47
100
AcDbScale
 70
     0
300
1:10
140
1.0
141
10.0
290
     0
  0
SCALE
  5
4E
102
{ACAD_REACTORS
330
47
102
}
330
47
100
AcDbScale
 70
     0
300
1:16
140
1.0
141
16.0
290
     0
  0
SCALE
  5
4F
102
{ACAD_REACTORS
330
47
102
}
330
47
100
AcDbScale
 70
     0
300
1:20
140
1.0
141
20.0
290
     0
  0
SCALE
  5
50
102
{ACAD_REACTORS
330
47
102
}
330
47
100
AcDbScale
 70
     0
300
1:30
140
1.0
141
30.0
290
     0
  0
SCALE
  5
51
102
{ACAD_REACTORS
330
47
102
}
330
47
100
AcDbScale
 70
     0
300
1:40
140
1.0
141
40.0
290
     0
  0
SCALE
  5
52
102
{ACAD_REACTORS
330
47
102
}
330
47
100
AcDbScale
 70
     0
300
1:50
140
1.0
141
50.0
290
     0
  0
SCALE
  5
53
102
{ACAD_REACTORS
330
47
102
}
330
47
100
AcDbScale
 70
     0
300
1:100
140
1.0
141
100.0
290
     0
  0
SCALE
  5
54
102
{ACAD_REACTORS
330
47
102
}
330
47
100
AcDbScale
 70
     0
300
2:1
140
2.0
141
1.0
290
     0
  0
SCALE
  5
55
102
{ACAD_REACTORS
330
47
102
}
330
47
100
AcDbScale
 70
     0
300
4:1
140
4.0
141
1.0
290
     0
  0
SCALE
  5
56
102
{ACAD_REACTORS
330
47
102
}
330
47
100
AcDbScale
 70
     0
300
8:1
140
8.0
141
1.0
290
     0
  0
SCALE
  5
57
102
{ACAD_REACTORS
330
47
102
}
330
47
100
AcDbScale
 70
     0
300
10:1
140
10.0
141
1.0
290
     0
  0
SCALE
  5
58
102
{ACAD_REACTORS
330
47
102
}
330
47
100
AcDbScale
 70
     0
300
100:1
140
100.0
141
1.0
290
     0
  0
SCALE
  5
59
102
{ACAD_REACTORS
330
47
102
}
330
47
100
AcDbScale
 70
     0
300
1/128" = 1'-0"
140
0.0078125
141
12.0
290
     0
  0
SCALE
  5
5A
102
{ACAD_REACTORS
330
47
102
}
330
47
100
AcDbScale
 70
     0
300
1/64" = 1'-0"
140
0.015625
141
12.0
290
     0
  0
SCALE
  5
5B
102
{ACAD_REACTORS
330
47
102
}
330
47
100
AcDbScale
 70
     0
300
1/32" = 1'-0"
140
0.03125
141
12.0
290
     0
  0
SCALE
  5
5C
102
{ACAD_REACTORS
330
47
102
}
330
47
100
AcDbScale
 70
     0
300
1/16" = 1'-0"
140
0.0625
141
12.0
290
     0
  0
SCALE
  5
5D
102
{ACAD_REACTORS
330
47
102
}
330
47
100
AcDbScale
 70
     0
300
3/32" = 1'-0"
140
0.09375
141
12.0
290
     0
  0
SCALE
  5
5E
102
{ACAD_REACTORS
330
47
102
}
330
47
100
AcDbScale
 70
     0
300
1/8" = 1'-0"
140
0.125
141
12.0
290
     0
  0
SCALE
  5
5F
102
{ACAD_REACTORS
330
47
102
}
330
47
100
AcDbScale
 70
     0
300
3/16" = 1'-0"
140
0.1875
141
12.0
290
     0
  0
SCALE
  5
60
102
{ACAD_REACTORS
330
47
102
}
330
47
100
AcDbScale
 70
     0
300
1/4" = 1'-0"
140
0.25
141
12.0
290
     0
  0
SCALE
  5
61
102
{ACAD_REACTORS
330
47
102
}
330
47
100
AcDbScale
 70
     0
300
3/8" = 1'-0"
140
0.375
141
12.0
290
     0
  0
SCALE
  5
62
102
{ACAD_REACTORS
330
47
102
}
330
47
100
AcDbScale
 70
     0
300
1/2" = 1'-0"
140
0.5
141
12.0
290
     0
  0
SCALE
  5
63
102
{ACAD_REACTORS
330
47
102
}
330
47
100
AcDbScale
 70
     0
300
3/4" = 1'-0"
140
0.75
141
12.0
290
     0
  0
SCALE
  5
64
102
{ACAD_REACTORS
330
47
102
}
330
47
100
AcDbScale
 70
     0
300
1" = 1'-0"
140
1.0
141
12.0
290
     0
  0
SCALE
  5
65
102
{ACAD_REACTORS
330
47
102
}
330
47
100
AcDbScale
 70
     0
300
1-1/2" = 1'-0"
140
1.5
141
12.0
290
     0
  0
SCALE
  5
66
102
{ACAD_REACTORS
330
47
102
}
330
47
100
AcDbScale
 70
     0
300
3" = 1'-0"
140
3.0
141
12.0
290
     0
  0
SCALE
  5
67
102
{ACAD_REACTORS
330
47
102
}
330
47
100
AcDbScale
 70
     0
300
6" = 1'-0"
140
6.0
141
12.0
290
     0
  0
SCALE
  5
68
102
{ACAD_REACTORS
330
47
102
}
330
47
100
AcDbScale
 70
     0
300
1'-0" = 1'-0"
140
12.0
141
12.0
290
     0
  0
ENDSEC
  0
EOF
