0
SECTION
2
HEADER
9
$INSUNITS
70
4
9
$ACADVER
1
AC1014
9
$HANDSEED
5
FFFF
0
ENDSEC
0
SECTION
2
TABLES
0
TABLE
2
VPORT
5
8
100
AcDbSymbolTable
0
ENDTAB
0
TABLE
2
LTYPE
5
5
100
AcDbSymbolTable
0
LTYPE
5
14
100
AcDbSymbolTableRecord
100
AcDbLinetypeTableRecord
2
BYBLOCK
70
0
0
LTYPE
5
15
100
AcDbSymbolTableRecord
100
AcDbLinetypeTableRecord
2
BYLAYER
70
0
0
ENDTAB
0
TABLE
2
LAYER
5
2
100
AcDbSymbolTable
70
2
0
LAYER
5
50
100
AcDbSymbolTableRecord
100
AcDbLayerTableRecord
2
0
70
0
6
CONTINUOUS
0
ENDTAB
0
TABLE
2
STYLE
5
3
100
AcDbSymbolTable
70
1
0
STYLE
5
11
100
AcDbSymbolTableRecord
100
AcDbTextStyleTableRecord
2
STANDARD
70
0
0
ENDTAB
0
TABLE
2
VIEW
5
6
100
AcDbSymbolTable
70
0
0
ENDTAB
0
TABLE
2
UCS
5
7
100
AcDbSymbolTable
70
0
0
ENDTAB
0
TABLE
2
APPID
5
9
100
AcDbSymbolTable
70
2
0
APPID
5
12
100
AcDbSymbolTableRecord
100
AcDbRegAppTableRecord
2
ACAD
70
0
0
ENDTAB
0
TABLE
2
DIMSTYLE
5
A
100
AcDbSymbolTable
70
1
0
ENDTAB
0
TABLE
2
BLOCK_RECORD
5
1
100
AcDbSymbolTable
70
1
0
BLOCK_RECORD
5
1F
100
AcDbSymbolTableRecord
100
AcDbBlockTableRecord
2
*MODEL_SPACE
0
BLOCK_RECORD
5
1B
100
AcDbSymbolTableRecord
100
AcDbBlockTableRecord
2
*PAPER_SPACE
0
ENDTAB
0
ENDSEC
0
SECTION
2
BLOCKS
0
BLOCK
5
20
100
AcDbEntity
100
AcDbBlockBegin
2
*MODEL_SPACE
0
ENDBLK
5
21
100
AcDbEntity
100
AcDbBlockEnd
0
BLOCK
5
1C
100
AcDbEntity
100
AcDbBlockBegin
2
*PAPER_SPACE
0
ENDBLK
5
1D
100
AcDbEntity
100
AcDbBlockEnd
0
ENDSEC
0
SECTION
2
ENTITIES
0
LWPOLYLINE
5
100
100
AcDbEntity
8
0
100
AcDbPolyline
90
5
70
1
43
0.0
10
-64.519855347725041
20
1185.3017558844845
10
552.48014465227459
20
1185.3017558846491
10
552.48014465232427
20
995.30175588464988
42
-0.41421356237309892
10
402.48014465236395
20
845.30175588460997
10
-64.519855347636138
20
845.30175588448537
0
LWPOLYLINE
5
101
100
AcDbEntity
8
0
100
AcDbPolyline
90
4
70
1
43
0.0
10
-255.80760400624962
20
789.6554621868205
10
-255.80760400624058
20
739.6554621868205
10
-266.80760400624052
20
739.65546218681857
10
-266.80760400624962
20
789.65546218681857
0
LWPOLYLINE
5
102
100
AcDbEntity
8
0
100
AcDbPolyline
90
4
70
1
43
0.0
10
-266.80760400614815
20
229.65546218681851
10
-255.80760400614821
20
229.6554621868205
10
-255.80760400613912
20
179.6554621868205
10
-266.80760400613912
20
179.65546218681851
0
LWPOLYLINE
5
103
100
AcDbEntity
8
0
100
AcDbPolyline
90
4
70
1
43
0.0
10
544.69239599380114
20
509.67026616737144
10
544.69239599381024
20
459.67026616737144
10
533.6923959938099
20
459.67026616736945
10
533.69239599380126
20
509.67026616736962
0
LWPOLYLINE
5
104
100
AcDbEntity
8
0
100
AcDbPolyline
90
6
70
1
43
0.0
10
522.69239599384014
20
294.6554621869617
42
-0.41421356237309598
10
405.6923959938614
20
177.65546218694058
10
-61.307604006138661
20
177.65546218685571
10
-61.307604006250074
20
791.65546218685563
10
405.69239599375004
20
791.65546218694044
42
-0.41421356237309592
10
522.69239599377113
20
674.65546218696181
0
LWPOLYLINE
5
105
100
AcDbEntity
8
0
100
AcDbPolyline
90
12
70
1
43
0.0
10
-294.30760400615441
20
264.65546218681368
10
-244.30760400615435
20
264.65546218682277
42
0.41421356237309503
10
-94.307604006181577
20
414.65546218684977
10
-94.307604006206986
20
554.65546218685006
42
0.41421356237309481
10
-244.30760400623402
20
704.65546218682266
10
-294.30760400623421
20
704.65546218681368
10
-294.30760400625604
20
824.65546218681368
10
405.6923959937443
20
824.65546218694044
42
-0.41421356237309559
10
555.69239599377124
20
674.65546218696761
10
555.69239599384002
20
294.6554621869675
42
-0.41421356237309476
10
405.69239599386765
20
144.65546218694058
10
-294.30760400613269
20
144.65546218681368
0
LWPOLYLINE
5
106
100
AcDbEntity
8
0
100
AcDbPolyline
90
4
70
1
43
0.0
10
120.01409891329928
20
277.03795550943073
10
120.01409891335058
20
678.03795550943062
10
394.01409891335061
20
678.03795550939549
10
394.01409891329934
20
277.0379555093956
0
LWPOLYLINE
5
107
100
AcDbEntity
8
0
100
AcDbPolyline
90
4
70
1
43
0.0
10
-255.80760400639122
20
89.68618369369068
10
-255.80760400639321
20
39.68618369369068
10
-266.80760400639321
20
39.686183693690964
10
-266.80760400639116
20
89.686183693691106
0
LWPOLYLINE
5
108
100
AcDbEntity
8
0
100
AcDbPolyline
90
4
70
1
43
0.0
10
-266.8076040064135
20
-470.31381630630904
10
-255.80760400641353
20
-470.3138163063096
10
-255.80760400641552
20
-520.31381630630926
10
-266.80760400641543
20
-520.31381630630904
0
LWPOLYLINE
5
109
100
AcDbEntity
8
0
100
AcDbPolyline
90
4
70
1
43
0.0
10
544.69239599359764
20
-190.29901232593517
10
544.69239599359582
20
-240.29901232593517
10
533.69239599359548
20
-240.29901232593488
10
533.69239599359776
20
-190.29901232593488
0
LWPOLYLINE
5
110
100
AcDbEntity
8
0
100
AcDbPolyline
90
6
70
1
43
0.0
10
522.69239599358912
20
-405.3138163063403
42
-0.41421356237309576
10
405.69239599358457
20
-522.31381630633553
10
-61.307604006415559
20
-522.31381630631688
10
-61.307604006391045
20
91.68618369368275
10
405.69239599360901
20
91.686183693664418
42
-0.41421356237309576
10
522.69239599360435
20
-25.3138163063403
0
LWPOLYLINE
5
111
100
AcDbEntity
8
0
100
AcDbPolyline
90
12
70
1
43
0.0
10
-294.30760400641202
20
-435.31381630630761
10
-244.30760400641196
20
-435.3138163063096
42
0.41421356237309515
10
-94.307604006406052
20
-285.31381630631586
10
-94.307604006400538
20
-145.31381630631557
42
0.41421356237309492
10
-244.30760400639434
20
4.686183693690289
10
-294.30760400639457
20
4.6861836936921009
10
-294.30760400638974
20
124.68618369369224
10
405.69239599361055
20
124.68618369366432
42
-0.41421356237309537
10
555.69239599360424
20
-25.313816306341721
10
555.69239599358912
20
-405.31381630634201
42
-0.4142135623730942
10
405.69239599358349
20
-555.31381630633541
10
-294.3076040064168
20
-555.3138163063079
0
LWPOLYLINE
5
112
100
AcDbEntity
8
0
100
AcDbPolyline
90
10
70
1
43
0.0
10
170.21401748407527
20
-474.3382050588412
42
-0.33526152815687471
10
25.926110852923504
20
-365.33820505884114
10
36.926110852923557
20
-365.33820505884108
10
36.926110852923557
20
-354.33820505884114
10
86.926110852923557
20
-354.33820505884114
10
86.926110852923557
20
-365.33820505884137
10
97.926110852923642
20
-365.33820505884137
10
97.9261108529235
20
-414.33820505884114
10
319.92611085292367
20
-414.33820505884114
10
319.92611085292367
20
-474.33820505884114
0
LWPOLYLINE
5
113
100
AcDbEntity
8
0
100
AcDbPolyline
90
4
70
1
43
0.0
10
174.8600301471815
20
-321.25000168892427
10
174.8600301471879
20
-271.25000168892427
10
240.86003014718798
20
-271.2500016889328
10
240.86003014718159
20
-321.2500016889328
0
LWPOLYLINE
5
114
100
AcDbEntity
8
0
100
AcDbPolyline
90
4
70
1
43
0.0
10
176.50715559233674
20
-225.73892606379644
10
176.50715559234314
20
-175.73892606379644
10
231.50715559234314
20
-175.73892606380326
10
231.50715559233674
20
-225.73892606380326
0
LWPOLYLINE
5
115
100
AcDbEntity
8
0
100
AcDbPolyline
90
4
70
1
43
0.0
10
338.34013791819689
20
-321.12400654147081
10
338.34013791820325
20
-271.12400654147081
10
404.34013791820337
20
-271.12400654147933
10
404.34013791819694
20
-321.12400654147933
0
LWPOLYLINE
5
116
100
AcDbEntity
8
0
100
AcDbPolyline
90
4
70
1
43
0.0
10
-206.41248440686311
20
-827.5515826735267
10
-195.41248440686309
20
-827.55158267353181
10
-195.41248440688591
20
-877.55158267353181
10
-206.41248440688585
20
-877.55158267352704
0
LWPOLYLINE
5
117
100
AcDbEntity
8
0
100
AcDbPolyline
90
4
70
1
43
0.0
10
-206.41248440663111
20
-317.55158267352641
10
-206.41248440660831
20
-267.5515826735267
10
-195.41248440660831
20
-267.55158267353153
10
-195.41248440663111
20
-317.55158267353153
0
LWPOLYLINE
5
118
100
AcDbEntity
8
0
100
AcDbPolyline
90
10
70
1
43
0.0
10
-400.91248440659251
20
-232.55158267343859
10
-400.91248440690185
20
-912.55158267343859
10
-167.91248440690183
20
-912.55158267354432
10
-167.91248440684717
20
-792.55158267354432
10
-217.91248440684726
20
-792.55158267352181
42
-0.41421356237309515
10
-367.91248440677907
20
-642.55158267345359
10
-367.91248440671524
20
-502.55158267345337
42
-0.41421356237309515
10
-217.91248440664708
20
-352.55158267352169
10
-167.91248440664702
20
-352.5515826735446
10
-167.91248440659243
20
-232.5515826735446
0
LWPOLYLINE
5
119
100
AcDbEntity
8
0
100
AcDbPolyline
90
4
70
1
43
0.0
10
-255.80760400634674
20
-658.46890762153464
10
-266.80760400634676
20
-658.46890762153464
10
-266.80760400634665
20
-608.46890762153464
10
-255.80760400634665
20
-608.46890762153464
0
LWPOLYLINE
5
120
100
AcDbEntity
8
0
100
AcDbPolyline
90
4
70
1
43
0.0
10
-255.80760400634767
20
-1168.4689076215343
10
-255.80760400634773
20
-1218.4689076215343
10
-266.80760400634773
20
-1218.4689076215343
10
-266.80760400634767
20
-1168.4689076215343
0
LWPOLYLINE
5
121
100
AcDbEntity
8
0
100
AcDbPolyline
90
4
70
1
43
0.0
10
533.69239599365301
20
-888.46890762153578
10
544.69239599365301
20
-888.46890762153578
10
544.69239599365278
20
-938.46890762153578
10
533.69239599365301
20
-938.46890762153578
0
LWPOLYLINE
5
122
100
AcDbEntity
8
0
100
AcDbPolyline
90
4
70
1
43
0.0
10
128.62859194645409
20
-712.59110101234705
10
128.62859194645424
20
-692.59110101234705
10
278.62859194645409
20
-692.59110101234739
10
278.62859194645409
20
-712.59110101234739
0
LWPOLYLINE
5
123
100
AcDbEntity
8
0
100
AcDbPolyline
90
4
70
1
43
0.0
10
357.08690955119238
20
-759.77396031120725
10
377.08690955119238
20
-759.77396031120725
10
377.08690955119198
20
-1059.7739603112072
10
357.08690955119198
20
-1059.7739603112068
0
LWPOLYLINE
5
124
100
AcDbEntity
8
0
100
AcDbPolyline
90
4
70
1
43
0.0
10
128.62859194645367
20
-924.47591435307027
10
128.62859194645367
20
-904.47591435307027
10
278.62859194645341
20
-904.47591435307061
10
278.62859194645341
20
-924.47591435307061
0
LWPOLYLINE
5
125
100
AcDbEntity
8
0
100
AcDbPolyline
90
4
70
1
43
0.0
10
281.38034276905944
20
-1106.7295998146706
10
281.38034276905927
20
-1126.7295998146701
10
131.38034276906012
20
-1126.7295998146699
10
131.38034276905998
20
-1106.7295998146699
0
LWPOLYLINE
5
126
100
AcDbEntity
8
0
100
AcDbPolyline
90
4
70
1
43
0.0
10
32.086909551192448
20
-759.77396031120634
10
52.08690955119252
20
-759.77396031120634
10
52.086909551191951
20
-1059.7739603112063
10
32.086909551191951
20
-1059.7739603112063
0
LWPOLYLINE
5
127
100
AcDbEntity
8
0
100
AcDbPolyline
90
12
70
1
43
0.0
10
-294.30760400634676
20
-693.46890762153498
10
-244.30760400634671
20
-693.46890762153475
42
-0.41421356237309548
10
-94.307604006346992
20
-843.4689076215351
10
-94.307604006347319
20
-983.46890762153521
42
-0.41421356237309509
10
-244.3076040063475
20
-1133.4689076215348
10
-294.30760400634762
20
-1133.4689076215345
10
-294.30760400634779
20
-1253.4689076215345
10
405.69239599365244
20
-1253.4689076215354
42
0.41421356237309392
10
555.69239599365255
20
-1103.4689076215366
10
555.69239599365324
20
-723.46890762153612
42
0.41421356237309548
10
405.69239599365392
20
-573.46890762153612
10
-294.30760400634654
20
-573.46890762153464
0
LWPOLYLINE
5
128
100
AcDbEntity
8
0
100
AcDbPolyline
90
4
70
1
43
0.0
10
1259.2313329035949
20
-639.69022305690373
10
1660.2313329035949
20
-639.6902230572764
10
1660.2313329030856
20
-1187.6902230572762
10
1259.2313329030856
20
-1187.6902230569035
0
LWPOLYLINE
5
129
100
AcDbEntity
8
0
100
AcDbPolyline
90
4
70
1
43
0.0
10
987.73270272414356
20
-608.16943270874981
10
998.73270272414379
20
-608.16943270876004
10
998.73270272409718
20
-658.16943270876004
10
987.73270272409718
20
-658.16943270874981
0
LWPOLYLINE
5
130
100
AcDbEntity
8
0
100
AcDbPolyline
90
4
70
1
43
0.0
10
1799.2327027238368
20
-938.16943270950389
10
1788.2327027238371
20
-938.16943270949366
10
1788.2327027238834
20
-888.16943270949366
10
1799.2327027238832
20
-888.16943270950355
0
LWPOLYLINE
5
131
100
AcDbEntity
8
0
100
AcDbPolyline
90
4
70
1
43
0.0
10
998.73270272357695
20
-1218.1694327087603
10
987.73270272357706
20
-1218.1694327087503
10
987.73270272362333
20
-1168.1694327087503
10
998.73270272362333
20
-1168.1694327087603
0
LWPOLYLINE
5
132
100
AcDbEntity
8
0
100
AcDbPolyline
90
4
70
1
43
0.0
10
1184.7327027228775
20
-907.66974545072856
10
1234.7327027228775
20
-907.66974545077483
10
1234.7327027228673
20
-918.66974545077483
10
1184.7327027228673
20
-918.66974545072844
0
LWPOLYLINE
5
133
100
AcDbEntity
8
0
100
AcDbPolyline
90
12
70
1
43
0.0
10
960.23270272406478
20
-693.1694327087248
10
1010.2327027240648
20
-693.1694327087713
42
-0.41421356237309503
10
1160.2327027239253
20
-843.16943270891045
10
1160.2327027237952
20
-983.16943270891079
42
-0.41421356237309503
10
1010.2327027236561
20
-1133.1694327087714
10
960.23270272365608
20
-1133.1694327087248
10
960.23270272354466
20
-1253.1694327087248
10
1660.2327027235447
20
-1253.1694327093742
42
0.41421356237309537
10
1810.2327027236838
20
-1103.1694327095142
10
1810.2327027240367
20
-723.16943270951379
42
0.41421356237309537
10
1660.2327027241768
20
-573.16943270937497
10
960.23270272417585
20
-573.1694327087248
0
LWPOLYLINE
5
134
100
AcDbEntity
8
0
100
AcDbPolyline
90
4
70
1
43
0.0
10
998.73270272573882
20
-456.19282165907578
10
998.73270272573359
20
-506.19282165907578
10
987.73270272573404
20
-506.19282165907464
10
987.73270272573882
20
-456.19282165907464
0
LWPOLYLINE
5
135
100
AcDbEntity
8
0
100
AcDbPolyline
90
4
70
1
43
0.0
10
998.73270272579077
20
53.807178340924224
10
987.73270272579089
20
53.807178340925361
10
987.73270272579589
20
103.80717834092536
10
998.73270272579589
20
103.80717834092422
0
LWPOLYLINE
5
136
100
AcDbEntity
8
0
100
AcDbPolyline
90
4
70
1
43
0.0
10
1799.2327027257672
20
-176.20762563956333
10
1799.2327027257625
20
-226.20762563956333
10
1788.2327027257625
20
-226.20762563956191
10
1788.2327027257675
20
-176.2076256395622
0
LWPOLYLINE
5
137
100
AcDbEntity
8
0
100
AcDbPolyline
90
6
70
1
43
0.0
10
1660.2327027257961
20
105.80717834085675
42
-0.41421356237309576
10
1777.2327027257843
20
-11.192821659154788
10
1777.2327027257456
20
-391.19282165915536
42
-0.41421356237309503
10
1660.2327027257338
20
-508.19282165914319
10
1193.2327027257338
20
-508.19282165909556
10
1193.2327027257963
20
105.80717834090436
0
LWPOLYLINE
5
138
100
AcDbEntity
8
0
100
AcDbPolyline
90
12
70
1
43
0.0
10
960.23270272578748
20
18.807178340927919
10
1010.2327027257875
20
18.807178340922945
42
-0.4142135623730957
10
1160.2327027257722
20
-131.19282165909229
10
1160.2327027257579
20
-271.19282165909254
42
-0.41421356237309503
10
1010.2327027257428
20
-421.19282165907703
10
960.23270272574246
20
-421.1928216590718
10
960.23270272573029
20
-541.1928216590718
10
1660.2327027257306
20
-541.19282165914285
42
0.41421356237309503
10
1810.2327027257456
20
-391.19282165915848
10
1810.2327027257843
20
-11.192821659158199
42
0.41421356237309453
10
1660.2327027258002
20
138.80717834085698
10
960.23270272579964
20
138.80717834092806
0
LWPOLYLINE
5
139
100
AcDbEntity
8
0
100
AcDbPolyline
90
4
70
1
43
0.0
10
1343.2513487034594
20
-1.2296155939026221
10
1343.2513487034071
20
-402.22961559390257
10
1617.2513487034073
20
-402.22961559393838
10
1617.2513487034594
20
-1.2296155939381492
0
LWPOLYLINE
5
140
100
AcDbEntity
8
0
100
AcDbPolyline
90
5
70
1
43
0.0
10
1810.2327027257127
20
176.08556264174069
10
1193.2327027257124
20
176.08556264185538
10
1193.2327027257761
20
516.0855626418554
10
1660.2327027257763
20
516.08556264176832
42
-0.41421356237309614
10
1810.2327027257481
20
366.08556264174069
0
ENDSEC
0
SECTION
2
OBJECTS
0
DICTIONARY
5
C
100
AcDbDictionary
3
ACAD_GROUP
350
D
3
ACAD_MLINESTYLE
350
17
0
DICTIONARY
5
D
100
AcDbDictionary
0
DICTIONARY
5
1A
330
C
100
AcDbDictionary
0
DICTIONARY
5
17
100
AcDbDictionary
0
ENDSEC
0
EOF
