  0
SECTION
  2
HEADER
  9
$ACADVER
  1
AC1014
  9
$HANDSEED
  5
FFFF
  9
$MEASUREMENT
 70
     1
  0
ENDSEC
  0
SECTION
  2
TABLES
  0
TABLE
  2
VPORT
  5
8
330
0
100
AcDbSymbolTable
 70
     4
  0
VPORT
  5
2E
330
8
100
AcDbSymbolTableRecord
100
AcDbViewportTableRecord
  2
*ACTIVE
 70
     0
 10
0.0
 20
0.0
 11
1.0
 21
1.0
 12
210.0
 22
148.5
 13
0.0
 23
0.0
 14
10.0
 24
10.0
 15
10.0
 25
10.0
 16
0.0
 26
0.0
 36
1.0
 17
0.0
 27
0.0
 37
0.0
 40
341.0
 41
1.24
 42
50.0
 43
0.0
 44
0.0
 50
0.0
 51
0.0
 71
     0
 72
   100
 73
     1
 74
     3
 75
     0
 76
     0
 77
     0
 78
     0
  0
ENDTAB
  0
TABLE
  2
LTYPE
  5
5
330
0
100
AcDbSymbolTable
 70
     1
  0
LTYPE
  5
14
330
5
100
AcDbSymbolTableRecord
100
AcDbLinetypeTableRecord
  2
BYBLOCK
 70
     0
  3

 72
    65
 73
     0
 40
0.0
  0
LTYPE
  5
15
330
5
100
AcDbSymbolTableRecord
100
AcDbLinetypeTableRecord
  2
BYLAYER
 70
     0
  3

 72
    65
 73
     0
 40
0.0
  0
LTYPE
  5
16
330
5
100
AcDbSymbolTableRecord
100
AcDbLinetypeTableRecord
  2
CONTINUOUS
 70
     0
  3
Solid line
 72
    65
 73
     0
 40
0.0
  0
ENDTAB
  0
TABLE
  2
LAYER
  5
2
100
AcDbSymbolTable
 70
2
  0
LAYER
  5
50
100
AcDbSymbolTableRecord
100
AcDbLayerTableRecord
  2
0
 70
0
  6
CONTINUOUS
  0
LAYER
  5
51
100
AcDbSymbolTableRecord
100
AcDbLayerTableRecord
  2
Livello_1
 70
0
  6
CONTINUOUS
  0
ENDTAB
  0
TABLE
  2
STYLE
  5
3
330
0
100
AcDbSymbolTable
 70
     1
  0
STYLE
  5
11
330
3
100
AcDbSymbolTableRecord
100
AcDbTextStyleTableRecord
  2
STANDARD
 70
     0
 40
0.0
 41
1.0
 50
0.0
 71
     0
 42
2.5
  3
txt
  4

  0
ENDTAB
  0
TABLE
  2
VIEW
  5
6
330
0
100
AcDbSymbolTable
 70
     0
  0
ENDTAB
  0
TABLE
  2
UCS
  5
7
330
0
100
AcDbSymbolTable
 70
     0
  0
ENDTAB
  0
TABLE
  2
APPID
  5
9
330
0
100
AcDbSymbolTable
 70
     2
  0
APPID
  5
12
330
9
100
AcDbSymbolTableRecord
100
AcDbRegAppTableRecord
  2
ACAD
 70
     0
  0
ENDTAB
  0
TABLE
  2
DIMSTYLE
  5
A
330
0
100
AcDbSymbolTable
 70
     1
  0
DIMSTYLE
105
27
330
A
100
AcDbSymbolTableRecord
100
AcDbDimStyleTableRecord
  2
ISO-25
 70
     0
  3

  4

  5

  6

  7

 40
1.0
 41
2.5
 42
0.625
 43
3.75
 44
1.25
 45
0.0
 46
0.0
 47
0.0
 48
0.0
140
2.5
141
2.5
142
0.0
143
0.03937007874016
144
1.0
145
0.0
146
1.0
147
0.625
 71
     0
 72
     0
 73
     0
 74
     0
 75
     0
 76
     0
 77
     1
 78
     8
170
     0
171
     3
172
     1
173
     0
174
     0
175
     0
176
     0
177
     0
178
     0
270
     2
271
     2
272
     2
273
     2
274
     3
340
11
275
     0
280
     0
281
     0
282
     0
283
     0
284
     8
285
     0
286
     0
287
     3
288
     0
  0
ENDTAB
  0
TABLE
  2
BLOCK_RECORD
  5
1
330
0
100
AcDbSymbolTable
 70
     1
  0
BLOCK_RECORD
  5
1F
330
1
100
AcDbSymbolTableRecord
100
AcDbBlockTableRecord
  2
*MODEL_SPACE
  0
BLOCK_RECORD
  5
1B
330
1
100
AcDbSymbolTableRecord
100
AcDbBlockTableRecord
  2
*PAPER_SPACE
  0
ENDTAB
  0
ENDSEC
  0
SECTION
  2
BLOCKS
  0
BLOCK
  5
20
330
1F
100
AcDbEntity
  8
0
100
AcDbBlockBegin
  2
*MODEL_SPACE
 70
     0
 10
0.0
 20
0.0
 30
0.0
  3
*MODEL_SPACE
  1

  0
ENDBLK
  5
21
330
1F
100
AcDbEntity
  8
0
100
AcDbBlockEnd
  0
BLOCK
  5
1C
330
1B
100
AcDbEntity
 67
     1
  8
0
100
AcDbBlockBegin
  2
*PAPER_SPACE
  1

  0
ENDBLK
  5
1D
330
1B
100
AcDbEntity
 67
     1
  8
0
100
AcDbBlockEnd
  0
ENDSEC
  0
SECTION
  2
ENTITIES
  0
SPLINE
  5
100
100
AcDbEntity
  8
Livello_1
 62
7
100
AcDbSpline
 70
8
 71
3
 72
8
 73
4
 74
0
 40
0
 40
0
 40
0
 40
0
 40
1
 40
1
 40
1
 40
1
 10
5.162933
 20
46.802085
 30
0.0
 10
4.520148
 20
46.868829
 30
0.0
 10
3.945756
 20
47.095929
 30
0.0
 10
3.427842
 20
47.488089
 30
0.0
  0
SPLINE
  5
101
100
AcDbEntity
  8
Livello_1
 62
7
100
AcDbSpline
 70
8
 71
3
 72
8
 73
4
 74
0
 40
0
 40
0
 40
0
 40
0
 40
1
 40
1
 40
1
 40
1
 10
3.427842
 20
47.488089
 30
0.0
 10
3.277767
 20
47.601727
 30
0.0
 10
3.002890
 20
47.870539
 30
0.0
 10
2.872312
 20
48.031363
 30
0.0
  0
SPLINE
  5
102
100
AcDbEntity
  8
Livello_1
 62
7
100
AcDbSpline
 70
8
 71
3
 72
8
 73
4
 74
0
 40
0
 40
0
 40
0
 40
0
 40
1
 40
1
 40
1
 40
1
 10
2.872312
 20
48.031363
 30
0.0
 10
2.546302
 20
48.432892
 30
0.0
 10
2.295201
 20
48.957764
 30
0.0
 10
2.191675
 20
49.454086
 30
0.0
  0
SPLINE
  5
103
100
AcDbEntity
  8
Livello_1
 62
7
100
AcDbSpline
 70
8
 71
3
 72
8
 73
4
 74
0
 40
0
 40
0
 40
0
 40
0
 40
1
 40
1
 40
1
 40
1
 10
2.191675
 20
49.454086
 30
0.0
 10
2.136935
 20
49.716521
 30
0.0
 10
2.120514
 20
49.885177
 30
0.0
 10
2.121029
 20
50.179674
 30
0.0
  0
SPLINE
  5
104
100
AcDbEntity
  8
Livello_1
 62
7
100
AcDbSpline
 70
8
 71
3
 72
8
 73
4
 74
0
 40
0
 40
0
 40
0
 40
0
 40
1
 40
1
 40
1
 40
1
 10
2.121029
 20
50.179674
 30
0.0
 10
2.121730
 20
50.581168
 30
0.0
 10
2.174677
 20
50.905378
 30
0.0
 10
2.298233
 20
51.264775
 30
0.0
  0
SPLINE
  5
105
100
AcDbEntity
  8
Livello_1
 62
7
100
AcDbSpline
 70
8
 71
3
 72
8
 73
4
 74
0
 40
0
 40
0
 40
0
 40
0
 40
1
 40
1
 40
1
 40
1
 10
2.298233
 20
51.264775
 30
0.0
 10
2.360653
 20
51.446337
 30
0.0
 10
2.494698
 20
51.754889
 30
0.0
 10
2.508483
 20
51.748735
 30
0.0
  0
SPLINE
  5
106
100
AcDbEntity
  8
Livello_1
 62
7
100
AcDbSpline
 70
8
 71
3
 72
8
 73
4
 74
0
 40
0
 40
0
 40
0
 40
0
 40
1
 40
1
 40
1
 40
1
 10
2.508483
 20
51.748735
 30
0.0
 10
2.513497
 20
51.746618
 30
0.0
 10
2.576610
 20
51.710574
 30
0.0
 10
2.648737
 20
51.668905
 30
0.0
  0
SPLINE
  5
107
100
AcDbEntity
  8
Livello_1
 62
7
100
AcDbSpline
 70
8
 71
3
 72
8
 73
4
 74
0
 40
0
 40
0
 40
0
 40
0
 40
1
 40
1
 40
1
 40
1
 10
3.562179
 20
48.828344
 30
0.0
 10
3.469510
 20
48.950774
 30
0.0
 10
3.345572
 20
49.205645
 30
0.0
 10
3.299403
 20
49.368723
 30
0.0
  0
SPLINE
  5
108
100
AcDbEntity
  8
Livello_1
 62
7
100
AcDbSpline
 70
8
 71
3
 72
8
 73
4
 74
0
 40
0
 40
0
 40
0
 40
0
 40
1
 40
1
 40
1
 40
1
 10
3.299403
 20
49.368723
 30
0.0
 10
3.252325
 20
49.535009
 30
0.0
 10
3.230253
 20
49.775943
 30
0.0
 10
3.249550
 20
49.912929
 30
0.0
  0
SPLINE
  5
109
100
AcDbEntity
  8
Livello_1
 62
7
100
AcDbSpline
 70
8
 71
3
 72
8
 73
4
 74
0
 40
0
 40
0
 40
0
 40
0
 40
1
 40
1
 40
1
 40
1
 10
3.249550
 20
49.912929
 30
0.0
 10
3.287308
 20
50.180978
 30
0.0
 10
3.405008
 20
50.363186
 30
0.0
 10
3.603531
 20
50.460918
 30
0.0
  0
SPLINE
  5
10a
100
AcDbEntity
  8
Livello_1
 62
7
100
AcDbSpline
 70
8
 71
3
 72
8
 73
4
 74
0
 40
0
 40
0
 40
0
 40
0
 40
1
 40
1
 40
1
 40
1
 10
3.603531
 20
50.460918
 30
0.0
 10
3.693214
 20
50.505069
 30
0.0
 10
3.703740
 20
50.506889
 30
0.0
 10
3.867957
 20
50.506678
 30
0.0
  0
SPLINE
  5
10b
100
AcDbEntity
  8
Livello_1
 62
7
100
AcDbSpline
 70
8
 71
3
 72
8
 73
4
 74
0
 40
0
 40
0
 40
0
 40
0
 40
1
 40
1
 40
1
 40
1
 10
3.867957
 20
50.506678
 30
0.0
 10
4.008390
 20
50.506498
 30
0.0
 10
4.053719
 20
50.500936
 30
0.0
 10
4.121360
 20
50.475544
 30
0.0
  0
SPLINE
  5
10c
100
AcDbEntity
  8
Livello_1
 62
7
100
AcDbSpline
 70
8
 71
3
 72
8
 73
4
 74
0
 40
0
 40
0
 40
0
 40
0
 40
1
 40
1
 40
1
 40
1
 10
4.121360
 20
50.475544
 30
0.0
 10
4.562631
 20
50.309944
 30
0.0
 10
4.915773
 20
49.885060
 30
0.0
 10
5.047206
 20
49.361609
 30
0.0
  0
SPLINE
  5
10d
100
AcDbEntity
  8
Livello_1
 62
7
100
AcDbSpline
 70
8
 71
3
 72
8
 73
4
 74
0
 40
0
 40
0
 40
0
 40
0
 40
1
 40
1
 40
1
 40
1
 10
5.047206
 20
49.361609
 30
0.0
 10
5.071584
 20
49.264514
 30
0.0
 10
5.077512
 20
49.198609
 30
0.0
 10
5.077274
 20
49.027268
 30
0.0
  0
SPLINE
  5
10e
100
AcDbEntity
  8
Livello_1
 62
7
100
AcDbSpline
 70
8
 71
3
 72
8
 73
4
 74
0
 40
0
 40
0
 40
0
 40
0
 40
1
 40
1
 40
1
 40
1
 10
5.077274
 20
49.027268
 30
0.0
 10
5.077009
 20
48.836151
 30
0.0
 10
5.073242
 20
48.803258
 30
0.0
 10
5.041203
 20
48.712342
 30
0.0
  0
SPLINE
  5
10f
100
AcDbEntity
  8
Livello_1
 62
7
100
AcDbSpline
 70
8
 71
3
 72
8
 73
4
 74
0
 40
0
 40
0
 40
0
 40
0
 40
1
 40
1
 40
1
 40
1
 10
5.041203
 20
48.712342
 30
0.0
 10
4.977514
 20
48.531608
 30
0.0
 10
4.872666
 20
48.401425
 30
0.0
 10
4.742494
 20
48.341449
 30
0.0
  0
LWPOLYLINE
  5
110
100
AcDbEntity
  8
Livello_1
 62
7
100
AcDbPolyline
 90
9
 70
0
 10
2.648737
 20
51.668905
 30
0.0
 10
2.779875
 20
51.593141
 30
0.0
 10
2.780078
 20
50.103910
 30
0.0
 10
2.780281
 20
48.614679
 30
0.0
 10
3.203338
 20
48.369262
 30
0.0
 10
3.626395
 20
48.123843
 30
0.0
 10
3.630226
 20
48.428611
 30
0.0
 10
3.634057
 20
48.733379
 30
0.0
 10
3.562179
 20
48.828344
 30
0.0
  0
SPLINE
  5
111
100
AcDbEntity
  8
Livello_1
 62
7
100
AcDbSpline
 70
8
 71
3
 72
8
 73
4
 74
0
 40
0
 40
0
 40
0
 40
0
 40
1
 40
1
 40
1
 40
1
 10
5.322989
 20
46.788345
 30
0.0
 10
5.297558
 20
46.789403
 30
0.0
 10
5.225533
 20
46.795542
 30
0.0
 10
5.162933
 20
46.802051
 30
0.0
  0
LWPOLYLINE
  5
112
100
AcDbEntity
  8
Livello_1
 62
7
100
AcDbPolyline
 90
9
 70
0
 10
4.742494
 20
48.341449
 30
0.0
 10
4.687056
 20
48.315917
 30
0.0
 10
4.686834
 20
47.910443
 30
0.0
 10
4.686613
 20
47.504966
 30
0.0
 10
5.027920
 20
47.307436
 30
0.0
 10
5.369228
 20
47.109904
 30
0.0
 10
5.369228
 20
46.948198
 30
0.0
 10
5.369228
 20
46.786493
 30
0.0
 10
5.322989
 20
46.788345
 30
0.0
  0
LWPOLYLINE
  5
113
100
AcDbEntity
  8
Livello_1
 62
7
100
AcDbPolyline
 90
1
 70
1
 10
5.162933
 20
46.802051
 30
0.0
  0
SPLINE
  5
114
100
AcDbEntity
  8
Livello_1
 62
7
100
AcDbSpline
 70
8
 71
3
 72
8
 73
4
 74
0
 40
0
 40
0
 40
0
 40
0
 40
1
 40
1
 40
1
 40
1
 10
5.714366
 20
47.157635
 30
0.0
 10
6.022148
 20
47.334564
 30
0.0
 10
6.567039
 20
47.649336
 30
0.0
 10
6.955562
 20
47.874645
 30
0.0
  0
SPLINE
  5
115
100
AcDbEntity
  8
Livello_1
 62
7
100
AcDbSpline
 70
8
 71
3
 72
8
 73
4
 74
0
 40
0
 40
0
 40
0
 40
0
 40
1
 40
1
 40
1
 40
1
 10
6.955562
 20
47.874645
 30
0.0
 10
7.033812
 20
47.920021
 30
0.0
 10
7.126645
 20
47.973321
 30
0.0
 10
7.161857
 20
47.993088
 30
0.0
  0
SPLINE
  5
116
100
AcDbEntity
  8
Livello_1
 62
7
100
AcDbSpline
 70
8
 71
3
 72
8
 73
4
 74
0
 40
0
 40
0
 40
0
 40
0
 40
1
 40
1
 40
1
 40
1
 10
7.161857
 20
47.993088
 30
0.0
 10
7.197069
 20
48.012853
 30
0.0
 10
7.266006
 20
48.053562
 30
0.0
 10
7.315050
 20
48.083547
 30
0.0
  0
SPLINE
  5
117
100
AcDbEntity
  8
Livello_1
 62
7
100
AcDbSpline
 70
8
 71
3
 72
8
 73
4
 74
0
 40
0
 40
0
 40
0
 40
0
 40
1
 40
1
 40
1
 40
1
 10
7.315050
 20
48.083547
 30
0.0
 10
7.364094
 20
48.113535
 30
0.0
 10
7.407087
 20
48.138067
 30
0.0
 10
7.410590
 20
48.138067
 30
0.0
  0
SPLINE
  5
118
100
AcDbEntity
  8
Livello_1
 62
7
100
AcDbSpline
 70
8
 71
3
 72
8
 73
4
 74
0
 40
0
 40
0
 40
0
 40
0
 40
1
 40
1
 40
1
 40
1
 10
7.410590
 20
48.138067
 30
0.0
 10
7.414094
 20
48.138067
 30
0.0
 10
7.489207
 20
48.180543
 30
0.0
 10
7.577510
 20
48.232457
 30
0.0
  0
SPLINE
  5
119
100
AcDbEntity
  8
Livello_1
 62
7
100
AcDbSpline
 70
8
 71
3
 72
8
 73
4
 74
0
 40
0
 40
0
 40
0
 40
0
 40
1
 40
1
 40
1
 40
1
 10
7.577510
 20
48.232457
 30
0.0
 10
7.852194
 20
48.393948
 30
0.0
 10
7.990470
 20
48.474156
 30
0.0
 10
8.093740
 20
48.531902
 30
0.0
  0
LWPOLYLINE
  5
11a
100
AcDbEntity
  8
Livello_1
 62
7
100
AcDbPolyline
 90
3
 70
0
 10
5.625449
 20
46.944817
 30
0.0
 10
5.625577
 20
47.106594
 30
0.0
 10
5.714366
 20
47.157635
 30
0.0
  0
SPLINE
  5
11b
100
AcDbEntity
  8
Livello_1
 62
7
100
AcDbSpline
 70
8
 71
3
 72
8
 73
4
 74
0
 40
0
 40
0
 40
0
 40
0
 40
1
 40
1
 40
1
 40
1
 10
8.133051
 20
49.523483
 30
0.0
 10
8.095779
 20
49.502343
 30
0.0
 10
8.049279
 20
49.476345
 30
0.0
 10
8.029716
 20
49.465701
 30
0.0
  0
SPLINE
  5
11c
100
AcDbEntity
  8
Livello_1
 62
7
100
AcDbSpline
 70
8
 71
3
 72
8
 73
4
 74
0
 40
0
 40
0
 40
0
 40
0
 40
1
 40
1
 40
1
 40
1
 10
8.029716
 20
49.465701
 30
0.0
 10
7.884270
 20
49.386548
 30
0.0
 10
7.667465
 20
49.251121
 30
0.0
 10
7.658082
 20
49.233563
 30
0.0
  0
SPLINE
  5
11d
100
AcDbEntity
  8
Livello_1
 62
7
100
AcDbSpline
 70
8
 71
3
 72
8
 73
4
 74
0
 40
0
 40
0
 40
0
 40
0
 40
1
 40
1
 40
1
 40
1
 10
7.658082
 20
49.233563
 30
0.0
 10
7.651811
 20
49.221816
 30
0.0
 10
7.619886
 20
49.155403
 30
0.0
 10
7.587141
 20
49.085955
 30
0.0
  0
SPLINE
  5
11e
100
AcDbEntity
  8
Livello_1
 62
7
100
AcDbSpline
 70
8
 71
3
 72
8
 73
4
 74
0
 40
0
 40
0
 40
0
 40
0
 40
1
 40
1
 40
1
 40
1
 10
7.587141
 20
49.085955
 30
0.0
 10
7.554395
 20
49.016507
 30
0.0
 10
7.481725
 20
48.898067
 30
0.0
 10
7.425651
 20
48.822750
 30
0.0
  0
SPLINE
  5
11f
100
AcDbEntity
  8
Livello_1
 62
7
100
AcDbSpline
 70
8
 71
3
 72
8
 73
4
 74
0
 40
0
 40
0
 40
0
 40
0
 40
1
 40
1
 40
1
 40
1
 10
7.425651
 20
48.822750
 30
0.0
 10
7.103850
 20
48.390532
 30
0.0
 10
6.638567
 20
48.187205
 30
0.0
 10
6.286882
 20
48.325117
 30
0.0
  0
SPLINE
  5
120
100
AcDbEntity
  8
Livello_1
 62
7
100
AcDbSpline
 70
8
 71
3
 72
8
 73
4
 74
0
 40
0
 40
0
 40
0
 40
0
 40
1
 40
1
 40
1
 40
1
 10
6.286882
 20
48.325117
 30
0.0
 10
6.130632
 20
48.386389
 30
0.0
 10
5.966325
 20
48.587761
 30
0.0
 10
5.930663
 20
48.761692
 30
0.0
  0
SPLINE
  5
121
100
AcDbEntity
  8
Livello_1
 62
7
100
AcDbSpline
 70
8
 71
3
 72
8
 73
4
 74
0
 40
0
 40
0
 40
0
 40
0
 40
1
 40
1
 40
1
 40
1
 10
5.930663
 20
48.761692
 30
0.0
 10
5.803861
 20
49.380153
 30
0.0
 10
6.157342
 20
50.108294
 30
0.0
 10
6.730599
 20
50.409488
 30
0.0
  0
SPLINE
  5
122
100
AcDbEntity
  8
Livello_1
 62
7
100
AcDbSpline
 70
8
 71
3
 72
8
 73
4
 74
0
 40
0
 40
0
 40
0
 40
0
 40
1
 40
1
 40
1
 40
1
 10
6.730599
 20
50.409488
 30
0.0
 10
6.982153
 20
50.541656
 30
0.0
 10
7.263572
 20
50.551178
 30
0.0
 10
7.449491
 20
50.433803
 30
0.0
  0
LWPOLYLINE
  5
123
100
AcDbEntity
  8
Livello_1
 62
7
100
AcDbPolyline
 90
5
 70
0
 10
8.093740
 20
48.531902
 30
0.0
 10
8.193330
 20
48.587589
 30
0.0
 10
8.197074
 20
49.074750
 30
0.0
 10
8.200818
 20
49.561914
 30
0.0
 10
8.133051
 20
49.523483
 30
0.0
  0
SPLINE
  5
124
100
AcDbEntity
  8
Livello_1
 62
7
100
AcDbSpline
 70
8
 71
3
 72
8
 73
4
 74
0
 40
0
 40
0
 40
0
 40
0
 40
1
 40
1
 40
1
 40
1
 10
7.785696
 20
50.557520
 30
0.0
 10
7.939470
 20
50.645224
 30
0.0
 10
8.098638
 20
50.736934
 30
0.0
 10
8.139405
 20
50.761321
 30
0.0
  0
LWPOLYLINE
  5
125
100
AcDbEntity
  8
Livello_1
 62
7
100
AcDbPolyline
 90
3
 70
0
 10
7.449491
 20
50.433803
 30
0.0
 10
7.506109
 20
50.398061
 30
0.0
 10
7.785696
 20
50.557520
 30
0.0
  0
SPLINE
  5
126
100
AcDbEntity
  8
Livello_1
 62
7
100
AcDbSpline
 70
8
 71
3
 72
8
 73
4
 74
0
 40
0
 40
0
 40
0
 40
0
 40
1
 40
1
 40
1
 40
1
 10
8.349465
 20
51.676046
 30
0.0
 10
8.419689
 20
51.717694
 30
0.0
 10
8.481167
 20
51.751770
 30
0.0
 10
8.486085
 20
51.751770
 30
0.0
  0
SPLINE
  5
127
100
AcDbEntity
  8
Livello_1
 62
7
100
AcDbSpline
 70
8
 71
3
 72
8
 73
4
 74
0
 40
0
 40
0
 40
0
 40
0
 40
1
 40
1
 40
1
 40
1
 10
8.486085
 20
51.751770
 30
0.0
 10
8.494012
 20
51.751770
 30
0.0
 10
8.596857
 20
51.529303
 30
0.0
 10
8.660380
 20
51.374749
 30
0.0
  0
SPLINE
  5
128
100
AcDbEntity
  8
Livello_1
 62
7
100
AcDbSpline
 70
8
 71
3
 72
8
 73
4
 74
0
 40
0
 40
0
 40
0
 40
0
 40
1
 40
1
 40
1
 40
1
 10
8.660380
 20
51.374749
 30
0.0
 10
8.694663
 20
51.291339
 30
0.0
 10
8.768935
 20
51.044335
 30
0.0
 10
8.812250
 20
50.869683
 30
0.0
  0
SPLINE
  5
129
100
AcDbEntity
  8
Livello_1
 62
7
100
AcDbSpline
 70
8
 71
3
 72
8
 73
4
 74
0
 40
0
 40
0
 40
0
 40
0
 40
1
 40
1
 40
1
 40
1
 10
8.812250
 20
50.869683
 30
0.0
 10
8.819042
 20
50.842296
 30
0.0
 10
8.828926
 20
50.781474
 30
0.0
 10
8.834218
 20
50.734524
 30
0.0
  0
SPLINE
  5
12a
100
AcDbEntity
  8
Livello_1
 62
7
100
AcDbSpline
 70
8
 71
3
 72
8
 73
4
 74
0
 40
0
 40
0
 40
0
 40
0
 40
1
 40
1
 40
1
 40
1
 10
8.834218
 20
50.734524
 30
0.0
 10
8.839510
 20
50.687576
 30
0.0
 10
8.845862
 20
50.645721
 30
0.0
 10
8.848339
 20
50.641515
 30
0.0
  0
SPLINE
  5
12b
100
AcDbEntity
  8
Livello_1
 62
7
100
AcDbSpline
 70
8
 71
3
 72
8
 73
4
 74
0
 40
0
 40
0
 40
0
 40
0
 40
1
 40
1
 40
1
 40
1
 10
8.848339
 20
50.641515
 30
0.0
 10
8.883631
 20
50.581555
 30
0.0
 10
8.884150
 20
49.890468
 30
0.0
 10
8.849053
 20
49.693462
 30
0.0
  0
SPLINE
  5
12c
100
AcDbEntity
  8
Livello_1
 62
7
100
AcDbSpline
 70
8
 71
3
 72
8
 73
4
 74
0
 40
0
 40
0
 40
0
 40
0
 40
1
 40
1
 40
1
 40
1
 10
8.849053
 20
49.693462
 30
0.0
 10
8.840312
 20
49.644387
 30
0.0
 10
8.827289
 20
49.567830
 30
0.0
 10
8.819224
 20
49.518099
 30
0.0
  0
SPLINE
  5
12d
100
AcDbEntity
  8
Livello_1
 62
7
100
AcDbSpline
 70
8
 71
3
 72
8
 73
4
 74
0
 40
0
 40
0
 40
0
 40
0
 40
1
 40
1
 40
1
 40
1
 10
8.819224
 20
49.518099
 30
0.0
 10
8.798809
 20
49.392189
 30
0.0
 10
8.764585
 20
49.267316
 30
0.0
 10
8.692497
 20
49.055713
 30
0.0
  0
SPLINE
  5
12e
100
AcDbEntity
  8
Livello_1
 62
7
100
AcDbSpline
 70
8
 71
3
 72
8
 73
4
 74
0
 40
0
 40
0
 40
0
 40
0
 40
1
 40
1
 40
1
 40
1
 10
8.692497
 20
49.055713
 30
0.0
 10
8.455354
 20
48.359624
 30
0.0
 10
7.979596
 20
47.751458
 30
0.0
 10
7.344724
 20
47.332842
 30
0.0
  0
SPLINE
  5
12f
100
AcDbEntity
  8
Livello_1
 62
7
100
AcDbSpline
 70
8
 71
3
 72
8
 73
4
 74
0
 40
0
 40
0
 40
0
 40
0
 40
1
 40
1
 40
1
 40
1
 10
7.344724
 20
47.332842
 30
0.0
 10
7.211811
 20
47.245204
 30
0.0
 10
6.798612
 20
47.028335
 30
0.0
 10
6.764547
 20
47.028335
 30
0.0
  0
SPLINE
  5
130
100
AcDbEntity
  8
Livello_1
 62
7
100
AcDbSpline
 70
8
 71
3
 72
8
 73
4
 74
0
 40
0
 40
0
 40
0
 40
0
 40
1
 40
1
 40
1
 40
1
 10
6.764547
 20
47.028335
 30
0.0
 10
6.751889
 20
47.028335
 30
0.0
 10
6.727228
 20
47.018652
 30
0.0
 10
6.614113
 20
46.969294
 30
0.0
  0
SPLINE
  5
131
100
AcDbEntity
  8
Livello_1
 62
7
100
AcDbSpline
 70
8
 71
3
 72
8
 73
4
 74
0
 40
0
 40
0
 40
0
 40
0
 40
1
 40
1
 40
1
 40
1
 10
6.614113
 20
46.969294
 30
0.0
 10
6.598463
 20
46.962467
 30
0.0
 10
6.550446
 20
46.947333
 30
0.0
 10
6.507409
 20
46.935673
 30
0.0
  0
SPLINE
  5
132
100
AcDbEntity
  8
Livello_1
 62
7
100
AcDbSpline
 70
8
 71
3
 72
8
 73
4
 74
0
 40
0
 40
0
 40
0
 40
0
 40
1
 40
1
 40
1
 40
1
 10
6.507409
 20
46.935673
 30
0.0
 10
6.464371
 20
46.924005
 30
0.0
 10
6.392387
 20
46.904518
 30
0.0
 10
6.347442
 20
46.892356
 30
0.0
  0
SPLINE
  5
133
100
AcDbEntity
  8
Livello_1
 62
7
100
AcDbSpline
 70
8
 71
3
 72
8
 73
4
 74
0
 40
0
 40
0
 40
0
 40
0
 40
1
 40
1
 40
1
 40
1
 10
6.347442
 20
46.892356
 30
0.0
 10
6.302498
 20
46.880185
 30
0.0
 10
6.251280
 20
46.867432
 30
0.0
 10
6.233625
 20
46.863979
 30
0.0
  0
SPLINE
  5
134
100
AcDbEntity
  8
Livello_1
 62
7
100
AcDbSpline
 70
8
 71
3
 72
8
 73
4
 74
0
 40
0
 40
0
 40
0
 40
0
 40
1
 40
1
 40
1
 40
1
 10
6.233625
 20
46.863979
 30
0.0
 10
6.190703
 20
46.855618
 30
0.0
 10
6.103700
 20
46.837970
 30
0.0
 10
6.094819
 20
46.835846
 30
0.0
  0
SPLINE
  5
135
100
AcDbEntity
  8
Livello_1
 62
7
100
AcDbSpline
 70
8
 71
3
 72
8
 73
4
 74
0
 40
0
 40
0
 40
0
 40
0
 40
1
 40
1
 40
1
 40
1
 10
6.094819
 20
46.835846
 30
0.0
 10
6.035186
 20
46.821558
 30
0.0
 10
5.905005
 20
46.805371
 30
0.0
 10
5.749809
 20
46.792975
 30
0.0
  0
LWPOLYLINE
  5
136
100
AcDbEntity
  8
Livello_1
 62
7
100
AcDbPolyline
 90
5
 70
0
 10
8.139405
 20
50.761321
 30
0.0
 10
8.213525
 20
50.805662
 30
0.0
 10
8.217655
 20
51.202992
 30
0.0
 10
8.221786
 20
51.600322
 30
0.0
 10
8.349465
 20
51.676046
 30
0.0
  0
SPLINE
  5
137
100
AcDbEntity
  8
Livello_1
 62
7
100
AcDbSpline
 70
8
 71
3
 72
8
 73
4
 74
0
 40
0
 40
0
 40
0
 40
0
 40
1
 40
1
 40
1
 40
1
 10
27.881688
 20
47.923977
 30
0.0
 10
26.972787
 20
48.028958
 30
0.0
 10
26.333048
 20
48.629393
 30
0.0
 10
26.121382
 20
49.576135
 30
0.0
  0
SPLINE
  5
138
100
AcDbEntity
  8
Livello_1
 62
7
100
AcDbSpline
 70
8
 71
3
 72
8
 73
4
 74
0
 40
0
 40
0
 40
0
 40
0
 40
1
 40
1
 40
1
 40
1
 10
26.121382
 20
49.576135
 30
0.0
 10
26.055736
 20
49.869757
 30
0.0
 10
26.036196
 20
50.065773
 30
0.0
 10
26.035693
 20
50.435761
 30
0.0
  0
SPLINE
  5
139
100
AcDbEntity
  8
Livello_1
 62
7
100
AcDbSpline
 70
8
 71
3
 72
8
 73
4
 74
0
 40
0
 40
0
 40
0
 40
0
 40
1
 40
1
 40
1
 40
1
 10
26.035693
 20
50.435761
 30
0.0
 10
26.035084
 20
50.889159
 30
0.0
 10
26.075382
 20
51.153539
 30
0.0
 10
26.198378
 20
51.502805
 30
0.0
  0
SPLINE
  5
13a
100
AcDbEntity
  8
Livello_1
 62
7
100
AcDbSpline
 70
8
 71
3
 72
8
 73
4
 74
0
 40
0
 40
0
 40
0
 40
0
 40
1
 40
1
 40
1
 40
1
 10
26.198378
 20
51.502805
 30
0.0
 10
26.380538
 20
52.020076
 30
0.0
 10
26.763946
 20
52.469538
 30
0.0
 10
27.215116
 20
52.694709
 30
0.0
  0
SPLINE
  5
13b
100
AcDbEntity
  8
Livello_1
 62
7
100
AcDbSpline
 70
8
 71
3
 72
8
 73
4
 74
0
 40
0
 40
0
 40
0
 40
0
 40
1
 40
1
 40
1
 40
1
 10
27.215116
 20
52.694709
 30
0.0
 10
27.352154
 20
52.763102
 30
0.0
 10
27.537974
 20
52.826850
 30
0.0
 10
27.710389
 20
52.864620
 30
0.0
  0
SPLINE
  5
13c
100
AcDbEntity
  8
Livello_1
 62
7
100
AcDbSpline
 70
8
 71
3
 72
8
 73
4
 74
0
 40
0
 40
0
 40
0
 40
0
 40
1
 40
1
 40
1
 40
1
 10
27.710389
 20
52.864620
 30
0.0
 10
27.839678
 20
52.892944
 30
0.0
 10
27.895309
 20
52.896375
 30
0.0
 10
28.225250
 20
52.896375
 30
0.0
  0
SPLINE
  5
13d
100
AcDbEntity
  8
Livello_1
 62
7
100
AcDbSpline
 70
8
 71
3
 72
8
 73
4
 74
0
 40
0
 40
0
 40
0
 40
0
 40
1
 40
1
 40
1
 40
1
 10
28.225250
 20
52.896375
 30
0.0
 10
28.555188
 20
52.896375
 30
0.0
 10
28.610819
 20
52.892943
 30
0.0
 10
28.740111
 20
52.864620
 30
0.0
  0
SPLINE
  5
13e
100
AcDbEntity
  8
Livello_1
 62
7
100
AcDbSpline
 70
8
 71
3
 72
8
 73
4
 74
0
 40
0
 40
0
 40
0
 40
0
 40
1
 40
1
 40
1
 40
1
 10
28.740111
 20
52.864620
 30
0.0
 10
29.245613
 20
52.753882
 30
0.0
 10
29.589778
 20
52.524020
 30
0.0
 10
29.872003
 20
52.108642
 30
0.0
  0
SPLINE
  5
13f
100
AcDbEntity
  8
Livello_1
 62
7
100
AcDbSpline
 70
8
 71
3
 72
8
 73
4
 74
0
 40
0
 40
0
 40
0
 40
0
 40
1
 40
1
 40
1
 40
1
 10
29.872003
 20
52.108642
 30
0.0
 10
30.004004
 20
51.914367
 30
0.0
 10
30.109681
 20
51.643359
 30
0.0
 10
30.132671
 20
51.440170
 30
0.0
  0
LWPOLYLINE
  5
140
100
AcDbEntity
  8
Livello_1
 62
7
100
AcDbPolyline
 90
4
 70
0
 10
5.749809
 20
46.792975
 30
0.0
 10
5.625321
 20
46.783027
 30
0.0
 10
5.625449
 20
46.944804
 30
0.0
 10
5.625449
 20
46.944817
 30
0.0
  0
SPLINE
  5
141
100
AcDbEntity
  8
Livello_1
 62
7
100
AcDbSpline
 70
8
 71
3
 72
8
 73
4
 74
0
 40
0
 40
0
 40
0
 40
0
 40
1
 40
1
 40
1
 40
1
 10
29.484894
 20
51.470459
 30
0.0
 10
29.353005
 20
51.910538
 30
0.0
 10
29.057060
 20
52.205309
 30
0.0
 10
28.644956
 20
52.307070
 30
0.0
  0
SPLINE
  5
142
100
AcDbEntity
  8
Livello_1
 62
7
100
AcDbSpline
 70
8
 71
3
 72
8
 73
4
 74
0
 40
0
 40
0
 40
0
 40
0
 40
1
 40
1
 40
1
 40
1
 10
28.644956
 20
52.307070
 30
0.0
 10
28.471114
 20
52.349996
 30
0.0
 10
28.129762
 20
52.360759
 30
0.0
 10
27.947821
 20
52.329052
 30
0.0
  0
SPLINE
  5
143
100
AcDbEntity
  8
Livello_1
 62
7
100
AcDbSpline
 70
8
 71
3
 72
8
 73
4
 74
0
 40
0
 40
0
 40
0
 40
0
 40
1
 40
1
 40
1
 40
1
 10
27.947821
 20
52.329052
 30
0.0
 10
27.630324
 20
52.273719
 30
0.0
 10
27.422782
 20
52.165738
 30
0.0
 10
27.193780
 20
51.936735
 30
0.0
  0
SPLINE
  5
144
100
AcDbEntity
  8
Livello_1
 62
7
100
AcDbSpline
 70
8
 71
3
 72
8
 73
4
 74
0
 40
0
 40
0
 40
0
 40
0
 40
1
 40
1
 40
1
 40
1
 10
27.193780
 20
51.936735
 30
0.0
 10
26.990656
 20
51.733611
 30
0.0
 10
26.889176
 20
51.557870
 30
0.0
 10
26.802017
 20
51.258287
 30
0.0
  0
SPLINE
  5
145
100
AcDbEntity
  8
Livello_1
 62
7
100
AcDbSpline
 70
8
 71
3
 72
8
 73
4
 74
0
 40
0
 40
0
 40
0
 40
0
 40
1
 40
1
 40
1
 40
1
 10
26.802017
 20
51.258287
 30
0.0
 10
26.687293
 20
50.863966
 30
0.0
 10
26.656699
 20
50.253096
 30
0.0
 10
26.730526
 20
49.830916
 30
0.0
  0
SPLINE
  5
146
100
AcDbEntity
  8
Livello_1
 62
7
100
AcDbSpline
 70
8
 71
3
 72
8
 73
4
 74
0
 40
0
 40
0
 40
0
 40
0
 40
1
 40
1
 40
1
 40
1
 10
26.730526
 20
49.830916
 30
0.0
 10
26.845453
 20
49.173701
 30
0.0
 10
27.192026
 20
48.713139
 30
0.0
 10
27.691731
 20
48.553561
 30
0.0
  0
SPLINE
  5
147
100
AcDbEntity
  8
Livello_1
 62
7
100
AcDbSpline
 70
8
 71
3
 72
8
 73
4
 74
0
 40
0
 40
0
 40
0
 40
0
 40
1
 40
1
 40
1
 40
1
 10
27.691731
 20
48.553561
 30
0.0
 10
27.866356
 20
48.497797
 30
0.0
 10
27.949247
 20
48.487012
 30
0.0
 10
28.203911
 20
48.486930
 30
0.0
  0
SPLINE
  5
148
100
AcDbEntity
  8
Livello_1
 62
7
100
AcDbSpline
 70
8
 71
3
 72
8
 73
4
 74
0
 40
0
 40
0
 40
0
 40
0
 40
1
 40
1
 40
1
 40
1
 10
28.203911
 20
48.486930
 30
0.0
 10
28.418846
 20
48.486862
 30
0.0
 10
28.469423
 20
48.491296
 30
0.0
 10
28.573817
 20
48.519427
 30
0.0
  0
SPLINE
  5
149
100
AcDbEntity
  8
Livello_1
 62
7
100
AcDbSpline
 70
8
 71
3
 72
8
 73
4
 74
0
 40
0
 40
0
 40
0
 40
0
 40
1
 40
1
 40
1
 40
1
 10
28.573817
 20
48.519427
 30
0.0
 10
29.055917
 20
48.649281
 30
0.0
 10
29.366988
 20
49.011909
 30
0.0
 10
29.525095
 20
49.628369
 30
0.0
  0
LWPOLYLINE
  5
14a
100
AcDbEntity
  8
Livello_1
 62
7
100
AcDbPolyline
 90
5
 70
0
 10
30.132671
 20
51.440170
 30
0.0
 10
30.142487
 20
51.353418
 30
0.0
 10
29.831207
 20
51.353490
 30
0.0
 10
29.519928
 20
51.353561
 30
0.0
 10
29.484894
 20
51.470459
 30
0.0
  0
SPLINE
  5
14b
100
AcDbEntity
  8
Livello_1
 62
7
100
AcDbSpline
 70
8
 71
3
 72
8
 73
4
 74
0
 40
0
 40
0
 40
0
 40
0
 40
1
 40
1
 40
1
 40
1
 10
30.181494
 20
49.737309
 30
0.0
 10
30.181494
 20
49.597323
 30
0.0
 10
30.065745
 20
49.200705
 30
0.0
 10
29.967417
 20
49.003776
 30
0.0
  0
SPLINE
  5
14c
100
AcDbEntity
  8
Livello_1
 62
7
100
AcDbSpline
 70
8
 71
3
 72
8
 73
4
 74
0
 40
0
 40
0
 40
0
 40
0
 40
1
 40
1
 40
1
 40
1
 10
29.967417
 20
49.003776
 30
0.0
 10
29.679310
 20
48.426751
 30
0.0
 10
29.183944
 20
48.054861
 30
0.0
 10
28.559591
 20
47.946871
 30
0.0
  0
SPLINE
  5
14d
100
AcDbEntity
  8
Livello_1
 62
7
100
AcDbSpline
 70
8
 71
3
 72
8
 73
4
 74
0
 40
0
 40
0
 40
0
 40
0
 40
1
 40
1
 40
1
 40
1
 10
28.559591
 20
47.946871
 30
0.0
 10
28.402179
 20
47.919645
 30
0.0
 10
28.028469
 20
47.907025
 30
0.0
 10
27.881691
 20
47.923984
 30
0.0
  0
LWPOLYLINE
  5
14e
100
AcDbEntity
  8
Livello_1
 62
7
100
AcDbPolyline
 90
5
 70
0
 10
29.525095
 20
49.628369
 30
0.0
 10
29.562496
 20
49.774197
 30
0.0
 10
29.871995
 20
49.774197
 30
0.0
 10
30.181494
 20
49.774197
 30
0.0
 10
30.181494
 20
49.737309
 30
0.0
  0
LWPOLYLINE
  5
14f
100
AcDbEntity
  8
Livello_1
 62
7
100
AcDbPolyline
 90
1
 70
1
 10
27.881691
 20
47.923984
 30
0.0
  0
SPLINE
  5
150
100
AcDbEntity
  8
Livello_1
 62
7
100
AcDbSpline
 70
8
 71
3
 72
8
 73
4
 74
0
 40
0
 40
0
 40
0
 40
0
 40
1
 40
1
 40
1
 40
1
 10
12.468608
 20
48.045471
 30
0.0
 10
12.468608
 20
48.050709
 30
0.0
 10
13.963245
 20
52.243463
 30
0.0
 10
14.136038
 20
52.722947
 30
0.0
  0
LWPOLYLINE
  5
151
100
AcDbEntity
  8
Livello_1
 62
7
100
AcDbPolyline
 90
20
 70
1
 10
9.793892
 20
50.421535
 30
0.0
 10
9.793892
 20
52.804594
 30
0.0
 10
11.494044
 20
52.804594
 30
0.0
 10
13.194196
 20
52.804594
 30
0.0
 10
13.194196
 20
52.377777
 30
0.0
 10
13.194196
 20
51.950961
 30
0.0
 10
11.991997
 20
51.950961
 30
0.0
 10
10.789797
 20
51.950961
 30
0.0
 10
10.789797
 20
51.410328
 30
0.0
 10
10.789797
 20
50.869691
 30
0.0
 10
11.842611
 20
50.869691
 30
0.0
 10
12.895425
 20
50.869691
 30
0.0
 10
12.895425
 20
50.449991
 30
0.0
 10
12.895425
 20
50.030287
 30
0.0
 10
11.842611
 20
50.030287
 30
0.0
 10
10.789797
 20
50.030287
 30
0.0
 10
10.789797
 20
49.034382
 30
0.0
 10
10.789797
 20
48.038478
 30
0.0
 10
10.291845
 20
48.038478
 30
0.0
 10
9.793892
 20
48.038478
 30
0.0
  0
SPLINE
  5
152
100
AcDbEntity
  8
Livello_1
 62
7
100
AcDbSpline
 70
8
 71
3
 72
8
 73
4
 74
0
 40
0
 40
0
 40
0
 40
0
 40
1
 40
1
 40
1
 40
1
 10
16.140717
 20
50.428919
 30
0.0
 10
16.601572
 20
49.126214
 30
0.0
 10
16.978636
 20
48.055361
 30
0.0
 10
16.978636
 20
48.049249
 30
0.0
  0
SPLINE
  5
153
100
AcDbEntity
  8
Livello_1
 62
7
100
AcDbSpline
 70
8
 71
3
 72
8
 73
4
 74
0
 40
0
 40
0
 40
0
 40
0
 40
1
 40
1
 40
1
 40
1
 10
16.978636
 20
48.049249
 30
0.0
 10
16.978636
 20
48.043137
 30
0.0
 10
16.734013
 20
48.039803
 30
0.0
 10
16.435030
 20
48.041867
 30
0.0
  0
LWPOLYLINE
  5
154
100
AcDbEntity
  8
Livello_1
 62
7
100
AcDbPolyline
 90
5
 70
0
 10
14.136038
 20
52.722947
 30
0.0
 10
14.165576
 20
52.804913
 30
0.0
 10
14.734187
 20
52.801196
 30
0.0
 10
15.302798
 20
52.797478
 30
0.0
 10
16.140717
 20
50.428919
 30
0.0
  0
SPLINE
  5
155
100
AcDbEntity
  8
Livello_1
 62
7
100
AcDbSpline
 70
8
 71
3
 72
8
 73
4
 74
0
 40
0
 40
0
 40
0
 40
0
 40
1
 40
1
 40
1
 40
1
 10
15.739097
 20
48.519823
 30
0.0
 10
15.655318
 20
48.780647
 30
0.0
 10
15.584097
 20
48.996722
 30
0.0
 10
15.580828
 20
48.999992
 30
0.0
  0
SPLINE
  5
156
100
AcDbEntity
  8
Livello_1
 62
7
100
AcDbSpline
 70
8
 71
3
 72
8
 73
4
 74
0
 40
0
 40
0
 40
0
 40
0
 40
1
 40
1
 40
1
 40
1
 10
15.580828
 20
48.999992
 30
0.0
 10
15.577557
 20
49.003273
 30
0.0
 10
15.183511
 20
49.005945
 30
0.0
 10
14.705166
 20
49.005945
 30
0.0
  0
LWPOLYLINE
  5
157
100
AcDbEntity
  8
Livello_1
 62
7
100
AcDbPolyline
 90
3
 70
0
 10
16.435030
 20
48.041867
 30
0.0
 10
15.891422
 20
48.045598
 30
0.0
 10
15.739097
 20
48.519823
 30
0.0
  0
SPLINE
  5
158
100
AcDbEntity
  8
Livello_1
 62
7
100
AcDbSpline
 70
8
 71
3
 72
8
 73
4
 74
0
 40
0
 40
0
 40
0
 40
0
 40
1
 40
1
 40
1
 40
1
 10
12.994294
 20
48.038493
 30
0.0
 10
12.705167
 20
48.038493
 30
0.0
 10
12.468608
 20
48.041642
 30
0.0
 10
12.468608
 20
48.045478
 30
0.0
  0
LWPOLYLINE
  5
159
100
AcDbEntity
  8
Livello_1
 62
7
100
AcDbPolyline
 90
5
 70
0
 10
14.705166
 20
49.005945
 30
0.0
 10
13.835449
 20
49.005945
 30
0.0
 10
13.677715
 20
48.522221
 30
0.0
 10
13.519979
 20
48.038493
 30
0.0
 10
12.994294
 20
48.038493
 30
0.0
  0
SPLINE
  5
15a
100
AcDbEntity
  8
Livello_1
 62
7
100
AcDbSpline
 70
8
 71
3
 72
8
 73
4
 74
0
 40
0
 40
0
 40
0
 40
0
 40
1
 40
1
 40
1
 40
1
 10
15.300617
 20
49.884457
 30
0.0
 10
15.277508
 20
49.963430
 30
0.0
 10
14.727320
 20
51.673665
 30
0.0
 10
14.723720
 20
51.677713
 30
0.0
  0
SPLINE
  5
15b
100
AcDbEntity
  8
Livello_1
 62
7
100
AcDbSpline
 70
8
 71
3
 72
8
 73
4
 74
0
 40
0
 40
0
 40
0
 40
0
 40
1
 40
1
 40
1
 40
1
 10
14.723720
 20
51.677713
 30
0.0
 10
14.719958
 20
51.681946
 30
0.0
 10
14.118965
 20
49.869333
 30
0.0
 10
14.118965
 20
49.853755
 30
0.0
  0
SPLINE
  5
15c
100
AcDbEntity
  8
Livello_1
 62
7
100
AcDbSpline
 70
8
 71
3
 72
8
 73
4
 74
0
 40
0
 40
0
 40
0
 40
0
 40
1
 40
1
 40
1
 40
1
 10
14.118965
 20
49.853755
 30
0.0
 10
14.118965
 20
49.849125
 30
0.0
 10
14.387413
 20
49.845341
 30
0.0
 10
14.715515
 20
49.845341
 30
0.0
  0
LWPOLYLINE
  5
15d
100
AcDbEntity
  8
Livello_1
 62
7
100
AcDbPolyline
 90
1
 70
1
 10
12.468608
 20
48.045478
 30
0.0
  0
LWPOLYLINE
  5
15e
100
AcDbEntity
  8
Livello_1
 62
7
100
AcDbPolyline
 90
3
 70
0
 10
14.715515
 20
49.845341
 30
0.0
 10
15.312065
 20
49.845341
 30
0.0
 10
15.300617
 20
49.884457
 30
0.0
  0
SPLINE
  5
15f
100
AcDbEntity
  8
Livello_1
 62
7
100
AcDbSpline
 70
8
 71
3
 72
8
 73
4
 74
0
 40
0
 40
0
 40
0
 40
0
 40
1
 40
1
 40
1
 40
1
 10
18.632550
 20
52.800863
 30
0.0
 10
19.902307
 20
52.795863
 30
0.0
 10
19.933748
 20
52.795074
 30
0.0
 10
20.065942
 20
52.765003
 30
0.0
  0
SPLINE
  5
160
100
AcDbEntity
  8
Livello_1
 62
7
100
AcDbSpline
 70
8
 71
3
 72
8
 73
4
 74
0
 40
0
 40
0
 40
0
 40
0
 40
1
 40
1
 40
1
 40
1
 10
20.065942
 20
52.765003
 30
0.0
 10
20.531293
 20
52.659141
 30
0.0
 10
20.804997
 20
52.466392
 30
0.0
 10
20.969351
 20
52.128800
 30
0.0
  0
SPLINE
  5
161
100
AcDbEntity
  8
Livello_1
 62
7
100
AcDbSpline
 70
8
 71
3
 72
8
 73
4
 74
0
 40
0
 40
0
 40
0
 40
0
 40
1
 40
1
 40
1
 40
1
 10
20.969351
 20
52.128800
 30
0.0
 10
21.068647
 20
51.924842
 30
0.0
 10
21.082803
 20
51.854716
 30
0.0
 10
21.082803
 20
51.566826
 30
0.0
  0
SPLINE
  5
162
100
AcDbEntity
  8
Livello_1
 62
7
100
AcDbSpline
 70
8
 71
3
 72
8
 73
4
 74
0
 40
0
 40
0
 40
0
 40
0
 40
1
 40
1
 40
1
 40
1
 10
21.082803
 20
51.566826
 30
0.0
 10
21.082803
 20
51.370585
 30
0.0
 10
21.077369
 20
51.298261
 30
0.0
 10
21.057149
 20
51.225373
 30
0.0
  0
SPLINE
  5
163
100
AcDbEntity
  8
Livello_1
 62
7
100
AcDbSpline
 70
8
 71
3
 72
8
 73
4
 74
0
 40
0
 40
0
 40
0
 40
0
 40
1
 40
1
 40
1
 40
1
 10
21.057149
 20
51.225373
 30
0.0
 10
20.991697
 20
50.989431
 30
0.0
 10
20.856847
 20
50.807062
 30
0.0
 10
20.647592
 20
50.671492
 30
0.0
  0
LWPOLYLINE
  5
164
100
AcDbEntity
  8
Livello_1
 62
7
100
AcDbPolyline
 90
3
 70
0
 10
17.334316
 20
50.422228
 30
0.0
 10
17.334316
 20
52.805978
 30
0.0
 10
18.632550
 20
52.800863
 30
0.0
  0
SPLINE
  5
165
100
AcDbEntity
  8
Livello_1
 62
7
100
AcDbSpline
 70
8
 71
3
 72
8
 73
4
 74
0
 40
0
 40
0
 40
0
 40
0
 40
1
 40
1
 40
1
 40
1
 10
20.649256
 20
50.533406
 30
0.0
 10
21.024229
 20
50.344832
 30
0.0
 10
21.221267
 20
50.016754
 30
0.0
 10
21.241939
 20
49.546560
 30
0.0
  0
SPLINE
  5
166
100
AcDbEntity
  8
Livello_1
 62
7
100
AcDbSpline
 70
8
 71
3
 72
8
 73
4
 74
0
 40
0
 40
0
 40
0
 40
0
 40
1
 40
1
 40
1
 40
1
 10
21.241939
 20
49.546560
 30
0.0
 10
21.260465
 20
49.125187
 30
0.0
 10
21.126298
 20
48.765291
 30
0.0
 10
20.841324
 20
48.471926
 30
0.0
  0
SPLINE
  5
167
100
AcDbEntity
  8
Livello_1
 62
7
100
AcDbSpline
 70
8
 71
3
 72
8
 73
4
 74
0
 40
0
 40
0
 40
0
 40
0
 40
1
 40
1
 40
1
 40
1
 10
20.841324
 20
48.471926
 30
0.0
 10
20.659777
 20
48.285035
 30
0.0
 10
20.455271
 20
48.169179
 30
0.0
 10
20.199829
 20
48.108510
 30
0.0
  0
SPLINE
  5
168
100
AcDbEntity
  8
Livello_1
 62
7
100
AcDbSpline
 70
8
 71
3
 72
8
 73
4
 74
0
 40
0
 40
0
 40
0
 40
0
 40
1
 40
1
 40
1
 40
1
 10
20.199829
 20
48.108510
 30
0.0
 10
19.920503
 20
48.042171
 30
0.0
 10
19.846846
 20
48.039049
 30
0.0
 10
18.554299
 20
48.038755
 30
0.0
  0
LWPOLYLINE
  5
169
100
AcDbEntity
  8
Livello_1
 62
7
100
AcDbPolyline
 90
3
 70
0
 10
20.647592
 20
50.671492
 30
0.0
 10
20.528325
 20
50.594223
 30
0.0
 10
20.649256
 20
50.533406
 30
0.0
  0
SPLINE
  5
16a
100
AcDbEntity
  8
Livello_1
 62
7
100
AcDbSpline
 70
8
 71
3
 72
8
 73
4
 74
0
 40
0
 40
0
 40
0
 40
0
 40
1
 40
1
 40
1
 40
1
 10
19.824682
 20
48.916992
 30
0.0
 10
20.003478
 20
48.977203
 30
0.0
 10
20.117040
 20
49.081566
 30
0.0
 10
20.182277
 20
49.245621
 30
0.0
  0
SPLINE
  5
16b
100
AcDbEntity
  8
Livello_1
 62
7
100
AcDbSpline
 70
8
 71
3
 72
8
 73
4
 74
0
 40
0
 40
0
 40
0
 40
0
 40
1
 40
1
 40
1
 40
1
 10
20.182277
 20
49.245621
 30
0.0
 10
20.209959
 20
49.315235
 30
0.0
 10
20.214329
 20
49.352838
 30
0.0
 10
20.214792
 20
49.525476
 30
0.0
  0
SPLINE
  5
16c
100
AcDbEntity
  8
Livello_1
 62
7
100
AcDbSpline
 70
8
 71
3
 72
8
 73
4
 74
0
 40
0
 40
0
 40
0
 40
0
 40
1
 40
1
 40
1
 40
1
 10
20.214792
 20
49.525476
 30
0.0
 10
20.215322
 20
49.722820
 30
0.0
 10
20.214792
 20
49.725913
 30
0.0
 10
20.168380
 20
49.820319
 30
0.0
  0
SPLINE
  5
16d
100
AcDbEntity
  8
Livello_1
 62
7
100
AcDbSpline
 70
8
 71
3
 72
8
 73
4
 74
0
 40
0
 40
0
 40
0
 40
0
 40
1
 40
1
 40
1
 40
1
 10
20.168380
 20
49.820319
 30
0.0
 10
20.097808
 20
49.963739
 30
0.0
 10
20.000892
 20
50.034539
 30
0.0
 10
19.798352
 20
50.090639
 30
0.0
  0
SPLINE
  5
16e
100
AcDbEntity
  8
Livello_1
 62
7
100
AcDbSpline
 70
8
 71
3
 72
8
 73
4
 74
0
 40
0
 40
0
 40
0
 40
0
 40
1
 40
1
 40
1
 40
1
 10
19.798352
 20
50.090639
 30
0.0
 10
19.694997
 20
50.119267
 30
0.0
 10
19.650009
 20
50.121256
 30
0.0
 10
18.988230
 20
50.126474
 30
0.0
  0
LWPOLYLINE
  5
16f
100
AcDbEntity
  8
Livello_1
 62
7
100
AcDbPolyline
 90
3
 70
0
 10
18.554299
 20
48.038755
 30
0.0
 10
17.334315
 20
48.038491
 30
0.0
 10
17.334316
 20
50.422228
 30
0.0
  0
SPLINE
  5
170
100
AcDbEntity
  8
Livello_1
 62
7
100
AcDbSpline
 70
8
 71
3
 72
8
 73
4
 74
0
 40
0
 40
0
 40
0
 40
0
 40
1
 40
1
 40
1
 40
1
 10
19.009571
 20
48.881049
 30
0.0
 10
19.709783
 20
48.885520
 30
0.0
 10
19.734415
 20
48.886605
 30
0.0
 10
19.824682
 20
48.916997
 30
0.0
  0
LWPOLYLINE
  5
171
100
AcDbEntity
  8
Livello_1
 62
7
100
AcDbPolyline
 90
5
 70
0
 10
18.988230
 20
50.126474
 30
0.0
 10
18.287540
 20
50.132004
 30
0.0
 10
18.287540
 20
49.504224
 30
0.0
 10
18.287540
 20
48.876445
 30
0.0
 10
19.009571
 20
48.881049
 30
0.0
  0
SPLINE
  5
172
100
AcDbEntity
  8
Livello_1
 62
7
100
AcDbSpline
 70
8
 71
3
 72
8
 73
4
 74
0
 40
0
 40
0
 40
0
 40
0
 40
1
 40
1
 40
1
 40
1
 10
19.617784
 20
50.941354
 30
0.0
 10
19.753442
 20
50.960668
 30
0.0
 10
19.882319
 20
51.005243
 30
0.0
 10
19.963045
 20
51.060731
 30
0.0
  0
SPLINE
  5
173
100
AcDbEntity
  8
Livello_1
 62
7
100
AcDbSpline
 70
8
 71
3
 72
8
 73
4
 74
0
 40
0
 40
0
 40
0
 40
0
 40
1
 40
1
 40
1
 40
1
 10
19.963045
 20
51.060731
 30
0.0
 10
20.188442
 20
51.215666
 30
0.0
 10
20.188303
 20
51.689934
 30
0.0
 10
19.962817
 20
51.845326
 30
0.0
  0
SPLINE
  5
174
100
AcDbEntity
  8
Livello_1
 62
7
100
AcDbSpline
 70
8
 71
3
 72
8
 73
4
 74
0
 40
0
 40
0
 40
0
 40
0
 40
1
 40
1
 40
1
 40
1
 10
19.962817
 20
51.845326
 30
0.0
 10
19.820361
 20
51.943497
 30
0.0
 10
19.625629
 20
51.964921
 30
0.0
 10
18.874416
 20
51.965072
 30
0.0
  0
LWPOLYLINE
  5
175
100
AcDbEntity
  8
Livello_1
 62
7
100
AcDbPolyline
 90
1
 70
1
 10
19.824682
 20
48.916997
 30
0.0
  0
SPLINE
  5
176
100
AcDbEntity
  8
Livello_1
 62
7
100
AcDbSpline
 70
8
 71
3
 72
8
 73
4
 74
0
 40
0
 40
0
 40
0
 40
0
 40
1
 40
1
 40
1
 40
1
 10
18.902867
 20
50.926865
 30
0.0
 10
19.241297
 20
50.927021
 30
0.0
 10
19.563009
 20
50.933533
 30
0.0
 10
19.617784
 20
50.941338
 30
0.0
  0
LWPOLYLINE
  5
177
100
AcDbEntity
  8
Livello_1
 62
7
100
AcDbPolyline
 90
5
 70
0
 10
18.874416
 20
51.965072
 30
0.0
 10
18.287540
 20
51.965188
 30
0.0
 10
18.287540
 20
51.445896
 30
0.0
 10
18.287540
 20
50.926600
 30
0.0
 10
18.902867
 20
50.926865
 30
0.0
  0
SPLINE
  5
178
100
AcDbEntity
  8
Livello_1
 62
7
100
AcDbSpline
 70
8
 71
3
 72
8
 73
4
 74
0
 40
0
 40
0
 40
0
 40
0
 40
1
 40
1
 40
1
 40
1
 10
21.578340
 20
48.084716
 30
0.0
 10
21.588749
 20
48.110143
 30
0.0
 10
21.990575
 20
49.176091
 30
0.0
 10
22.471290
 20
50.453478
 30
0.0
  0
LWPOLYLINE
  5
179
100
AcDbEntity
  8
Livello_1
 62
7
100
AcDbPolyline
 90
1
 70
1
 10
19.617784
 20
50.941338
 30
0.0
  0
SPLINE
  5
17a
100
AcDbEntity
  8
Livello_1
 62
7
100
AcDbSpline
 70
8
 71
3
 72
8
 73
4
 74
0
 40
0
 40
0
 40
0
 40
0
 40
1
 40
1
 40
1
 40
1
 10
24.133460
 20
52.616088
 30
0.0
 10
24.165662
 20
52.528057
 30
0.0
 10
24.552714
 20
51.462083
 30
0.0
 10
24.993580
 20
50.247256
 30
0.0
  0
LWPOLYLINE
  5
17b
100
AcDbEntity
  8
Livello_1
 62
7
100
AcDbPolyline
 90
5
 70
0
 10
22.471290
 20
50.453478
 30
0.0
 10
23.345315
 20
52.776001
 30
0.0
 10
23.710113
 20
52.776073
 30
0.0
 10
24.074913
 20
52.776144
 30
0.0
 10
24.133460
 20
52.616088
 30
0.0
  0
SPLINE
  5
17c
100
AcDbEntity
  8
Livello_1
 62
7
100
AcDbSpline
 70
8
 71
3
 72
8
 73
4
 74
0
 40
0
 40
0
 40
0
 40
0
 40
1
 40
1
 40
1
 40
1
 10
24.963586
 20
48.404833
 30
0.0
 10
24.893138
 20
48.606326
 30
0.0
 10
24.781905
 20
48.926369
 30
0.0
 10
24.716403
 20
49.116043
 30
0.0
  0
LWPOLYLINE
  5
17d
100
AcDbEntity
  8
Livello_1
 62
7
100
AcDbPolyline
 90
5
 70
0
 10
24.993580
 20
50.247256
 30
0.0
 10
25.795153
 20
48.038483
 30
0.0
 10
25.443415
 20
48.038483
 30
0.0
 10
25.091675
 20
48.038483
 30
0.0
 10
24.963586
 20
48.404833
 30
0.0
  0
SPLINE
  5
17e
100
AcDbEntity
  8
Livello_1
 62
7
100
AcDbSpline
 70
8
 71
3
 72
8
 73
4
 74
0
 40
0
 40
0
 40
0
 40
0
 40
1
 40
1
 40
1
 40
1
 10
24.405242
 20
49.996849
 30
0.0
 10
24.405242
 20
50.027089
 30
0.0
 10
23.686273
 20
52.062637
 30
0.0
 10
23.678644
 20
52.053998
 30
0.0
  0
SPLINE
  5
17f
100
AcDbEntity
  8
Livello_1
 62
7
100
AcDbSpline
 70
8
 71
3
 72
8
 73
4
 74
0
 40
0
 40
0
 40
0
 40
0
 40
1
 40
1
 40
1
 40
1
 10
23.678644
 20
52.053998
 30
0.0
 10
23.673516
 20
52.048177
 30
0.0
 10
23.524694
 20
51.643299
 30
0.0
 10
23.347931
 20
51.154237
 30
0.0
  0
SPLINE
  5
180
100
AcDbEntity
  8
Livello_1
 62
7
100
AcDbSpline
 70
8
 71
3
 72
8
 73
4
 74
0
 40
0
 40
0
 40
0
 40
0
 40
1
 40
1
 40
1
 40
1
 10
23.347931
 20
51.154237
 30
0.0
 10
23.171169
 20
50.665176
 30
0.0
 10
23.003950
 20
50.202613
 30
0.0
 10
22.976335
 20
50.126321
 30
0.0
  0
LWPOLYLINE
  5
181
100
AcDbEntity
  8
Livello_1
 62
7
100
AcDbPolyline
 90
10
 70
0
 10
24.716403
 20
49.116043
 30
0.0
 10
24.597310
 20
49.460901
 30
0.0
 10
23.665427
 20
49.460843
 30
0.0
 10
22.733545
 20
49.460788
 30
0.0
 10
22.477455
 20
48.749715
 30
0.0
 10
22.221365
 20
48.038642
 30
0.0
 10
21.890391
 20
48.038557
 30
0.0
 10
21.559418
 20
48.038470
 30
0.0
 10
21.578341
 20
48.084708
 30
0.0
 10
21.578340
 20
48.084716
 30
0.0
  0
SPLINE
  5
182
100
AcDbEntity
  8
Livello_1
 62
7
100
AcDbSpline
 70
8
 71
3
 72
8
 73
4
 74
0
 40
0
 40
0
 40
0
 40
0
 40
1
 40
1
 40
1
 40
1
 10
23.665683
 20
49.987605
 30
0.0
 10
24.072441
 20
49.987605
 30
0.0
 10
24.405242
 20
49.991759
 30
0.0
 10
24.405242
 20
49.996839
 30
0.0
  0
LWPOLYLINE
  5
183
100
AcDbEntity
  8
Livello_1
 62
7
100
AcDbPolyline
 90
3
 70
0
 10
22.976335
 20
50.126321
 30
0.0
 10
22.926123
 20
49.987605
 30
0.0
 10
23.665683
 20
49.987605
 30
0.0
  0
SPLINE
  5
184
100
AcDbEntity
  8
Livello_1
 62
7
100
AcDbSpline
 70
8
 71
3
 72
8
 73
4
 74
0
 40
0
 40
0
 40
0
 40
0
 40
1
 40
1
 40
1
 40
1
 10
30.787877
 20
48.845872
 30
0.0
 10
30.955176
 20
49.289938
 30
0.0
 10
31.356144
 20
50.355783
 30
0.0
 10
31.678917
 20
51.214412
 30
0.0
  0
LWPOLYLINE
  5
185
100
AcDbEntity
  8
Livello_1
 62
7
100
AcDbPolyline
 90
1
 70
1
 10
24.405242
 20
49.996839
 30
0.0
  0
SPLINE
  5
186
100
AcDbEntity
  8
Livello_1
 62
7
100
AcDbSpline
 70
8
 71
3
 72
8
 73
4
 74
0
 40
0
 40
0
 40
0
 40
0
 40
1
 40
1
 40
1
 40
1
 10
32.630607
 20
52.775851
 30
0.0
 10
32.964977
 20
52.776115
 30
0.0
 10
32.996259
 20
52.774051
 30
0.0
 10
33.005305
 20
52.751242
 30
0.0
  0
SPLINE
  5
187
100
AcDbEntity
  8
Livello_1
 62
7
100
AcDbSpline
 70
8
 71
3
 72
8
 73
4
 74
0
 40
0
 40
0
 40
0
 40
0
 40
1
 40
1
 40
1
 40
1
 10
33.005305
 20
52.751242
 30
0.0
 10
33.010729
 20
52.737547
 30
0.0
 10
33.391819
 20
51.689180
 30
0.0
 10
33.852160
 20
50.421535
 30
0.0
  0
SPLINE
  5
188
100
AcDbEntity
  8
Livello_1
 62
7
100
AcDbSpline
 70
8
 71
3
 72
8
 73
4
 74
0
 40
0
 40
0
 40
0
 40
0
 40
1
 40
1
 40
1
 40
1
 10
33.852160
 20
50.421535
 30
0.0
 10
34.312500
 20
49.153892
 30
0.0
 10
34.695921
 20
48.099120
 30
0.0
 10
34.704205
 20
48.077602
 30
0.0
  0
LWPOLYLINE
  5
189
100
AcDbEntity
  8
Livello_1
 62
7
100
AcDbPolyline
 90
3
 70
0
 10
31.678917
 20
51.214412
 30
0.0
 10
32.265779
 20
52.775560
 30
0.0
 10
32.630607
 20
52.775851
 30
0.0
  0
SPLINE
  5
18a
100
AcDbEntity
  8
Livello_1
 62
7
100
AcDbSpline
 70
8
 71
3
 72
8
 73
4
 74
0
 40
0
 40
0
 40
0
 40
0
 40
1
 40
1
 40
1
 40
1
 10
33.325895
 20
49.998275
 30
0.0
 10
33.326425
 20
50.028811
 30
0.0
 10
32.608285
 20
52.064134
 30
0.0
 10
32.600318
 20
52.054636
 30
0.0
  0
SPLINE
  5
18b
100
AcDbEntity
  8
Livello_1
 62
7
100
AcDbSpline
 70
8
 71
3
 72
8
 73
4
 74
0
 40
0
 40
0
 40
0
 40
0
 40
1
 40
1
 40
1
 40
1
 10
32.600318
 20
52.054636
 30
0.0
 10
32.595159
 20
52.048471
 30
0.0
 10
32.438517
 20
51.620888
 30
0.0
 10
32.252245
 20
51.104443
 30
0.0
  0
SPLINE
  5
18c
100
AcDbEntity
  8
Livello_1
 62
7
100
AcDbSpline
 70
8
 71
3
 72
8
 73
4
 74
0
 40
0
 40
0
 40
0
 40
0
 40
1
 40
1
 40
1
 40
1
 10
32.252245
 20
51.104443
 30
0.0
 10
32.065968
 20
50.587995
 30
0.0
 10
31.898664
 20
50.125432
 30
0.0
 10
31.880458
 20
50.076526
 30
0.0
  0
LWPOLYLINE
  5
18d
100
AcDbEntity
  8
Livello_1
 62
7
100
AcDbPolyline
 90
14
 70
0
 10
34.704205
 20
48.077602
 30
0.0
 10
34.719260
 20
48.038478
 30
0.0
 10
34.366078
 20
48.038478
 30
0.0
 10
34.012897
 20
48.038478
 30
0.0
 10
33.765331
 20
48.749926
 30
0.0
 10
33.517766
 20
49.461378
 30
0.0
 10
32.586380
 20
49.457726
 30
0.0
 10
31.654993
 20
49.454075
 30
0.0
 10
31.398903
 20
48.746270
 30
0.0
 10
31.142810
 20
48.038467
 30
0.0
 10
30.813251
 20
48.038467
 30
0.0
 10
30.483694
 20
48.038467
 30
0.0
 10
30.787869
 20
48.845862
 30
0.0
 10
30.787877
 20
48.845872
 30
0.0
  0
SPLINE
  5
18e
100
AcDbEntity
  8
Livello_1
 62
7
100
AcDbSpline
 70
8
 71
3
 72
8
 73
4
 74
0
 40
0
 40
0
 40
0
 40
0
 40
1
 40
1
 40
1
 40
1
 10
32.586528
 20
49.987605
 30
0.0
 10
32.993076
 20
49.987605
 30
0.0
 10
33.325792
 20
49.992420
 30
0.0
 10
33.325895
 20
49.998268
 30
0.0
  0
LWPOLYLINE
  5
18f
100
AcDbEntity
  8
Livello_1
 62
7
100
AcDbPolyline
 90
3
 70
0
 10
31.880458
 20
50.076526
 30
0.0
 10
31.847351
 20
49.987605
 30
0.0
 10
32.586528
 20
49.987605
 30
0.0
  0
LWPOLYLINE
  5
190
100
AcDbEntity
  8
Livello_1
 62
7
100
AcDbPolyline
 90
1
 70
1
 10
33.325895
 20
49.998268
 30
0.0
  0
SPLINE
  5
191
100
AcDbEntity
  8
Livello_1
 62
7
100
AcDbSpline
 70
8
 71
3
 72
8
 73
4
 74
0
 40
0
 40
0
 40
0
 40
0
 40
1
 40
1
 40
1
 40
1
 10
36.255097
 20
52.776139
 30
0.0
 10
37.248820
 20
52.776139
 30
0.0
 10
37.331621
 20
52.774261
 30
0.0
 10
37.482195
 20
52.748270
 30
0.0
  0
SPLINE
  5
192
100
AcDbEntity
  8
Livello_1
 62
7
100
AcDbSpline
 70
8
 71
3
 72
8
 73
4
 74
0
 40
0
 40
0
 40
0
 40
0
 40
1
 40
1
 40
1
 40
1
 10
37.482195
 20
52.748270
 30
0.0
 10
38.308658
 20
52.605629
 30
0.0
 10
38.858224
 20
51.986712
 30
0.0
 10
39.024123
 20
51.011767
 30
0.0
  0
SPLINE
  5
193
100
AcDbEntity
  8
Livello_1
 62
7
100
AcDbSpline
 70
8
 71
3
 72
8
 73
4
 74
0
 40
0
 40
0
 40
0
 40
0
 40
1
 40
1
 40
1
 40
1
 10
39.024123
 20
51.011767
 30
0.0
 10
39.059525
 20
50.803728
 30
0.0
 10
39.067719
 20
50.322737
 30
0.0
 10
39.039919
 20
50.084278
 30
0.0
  0
SPLINE
  5
194
100
AcDbEntity
  8
Livello_1
 62
7
100
AcDbSpline
 70
8
 71
3
 72
8
 73
4
 74
0
 40
0
 40
0
 40
0
 40
0
 40
1
 40
1
 40
1
 40
1
 10
39.039919
 20
50.084278
 30
0.0
 10
38.994453
 20
49.694198
 30
0.0
 10
38.909310
 20
49.387884
 30
0.0
 10
38.760982
 20
49.080751
 30
0.0
  0
SPLINE
  5
195
100
AcDbEntity
  8
Livello_1
 62
7
100
AcDbSpline
 70
8
 71
3
 72
8
 73
4
 74
0
 40
0
 40
0
 40
0
 40
0
 40
1
 40
1
 40
1
 40
1
 10
38.760982
 20
49.080751
 30
0.0
 10
38.488448
 20
48.516434
 30
0.0
 10
38.112017
 20
48.212237
 30
0.0
 10
37.519560
 20
48.077543
 30
0.0
  0
SPLINE
  5
196
100
AcDbEntity
  8
Livello_1
 62
7
100
AcDbSpline
 70
8
 71
3
 72
8
 73
4
 74
0
 40
0
 40
0
 40
0
 40
0
 40
1
 40
1
 40
1
 40
1
 10
37.519560
 20
48.077543
 30
0.0
 10
37.392695
 20
48.048701
 30
0.0
 10
37.344911
 20
48.047331
 30
0.0
 10
36.288520
 20
48.042208
 30
0.0
  0
LWPOLYLINE
  5
197
100
AcDbEntity
  8
Livello_1
 62
7
100
AcDbPolyline
 90
3
 70
0
 10
35.189472
 20
50.406509
 30
0.0
 10
35.189472
 20
52.776139
 30
0.0
 10
36.255097
 20
52.776139
 30
0.0
  0
SPLINE
  5
198
100
AcDbEntity
  8
Livello_1
 62
7
100
AcDbSpline
 70
8
 71
3
 72
8
 73
4
 74
0
 40
0
 40
0
 40
0
 40
0
 40
1
 40
1
 40
1
 40
1
 10
37.410848
 20
48.632091
 30
0.0
 10
37.891614
 20
48.766574
 30
0.0
 10
38.212363
 20
49.172331
 30
0.0
 10
38.340652
 20
49.808320
 30
0.0
  0
SPLINE
  5
199
100
AcDbEntity
  8
Livello_1
 62
7
100
AcDbSpline
 70
8
 71
3
 72
8
 73
4
 74
0
 40
0
 40
0
 40
0
 40
0
 40
1
 40
1
 40
1
 40
1
 10
38.340652
 20
49.808320
 30
0.0
 10
38.411862
 20
50.161357
 30
0.0
 10
38.421072
 20
50.509659
 30
0.0
 10
38.369026
 20
50.881613
 30
0.0
  0
SPLINE
  5
19a
100
AcDbEntity
  8
Livello_1
 62
7
100
AcDbSpline
 70
8
 71
3
 72
8
 73
4
 74
0
 40
0
 40
0
 40
0
 40
0
 40
1
 40
1
 40
1
 40
1
 10
38.369026
 20
50.881613
 30
0.0
 10
38.278808
 20
51.526350
 30
0.0
 10
38.001551
 20
51.956605
 30
0.0
 10
37.567420
 20
52.125564
 30
0.0
  0
SPLINE
  5
19b
100
AcDbEntity
  8
Livello_1
 62
7
100
AcDbSpline
 70
8
 71
3
 72
8
 73
4
 74
0
 40
0
 40
0
 40
0
 40
0
 40
1
 40
1
 40
1
 40
1
 10
37.567420
 20
52.125564
 30
0.0
 10
37.329163
 20
52.218292
 30
0.0
 10
37.271867
 20
52.224111
 30
0.0
 10
36.523274
 20
52.231620
 30
0.0
  0
LWPOLYLINE
  5
19c
100
AcDbEntity
  8
Livello_1
 62
7
100
AcDbPolyline
 90
3
 70
0
 10
36.288520
 20
48.042208
 30
0.0
 10
35.189467
 20
48.036890
 30
0.0
 10
35.189472
 20
50.406509
 30
0.0
  0
SPLINE
  5
19d
100
AcDbEntity
  8
Livello_1
 62
7
100
AcDbSpline
 70
8
 71
3
 72
8
 73
4
 74
0
 40
0
 40
0
 40
0
 40
0
 40
1
 40
1
 40
1
 40
1
 10
36.573068
 20
48.596690
 30
0.0
 10
37.265864
 20
48.601453
 30
0.0
 10
37.307628
 20
48.603199
 30
0.0
 10
37.410848
 20
48.632084
 30
0.0
  0
LWPOLYLINE
  5
19e
100
AcDbEntity
  8
Livello_1
 62
7
100
AcDbPolyline
 90
5
 70
0
 10
36.523274
 20
52.231620
 30
0.0
 10
35.843924
 20
52.238433
 30
0.0
 10
35.843924
 20
50.415060
 30
0.0
 10
35.843924
 20
48.591690
 30
0.0
 10
36.573068
 20
48.596690
 30
0.0
  0
LWPOLYLINE
  5
19f
100
AcDbEntity
  8
Livello_1
 62
7
100
AcDbPolyline
 90
1
 70
1
 10
37.410848
 20
48.632084
 30
0.0
  0
LWPOLYLINE
  5
1a0
100
AcDbEntity
  8
Livello_1
 62
7
100
AcDbPolyline
 90
24
 70
1
 10
39.870224
 20
50.407308
 30
0.0
 10
39.870224
 20
52.776139
 30
0.0
 10
41.591719
 20
52.776139
 30
0.0
 10
43.313212
 20
52.776139
 30
0.0
 10
43.313212
 20
52.491595
 30
0.0
 10
43.313212
 20
52.207050
 30
0.0
 10
41.904716
 20
52.207050
 30
0.0
 10
40.496223
 20
52.207050
 30
0.0
 10
40.496223
 20
51.481463
 30
0.0
 10
40.496223
 20
50.755875
 30
0.0
 10
41.798012
 20
50.755875
 30
0.0
 10
43.099802
 20
50.755875
 30
0.0
 10
43.099802
 20
50.485559
 30
0.0
 10
43.099802
 20
50.215242
 30
0.0
 10
41.798012
 20
50.215242
 30
0.0
 10
40.496223
 20
50.215242
 30
0.0
 10
40.496223
 20
49.411403
 30
0.0
 10
40.496223
 20
48.607567
 30
0.0
 10
41.926058
 20
48.607567
 30
0.0
 10
43.355892
 20
48.607567
 30
0.0
 10
43.355892
 20
48.323021
 30
0.0
 10
43.355892
 20
48.038478
 30
0.0
 10
41.613058
 20
48.038478
 30
0.0
 10
39.870224
 20
48.038478
 30
0.0
  0
SPLINE
  5
1a1
100
AcDbEntity
  8
Livello_1
 62
7
100
AcDbSpline
 70
8
 71
3
 72
8
 73
4
 74
0
 40
0
 40
0
 40
0
 40
0
 40
1
 40
1
 40
1
 40
1
 10
45.673240
 20
50.775108
 30
0.0
 10
46.045856
 20
49.678452
 30
0.0
 10
46.353309
 20
48.783661
 30
0.0
 10
46.356474
 20
48.786680
 30
0.0
  0
SPLINE
  5
1a2
100
AcDbEntity
  8
Livello_1
 62
7
100
AcDbSpline
 70
8
 71
3
 72
8
 73
4
 74
0
 40
0
 40
0
 40
0
 40
0
 40
1
 40
1
 40
1
 40
1
 10
46.356474
 20
48.786680
 30
0.0
 10
46.359649
 20
48.789696
 30
0.0
 10
46.664401
 20
49.686961
 30
0.0
 10
47.033725
 20
50.780595
 30
0.0
  0
LWPOLYLINE
  5
1a3
100
AcDbEntity
  8
Livello_1
 62
7
100
AcDbPolyline
 90
5
 70
0
 10
44.067254
 20
50.407504
 30
0.0
 10
44.067254
 20
52.776529
 30
0.0
 10
44.531508
 20
52.772777
 30
0.0
 10
44.995759
 20
52.769025
 30
0.0
 10
45.673240
 20
50.775108
 30
0.0
  0
SPLINE
  5
1a4
100
AcDbEntity
  8
Livello_1
 62
7
100
AcDbSpline
 70
8
 71
3
 72
8
 73
4
 74
0
 40
0
 40
0
 40
0
 40
0
 40
1
 40
1
 40
1
 40
1
 10
48.010972
 20
50.033767
 30
0.0
 10
48.014623
 20
51.131179
 30
0.0
 10
48.014596
 20
52.019488
 30
0.0
 10
48.010972
 20
52.007794
 30
0.0
  0
SPLINE
  5
1a5
100
AcDbEntity
  8
Livello_1
 62
7
100
AcDbSpline
 70
8
 71
3
 72
8
 73
4
 74
0
 40
0
 40
0
 40
0
 40
0
 40
1
 40
1
 40
1
 40
1
 10
48.010972
 20
52.007794
 30
0.0
 10
48.007267
 20
51.996099
 30
0.0
 10
47.735522
 20
51.192650
 30
0.0
 10
47.407087
 20
50.222354
 30
0.0
  0
SPLINE
  5
1a6
100
AcDbEntity
  8
Livello_1
 62
7
100
AcDbSpline
 70
8
 71
3
 72
8
 73
4
 74
0
 40
0
 40
0
 40
0
 40
0
 40
1
 40
1
 40
1
 40
1
 10
47.407087
 20
50.222354
 30
0.0
 10
47.078651
 20
49.252058
 30
0.0
 10
46.778093
 20
48.363748
 30
0.0
 10
46.739180
 20
48.248329
 30
0.0
  0
LWPOLYLINE
  5
1a7
100
AcDbEntity
  8
Livello_1
 62
7
100
AcDbPolyline
 90
9
 70
0
 10
47.033725
 20
50.780595
 30
0.0
 10
47.705224
 20
52.769024
 30
0.0
 10
48.162594
 20
52.772779
 30
0.0
 10
48.619963
 20
52.776533
 30
0.0
 10
48.619963
 20
50.407504
 30
0.0
 10
48.619963
 20
48.038478
 30
0.0
 10
48.312134
 20
48.038478
 30
0.0
 10
48.004304
 20
48.038478
 30
0.0
 10
48.010972
 20
50.033767
 30
0.0
  0
SPLINE
  5
1a8
100
AcDbEntity
  8
Livello_1
 62
7
100
AcDbSpline
 70
8
 71
3
 72
8
 73
4
 74
0
 40
0
 40
0
 40
0
 40
0
 40
1
 40
1
 40
1
 40
1
 10
45.990407
 20
48.162967
 30
0.0
 10
45.954437
 20
48.264342
 30
0.0
 10
44.697094
 20
51.943609
 30
0.0
 10
44.677571
 20
52.004611
 30
0.0
  0
SPLINE
  5
1a9
100
AcDbEntity
  8
Livello_1
 62
7
100
AcDbSpline
 70
8
 71
3
 72
8
 73
4
 74
0
 40
0
 40
0
 40
0
 40
0
 40
1
 40
1
 40
1
 40
1
 10
44.677571
 20
52.004611
 30
0.0
 10
44.674396
 20
52.014559
 30
0.0
 10
44.674158
 20
51.126244
 30
0.0
 10
44.677042
 20
50.030586
 30
0.0
  0
LWPOLYLINE
  5
1aa
100
AcDbEntity
  8
Livello_1
 62
7
100
AcDbPolyline
 90
5
 70
0
 10
46.739180
 20
48.248329
 30
0.0
 10
46.668428
 20
48.038478
 30
0.0
 10
46.351502
 20
48.038478
 30
0.0
 10
46.034576
 20
48.038478
 30
0.0
 10
45.990407
 20
48.162967
 30
0.0
  0
LWPOLYLINE
  5
1ab
100
AcDbEntity
  8
Livello_1
 62
7
100
AcDbPolyline
 90
6
 70
0
 10
44.677042
 20
50.030586
 30
0.0
 10
44.682227
 20
48.038478
 30
0.0
 10
44.374742
 20
48.038478
 30
0.0
 10
44.067256
 20
48.038478
 30
0.0
 10
44.067256
 20
50.407501
 30
0.0
 10
44.067254
 20
50.407504
 30
0.0
  0
SPLINE
  5
1ac
100
AcDbEntity
  8
Livello_1
 62
7
100
AcDbSpline
 70
8
 71
3
 72
8
 73
4
 74
0
 40
0
 40
0
 40
0
 40
0
 40
1
 40
1
 40
1
 40
1
 10
50.009983
 20
51.340970
 30
0.0
 10
49.522502
 20
52.110751
 30
0.0
 10
49.118782
 20
52.748574
 30
0.0
 10
49.112831
 20
52.758356
 30
0.0
  0
SPLINE
  5
1ad
100
AcDbEntity
  8
Livello_1
 62
7
100
AcDbSpline
 70
8
 71
3
 72
8
 73
4
 74
0
 40
0
 40
0
 40
0
 40
0
 40
1
 40
1
 40
1
 40
1
 10
49.112831
 20
52.758356
 30
0.0
 10
49.104285
 20
52.772408
 30
0.0
 10
49.180573
 20
52.776130
 30
0.0
 10
49.476313
 20
52.776091
 30
0.0
  0
LWPOLYLINE
  5
1ae
100
AcDbEntity
  8
Livello_1
 62
7
100
AcDbPolyline
 90
3
 70
0
 10
50.896316
 20
48.989922
 30
0.0
 10
50.896316
 20
49.941366
 30
0.0
 10
50.009983
 20
51.340970
 30
0.0
  0
SPLINE
  5
1af
100
AcDbEntity
  8
Livello_1
 62
7
100
AcDbSpline
 70
8
 71
3
 72
8
 73
4
 74
0
 40
0
 40
0
 40
0
 40
0
 40
1
 40
1
 40
1
 40
1
 10
50.526410
 20
51.645238
 30
0.0
 10
50.898097
 20
51.023292
 30
0.0
 10
51.205609
 20
50.514337
 30
0.0
 10
51.209776
 20
50.514224
 30
0.0
  0
SPLINE
  5
1b0
100
AcDbEntity
  8
Livello_1
 62
7
100
AcDbSpline
 70
8
 71
3
 72
8
 73
4
 74
0
 40
0
 40
0
 40
0
 40
0
 40
1
 40
1
 40
1
 40
1
 10
51.209776
 20
50.514224
 30
0.0
 10
51.213930
 20
50.514110
 30
0.0
 10
51.521249
 20
51.022832
 30
0.0
 10
51.892682
 20
51.644711
 30
0.0
  0
LWPOLYLINE
  5
1b1
100
AcDbEntity
  8
Livello_1
 62
7
100
AcDbPolyline
 90
3
 70
0
 10
49.476313
 20
52.776091
 30
0.0
 10
49.850617
 20
52.776048
 30
0.0
 10
50.526410
 20
51.645238
 30
0.0
  0
SPLINE
  5
1b2
100
AcDbEntity
  8
Livello_1
 62
7
100
AcDbSpline
 70
8
 71
3
 72
8
 73
4
 74
0
 40
0
 40
0
 40
0
 40
0
 40
1
 40
1
 40
1
 40
1
 10
52.943001
 20
52.775776
 30
0.0
 10
53.237379
 20
52.776067
 30
0.0
 10
53.316473
 20
52.772323
 30
0.0
 10
53.310943
 20
52.758361
 30
0.0
  0
SPLINE
  5
1b3
100
AcDbEntity
  8
Livello_1
 62
7
100
AcDbSpline
 70
8
 71
3
 72
8
 73
4
 74
0
 40
0
 40
0
 40
0
 40
0
 40
1
 40
1
 40
1
 40
1
 10
53.310943
 20
52.758361
 30
0.0
 10
53.307081
 20
52.748580
 30
0.0
 10
52.906245
 20
52.113992
 30
0.0
 10
52.420221
 20
51.348166
 30
0.0
  0
LWPOLYLINE
  5
1b4
100
AcDbEntity
  8
Livello_1
 62
7
100
AcDbPolyline
 90
3
 70
0
 10
51.892682
 20
51.644711
 30
0.0
 10
52.568015
 20
52.775406
 30
0.0
 10
52.943001
 20
52.775776
 30
0.0
  0
SPLINE
  5
1b5
100
AcDbEntity
  8
Livello_1
 62
7
100
AcDbSpline
 70
8
 71
3
 72
8
 73
4
 74
0
 40
0
 40
0
 40
0
 40
0
 40
1
 40
1
 40
1
 40
1
 10
5.143128
 20
50.928214
 30
0.0
 10
4.688681
 20
51.023599
 30
0.0
 10
4.364315
 20
51.284529
 30
0.0
 10
4.301791
 20
51.605011
 30
0.0
  0
SPLINE
  5
1b6
100
AcDbEntity
  8
Livello_1
 62
7
100
AcDbSpline
 70
8
 71
3
 72
8
 73
4
 74
0
 40
0
 40
0
 40
0
 40
0
 40
1
 40
1
 40
1
 40
1
 10
4.301791
 20
51.605011
 30
0.0
 10
4.292351
 20
51.653400
 30
0.0
 10
4.287221
 20
51.715210
 30
0.0
 10
4.290390
 20
51.742361
 30
0.0
  0
LWPOLYLINE
  5
1b7
100
AcDbEntity
  8
Livello_1
 62
7
100
AcDbPolyline
 90
8
 70
0
 10
52.420221
 20
51.348166
 30
0.0
 10
51.536542
 20
49.955757
 30
0.0
 10
51.536542
 20
48.997121
 30
0.0
 10
51.536542
 20
48.038483
 30
0.0
 10
51.216430
 20
48.038483
 30
0.0
 10
50.896316
 20
48.038483
 30
0.0
 10
50.896316
 20
48.989927
 30
0.0
 10
50.896316
 20
48.989922
 30
0.0
  0
SPLINE
  5
1b8
100
AcDbEntity
  8
Livello_1
 62
7
100
AcDbSpline
 70
8
 71
3
 72
8
 73
4
 74
0
 40
0
 40
0
 40
0
 40
0
 40
1
 40
1
 40
1
 40
1
 10
3.954958
 20
51.988720
 30
0.0
 10
3.767300
 20
52.097064
 30
0.0
 10
3.608668
 20
52.187822
 30
0.0
 10
3.602442
 20
52.190403
 30
0.0
  0
SPLINE
  5
1b9
100
AcDbEntity
  8
Livello_1
 62
7
100
AcDbSpline
 70
8
 71
3
 72
8
 73
4
 74
0
 40
0
 40
0
 40
0
 40
0
 40
1
 40
1
 40
1
 40
1
 10
3.602442
 20
52.190403
 30
0.0
 10
3.596216
 20
52.192996
 30
0.0
 10
3.445252
 20
52.111712
 30
0.0
 10
3.266967
 20
52.009794
 30
0.0
  0
SPLINE
  5
1ba
100
AcDbEntity
  8
Livello_1
 62
7
100
AcDbSpline
 70
8
 71
3
 72
8
 73
4
 74
0
 40
0
 40
0
 40
0
 40
0
 40
1
 40
1
 40
1
 40
1
 10
3.266967
 20
52.009794
 30
0.0
 10
3.088682
 20
51.907879
 30
0.0
 10
2.932007
 20
51.820347
 30
0.0
 10
2.918801
 20
51.815280
 30
0.0
  0
SPLINE
  5
1bb
100
AcDbEntity
  8
Livello_1
 62
7
100
AcDbSpline
 70
8
 71
3
 72
8
 73
4
 74
0
 40
0
 40
0
 40
0
 40
0
 40
1
 40
1
 40
1
 40
1
 10
2.918801
 20
51.815280
 30
0.0
 10
2.892803
 20
51.805306
 30
0.0
 10
2.637601
 20
51.943992
 30
0.0
 10
2.637601
 20
51.968098
 30
0.0
  0
SPLINE
  5
1bc
100
AcDbEntity
  8
Livello_1
 62
7
100
AcDbSpline
 70
8
 71
3
 72
8
 73
4
 74
0
 40
0
 40
0
 40
0
 40
0
 40
1
 40
1
 40
1
 40
1
 10
2.637601
 20
51.968098
 30
0.0
 10
2.637601
 20
51.995168
 30
0.0
 10
2.813689
 20
52.237927
 30
0.0
 10
2.943492
 20
52.389805
 30
0.0
  0
SPLINE
  5
1bd
100
AcDbEntity
  8
Livello_1
 62
7
100
AcDbSpline
 70
8
 71
3
 72
8
 73
4
 74
0
 40
0
 40
0
 40
0
 40
0
 40
1
 40
1
 40
1
 40
1
 10
2.943492
 20
52.389805
 30
0.0
 10
3.379895
 20
52.900428
 30
0.0
 10
4.016055
 20
53.286956
 30
0.0
 10
4.688050
 20
53.449793
 30
0.0
  0
SPLINE
  5
1be
100
AcDbEntity
  8
Livello_1
 62
7
100
AcDbSpline
 70
8
 71
3
 72
8
 73
4
 74
0
 40
0
 40
0
 40
0
 40
0
 40
1
 40
1
 40
1
 40
1
 10
4.688050
 20
53.449793
 30
0.0
 10
4.988483
 20
53.522593
 30
0.0
 10
5.123886
 20
53.537223
 30
0.0
 10
5.497272
 20
53.537223
 30
0.0
  0
SPLINE
  5
1bf
100
AcDbEntity
  8
Livello_1
 62
7
100
AcDbSpline
 70
8
 71
3
 72
8
 73
4
 74
0
 40
0
 40
0
 40
0
 40
0
 40
1
 40
1
 40
1
 40
1
 10
5.497272
 20
53.537223
 30
0.0
 10
5.885446
 20
53.537223
 30
0.0
 10
6.017775
 20
53.521774
 30
0.0
 10
6.343791
 20
53.438399
 30
0.0
  0
SPLINE
  5
1c0
100
AcDbEntity
  8
Livello_1
 62
7
100
AcDbSpline
 70
8
 71
3
 72
8
 73
4
 74
0
 40
0
 40
0
 40
0
 40
0
 40
1
 40
1
 40
1
 40
1
 10
6.343791
 20
53.438399
 30
0.0
 10
7.133714
 20
53.236383
 30
0.0
 10
7.833893
 20
52.746396
 30
0.0
 10
8.288981
 20
52.077149
 30
0.0
  0
SPLINE
  5
1c1
100
AcDbEntity
  8
Livello_1
 62
7
100
AcDbSpline
 70
8
 71
3
 72
8
 73
4
 74
0
 40
0
 40
0
 40
0
 40
0
 40
1
 40
1
 40
1
 40
1
 10
8.288981
 20
52.077149
 30
0.0
 10
8.326360
 20
52.022179
 30
0.0
 10
8.356802
 20
51.972901
 30
0.0
 10
8.356631
 20
51.967641
 30
0.0
  0
SPLINE
  5
1c2
100
AcDbEntity
  8
Livello_1
 62
7
100
AcDbSpline
 70
8
 71
3
 72
8
 73
4
 74
0
 40
0
 40
0
 40
0
 40
0
 40
1
 40
1
 40
1
 40
1
 10
8.356631
 20
51.967641
 30
0.0
 10
8.356461
 20
51.962375
 30
0.0
 10
8.295437
 20
51.924011
 30
0.0
 10
8.221023
 20
51.882379
 30
0.0
  0
LWPOLYLINE
  5
1c3
100
AcDbEntity
  8
Livello_1
 62
7
100
AcDbPolyline
 90
3
 70
0
 10
4.290390
 20
51.742361
 30
0.0
 10
4.296153
 20
51.791732
 30
0.0
 10
3.954958
 20
51.988720
 30
0.0
  0
SPLINE
  5
1c4
100
AcDbEntity
  8
Livello_1
 62
7
100
AcDbSpline
 70
8
 71
3
 72
8
 73
4
 74
0
 40
0
 40
0
 40
0
 40
0
 40
1
 40
1
 40
1
 40
1
 10
6.827024
 20
52.533599
 30
0.0
 10
6.134739
 20
52.933402
 30
0.0
 10
5.553437
 20
53.267295
 30
0.0
 10
5.535244
 20
53.275585
 30
0.0
  0
SPLINE
  5
1c5
100
AcDbEntity
  8
Livello_1
 62
7
100
AcDbSpline
 70
8
 71
3
 72
8
 73
4
 74
0
 40
0
 40
0
 40
0
 40
0
 40
1
 40
1
 40
1
 40
1
 10
5.535244
 20
53.275585
 30
0.0
 10
5.506037
 20
53.288891
 30
0.0
 10
5.453515
 20
53.262745
 30
0.0
 10
5.086718
 20
53.052304
 30
0.0
  0
SPLINE
  5
1c6
100
AcDbEntity
  8
Livello_1
 62
7
100
AcDbSpline
 70
8
 71
3
 72
8
 73
4
 74
0
 40
0
 40
0
 40
0
 40
0
 40
1
 40
1
 40
1
 40
1
 10
5.086718
 20
53.052304
 30
0.0
 10
4.858223
 20
52.921210
 30
0.0
 10
4.676259
 20
52.809084
 30
0.0
 10
4.682353
 20
52.803136
 30
0.0
  0
SPLINE
  5
1c7
100
AcDbEntity
  8
Livello_1
 62
7
100
AcDbSpline
 70
8
 71
3
 72
8
 73
4
 74
0
 40
0
 40
0
 40
0
 40
0
 40
1
 40
1
 40
1
 40
1
 10
4.682353
 20
52.803136
 30
0.0
 10
4.688447
 20
52.797188
 30
0.0
 10
4.808976
 20
52.725639
 30
0.0
 10
4.950195
 20
52.644139
 30
0.0
  0
LWPOLYLINE
  5
1c8
100
AcDbEntity
  8
Livello_1
 62
7
100
AcDbPolyline
 90
3
 70
0
 10
8.221023
 20
51.882379
 30
0.0
 10
8.085725
 20
51.806684
 30
0.0
 10
6.827024
 20
52.533599
 30
0.0
  0
SPLINE
  5
1c9
100
AcDbEntity
  8
Livello_1
 62
7
100
AcDbSpline
 70
8
 71
3
 72
8
 73
4
 74
0
 40
0
 40
0
 40
0
 40
0
 40
1
 40
1
 40
1
 40
1
 10
5.284535
 20
52.506963
 30
0.0
 10
5.542007
 20
52.543497
 30
0.0
 10
5.880849
 20
52.498131
 30
0.0
 10
6.135071
 20
52.393089
 30
0.0
  0
SPLINE
  5
1ca
100
AcDbEntity
  8
Livello_1
 62
7
100
AcDbSpline
 70
8
 71
3
 72
8
 73
4
 74
0
 40
0
 40
0
 40
0
 40
0
 40
1
 40
1
 40
1
 40
1
 10
6.135071
 20
52.393089
 30
0.0
 10
6.360153
 20
52.300087
 30
0.0
 10
6.557066
 20
52.129092
 30
0.0
 10
6.639503
 20
51.955052
 30
0.0
  0
SPLINE
  5
1cb
100
AcDbEntity
  8
Livello_1
 62
7
100
AcDbSpline
 70
8
 71
3
 72
8
 73
4
 74
0
 40
0
 40
0
 40
0
 40
0
 40
1
 40
1
 40
1
 40
1
 10
6.639503
 20
51.955052
 30
0.0
 10
6.682418
 20
51.864448
 30
0.0
 10
6.685244
 20
51.848771
 30
0.0
 10
6.685244
 20
51.701319
 30
0.0
  0
SPLINE
  5
1cc
100
AcDbEntity
  8
Livello_1
 62
7
100
AcDbSpline
 70
8
 71
3
 72
8
 73
4
 74
0
 40
0
 40
0
 40
0
 40
0
 40
1
 40
1
 40
1
 40
1
 10
6.685244
 20
51.701319
 30
0.0
 10
6.685244
 20
51.548514
 30
0.0
 10
6.683763
 20
51.541175
 30
0.0
 10
6.632112
 20
51.436577
 30
0.0
  0
SPLINE
  5
1cd
100
AcDbEntity
  8
Livello_1
 62
7
100
AcDbSpline
 70
8
 71
3
 72
8
 73
4
 74
0
 40
0
 40
0
 40
0
 40
0
 40
1
 40
1
 40
1
 40
1
 10
6.632112
 20
51.436577
 30
0.0
 10
6.508332
 20
51.185953
 30
0.0
 10
6.190358
 20
50.985296
 30
0.0
 10
5.811964
 20
50.919028
 30
0.0
  0
SPLINE
  5
1ce
100
AcDbEntity
  8
Livello_1
 62
7
100
AcDbSpline
 70
8
 71
3
 72
8
 73
4
 74
0
 40
0
 40
0
 40
0
 40
0
 40
1
 40
1
 40
1
 40
1
 10
5.811964
 20
50.919028
 30
0.0
 10
5.637737
 20
50.888516
 30
0.0
 10
5.310871
 20
50.892993
 30
0.0
 10
5.143127
 20
50.928209
 30
0.0
  0
LWPOLYLINE
  5
1cf
100
AcDbEntity
  8
Livello_1
 62
7
100
AcDbPolyline
 90
3
 70
0
 10
4.950195
 20
52.644139
 30
0.0
 10
5.206956
 20
52.495956
 30
0.0
 10
5.284535
 20
52.506963
 30
0.0
  0
LWPOLYLINE
  5
1d0
100
AcDbEntity
  8
Livello_1
 62
7
100
AcDbPolyline
 90
1
 70
1
 10
5.143127
 20
50.928209
 30
0.0
  0
ENDSEC
  0
SECTION
  2
OBJECTS
  0
DICTIONARY
  5
C
330
0
100
AcDbDictionary
  3
ACAD_GROUP
350
D
  3
ACAD_MLINESTYLE
350
17
  0
DICTIONARY
  5
D
330
C
100
AcDbDictionary
  0
DICTIONARY
  5
1A
330
C
100
AcDbDictionary
  0
DICTIONARY
  5
17
330
C
100
AcDbDictionary
  3
STANDARD
350
18
  0
DICTIONARY
  5
19
330
C
100
AcDbDictionary
  0
ENDSEC
  0
EOF
