  0
SECTION
  2
HEADER
  9
$ACADVER
  1
AC1018
  9
$ACADMAINTVER
 70
     0
  9
$DWGCODEPAGE
  3
ANSI_932
  9
$INSBASE
 10
0.0
 20
0.0
 30
0.0
  9
$EXTMIN
 10
1.000000000000000E+20
 20
1.000000000000000E+20
 30
1.000000000000000E+20
  9
$EXTMAX
 10
-1.000000000000000E+20
 20
-1.000000000000000E+20
 30
-1.000000000000000E+20
  9
$LIMMIN
 10
0.0
 20
0.0
  9
$LIMMAX
 10
12.0
 20
9.0
  9
$ORTHOMODE
 70
     0
  9
$REGENMODE
 70
     1
  9
$FILLMODE
 70
     1
  9
$QTEXTMODE
 70
     0
  9
$MIRRTEXT
 70
     1
  9
$LTSCALE
 40
1.0
  9
$ATTMODE
 70
     1
  9
$TEXTSIZE
 40
0.2
  9
$TRACEWID
 40
0.05
  9
$TEXTSTYLE
  7
Standard
  9
$CLAYER
  8
0
  9
$CELTYPE
  6
ByLayer
  9
$CECOLOR
 62
   256
  9
$CELTSCALE
 40
1.0
  9
$DISPSILH
 70
     0
  9
$DIMSCALE
 40
1.0
  9
$DIMASZ
 40
0.18
  9
$DIMEXO
 40
0.0625
  9
$DIMDLI
 40
0.38
  9
$DIMRND
 40
0.0
  9
$DIMDLE
 40
0.0
  9
$DIMEXE
 40
0.18
  9
$DIMTP
 40
0.0
  9
$DIMTM
 40
0.0
  9
$DIMTXT
 40
0.18
  9
$DIMCEN
 40
0.09
  9
$DIMTSZ
 40
0.0
  9
$DIMTOL
 70
     0
  9
$DIMLIM
 70
     0
  9
$DIMTIH
 70
     1
  9
$DIMTOH
 70
     1
  9
$DIMSE1
 70
     0
  9
$DIMSE2
 70
     0
  9
$DIMTAD
 70
     0
  9
$DIMZIN
 70
     0
  9
$DIMBLK
  1

  9
$DIMASO
 70
     1
  9
$DIMSHO
 70
     1
  9
$DIMPOST
  1

  9
$DIMAPOST
  1

  9
$DIMALT
 70
     0
  9
$DIMALTD
 70
     2
  9
$DIMALTF
 40
25.4
  9
$DIMLFAC
 40
1.0
  9
$DIMTOFL
 70
     0
  9
$DIMTVP
 40
0.0
  9
$DIMTIX
 70
     0
  9
$DIMSOXD
 70
     0
  9
$DIMSAH
 70
     0
  9
$DIMBLK1
  1

  9
$DIMBLK2
  1

  9
$DIMSTYLE
  2
Standard
  9
$DIMCLRD
 70
     0
  9
$DIMCLRE
 70
     0
  9
$DIMCLRT
 70
     0
  9
$DIMTFAC
 40
1.0
  9
$DIMGAP
 40
0.09
  9
$DIMJUST
 70
     0
  9
$DIMSD1
 70
     0
  9
$DIMSD2
 70
     0
  9
$DIMTOLJ
 70
     1
  9
$DIMTZIN
 70
     0
  9
$DIMALTZ
 70
     0
  9
$DIMALTTZ
 70
     0
  9
$DIMUPT
 70
     0
  9
$DIMDEC
 70
     4
  9
$DIMTDEC
 70
     4
  9
$DIMALTU
 70
     2
  9
$DIMALTTD
 70
     2
  9
$DIMTXSTY
  7
Standard
  9
$DIMAUNIT
 70
     0
  9
$DIMADEC
 70
     0
  9
$DIMALTRND
 40
0.0
  9
$DIMAZIN
 70
     0
  9
$DIMDSEP
 70
    46
  9
$DIMATFIT
 70
     3
  9
$DIMFRAC
 70
     0
  9
$DIMLDRBLK
  1

  9
$DIMLUNIT
 70
     2
  9
$DIMLWD
 70
    -2
  9
$DIMLWE
 70
    -2
  9
$DIMTMOVE
 70
     0
  9
$LUNITS
 70
     2
  9
$LUPREC
 70
     4
  9
$SKETCHINC
 40
0.1
  9
$FILLETRAD
 40
0.5
  9
$AUNITS
 70
     0
  9
$AUPREC
 70
     0
  9
$MENU
  1
.
  9
$ELEVATION
 40
0.0
  9
$PELEVATION
 40
0.0
  9
$THICKNESS
 40
0.0
  9
$LIMCHECK
 70
     0
  9
$CHAMFERA
 40
0.5
  9
$CHAMFERB
 40
0.5
  9
$CHAMFERC
 40
1.0
  9
$CHAMFERD
 40
0.0
  9
$SKPOLY
 70
     0
  9
$TDCREATE
 40
2458158.653101852
  9
$TDUCREATE
 40
2458158.611435185
  9
$TDUPDATE
 40
2458158.653101863
  9
$TDUUPDATE
 40
2458158.611435197
  9
$TDINDWG
 40
0.0000000116
  9
$TDUSRTIMER
 40
0.0000000116
  9
$USRTIMER
 70
     1
  9
$ANGBASE
 50
0.0
  9
$ANGDIR
 70
     0
  9
$PDMODE
 70
     0
  9
$PDSIZE
 40
0.0
  9
$PLINEWID
 40
0.0
  9
$SPLFRAME
 70
     0
  9
$SPLINETYPE
 70
     6
  9
$SPLINESEGS
 70
     8
  9
$HANDSEED
  5
155
  9
$SURFTAB1
 70
     6
  9
$SURFTAB2
 70
     6
  9
$SURFTYPE
 70
     6
  9
$SURFU
 70
     6
  9
$SURFV
 70
     6
  9
$UCSBASE
  2

  9
$UCSNAME
  2

  9
$UCSORG
 10
0.0
 20
0.0
 30
0.0
  9
$UCSXDIR
 10
1.0
 20
0.0
 30
0.0
  9
$UCSYDIR
 10
0.0
 20
1.0
 30
0.0
  9
$UCSORTHOREF
  2

  9
$UCSORTHOVIEW
 70
     0
  9
$UCSORGTOP
 10
0.0
 20
0.0
 30
0.0
  9
$UCSORGBOTTOM
 10
0.0
 20
0.0
 30
0.0
  9
$UCSORGLEFT
 10
0.0
 20
0.0
 30
0.0
  9
$UCSORGRIGHT
 10
0.0
 20
0.0
 30
0.0
  9
$UCSORGFRONT
 10
0.0
 20
0.0
 30
0.0
  9
$UCSORGBACK
 10
0.0
 20
0.0
 30
0.0
  9
$PUCSBASE
  2

  9
$PUCSNAME
  2

  9
$PUCSORG
 10
0.0
 20
0.0
 30
0.0
  9
$PUCSXDIR
 10
1.0
 20
0.0
 30
0.0
  9
$PUCSYDIR
 10
0.0
 20
1.0
 30
0.0
  9
$PUCSORTHOREF
  2

  9
$PUCSORTHOVIEW
 70
     0
  9
$PUCSORGTOP
 10
0.0
 20
0.0
 30
0.0
  9
$PUCSORGBOTTOM
 10
0.0
 20
0.0
 30
0.0
  9
$PUCSORGLEFT
 10
0.0
 20
0.0
 30
0.0
  9
$PUCSORGRIGHT
 10
0.0
 20
0.0
 30
0.0
  9
$PUCSORGFRONT
 10
0.0
 20
0.0
 30
0.0
  9
$PUCSORGBACK
 10
0.0
 20
0.0
 30
0.0
  9
$USERI1
 70
     0
  9
$USERI2
 70
     0
  9
$USERI3
 70
     0
  9
$USERI4
 70
     0
  9
$USERI5
 70
     0
  9
$USERR1
 40
0.0
  9
$USERR2
 40
0.0
  9
$USERR3
 40
0.0
  9
$USERR4
 40
0.0
  9
$USERR5
 40
0.0
  9
$WORLDVIEW
 70
     1
  9
$SHADEDGE
 70
     3
  9
$SHADEDIF
 70
    70
  9
$TILEMODE
 70
     1
  9
$MAXACTVP
 70
    64
  9
$PINSBASE
 10
0.0
 20
0.0
 30
0.0
  9
$PLIMCHECK
 70
     0
  9
$PEXTMIN
 10
1.000000000000000E+20
 20
1.000000000000000E+20
 30
1.000000000000000E+20
  9
$PEXTMAX
 10
-1.000000000000000E+20
 20
-1.000000000000000E+20
 30
-1.000000000000000E+20
  9
$PLIMMIN
 10
0.0
 20
0.0
  9
$PLIMMAX
 10
12.0
 20
9.0
  9
$UNITMODE
 70
     0
  9
$VISRETAIN
 70
     1
  9
$PLINEGEN
 70
     0
  9
$PSLTSCALE
 70
     1
  9
$TREEDEPTH
 70
  3020
  9
$CMLSTYLE
  2
Standard
  9
$CMLJUST
 70
     0
  9
$CMLSCALE
 40
1.0
  9
$PROXYGRAPHICS
 70
     1
  9
$MEASUREMENT
 70
     0
  9
$CELWEIGHT
370
    -1
  9
$ENDCAPS
280
     0
  9
$JOINSTYLE
280
     0
  9
$LWDISPLAY
290
     1
  9
$INSUNITS
 70
     1
  9
$HYPERLINKBASE
  1

  9
$STYLESHEET
  1

  9
$XEDIT
290
     1
  9
$CEPSNTYPE
380
     0
  9
$PSTYLEMODE
290
     1
  9
$FINGERPRINTGUID
  2
{E8CDF6AC-EDB3-E315-7AA8-AE7B26D53D6A}
  9
$VERSIONGUID
  2
{FAEB1C32-E019-11D5-929B-00C0DF256EC4}
  9
$EXTNAMES
290
     1
  9
$PSVPSCALE
 40
0.0
  9
$OLESTARTUP
290
     0
  9
$SORTENTS
280
   127
  9
$INDEXCTL
280
     0
  9
$HIDETEXT
280
     1
  9
$XCLIPFRAME
290
     0
  9
$HALOGAP
280
     0
  9
$OBSCOLOR
 70
   257
  9
$OBSLTYPE
280
     0
  9
$INTERSECTIONDISPLAY
280
     0
  9
$INTERSECTIONCOLOR
 70
   257
  9
$DIMASSOC
280
     2
  9
$PROJECTNAME
  1

  0
ENDSEC
  0
SECTION
  2
CLASSES
  0
CLASS
  1
ACDBDICTIONARYWDFLT
  2
AcDbDictionaryWithDefault
  3
ObjectDBX Classes
 90
        0
 91
        3
280
     0
281
     0
  0
CLASS
  1
VISUALSTYLE
  2
AcDbVisualStyle
  3
ObjectDBX Classes
 90
     4095
 91
        3
280
     0
281
     0
  0
ENDSEC
  0
SECTION
  2
TABLES
  0
TABLE
  2
VPORT
  5
8
330
0
100
AcDbSymbolTable
 70
     1
  0
VPORT
  5
29
330
8
100
AcDbSymbolTableRecord
100
AcDbViewportTableRecord
  2
*Active
 70
     0
 10
0.0
 20
0.0
 11
1.0
 21
1.0
 12
0.0
 22
0.0
 13
0.0
 23
0.0
 14
0.5
 24
0.5
 15
0.5
 25
0.5
 16
0.0
 26
0.0
 36
1.0
 17
8.89881944221974
 27
5.926666665185
 37
0.0
 40
11.85333333037
 41
1.501488095238095
 42
50.0
 43
0.0
 44
0.0
 50
0.0
 51
0.0
 71
     0
 72
   100
 73
     1
 74
     3
 75
     0
 76
     0
 77
     0
 78
     0
281
     0
 65
     1
110
0.0
120
0.0
130
0.0
111
1.0
121
0.0
131
0.0
112
0.0
122
1.0
132
0.0
 79
     0
146
0.0
  0
ENDTAB
  0
TABLE
  2
LTYPE
  5
5
330
0
100
AcDbSymbolTable
 70
     1
  0
LTYPE
  5
14
330
5
100
AcDbSymbolTableRecord
100
AcDbLinetypeTableRecord
  2
ByBlock
 70
     0
  3

 72
    65
 73
     0
 40
0.0
  0
LTYPE
  5
15
330
5
100
AcDbSymbolTableRecord
100
AcDbLinetypeTableRecord
  2
ByLayer
 70
     0
  3

 72
    65
 73
     0
 40
0.0
  0
LTYPE
  5
16
330
5
100
AcDbSymbolTableRecord
100
AcDbLinetypeTableRecord
  2
Continuous
 70
     0
  3
Solid line
 72
    65
 73
     0
 40
0.0
  0
ENDTAB
  0
TABLE
  2
LAYER
  5
2
330
0
100
AcDbSymbolTable
 70
     2
  0
LAYER
  5
10
330
2
100
AcDbSymbolTableRecord
100
AcDbLayerTableRecord
  2
0
 70
     0
 62
     7
  6
Continuous
370
    -3
390
F
  0
LAYER
  5
3B
330
2
100
AcDbSymbolTableRecord
100
AcDbLayerTableRecord
  2
Livello 1
 70
     0
 62
     7
  6
Continuous
370
    -3
390
F
  0
ENDTAB
  0
TABLE
  2
STYLE
  5
3
330
0
100
AcDbSymbolTable
 70
     1
  0
STYLE
  5
11
330
3
100
AcDbSymbolTableRecord
100
AcDbTextStyleTableRecord
  2
Standard
 70
     0
 40
0.0
 41
1.0
 50
0.0
 71
     0
 42
0.2
  3
txt
  4

  0
ENDTAB
  0
TABLE
  2
VIEW
  5
6
330
0
100
AcDbSymbolTable
 70
     0
  0
ENDTAB
  0
TABLE
  2
UCS
  5
7
330
0
100
AcDbSymbolTable
 70
     0
  0
ENDTAB
  0
TABLE
  2
APPID
  5
9
330
0
100
AcDbSymbolTable
 70
     1
  0
APPID
  5
12
330
9
100
AcDbSymbolTableRecord
100
AcDbRegAppTableRecord
  2
ACAD
 70
     0
  0
ENDTAB
  0
TABLE
  2
DIMSTYLE
  5
A
330
0
100
AcDbSymbolTable
 70
     1
100
AcDbDimStyleTable
  0
DIMSTYLE
105
27
330
A
100
AcDbSymbolTableRecord
100
AcDbDimStyleTableRecord
  2
Standard
 70
     0
340
11
  0
ENDTAB
  0
TABLE
  2
BLOCK_RECORD
  5
1
330
0
100
AcDbSymbolTable
 70
     2
  0
BLOCK_RECORD
  5
1F
330
1
100
AcDbSymbolTableRecord
100
AcDbBlockTableRecord
  2
*Model_Space
340
22
  0
BLOCK_RECORD
  5
1B
330
1
100
AcDbSymbolTableRecord
100
AcDbBlockTableRecord
  2
*Paper_Space
340
1E
  0
BLOCK_RECORD
  5
23
330
1
100
AcDbSymbolTableRecord
100
AcDbBlockTableRecord
  2
*Paper_Space0
340
26
  0
BLOCK_RECORD
  5
3C
330
1
100
AcDbSymbolTableRecord
100
AcDbBlockTableRecord
  2
block 2
340
0
102
{BLKREFS
331
3D
102
}
  0
ENDTAB
  0
ENDSEC
  0
SECTION
  2
BLOCKS
  0
BLOCK
  5
20
330
1F
100
AcDbEntity
  8
0
100
AcDbBlockBegin
  2
*Model_Space
 70
     0
 71
     0
 10
0.0
 20
0.0
 30
0.0
  3
*Model_Space
  1

  0
ENDBLK
  5
21
330
1F
100
AcDbEntity
  8
0
100
AcDbBlockEnd
  0
BLOCK
  5
1C
330
1B
100
AcDbEntity
 67
     1
  8
0
100
AcDbBlockBegin
  2
*Paper_Space
 70
     0
 71
     0
 10
0.0
 20
0.0
 30
0.0
  3
*Paper_Space
  1

  0
ENDBLK
  5
1D
330
1B
100
AcDbEntity
 67
     1
  8
0
100
AcDbBlockEnd
  0
BLOCK
  5
24
330
23
100
AcDbEntity
  8
0
100
AcDbBlockBegin
  2
*Paper_Space0
 70
     0
 71
     0
 10
0.0
 20
0.0
 30
0.0
  3
*Paper_Space0
  1

  0
ENDBLK
  5
25
330
23
100
AcDbEntity
  8
0
100
AcDbBlockEnd
  0
BLOCK
  5
3E
330
3C
100
AcDbEntity
  8
0
100
AcDbBlockBegin
  2
block 2
 70
     0
 71
     0
 10
0.0
 20
0.0
 30
0.0
  3
block 2
  1

  0
SPLINE
  5
40
330
3C
100
AcDbEntity
  8
Livello 1
 62
     7
420
 16777215
370
     9
100
AcDbSpline
210
0.0
220
0.0
230
1.0
 70
    11
 71
     3
 72
    23
 73
    19
 74
     0
 42
0.0000000001
 43
0.0000000001
 40
0.0
 40
0.0
 40
0.0
 40
0.0
 40
1.0
 40
1.0
 40
1.0
 40
2.0
 40
2.0
 40
2.0
 40
3.0
 40
3.0
 40
3.0
 40
4.0
 40
4.0
 40
4.0
 40
5.0
 40
5.0
 40
5.0
 40
6.0
 40
6.0
 40
6.0
 40
6.0
 10
7.198802624068354
 20
9.576728106329776
 30
0.0
 10
7.239351397929745
 20
9.595951739137469
 30
0.0
 10
7.250961369715037
 20
9.623839787090567
 30
0.0
 10
7.23363253942423
 20
9.66056450496333
 30
0.0
 10
7.23363253942423
 20
9.66056450496333
 30
0.0
 10
7.114397784679733
 20
9.912366533980242
 30
0.0
 10
7.114397784679733
 20
9.912366533980242
 30
0.0
 10
7.091367321360838
 20
9.961080184141673
 30
0.0
 10
7.056003416204748
 20
9.974154321508196
 30
0.0
 10
7.008392196598596
 20
9.951623397034663
 30
0.0
 10
7.008392196598596
 20
9.951623397034663
 30
0.0
 10
6.920042722879364
 20
9.909765486888878
 30
0.0
 10
6.920042722879364
 20
9.909765486888878
 30
0.0
 10
6.920042722879364
 20
9.909765486888878
 30
0.0
 10
7.099876707209405
 20
9.52990925868523
 30
0.0
 10
7.099876707209405
 20
9.52990925868523
 30
0.0
 10
7.099876707209405
 20
9.52990925868523
 30
0.0
 10
7.198802624068354
 20
9.576728106329776
 30
0.0
 10
7.198802624068354
 20
9.576728106329776
 30
0.0
  0
SPLINE
  5
41
330
3C
100
AcDbEntity
  8
Livello 1
 62
     7
420
 16777215
370
     9
100
AcDbSpline
210
0.0
220
0.0
230
1.0
 70
    11
 71
     3
 72
    23
 73
    19
 74
     0
 42
0.0000000001
 43
0.0000000001
 40
0.0
 40
0.0
 40
0.0
 40
0.0
 40
1.0
 40
1.0
 40
1.0
 40
2.0
 40
2.0
 40
2.0
 40
3.0
 40
3.0
 40
3.0
 40
4.0
 40
4.0
 40
4.0
 40
5.0
 40
5.0
 40
5.0
 40
6.0
 40
6.0
 40
6.0
 40
6.0
 10
7.028046466341946
 20
9.90456339270615
 30
0.0
 10
7.043239337431898
 20
9.911746416792896
 30
0.0
 10
7.055159367810862
 20
9.90616536210679
 30
0.0
 10
7.063841008433692
 20
9.887854679602688
 30
0.0
 10
7.063841008433692
 20
9.887854679602688
 30
0.0
 10
7.179062226937873
 20
9.644441458092361
 30
0.0
 10
7.179062226937873
 20
9.644441458092361
 30
0.0
 10
7.18440212494001
 20
9.633175995855595
 30
0.0
 10
7.180371363222267
 20
9.624339325935928
 30
0.0
 10
7.166969941784646
 20
9.618034801197922
 30
0.0
 10
7.166969941784646
 20
9.618034801197922
 30
0.0
 10
7.128884411195209
 20
9.599982500855212
 30
0.0
 10
7.128884411195209
 20
9.599982500855212
 30
0.0
 10
7.128884411195209
 20
9.599982500855212
 30
0.0
 10
6.992630884753578
 20
9.887785777692983
 30
0.0
 10
6.992630884753578
 20
9.887785777692983
 30
0.0
 10
6.992630884753578
 20
9.887785777692983
 30
0.0
 10
7.028046466341946
 20
9.90456339270615
 30
0.0
 10
7.028046466341946
 20
9.90456339270615
 30
0.0
  0
SPLINE
  5
42
330
3C
100
AcDbEntity
  8
Livello 1
 62
     7
420
 16777215
370
     9
100
AcDbSpline
210
0.0
220
0.0
230
1.0
 70
    11
 71
     3
 72
    35
 73
    31
 74
     0
 42
0.0000000001
 43
0.0000000001
 40
0.0
 40
0.0
 40
0.0
 40
0.0
 40
1.0
 40
1.0
 40
1.0
 40
2.0
 40
2.0
 40
2.0
 40
3.0
 40
3.0
 40
3.0
 40
4.0
 40
4.0
 40
4.0
 40
5.0
 40
5.0
 40
5.0
 40
6.0
 40
6.0
 40
6.0
 40
7.0
 40
7.0
 40
7.0
 40
8.0
 40
8.0
 40
8.0
 40
9.0
 40
9.0
 40
9.0
 40
10.0
 40
10.0
 40
10.0
 40
10.0
 10
6.69645602588665
 20
9.297985430618212
 30
0.0
 10
6.69645602588665
 20
9.297985430618212
 30
0.0
 10
6.744118921925081
 20
9.327733830133344
 30
0.0
 10
6.744118921925081
 20
9.327733830133344
 30
0.0
 10
6.744118921925081
 20
9.327733830133344
 30
0.0
 10
6.662659639176349
 20
9.458371850934018
 30
0.0
 10
6.662659639176349
 20
9.458371850934018
 30
0.0
 10
6.662659639176349
 20
9.458371850934018
 30
0.0
 10
6.717298853572411
 20
9.49244384528314
 30
0.0
 10
6.717298853572411
 20
9.49244384528314
 30
0.0
 10
6.717298853572411
 20
9.49244384528314
 30
0.0
 10
6.798758136321143
 20
9.361805824482465
 30
0.0
 10
6.798758136321143
 20
9.361805824482465
 30
0.0
 10
6.798758136321143
 20
9.361805824482465
 30
0.0
 10
6.846455483314427
 20
9.39153699852017
 30
0.0
 10
6.846455483314427
 20
9.39153699852017
 30
0.0
 10
6.846455483314427
 20
9.39153699852017
 30
0.0
 10
6.662142874853561
 20
9.687074514722328
 30
0.0
 10
6.662142874853561
 20
9.687074514722328
 30
0.0
 10
6.63675252112727
 20
9.727812768835408
 30
0.0
 10
6.60497151527584
 20
9.736287703729122
 30
0.0
 10
6.566903210163829
 20
9.71255099583575
 30
0.0
 10
6.566903210163829
 20
9.71255099583575
 30
0.0
 10
6.531125893549509
 20
9.69022677709133
 30
0.0
 10
6.531125893549509
 20
9.69022677709133
 30
0.0
 10
6.493074813914926
 20
9.666472843720534
 30
0.0
 10
6.486735838222065
 20
9.634226749978595
 30
0.0
 10
6.51216064290321
 20
9.593522946820368
 30
0.0
 10
6.51216064290321
 20
9.593522946820368
 30
0.0
 10
6.69645602588665
 20
9.297985430618212
 30
0.0
 10
6.69645602588665
 20
9.297985430618212
 30
0.0
  0
SPLINE
  5
43
330
3C
100
AcDbEntity
  8
Livello 1
 62
     7
420
 16777215
370
     9
100
AcDbSpline
210
0.0
220
0.0
230
1.0
 70
    11
 71
     3
 72
    23
 73
    19
 74
     0
 42
0.0000000001
 43
0.0000000001
 40
0.0
 40
0.0
 40
0.0
 40
0.0
 40
1.0
 40
1.0
 40
1.0
 40
2.0
 40
2.0
 40
2.0
 40
3.0
 40
3.0
 40
3.0
 40
4.0
 40
4.0
 40
4.0
 40
5.0
 40
5.0
 40
5.0
 40
6.0
 40
6.0
 40
6.0
 40
6.0
 10
6.569538708210046
 20
9.654173852838191
 30
0.0
 10
6.569538708210046
 20
9.654173852838191
 30
0.0
 10
6.582440590802306
 20
9.662235376273676
 30
0.0
 10
6.582440590802306
 20
9.662235376273676
 30
0.0
 10
6.596324325607863
 20
9.67089979141908
 30
0.0
 10
6.607641464276909
 20
9.668264293372864
 30
0.0
 10
6.616323104899738
 20
9.654328882135028
 30
0.0
 10
6.616323104899738
 20
9.654328882135028
 30
0.0
 10
6.690340981400331
 20
9.535662568145598
 30
0.0
 10
6.690340981400331
 20
9.535662568145598
 30
0.0
 10
6.690340981400331
 20
9.535662568145598
 30
0.0
 10
6.635701767004268
 20
9.501590573796477
 30
0.0
 10
6.635701767004268
 20
9.501590573796477
 30
0.0
 10
6.635701767004268
 20
9.501590573796477
 30
0.0
 10
6.561683890503676
 20
9.62029133874076
 30
0.0
 10
6.561683890503676
 20
9.62029133874076
 30
0.0
 10
6.552967798925994
 20
9.634175073546317
 30
0.0
 10
6.55560329697221
 20
9.645492212215363
 30
0.0
 10
6.569538708210046
 20
9.654173852838191
 30
0.0
  0
SPLINE
  5
44
330
3C
100
AcDbEntity
  8
Livello 1
 62
     7
420
 16777215
370
     9
100
AcDbSpline
210
0.0
220
0.0
230
1.0
 70
    11
 71
     3
 72
    38
 73
    34
 74
     0
 42
0.0000000001
 43
0.0000000001
 40
0.0
 40
0.0
 40
0.0
 40
0.0
 40
1.0
 40
1.0
 40
1.0
 40
2.0
 40
2.0
 40
2.0
 40
3.0
 40
3.0
 40
3.0
 40
4.0
 40
4.0
 40
4.0
 40
5.0
 40
5.0
 40
5.0
 40
6.0
 40
6.0
 40
6.0
 40
7.0
 40
7.0
 40
7.0
 40
8.0
 40
8.0
 40
8.0
 40
9.0
 40
9.0
 40
9.0
 40
10.0
 40
10.0
 40
10.0
 40
11.0
 40
11.0
 40
11.0
 40
11.0
 10
6.946018742838148
 20
9.447760956839447
 30
0.0
 10
6.946018742838148
 20
9.447760956839447
 30
0.0
 10
6.864593911044268
 20
9.596744111099078
 30
0.0
 10
6.864593911044268
 20
9.596744111099078
 30
0.0
 10
6.864593911044268
 20
9.596744111099078
 30
0.0
 10
6.894393986991679
 20
9.613004961789457
 30
0.0
 10
6.894393986991679
 20
9.613004961789457
 30
0.0
 10
6.894393986991679
 20
9.613004961789457
 30
0.0
 10
7.008168265392055
 20
9.481746823801437
 30
0.0
 10
7.008168265392055
 20
9.481746823801437
 30
0.0
 10
7.008168265392055
 20
9.481746823801437
 30
0.0
 10
7.054935436604321
 20
9.50730943230199
 30
0.0
 10
7.054935436604321
 20
9.50730943230199
 30
0.0
 10
7.054935436604321
 20
9.50730943230199
 30
0.0
 10
6.936561955731137
 20
9.642081567684965
 30
0.0
 10
6.936561955731137
 20
9.642081567684965
 30
0.0
 10
6.951393091795137
 20
9.661287975015233
 30
0.0
 10
6.950032279078464
 20
9.686988387335196
 30
0.0
 10
6.932427841148837
 20
9.719217255599709
 30
0.0
 10
6.932427841148837
 20
9.719217255599709
 30
0.0
 10
6.882749564251534
 20
9.8100988745006
 30
0.0
 10
6.882749564251534
 20
9.8100988745006
 30
0.0
 10
6.859719100932639
 20
9.85224961776263
 30
0.0
 10
6.829350584230162
 20
9.862981090199185
 30
0.0
 10
6.791678465098955
 20
9.84237941919739
 30
0.0
 10
6.791678465098955
 20
9.84237941919739
 30
0.0
 10
6.695129664124829
 20
9.789600556363363
 30
0.0
 10
6.695129664124829
 20
9.789600556363363
 30
0.0
 10
6.695129664124829
 20
9.789600556363363
 30
0.0
 10
6.896736651921649
 20
9.420837535622221
 30
0.0
 10
6.896736651921649
 20
9.420837535622221
 30
0.0
 10
6.896736651921649
 20
9.420837535622221
 30
0.0
 10
6.946018742838148
 20
9.447760956839447
 30
0.0
 10
6.946018742838148
 20
9.447760956839447
 30
0.0
  0
SPLINE
  5
45
330
3C
100
AcDbEntity
  8
Livello 1
 62
     7
420
 16777215
370
     9
100
AcDbSpline
210
0.0
220
0.0
230
1.0
 70
    11
 71
     3
 72
    23
 73
    19
 74
     0
 42
0.0000000001
 43
0.0000000001
 40
0.0
 40
0.0
 40
0.0
 40
0.0
 40
1.0
 40
1.0
 40
1.0
 40
2.0
 40
2.0
 40
2.0
 40
3.0
 40
3.0
 40
3.0
 40
4.0
 40
4.0
 40
4.0
 40
5.0
 40
5.0
 40
5.0
 40
6.0
 40
6.0
 40
6.0
 40
6.0
 10
6.768854707509175
 20
9.771892765569179
 30
0.0
 10
6.768854707509175
 20
9.771892765569179
 30
0.0
 10
6.801204154115671
 20
9.789566105408511
 30
0.0
 10
6.801204154115671
 20
9.789566105408511
 30
0.0
 10
6.81594916279254
 20
9.79761040336657
 30
0.0
 10
6.828179251765177
 20
9.792701142300087
 30
0.0
 10
6.837928871988434
 20
9.774941675073626
 30
0.0
 10
6.837928871988434
 20
9.774941675073626
 30
0.0
 10
6.88144042796714
 20
9.695308292932076
 30
0.0
 10
6.88144042796714
 20
9.695308292932076
 30
0.0
 10
6.891155597235544
 20
9.677479923795907
 30
0.0
 10
6.888675128486164
 20
9.664578041203647
 30
0.0
 10
6.873930119809295
 20
9.656533743245587
 30
0.0
 10
6.873930119809295
 20
9.656533743245587
 30
0.0
 10
6.841580673202799
 20
9.63884317792883
 30
0.0
 10
6.841580673202799
 20
9.63884317792883
 30
0.0
 10
6.841580673202799
 20
9.63884317792883
 30
0.0
 10
6.768854707509175
 20
9.771892765569179
 30
0.0
 10
6.768854707509175
 20
9.771892765569179
 30
0.0
  0
POLYLINE
  5
46
330
3C
100
AcDbEntity
  8
Livello 1
 62
     7
420
 16777215
370
     9
100
AcDb2dPolyline
 66
     1
 10
0.0
 20
0.0
 30
0.0
  0
VERTEX
  5
47
330
46
100
AcDbEntity
  8
Livello 1
 62
     7
420
 16777215
370
     9
100
AcDbVertex
100
AcDb2dVertex
 10
7.434326576917459
 20
9.646353486086674
 30
0.0
  0
VERTEX
  5
48
330
46
100
AcDbEntity
  8
Livello 1
 62
     7
420
 16777215
370
     9
100
AcDbVertex
100
AcDb2dVertex
 10
7.384183212129648
 20
10.13963948314217
 30
0.0
  0
VERTEX
  5
49
330
46
100
AcDbEntity
  8
Livello 1
 62
     7
420
 16777215
370
     9
100
AcDbVertex
100
AcDb2dVertex
 10
7.346958955411524
 20
10.12546291522037
 30
0.0
  0
VERTEX
  5
4A
330
46
100
AcDbEntity
  8
Livello 1
 62
     7
420
 16777215
370
     9
100
AcDbVertex
100
AcDb2dVertex
 10
7.397687986431827
 20
9.632349172939135
 30
0.0
  0
VERTEX
  5
4B
330
46
100
AcDbEntity
  8
Livello 1
 62
     7
420
 16777215
370
     9
100
AcDbVertex
100
AcDb2dVertex
 10
7.434326576917459
 20
9.646353486086674
 30
0.0
  0
SEQEND
  5
4C
330
46
100
AcDbEntity
  8
Livello 1
370
     9
  0
POLYLINE
  5
4D
330
3C
100
AcDbEntity
  8
Livello 1
 62
     7
420
 16777215
370
     9
100
AcDb2dPolyline
 66
     1
 10
0.0
 20
0.0
 30
0.0
  0
VERTEX
  5
4E
330
4D
100
AcDbEntity
  8
Livello 1
 62
     7
420
 16777215
370
     9
100
AcDbVertex
100
AcDb2dVertex
 10
7.945061982605748
 20
9.838641490595894
 30
0.0
  0
VERTEX
  5
4F
330
4D
100
AcDbEntity
  8
Livello 1
 62
     7
420
 16777215
370
     9
100
AcDbVertex
100
AcDb2dVertex
 10
7.848547632586474
 20
10.24767767755961
 30
0.0
  0
VERTEX
  5
50
330
4D
100
AcDbEntity
  8
Livello 1
 62
     7
420
 16777215
370
     9
100
AcDbVertex
100
AcDb2dVertex
 10
7.793873967235559
 20
10.2348102459222
 30
0.0
  0
VERTEX
  5
51
330
4D
100
AcDbEntity
  8
Livello 1
 62
     7
420
 16777215
370
     9
100
AcDbVertex
100
AcDb2dVertex
 10
7.890371091777407
 20
9.825705157048782
 30
0.0
  0
VERTEX
  5
52
330
4D
100
AcDbEntity
  8
Livello 1
 62
     7
420
 16777215
370
     9
100
AcDbVertex
100
AcDb2dVertex
 10
7.945061982605748
 20
9.838641490595894
 30
0.0
  0
SEQEND
  5
53
330
4D
100
AcDbEntity
  8
Livello 1
370
     9
  0
SPLINE
  5
54
330
3C
100
AcDbEntity
  8
Livello 1
 62
     7
420
 16777215
370
     9
100
AcDbSpline
210
0.0
220
0.0
230
1.0
 70
    11
 71
     3
 72
    29
 73
    25
 74
     0
 42
0.0000000001
 43
0.0000000001
 40
0.0
 40
0.0
 40
0.0
 40
0.0
 40
1.0
 40
1.0
 40
1.0
 40
2.0
 40
2.0
 40
2.0
 40
3.0
 40
3.0
 40
3.0
 40
4.0
 40
4.0
 40
4.0
 40
5.0
 40
5.0
 40
5.0
 40
6.0
 40
6.0
 40
6.0
 40
7.0
 40
7.0
 40
7.0
 40
8.0
 40
8.0
 40
8.0
 40
8.0
 10
6.454696450209242
 20
9.216319442140364
 30
0.0
 10
6.482222763136388
 20
9.177510441499024
 30
0.0
 10
6.514486082355753
 20
9.171154240328738
 30
0.0
 10
6.551348604047926
 20
9.197336966016637
 30
0.0
 10
6.551348604047926
 20
9.197336966016637
 30
0.0
 10
6.594377846658697
 20
9.227843286538524
 30
0.0
 10
6.594377846658697
 20
9.227843286538524
 30
0.0
 10
6.631257593828296
 20
9.254026012226424
 30
0.0
 10
6.635977374643089
 20
9.286547713607181
 30
0.0
 10
6.60841661076109
 20
9.325373939725948
 30
0.0
 10
6.60841661076109
 20
9.325373939725948
 30
0.0
 10
6.448271347129251
 20
9.551182723306647
 30
0.0
 10
6.448271347129251
 20
9.551182723306647
 30
0.0
 10
6.420486652040712
 20
9.590336233496512
 30
0.0
 10
6.388326685685904
 20
9.596950816828192
 30
0.0
 10
6.351705320677699
 20
9.571026473301687
 30
0.0
 10
6.351705320677699
 20
9.571026473301687
 30
0.0
 10
6.307780353240763
 20
9.539882810115028
 30
0.0
 10
6.307780353240763
 20
9.539882810115028
 30
0.0
 10
6.271176213709984
 20
9.513889564678818
 30
0.0
 10
6.266732040534011
 20
9.481333412343208
 30
0.0
 10
6.294516735622551
 20
9.442179902153343
 30
0.0
 10
6.294516735622551
 20
9.442179902153343
 30
0.0
 10
6.454696450209242
 20
9.216319442140364
 30
0.0
 10
6.454696450209242
 20
9.216319442140364
 30
0.0
  0
SPLINE
  5
55
330
3C
100
AcDbEntity
  8
Livello 1
 62
     7
420
 16777215
370
     9
100
AcDbSpline
210
0.0
220
0.0
230
1.0
 70
    11
 71
     3
 72
    29
 73
    25
 74
     0
 42
0.0000000001
 43
0.0000000001
 40
0.0
 40
0.0
 40
0.0
 40
0.0
 40
1.0
 40
1.0
 40
1.0
 40
2.0
 40
2.0
 40
2.0
 40
3.0
 40
3.0
 40
3.0
 40
4.0
 40
4.0
 40
4.0
 40
5.0
 40
5.0
 40
5.0
 40
6.0
 40
6.0
 40
6.0
 40
7.0
 40
7.0
 40
7.0
 40
8.0
 40
8.0
 40
8.0
 40
8.0
 10
6.348191323282744
 20
9.50612087435958
 30
0.0
 10
6.348191323282744
 20
9.50612087435958
 30
0.0
 10
6.369705944588128
 20
9.521330970926957
 30
0.0
 10
6.369705944588128
 20
9.521330970926957
 30
0.0
 10
6.38338297366457
 20
9.531028914717936
 30
0.0
 10
6.394992945449863
 20
9.529203014110754
 30
0.0
 10
6.404449732556873
 20
9.515836043627985
 30
0.0
 10
6.404449732556873
 20
9.515836043627985
 30
0.0
 10
6.560236950399871
 20
9.296159530011028
 30
0.0
 10
6.560236950399871
 20
9.296159530011028
 30
0.0
 10
6.569693737506881
 20
9.282792559528259
 30
0.0
 10
6.568384601222487
 20
9.271837155885166
 30
0.0
 10
6.55629231606926
 20
9.263276093604318
 30
0.0
 10
6.55629231606926
 20
9.263276093604318
 30
0.0
 10
6.53291734320184
 20
9.246670733365415
 30
0.0
 10
6.53291734320184
 20
9.246670733365415
 30
0.0
 10
6.519223088647972
 20
9.236990015051862
 30
0.0
 10
6.507647567817532
 20
9.23879869018162
 30
0.0
 10
6.498156329755669
 20
9.252165660664389
 30
0.0
 10
6.498156329755669
 20
9.252165660664389
 30
0.0
 10
6.34242078834495
 20
9.471807723326492
 30
0.0
 10
6.34242078834495
 20
9.471807723326492
 30
0.0
 10
6.332929550283087
 20
9.485174693809261
 30
0.0
 10
6.3348415782774
 20
9.496629636297717
 30
0.0
 10
6.348191323282744
 20
9.50612087435958
 30
0.0
  0
SPLINE
  5
56
330
3C
100
AcDbEntity
  8
Livello 1
 62
     7
420
 16777215
370
     9
100
AcDbSpline
210
0.0
220
0.0
230
1.0
 70
    11
 71
     3
 72
   107
 73
   103
 74
     0
 42
0.0000000001
 43
0.0000000001
 40
0.0
 40
0.0
 40
0.0
 40
0.0
 40
1.0
 40
1.0
 40
1.0
 40
2.0
 40
2.0
 40
2.0
 40
3.0
 40
3.0
 40
3.0
 40
4.0
 40
4.0
 40
4.0
 40
5.0
 40
5.0
 40
5.0
 40
6.0
 40
6.0
 40
6.0
 40
7.0
 40
7.0
 40
7.0
 40
8.0
 40
8.0
 40
8.0
 40
9.0
 40
9.0
 40
9.0
 40
10.0
 40
10.0
 40
10.0
 40
11.0
 40
11.0
 40
11.0
 40
12.0
 40
12.0
 40
12.0
 40
13.0
 40
13.0
 40
13.0
 40
14.0
 40
14.0
 40
14.0
 40
15.0
 40
15.0
 40
15.0
 40
16.0
 40
16.0
 40
16.0
 40
17.0
 40
17.0
 40
17.0
 40
18.0
 40
18.0
 40
18.0
 40
19.0
 40
19.0
 40
19.0
 40
20.0
 40
20.0
 40
20.0
 40
21.0
 40
21.0
 40
21.0
 40
22.0
 40
22.0
 40
22.0
 40
23.0
 40
23.0
 40
23.0
 40
24.0
 40
24.0
 40
24.0
 40
25.0
 40
25.0
 40
25.0
 40
26.0
 40
26.0
 40
26.0
 40
27.0
 40
27.0
 40
27.0
 40
28.0
 40
28.0
 40
28.0
 40
29.0
 40
29.0
 40
29.0
 40
30.0
 40
30.0
 40
30.0
 40
31.0
 40
31.0
 40
31.0
 40
32.0
 40
32.0
 40
32.0
 40
33.0
 40
33.0
 40
33.0
 40
34.0
 40
34.0
 40
34.0
 40
34.0
 10
7.599346650660927
 20
10.01482367371157
 30
0.0
 10
7.602481687552504
 20
10.00429890700413
 30
0.0
 10
7.606116263289443
 20
9.996116805226665
 30
0.0
 10
7.610267603349168
 20
9.99026014290174
 30
0.0
 10
7.614470619841174
 20
9.984369029621963
 30
0.0
 10
7.619707164978753
 20
9.98011433669768
 30
0.0
 10
7.625942787807055
 20
9.977478838651463
 30
0.0
 10
7.632230087067637
 20
9.974877791560099
 30
0.0
 10
7.641893579903762
 20
9.972207842559031
 30
0.0
 10
7.654864364405728
 20
9.969572344512814
 30
0.0
 10
7.654864364405728
 20
9.969572344512814
 30
0.0
 10
7.714412839868271
 20
9.956050344733208
 30
0.0
 10
7.714412839868271
 20
9.956050344733208
 30
0.0
 10
7.722371010439199
 20
9.95393161100978
 30
0.0
 10
7.728227672764123
 20
9.951985132060614
 30
0.0
 10
7.732000052320472
 20
9.950245358840563
 30
0.0
 10
7.735737980921968
 20
9.948540036575364
 30
0.0
 10
7.738769664948988
 20
9.943923608625129
 30
0.0
 10
7.740940075104695
 20
9.936430525944711
 30
0.0
 10
7.740940075104695
 20
9.936430525944711
 30
0.0
 10
7.761197236557964
 20
9.867959253175371
 30
0.0
 10
7.761197236557964
 20
9.867959253175371
 30
0.0
 10
7.765882566417904
 20
9.85224961776263
 30
0.0
 10
7.761111109170833
 20
9.842258840855406
 30
0.0
 10
7.746865639339324
 20
9.838073049840828
 30
0.0
 10
7.746865639339324
 20
9.838073049840828
 30
0.0
 10
7.737339950322609
 20
9.835248071542923
 30
0.0
 10
7.737339950322609
 20
9.835248071542923
 30
0.0
 10
7.721234128929066
 20
9.830493839773279
 30
0.0
 10
7.710864391518464
 20
9.835988767072251
 30
0.0
 10
7.706213512613377
 20
9.851698402484992
 30
0.0
 10
7.706213512613377
 20
9.851698402484992
 30
0.0
 10
7.699736733101107
 20
9.873574758816329
 30
0.0
 10
7.699736733101107
 20
9.873574758816329
 30
0.0
 10
7.699736733101107
 20
9.873574758816329
 30
0.0
 10
7.645855439711799
 20
9.857641192197047
 30
0.0
 10
7.645855439711799
 20
9.857641192197047
 30
0.0
 10
7.645855439711799
 20
9.857641192197047
 30
0.0
 10
7.651849905856134
 20
9.837452932653484
 30
0.0
 10
7.651849905856134
 20
9.837452932653484
 30
0.0
 10
7.666439885236167
 20
9.788015812440149
 30
0.0
 10
7.695258108970283
 20
9.769705129936046
 30
0.0
 10
7.738270126103626
 20
9.782434757754043
 30
0.0
 10
7.738270126103626
 20
9.782434757754043
 30
0.0
 10
7.77141194467173
 20
9.792201603454727
 30
0.0
 10
7.77141194467173
 20
9.792201603454727
 30
0.0
 10
7.814820147785878
 20
9.805051809614708
 30
0.0
 10
7.829840764101567
 20
9.834128415510218
 30
0.0
 10
7.816456568141372
 20
9.879431421141252
 30
0.0
 10
7.816456568141372
 20
9.879431421141252
 30
0.0
 10
7.791031763460228
 20
9.965283200633678
 30
0.0
 10
7.791031763460228
 20
9.965283200633678
 30
0.0
 10
7.786828746968223
 20
9.979528670465186
 30
0.0
 10
7.782677406908497
 20
9.988761526365655
 30
0.0
 10
7.778577743281049
 20
9.993033444767367
 30
0.0
 10
7.77444362869875
 20
9.997322588646503
 30
0.0
 10
7.769499916677416
 20
10.00050930197036
 30
0.0
 10
7.763798283649328
 20
10.00271416308092
 30
0.0
 10
7.758044974188961
 20
10.0048673477592
 30
0.0
 10
7.748657088991655
 20
10.00746839485056
 30
0.0
 10
7.735514049715427
 20
10.01051730435501
 30
0.0
 10
7.735514049715427
 20
10.01051730435501
 30
0.0
 10
7.676327309278834
 20
10.02295409905676
 30
0.0
 10
7.676327309278834
 20
10.02295409905676
 30
0.0
 10
7.668351913230481
 20
10.02502115634791
 30
0.0
 10
7.662495250905557
 20
10.0269848607745
 30
0.0
 10
7.658740096826634
 20
10.0286901830397
 30
0.0
 10
7.654950491792859
 20
10.03042995625975
 30
0.0
 10
7.651970484198118
 20
10.03504638420999
 30
0.0
 10
7.649765623087558
 20
10.04252224141298
 30
0.0
 10
7.649765623087558
 20
10.04252224141298
 30
0.0
 10
7.629973549524798
 20
10.1093398683494
 30
0.0
 10
7.629973549524798
 20
10.1093398683494
 30
0.0
 10
7.625236543232579
 20
10.12541123878809
 30
0.0
 10
7.630541990279864
 20
10.13571207428899
 30
0.0
 10
7.645889890666652
 20
10.14027682580694
 30
0.0
 10
7.645889890666652
 20
10.14027682580694
 30
0.0
 10
7.654278698173235
 20
10.14275729455632
 30
0.0
 10
7.654278698173235
 20
10.14275729455632
 30
0.0
 10
7.670005559063401
 20
10.14742539893884
 30
0.0
 10
7.680271943609445
 20
10.14167208947847
 30
0.0
 10
7.685008949901664
 20
10.12560071903978
 30
0.0
 10
7.685008949901664
 20
10.12560071903978
 30
0.0
 10
7.695482040176824
 20
10.09021958840626
 30
0.0
 10
7.695482040176824
 20
10.09021958840626
 30
0.0
 10
7.695482040176824
 20
10.09021958840626
 30
0.0
 10
7.749380559043557
 20
10.10617038050297
 30
0.0
 10
7.749380559043557
 20
10.10617038050297
 30
0.0
 10
7.749380559043557
 20
10.10617038050297
 30
0.0
 10
7.737753361780839
 20
10.14547891998967
 30
0.0
 10
7.737753361780839
 20
10.14547891998967
 30
0.0
 10
7.724128009136676
 20
10.19150539567261
 30
0.0
 10
7.695809324247922
 20
10.20814520686637
 30
0.0
 10
7.652780081637152
 20
10.19539835357094
 30
0.0
 10
7.652780081637152
 20
10.19539835357094
 30
0.0
 10
7.619052596836556
 20
10.18547647857342
 30
0.0
 10
7.619052596836556
 20
10.18547647857342
 30
0.0
 10
7.576040579703212
 20
10.172729625278
 30
0.0
 10
7.561330021981195
 20
10.14336018626624
 30
0.0
 10
7.574955374625358
 20
10.09731648510588
 30
0.0
 10
7.574955374625358
 20
10.09731648510588
 30
0.0
 10
7.599346650660927
 20
10.01482367371157
 30
0.0
 10
7.599346650660927
 20
10.01482367371157
 30
0.0
  0
SPLINE
  5
57
330
3C
100
AcDbEntity
  8
Livello 1
 62
     7
420
 16777215
370
     9
100
AcDbSpline
210
0.0
220
0.0
230
1.0
 70
    11
 71
     3
 72
   200
 73
   196
 74
     0
 42
0.0000000001
 43
0.0000000001
 40
0.0
 40
0.0
 40
0.0
 40
0.0
 40
1.0
 40
1.0
 40
1.0
 40
2.0
 40
2.0
 40
2.0
 40
3.0
 40
3.0
 40
3.0
 40
4.0
 40
4.0
 40
4.0
 40
5.0
 40
5.0
 40
5.0
 40
6.0
 40
6.0
 40
6.0
 40
7.0
 40
7.0
 40
7.0
 40
8.0
 40
8.0
 40
8.0
 40
9.0
 40
9.0
 40
9.0
 40
10.0
 40
10.0
 40
10.0
 40
11.0
 40
11.0
 40
11.0
 40
12.0
 40
12.0
 40
12.0
 40
13.0
 40
13.0
 40
13.0
 40
14.0
 40
14.0
 40
14.0
 40
15.0
 40
15.0
 40
15.0
 40
16.0
 40
16.0
 40
16.0
 40
17.0
 40
17.0
 40
17.0
 40
18.0
 40
18.0
 40
18.0
 40
19.0
 40
19.0
 40
19.0
 40
20.0
 40
20.0
 40
20.0
 40
21.0
 40
21.0
 40
21.0
 40
22.0
 40
22.0
 40
22.0
 40
23.0
 40
23.0
 40
23.0
 40
24.0
 40
24.0
 40
24.0
 40
25.0
 40
25.0
 40
25.0
 40
26.0
 40
26.0
 40
26.0
 40
27.0
 40
27.0
 40
27.0
 40
28.0
 40
28.0
 40
28.0
 40
29.0
 40
29.0
 40
29.0
 40
30.0
 40
30.0
 40
30.0
 40
31.0
 40
31.0
 40
31.0
 40
32.0
 40
32.0
 40
32.0
 40
33.0
 40
33.0
 40
33.0
 40
34.0
 40
34.0
 40
34.0
 40
35.0
 40
35.0
 40
35.0
 40
36.0
 40
36.0
 40
36.0
 40
37.0
 40
37.0
 40
37.0
 40
38.0
 40
38.0
 40
38.0
 40
39.0
 40
39.0
 40
39.0
 40
40.0
 40
40.0
 40
40.0
 40
41.0
 40
41.0
 40
41.0
 40
42.0
 40
42.0
 40
42.0
 40
43.0
 40
43.0
 40
43.0
 40
44.0
 40
44.0
 40
44.0
 40
45.0
 40
45.0
 40
45.0
 40
46.0
 40
46.0
 40
46.0
 40
47.0
 40
47.0
 40
47.0
 40
48.0
 40
48.0
 40
48.0
 40
49.0
 40
49.0
 40
49.0
 40
50.0
 40
50.0
 40
50.0
 40
51.0
 40
51.0
 40
51.0
 40
52.0
 40
52.0
 40
52.0
 40
53.0
 40
53.0
 40
53.0
 40
54.0
 40
54.0
 40
54.0
 40
55.0
 40
55.0
 40
55.0
 40
56.0
 40
56.0
 40
56.0
 40
57.0
 40
57.0
 40
57.0
 40
58.0
 40
58.0
 40
58.0
 40
59.0
 40
59.0
 40
59.0
 40
60.0
 40
60.0
 40
60.0
 40
61.0
 40
61.0
 40
61.0
 40
62.0
 40
62.0
 40
62.0
 40
63.0
 40
63.0
 40
63.0
 40
64.0
 40
64.0
 40
64.0
 40
65.0
 40
65.0
 40
65.0
 40
65.0
 10
5.594335529200374
 20
6.570675589720178
 30
0.0
 10
5.633747421551632
 20
6.613446450169555
 30
0.0
 10
5.681324190202933
 20
6.652806666088534
 30
0.0
 10
5.735773924347306
 20
6.687671032399263
 30
0.0
 10
5.740614283504082
 20
6.690771618335988
 30
0.0
 10
5.745661348389973
 20
6.693854978795286
 30
0.0
 10
5.750673962321011
 20
6.696903888299732
 30
0.0
 10
5.75334391132208
 20
6.698540308655225
 30
0.0
 10
5.756220566052264
 20
6.70003892519131
 30
0.0
 10
5.758907740530759
 20
6.701658120069377
 30
0.0
 10
5.75651339916851
 20
6.906710203351447
 30
0.0
 10
5.803935138522974
 20
7.148590357370838
 30
0.0
 10
5.929026555592396
 20
7.428469914592535
 30
0.0
 10
5.401031221523006
 20
6.663365883750824
 30
0.0
 10
4.646762015982406
 20
4.993252494411409
 30
0.0
 10
6.941867402778422
 20
4.066556259834055
 30
0.0
 10
6.906555174054611
 20
4.278739690770593
 30
0.0
 10
6.890587156480477
 20
4.416646863045144
 30
0.0
 10
6.883300779529175
 20
4.498123371271302
 30
0.0
 10
6.883300779529175
 20
4.498123371271302
 30
0.0
 10
6.750871309076171
 20
4.570745984100369
 30
0.0
 10
6.750871309076171
 20
4.570745984100369
 30
0.0
 10
6.750871309076171
 20
4.570745984100369
 30
0.0
 10
6.742620305388997
 20
4.348399521482344
 30
0.0
 10
6.742620305388997
 20
4.348399521482344
 30
0.0
 10
6.742620305388997
 20
4.348399521482344
 30
0.0
 10
6.684105358572029
 20
4.391118705499442
 30
0.0
 10
6.684105358572029
 20
4.391118705499442
 30
0.0
 10
6.683192408268438
 20
4.391738822686787
 30
0.0
 10
6.681917722938895
 20
4.392703449422657
 30
0.0
 10
6.680643037609353
 20
4.393771429023085
 30
0.0
 10
6.680643037609353
 20
4.393771429023085
 30
0.0
 10
6.644176701897983
 20
4.421986761047281
 30
0.0
 10
6.644176701897983
 20
4.421986761047281
 30
0.0
 10
6.638561196257026
 20
4.426293130403843
 30
0.0
 10
6.632566730112691
 20
4.43108181312834
 30
0.0
 10
6.62655503849093
 20
4.435973848717395
 30
0.0
 10
6.62655503849093
 20
4.435973848717395
 30
0.0
 10
6.565111760511499
 20
4.487305771447618
 30
0.0
 10
6.565111760511499
 20
4.487305771447618
 30
0.0
 10
6.550676810428302
 20
4.49974256614937
 30
0.0
 10
6.537120359693844
 20
4.511628145573481
 30
0.0
 10
6.523426105139976
 20
4.523996038365529
 30
0.0
 10
6.523426105139976
 20
4.523996038365529
 30
0.0
 10
6.498879799807571
 20
4.5463547080648
 30
0.0
 10
6.498879799807571
 20
4.5463547080648
 30
0.0
 10
6.493040362960072
 20
4.551591253202379
 30
0.0
 10
6.486236299376705
 20
4.557895777940387
 30
0.0
 10
6.479328882928779
 20
4.564372557452656
 30
0.0
 10
6.464566648774483
 20
4.578221841303361
 30
0.0
 10
6.450545110149516
 20
4.591554360831278
 30
0.0
 10
6.436540797001975
 20
4.605231389907719
 30
0.0
 10
6.436540797001975
 20
4.605231389907719
 30
0.0
 10
6.434370386846268
 20
4.607298447198869
 30
0.0
 10
6.434370386846268
 20
4.607298447198869
 30
0.0
 10
6.434370386846268
 20
4.607298447198869
 30
0.0
 10
6.41268351076662
 20
4.628761392071976
 30
0.0
 10
6.41268351076662
 20
4.628761392071976
 30
0.0
 10
6.404673663763415
 20
4.636581758823493
 30
0.0
 10
6.397955727567178
 20
4.643471949793993
 30
0.0
 10
6.391168889461235
 20
4.650362140764493
 30
0.0
 10
6.391168889461235
 20
4.650362140764493
 30
0.0
 10
6.388498940460167
 20
4.653118217152692
 30
0.0
 10
6.388498940460167
 20
4.653118217152692
 30
0.0
 10
6.366450329354567
 20
4.675511337806816
 30
0.0
 10
6.343712699151919
 20
4.699179143790483
 30
0.0
 10
6.321043970858975
 20
4.723880478419724
 30
0.0
 10
6.313034123855769
 20
4.732458766177996
 30
0.0
 10
6.305489364743072
 20
4.740692544387743
 30
0.0
 10
6.297996282062654
 20
4.748995224507195
 30
0.0
 10
6.26678371696629
 20
4.783549532224251
 30
0.0
 10
6.236053465237861
 20
4.819137368586882
 30
0.0
 10
6.206132810948466
 20
4.855345322136857
 30
0.0
 10
6.175781519723415
 20
4.892001138099916
 30
0.0
 10
6.145516355885495
 20
4.930517305625009
 30
0.0
 10
6.115836858280068
 20
4.970135903705382
 30
0.0
 10
6.115836858280068
 20
4.970135903705382
 30
0.0
 10
6.113890379330902
 20
4.97285752913873
 30
0.0
 10
6.113890379330902
 20
4.97285752913873
 30
0.0
 10
6.107155217657239
 20
4.98181477740038
 30
0.0
 10
6.100523408848132
 20
4.990875378526586
 30
0.0
 10
6.093839923606748
 20
5.000039332517351
 30
0.0
 10
6.072687037327314
 20
5.029047036503155
 30
0.0
 10
6.051482474615601
 20
5.059398327728205
 30
0.0
 10
6.030605195974987
 20
5.090507539960011
 30
0.0
 10
6.025661483953654
 20
5.093263616348212
 30
0.0
 10
6.019908174493287
 20
5.096639809923756
 30
0.0
 10
6.013844806439247
 20
5.100326062092973
 30
0.0
 10
6.013793130006968
 20
5.100257160183268
 30
0.0
 10
6.013724228097263
 20
5.100222709228416
 30
0.0
 10
6.013638100710132
 20
5.100188258273564
 30
0.0
 10
5.99307088066319
 20
5.08468532858994
 30
0.0
 10
5.972830944687347
 20
5.071111652378055
 30
0.0
 10
5.953658988311932
 20
5.059915092050993
 30
0.0
 10
5.931024710973841
 20
5.046892631116749
 30
0.0
 10
5.908838296048832
 20
5.037074108983787
 30
0.0
 10
5.887633733337119
 20
5.030700682336074
 30
0.0
 10
5.83035902089484
 20
5.013371852045267
 30
0.0
 10
5.769243026986508
 20
5.016024575568911
 30
0.0
 10
5.710418021575867
 20
5.052749293441673
 30
0.0
 10
5.681961532867704
 20
5.070457084235858
 30
0.0
 10
5.655951061954068
 20
5.094917262181132
 30
0.0
 10
5.633144529841713
 20
5.12537190627074
 30
0.0
 10
5.611767712355738
 20
5.153931747843461
 30
0.0
 10
5.594146048948685
 20
5.187590330734352
 30
0.0
 10
5.580847980375621
 20
5.225451930117248
 30
0.0
 10
5.566998696524917
 20
5.264691567694244
 30
0.0
 10
5.559970701735007
 20
5.308272025582654
 30
0.0
 10
5.559970701735007
 20
5.355021971317494
 30
0.0
 10
5.559970701735007
 20
5.399739310716037
 30
0.0
 10
5.572011310455955
 20
5.439289006886705
 30
0.0
 10
5.595765243826753
 20
5.472603080229071
 30
0.0
 10
5.617486570861253
 20
5.502954371454122
 30
0.0
 10
5.648199597112256
 20
5.527104490805724
 30
0.0
 10
5.687111950618152
 20
5.544364419186826
 30
0.0
 10
5.713277450828625
 20
5.555939940017264
 30
0.0
 10
5.743577065621397
 20
5.564862737324062
 30
0.0
 10
5.7794749605777
 20
5.571477320655742
 30
0.0
 10
5.778406980977273
 20
5.574302298953646
 30
0.0
 10
5.777339001376846
 20
5.577196179161256
 30
0.0
 10
5.776271021776418
 20
5.580124510323718
 30
0.0
 10
5.768433429547475
 20
5.601208494693448
 30
0.0
 10
5.761853297170648
 20
5.619915363178354
 30
0.0
 10
5.755600448864919
 20
5.638622231663261
 30
0.0
 10
5.755600448864919
 20
5.638622231663261
 30
0.0
 10
5.754532469264491
 20
5.641860621419395
 30
0.0
 10
5.754532469264491
 20
5.641860621419395
 30
0.0
 10
5.751862520263423
 20
5.649818791990323
 30
0.0
 10
5.748968640055813
 20
5.658638236432562
 30
0.0
 10
5.746212563667613
 20
5.667388778965097
 30
0.0
 10
5.739529078426228
 20
5.688472763334826
 30
0.0
 10
5.733844670875566
 20
5.707317435639142
 30
0.0
 10
5.728573674783134
 20
5.726196558898311
 30
0.0
 10
5.728573674783134
 20
5.726196558898311
 30
0.0
 10
5.727385116840723
 20
5.730158418706349
 30
0.0
 10
5.727385116840723
 20
5.730158418706349
 30
0.0
 10
5.724956324523622
 20
5.738805608374326
 30
0.0
 10
5.722596434116226
 20
5.747556150906861
 30
0.0
 10
5.720270994663682
 20
5.756341144394248
 30
0.0
 10
5.720270994663682
 20
5.756341144394248
 30
0.0
 10
5.712347275047607
 20
5.787381454716349
 30
0.0
 10
5.712347275047607
 20
5.787381454716349
 30
0.0
 10
5.70990125725308
 20
5.797613388307541
 30
0.0
 10
5.706662867496945
 20
5.81166937788736
 30
0.0
 10
5.704647486638073
 20
5.820523273284453
 30
0.0
 10
5.704647486638073
 20
5.820523273284453
 30
0.0
 10
5.698773598835722
 20
5.847601723798515
 30
0.0
 10
5.698773598835722
 20
5.847601723798515
 30
0.0
 10
5.696568737725163
 20
5.858247068847938
 30
0.0
 10
5.694691160685702
 20
5.867858885251785
 30
0.0
 10
5.692865260078519
 20
5.877574054520189
 30
0.0
 10
5.692865260078519
 20
5.877574054520189
 30
0.0
 10
5.692055662639485
 20
5.881811521967046
 30
0.0
 10
5.692055662639485
 20
5.881811521967046
 30
0.0
 10
5.690557046103402
 20
5.889941947312236
 30
0.0
 10
5.689110105999597
 20
5.898124049089705
 30
0.0
 10
5.687732067805497
 20
5.906340601822025
 30
0.0
 10
5.687732067805497
 20
5.906340601822025
 30
0.0
 10
5.686767441069628
 20
5.912007783895262
 30
0.0
 10
5.686767441069628
 20
5.912007783895262
 30
0.0
 10
5.683597953223197
 20
5.931041936451267
 30
0.0
 10
5.680772974925293
 20
5.950110539962124
 30
0.0
 10
5.678223604266208
 20
5.969248045382687
 30
0.0
 10
5.678223604266208
 20
5.969248045382687
 30
0.0
 10
5.677551810646584
 20
5.974984129365629
 30
0.0
 10
5.677551810646584
 20
5.974984129365629
 30
0.0
 10
5.676346027226747
 20
5.984595945769476
 30
0.0
 10
5.675415851445729
 20
5.991882322720779
 30
0.0
 10
5.674623479484121
 20
5.999203150626935
 30
0.0
 10
5.674623479484121
 20
5.999203150626935
 30
0.0
 10
5.674055038729056
 20
6.004112411693415
 30
0.0
 10
5.674055038729056
 20
6.004112411693415
 30
0.0
 10
5.673521048928841
 20
6.008987221805045
 30
0.0
 10
5.673021510083481
 20
6.013775904529542
 30
0.0
 10
5.672556422192971
 20
6.018547361776613
 30
0.0
 10
5.672298040031578
 20
6.018547361776613
 30
0.0
 10
5.672039657870184
 20
6.018547361776613
 30
0.0
 10
5.67178127570879
 20
6.018547361776613
 30
0.0
 10
5.638243271159883
 20
6.018547361776613
 30
0.0
 10
5.60606607932765
 20
6.026092120889309
 30
0.0
 10
5.57869479569734
 20
6.040372041675671
 30
0.0
 10
5.551151257292767
 20
6.054806991758867
 30
0.0
 10
5.527914088244757
 20
6.075167506076694
 30
0.0
 10
5.509551729308376
 20
6.10090236935151
 30
0.0
 10
5.493790417463358
 20
6.122847627592551
 30
0.0
 10
5.481784259697262
 20
6.148806422073909
 30
0.0
 10
5.473843314603761
 20
6.178003606311401
 30
0.0
 10
5.466970349110688
 20
6.203548989334529
 30
0.0
 10
5.463508028148011
 20
6.231385360855348
 30
0.0
 10
5.463508028148011
 20
6.260772025344528
 30
0.0
 10
5.463508028148011
 20
6.31739216964461
 30
0.0
 10
5.475462509481829
 20
6.373340520325067
 30
0.0
 10
5.499026962600937
 20
6.427084009894965
 30
0.0
 10
5.521402857777635
 20
6.477881942824974
 30
0.0
 10
5.553459471267884
 20
6.526199407005603
 30
0.0
 10
5.594335529200374
 20
6.570675589720178
 30
0.0
  0
SPLINE
  5
58
330
3C
100
AcDbEntity
  8
Livello 1
 62
     7
420
 16777215
370
     9
100
AcDbSpline
210
0.0
220
0.0
230
1.0
 70
    11
 71
     3
 72
    14
 73
    10
 74
     0
 42
0.0000000001
 43
0.0000000001
 40
0.0
 40
0.0
 40
0.0
 40
0.0
 40
1.0
 40
1.0
 40
1.0
 40
2.0
 40
2.0
 40
2.0
 40
3.0
 40
3.0
 40
3.0
 40
3.0
 10
7.425214299358974
 20
4.285974391289617
 30
0.0
 10
7.429072806302454
 20
4.208115233322971
 30
0.0
 10
7.446935626393474
 20
4.147619356601984
 30
0.0
 10
7.473807371178423
 20
4.100834959912291
 30
0.0
 10
7.503590221648407
 20
4.145931259814211
 30
0.0
 10
7.53926418539817
 20
4.179486489840545
 30
0.0
 10
7.582086722279825
 20
4.203154295824211
 30
0.0
 10
7.528343232709927
 20
4.231920843126047
 30
0.0
 10
7.475271536759654
 20
4.260170626105096
 30
0.0
 10
7.425214299358974
 20
4.285974391289617
 30
0.0
  0
SPLINE
  5
59
330
3C
100
AcDbEntity
  8
Livello 1
 62
     7
420
 16777215
370
     9
100
AcDbSpline
210
0.0
220
0.0
230
1.0
 70
    11
 71
     3
 72
    59
 73
    55
 74
     0
 42
0.0000000001
 43
0.0000000001
 40
0.0
 40
0.0
 40
0.0
 40
0.0
 40
1.0
 40
1.0
 40
1.0
 40
2.0
 40
2.0
 40
2.0
 40
3.0
 40
3.0
 40
3.0
 40
4.0
 40
4.0
 40
4.0
 40
5.0
 40
5.0
 40
5.0
 40
6.0
 40
6.0
 40
6.0
 40
7.0
 40
7.0
 40
7.0
 40
8.0
 40
8.0
 40
8.0
 40
9.0
 40
9.0
 40
9.0
 40
10.0
 40
10.0
 40
10.0
 40
11.0
 40
11.0
 40
11.0
 40
12.0
 40
12.0
 40
12.0
 40
13.0
 40
13.0
 40
13.0
 40
14.0
 40
14.0
 40
14.0
 40
15.0
 40
15.0
 40
15.0
 40
16.0
 40
16.0
 40
16.0
 40
17.0
 40
17.0
 40
17.0
 40
18.0
 40
18.0
 40
18.0
 40
18.0
 10
8.355734589924955
 20
3.938639864466729
 30
0.0
 10
8.428374428231448
 20
3.950766600574808
 30
0.0
 10
8.516620549086122
 20
3.953315971233893
 30
0.0
 10
8.577874346813864
 20
3.953315971233893
 30
0.0
 10
8.596047225498557
 20
3.953315971233893
 30
0.0
 10
8.61261813478261
 20
3.953109265504778
 30
0.0
 10
8.626777477226986
 20
3.952833657865958
 30
0.0
 10
8.558254528025365
 20
4.007610676081431
 30
0.0
 10
8.491523028476077
 20
4.060768499418836
 30
0.0
 10
8.42666910596625
 20
4.112307127878173
 30
0.0
 10
8.42666910596625
 20
4.112307127878173
 30
0.0
 10
8.20819837576913
 20
4.285560979831387
 30
0.0
 10
8.20819837576913
 20
4.285560979831387
 30
0.0
 10
8.196088865138478
 20
4.295000541460972
 30
0.0
 10
8.183876001643267
 20
4.304715710729377
 30
0.0
 10
8.171749265535187
 20
4.314396429042929
 30
0.0
 10
8.171749265535187
 20
4.314396429042929
 30
0.0
 10
8.16649549492018
 20
4.318461641715523
 30
0.0
 10
8.16649549492018
 20
4.318461641715523
 30
0.0
 10
8.05334133370715
 20
4.407861869557756
 30
0.0
 10
7.946836206780652
 20
4.491439886029918
 30
0.0
 10
7.847910289921702
 20
4.568747828718924
 30
0.0
 10
7.847910289921702
 20
4.568747828718924
 30
0.0
 10
7.332351750554064
 20
4.968516708827315
 30
0.0
 10
7.332351750554064
 20
4.968516708827315
 30
0.0
 10
7.298917098869715
 20
4.957526854229368
 30
0.0
 10
7.266223142714693
 20
4.951945799543263
 30
0.0
 10
7.235062254050609
 20
4.951945799543263
 30
0.0
 10
7.186727564392553
 20
4.951945799543263
 30
0.0
 10
7.145885957414917
 20
4.959559460565665
 30
0.0
 10
7.110125866278024
 20
4.975234645023552
 30
0.0
 10
7.069921601965158
 20
4.992873533908031
 30
0.0
 10
7.037348224152121
 20
5.019676376783275
 30
0.0
 10
7.013284232187651
 20
5.054988605507086
 30
0.0
 10
6.999986163614587
 20
5.07435004213419
 30
0.0
 10
6.989254691178033
 20
5.096570908014051
 30
0.0
 10
6.98127929512968
 20
5.12123779168844
 30
0.0
 10
6.969962156460634
 20
5.108249781709048
 30
0.0
 10
6.957973224171965
 20
5.095985241781559
 30
0.0
 10
6.945415851128229
 20
5.084444171905972
 30
0.0
 10
6.89461791819822
 20
5.038142088584214
 30
0.0
 10
6.831555445340721
 20
5.002140840763353
 30
0.0
 10
6.757916529343507
 20
4.97726725135985
 30
0.0
 10
6.730269638074376
 20
4.967862140685117
 30
0.0
 10
6.700211179965572
 20
4.960282930617568
 30
0.0
 10
6.668705781752962
 20
4.954564072112053
 30
0.0
 10
6.676939559962709
 20
4.927003308230054
 30
0.0
 10
6.685380043901572
 20
4.898719074296153
 30
0.0
 10
6.694096135479254
 20
4.869332409806972
 30
0.0
 10
6.694096135479254
 20
4.869332409806972
 30
0.0
 10
7.338587373382366
 20
4.433458929013162
 30
0.0
 10
8.33380655716134
 20
3.934988063252364
 30
0.0
 10
8.33380655716134
 20
3.934988063252364
 30
0.0
 10
8.355734589924955
 20
3.938639864466729
 30
0.0
 10
8.355734589924955
 20
3.938639864466729
 30
0.0
  0
SPLINE
  5
5A
330
3C
100
AcDbEntity
  8
Livello 1
 62
     7
420
 16777215
370
     9
100
AcDbSpline
210
0.0
220
0.0
230
1.0
 70
    11
 71
     3
 72
    14
 73
    10
 74
     0
 42
0.0000000001
 43
0.0000000001
 40
0.0
 40
0.0
 40
0.0
 40
0.0
 40
1.0
 40
1.0
 40
1.0
 40
2.0
 40
2.0
 40
2.0
 40
3.0
 40
3.0
 40
3.0
 40
3.0
 10
7.938567977616052
 20
4.01394965177429
 30
0.0
 10
7.835163436626278
 20
4.066556259834055
 30
0.0
 10
7.715463593991273
 20
4.131703015460129
 30
0.0
 10
7.598812660860713
 20
4.194265949472267
 30
0.0
 10
7.546550562349473
 20
4.1678420671004
 30
0.0
 10
7.510463187141481
 20
4.12922254671075
 30
0.0
 10
7.482936874214334
 20
4.085710990732045
 30
0.0
 10
7.600914169106716
 20
3.905911457356855
 30
0.0
 10
7.862999808147097
 20
3.954487303698878
 30
0.0
 10
7.938567977616052
 20
4.01394965177429
 30
0.0
  0
POLYLINE
  5
5B
330
3C
100
AcDbEntity
  8
Livello 1
 62
     7
420
 16777215
370
     9
100
AcDb2dPolyline
 66
     1
 10
0.0
 20
0.0
 30
0.0
  0
VERTEX
  5
5C
330
5B
100
AcDbEntity
  8
Livello 1
 62
     7
420
 16777215
370
     9
100
AcDbVertex
100
AcDb2dVertex
 10
5.789706894168893
 20
8.483943818408527
 30
0.0
  0
VERTEX
  5
5D
330
5B
100
AcDbEntity
  8
Livello 1
 62
     7
420
 16777215
370
     9
100
AcDbVertex
100
AcDb2dVertex
 10
5.578574217355356
 20
8.660401609163024
 30
0.0
  0
VERTEX
  5
5E
330
5B
100
AcDbEntity
  8
Livello 1
 62
     7
420
 16777215
370
     9
100
AcDbVertex
100
AcDb2dVertex
 10
5.764109834713486
 20
8.583886038435626
 30
0.0
  0
VERTEX
  5
5F
330
5B
100
AcDbEntity
  8
Livello 1
 62
     7
420
 16777215
370
     9
100
AcDbVertex
100
AcDb2dVertex
 10
5.828360865513395
 20
8.530176999820581
 30
0.0
  0
VERTEX
  5
60
330
5B
100
AcDbEntity
  8
Livello 1
 62
     7
420
 16777215
370
     9
100
AcDbVertex
100
AcDb2dVertex
 10
5.864396564289109
 20
8.573309595295909
 30
0.0
  0
VERTEX
  5
61
330
5B
100
AcDbEntity
  8
Livello 1
 62
     7
420
 16777215
370
     9
100
AcDbVertex
100
AcDb2dVertex
 10
5.541918401392298
 20
8.842871091539282
 30
0.0
  0
VERTEX
  5
62
330
5B
100
AcDbEntity
  8
Livello 1
 62
     7
420
 16777215
370
     9
100
AcDbVertex
100
AcDb2dVertex
 10
5.505899928094011
 20
8.799738496063954
 30
0.0
  0
VERTEX
  5
63
330
5B
100
AcDbEntity
  8
Livello 1
 62
     7
420
 16777215
370
     9
100
AcDbVertex
100
AcDb2dVertex
 10
5.661738822369287
 20
8.669479435766657
 30
0.0
  0
VERTEX
  5
64
330
5B
100
AcDbEntity
  8
Livello 1
 62
     7
420
 16777215
370
     9
100
AcDbVertex
100
AcDb2dVertex
 10
5.467228731272082
 20
8.753505314651902
 30
0.0
  0
VERTEX
  5
65
330
5B
100
AcDbEntity
  8
Livello 1
 62
     7
420
 16777215
370
     9
100
AcDbVertex
100
AcDb2dVertex
 10
5.431210257973794
 20
8.710372719176572
 30
0.0
  0
VERTEX
  5
66
330
5B
100
AcDbEntity
  8
Livello 1
 62
     7
420
 16777215
370
     9
100
AcDbVertex
100
AcDb2dVertex
 10
5.753636744438326
 20
8.440811222933199
 30
0.0
  0
VERTEX
  5
67
330
5B
100
AcDbEntity
  8
Livello 1
 62
     7
420
 16777215
370
     9
100
AcDbVertex
100
AcDb2dVertex
 10
5.789706894168893
 20
8.483943818408527
 30
0.0
  0
SEQEND
  5
68
330
5B
100
AcDbEntity
  8
Livello 1
370
     9
  0
POLYLINE
  5
69
330
3C
100
AcDbEntity
  8
Livello 1
 62
     7
420
 16777215
370
     9
100
AcDb2dPolyline
 66
     1
 10
0.0
 20
0.0
 30
0.0
  0
VERTEX
  5
6A
330
69
100
AcDbEntity
  8
Livello 1
 62
     7
420
 16777215
370
     9
100
AcDbVertex
100
AcDb2dVertex
 10
6.143638778846034
 20
8.861836342185581
 30
0.0
  0
VERTEX
  5
6B
330
69
100
AcDbEntity
  8
Livello 1
 62
     7
420
 16777215
370
     9
100
AcDbVertex
100
AcDb2dVertex
 10
6.003423392596366
 20
9.063753388576075
 30
0.0
  0
VERTEX
  5
6C
330
69
100
AcDbEntity
  8
Livello 1
 62
     7
420
 16777215
370
     9
100
AcDbVertex
100
AcDb2dVertex
 10
6.19398884936296
 20
8.908241778371897
 30
0.0
  0
VERTEX
  5
6D
330
69
100
AcDbEntity
  8
Livello 1
 62
     7
420
 16777215
370
     9
100
AcDbVertex
100
AcDb2dVertex
 10
6.238688963284077
 20
8.949582924194896
 30
0.0
  0
VERTEX
  5
6E
330
69
100
AcDbEntity
  8
Livello 1
 62
     7
420
 16777215
370
     9
100
AcDbVertex
100
AcDb2dVertex
 10
5.999185925149509
 20
9.300465899367591
 30
0.0
  0
VERTEX
  5
6F
330
69
100
AcDbEntity
  8
Livello 1
 62
     7
420
 16777215
370
     9
100
AcDbVertex
100
AcDb2dVertex
 10
5.958361543649298
 20
9.262742103804106
 30
0.0
  0
VERTEX
  5
70
330
69
100
AcDbEntity
  8
Livello 1
 62
     7
420
 16777215
370
     9
100
AcDbVertex
100
AcDb2dVertex
 10
6.14274305401987
 20
9.004377167887794
 30
0.0
  0
VERTEX
  5
71
330
69
100
AcDbEntity
  8
Livello 1
 62
     7
420
 16777215
370
     9
100
AcDbVertex
100
AcDb2dVertex
 10
5.899846596832329
 20
9.208723006595388
 30
0.0
  0
VERTEX
  5
72
330
69
100
AcDbEntity
  8
Livello 1
 62
     7
420
 16777215
370
     9
100
AcDbVertex
100
AcDb2dVertex
 10
5.867583277612965
 20
9.178974607080256
 30
0.0
  0
VERTEX
  5
73
330
69
100
AcDbEntity
  8
Livello 1
 62
     7
420
 16777215
370
     9
100
AcDbVertex
100
AcDb2dVertex
 10
6.051982013460963
 20
8.920557994731665
 30
0.0
  0
VERTEX
  5
74
330
69
100
AcDbEntity
  8
Livello 1
 62
     7
420
 16777215
370
     9
100
AcDbVertex
100
AcDb2dVertex
 10
5.809068330795997
 20
9.124955509871539
 30
0.0
  0
VERTEX
  5
75
330
69
100
AcDbEntity
  8
Livello 1
 62
     7
420
 16777215
370
     9
100
AcDbVertex
100
AcDb2dVertex
 10
5.768226723818359
 20
9.0871972633532
 30
0.0
  0
VERTEX
  5
76
330
69
100
AcDbEntity
  8
Livello 1
 62
     7
420
 16777215
370
     9
100
AcDbVertex
100
AcDb2dVertex
 10
6.098921439447492
 20
8.82051242184001
 30
0.0
  0
VERTEX
  5
77
330
69
100
AcDbEntity
  8
Livello 1
 62
     7
420
 16777215
370
     9
100
AcDbVertex
100
AcDb2dVertex
 10
6.143638778846034
 20
8.861836342185581
 30
0.0
  0
SEQEND
  5
78
330
69
100
AcDbEntity
  8
Livello 1
370
     9
  0
SPLINE
  5
79
330
3C
100
AcDbEntity
  8
Livello 1
 62
     7
420
 16777215
370
     9
100
AcDbSpline
210
0.0
220
0.0
230
1.0
 70
    11
 71
     3
 72
    35
 73
    31
 74
     0
 42
0.0000000001
 43
0.0000000001
 40
0.0
 40
0.0
 40
0.0
 40
0.0
 40
1.0
 40
1.0
 40
1.0
 40
2.0
 40
2.0
 40
2.0
 40
3.0
 40
3.0
 40
3.0
 40
4.0
 40
4.0
 40
4.0
 40
5.0
 40
5.0
 40
5.0
 40
6.0
 40
6.0
 40
6.0
 40
7.0
 40
7.0
 40
7.0
 40
8.0
 40
8.0
 40
8.0
 40
9.0
 40
9.0
 40
9.0
 40
10.0
 40
10.0
 40
10.0
 40
10.0
 10
6.404260252305185
 20
9.086422116869018
 30
0.0
 10
6.437436521828141
 20
9.112983803060295
 30
0.0
 10
6.441002195655374
 20
9.142611624233444
 30
0.0
 10
6.414871146399754
 20
9.175202227523908
 30
0.0
 10
6.414871146399754
 20
9.175202227523908
 30
0.0
 10
6.348966469766925
 20
9.257402205801968
 30
0.0
 10
6.348966469766925
 20
9.257402205801968
 30
0.0
 10
6.33429036299976
 20
9.275643986396366
 30
0.0
 10
6.312276202849014
 20
9.278486190171698
 30
0.0
 10
6.282837861927554
 20
9.265928817127962
 30
0.0
 10
6.282837861927554
 20
9.265928817127962
 30
0.0
 10
6.281011961320371
 20
9.268202580148227
 30
0.0
 10
6.281011961320371
 20
9.268202580148227
 30
0.0
 10
6.298599173772572
 20
9.289303789995381
 30
0.0
 10
6.299839408147262
 20
9.309319794764683
 30
0.0
 10
6.284698213489589
 20
9.328216143501278
 30
0.0
 10
6.284698213489589
 20
9.328216143501278
 30
0.0
 10
6.234158662720974
 20
9.391209714449072
 30
0.0
 10
6.234158662720974
 20
9.391209714449072
 30
0.0
 10
6.202446558779249
 20
9.430776636097166
 30
0.0
 10
6.167099879100586
 20
9.434962427111746
 30
0.0
 10
6.128153074639837
 20
9.40371541106053
 30
0.0
 10
6.128153074639837
 20
9.40371541106053
 30
0.0
 10
6.053205022358226
 20
9.343667396752624
 30
0.0
 10
6.053205022358226
 20
9.343667396752624
 30
0.0
 10
6.053205022358226
 20
9.343667396752624
 30
0.0
 10
6.316100258837641
 20
9.015763208466545
 30
0.0
 10
6.316100258837641
 20
9.015763208466545
 30
0.0
 10
6.316100258837641
 20
9.015763208466545
 30
0.0
 10
6.404260252305185
 20
9.086422116869018
 30
0.0
 10
6.404260252305185
 20
9.086422116869018
 30
0.0
  0
SPLINE
  5
7A
330
3C
100
AcDbEntity
  8
Livello 1
 62
     7
420
 16777215
370
     9
100
AcDbSpline
210
0.0
220
0.0
230
1.0
 70
    11
 71
     3
 72
    23
 73
    19
 74
     0
 42
0.0000000001
 43
0.0000000001
 40
0.0
 40
0.0
 40
0.0
 40
0.0
 40
1.0
 40
1.0
 40
1.0
 40
2.0
 40
2.0
 40
2.0
 40
3.0
 40
3.0
 40
3.0
 40
4.0
 40
4.0
 40
4.0
 40
5.0
 40
5.0
 40
5.0
 40
6.0
 40
6.0
 40
6.0
 40
6.0
 10
6.208010387987928
 20
9.240435110537113
 30
0.0
 10
6.208010387987928
 20
9.240435110537113
 30
0.0
 10
6.128928221124018
 20
9.339102645234668
 30
0.0
 10
6.128928221124018
 20
9.339102645234668
 30
0.0
 10
6.128928221124018
 20
9.339102645234668
 30
0.0
 10
6.154973142992506
 20
9.35994547292043
 30
0.0
 10
6.154973142992506
 20
9.35994547292043
 30
0.0
 10
6.16804728035903
 20
9.370453014150442
 30
0.0
 10
6.180966388428716
 20
9.36774861419452
 30
0.0
 10
6.193592663382157
 20
9.35195285139465
 30
0.0
 10
6.193592663382157
 20
9.35195285139465
 30
0.0
 10
6.234640976088909
 20
9.30079318343869
 30
0.0
 10
6.234640976088909
 20
9.30079318343869
 30
0.0
 10
6.247336152952054
 20
9.284980195161394
 30
0.0
 10
6.245286321138331
 20
9.270321313871655
 30
0.0
 10
6.22852593160259
 20
9.25688544147918
 30
0.0
 10
6.22852593160259
 20
9.25688544147918
 30
0.0
 10
6.208010387987928
 20
9.240435110537113
 30
0.0
 10
6.208010387987928
 20
9.240435110537113
 30
0.0
  0
SPLINE
  5
7B
330
3C
100
AcDbEntity
  8
Livello 1
 62
     7
420
 16777215
370
     9
100
AcDbSpline
210
0.0
220
0.0
230
1.0
 70
    11
 71
     3
 72
    23
 73
    19
 74
     0
 42
0.0000000001
 43
0.0000000001
 40
0.0
 40
0.0
 40
0.0
 40
0.0
 40
1.0
 40
1.0
 40
1.0
 40
2.0
 40
2.0
 40
2.0
 40
3.0
 40
3.0
 40
3.0
 40
4.0
 40
4.0
 40
4.0
 40
5.0
 40
5.0
 40
5.0
 40
6.0
 40
6.0
 40
6.0
 40
6.0
 10
6.264044866055516
 20
9.220074596219286
 30
0.0
 10
6.281408147301176
 20
9.234027232934547
 30
0.0
 10
6.296308185274881
 20
9.233200410018089
 30
0.0
 10
6.308762205454059
 20
9.217680254857038
 30
0.0
 10
6.308762205454059
 20
9.217680254857038
 30
0.0
 10
6.366967093677355
 20
9.145074867505397
 30
0.0
 10
6.366967093677355
 20
9.145074867505397
 30
0.0
 10
6.374580754699757
 20
9.135618080398386
 30
0.0
 10
6.372548148363459
 20
9.126299097110786
 30
0.0
 10
6.360972627533021
 20
9.117014564778037
 30
0.0
 10
6.360972627533021
 20
9.117014564778037
 30
0.0
 10
6.328106416603736
 20
9.09064235883845
 30
0.0
 10
6.328106416603736
 20
9.09064235883845
 30
0.0
 10
6.328106416603736
 20
9.09064235883845
 30
0.0
 10
6.239860295749062
 20
9.20067870863733
 30
0.0
 10
6.239860295749062
 20
9.20067870863733
 30
0.0
 10
6.239860295749062
 20
9.20067870863733
 30
0.0
 10
6.264044866055516
 20
9.220074596219286
 30
0.0
 10
6.264044866055516
 20
9.220074596219286
 30
0.0
  0
POLYLINE
  5
7C
330
3C
100
AcDbEntity
  8
Livello 1
 62
     7
420
 16777215
370
     9
100
AcDb2dPolyline
 66
     1
 10
0.0
 20
0.0
 30
0.0
  0
VERTEX
  5
7D
330
7C
100
AcDbEntity
  8
Livello 1
 62
     7
420
 16777215
370
     9
100
AcDbVertex
100
AcDb2dVertex
 10
8.016289331763288
 20
9.855453556563914
 30
0.0
  0
VERTEX
  5
7E
330
7C
100
AcDbEntity
  8
Livello 1
 62
     7
420
 16777215
370
     9
100
AcDbVertex
100
AcDb2dVertex
 10
8.07098022259163
 20
9.868338213678747
 30
0.0
  0
VERTEX
  5
7F
330
7C
100
AcDbEntity
  8
Livello 1
 62
     7
420
 16777215
370
     9
100
AcDbVertex
100
AcDb2dVertex
 10
7.948972165981506
 20
10.05666435837993
 30
0.0
  0
VERTEX
  5
80
330
7C
100
AcDbEntity
  8
Livello 1
 62
     7
420
 16777215
370
     9
100
AcDbVertex
100
AcDb2dVertex
 10
7.958497854998222
 20
10.27363647204096
 30
0.0
  0
VERTEX
  5
81
330
7C
100
AcDbEntity
  8
Livello 1
 62
     7
420
 16777215
370
     9
100
AcDbVertex
100
AcDb2dVertex
 10
7.908388941165263
 20
10.26183702000398
 30
0.0
  0
VERTEX
  5
82
330
7C
100
AcDbEntity
  8
Livello 1
 62
     7
420
 16777215
370
     9
100
AcDbVertex
100
AcDb2dVertex
 10
7.899914006271548
 20
10.04267727070982
 30
0.0
  0
VERTEX
  5
83
330
7C
100
AcDbEntity
  8
Livello 1
 62
     7
420
 16777215
370
     9
100
AcDbVertex
100
AcDb2dVertex
 10
7.900740829188009
 20
10.03924940070199
 30
0.0
  0
VERTEX
  5
84
330
7C
100
AcDbEntity
  8
Livello 1
 62
     7
420
 16777215
370
     9
100
AcDbVertex
100
AcDb2dVertex
 10
8.016289331763288
 20
9.855453556563914
 30
0.0
  0
SEQEND
  5
85
330
7C
100
AcDbEntity
  8
Livello 1
370
     9
  0
SPLINE
  5
86
330
3C
100
AcDbEntity
  8
Livello 1
 62
     7
420
 16777215
370
     9
100
AcDbSpline
210
0.0
220
0.0
230
1.0
 70
    11
 71
     3
 72
    29
 73
    25
 74
     0
 42
0.0000000001
 43
0.0000000001
 40
0.0
 40
0.0
 40
0.0
 40
0.0
 40
1.0
 40
1.0
 40
1.0
 40
2.0
 40
2.0
 40
2.0
 40
3.0
 40
3.0
 40
3.0
 40
4.0
 40
4.0
 40
4.0
 40
5.0
 40
5.0
 40
5.0
 40
6.0
 40
6.0
 40
6.0
 40
7.0
 40
7.0
 40
7.0
 40
8.0
 40
8.0
 40
8.0
 40
8.0
 10
5.851201848580602
 20
8.666309947920228
 30
0.0
 10
5.885893960117068
 20
8.633667668197486
 30
0.0
 10
5.918708494614073
 20
8.633822697494322
 30
0.0
 10
5.949731579458748
 20
8.666809486765588
 30
0.0
 10
5.949731579458748
 20
8.666809486765588
 30
0.0
 10
5.985887856576444
 20
8.705187850471273
 30
0.0
 10
5.985887856576444
 20
8.705187850471273
 30
0.0
 10
6.016910941421119
 20
8.738088512355407
 30
0.0
 10
6.015102266291363
 20
8.770903046852412
 30
0.0
 10
5.980427380232324
 20
8.80356255205258
 30
0.0
 10
5.980427380232324
 20
8.80356255205258
 30
0.0
 10
5.778906519822634
 20
8.993370087812421
 30
0.0
 10
5.778906519822634
 20
8.993370087812421
 30
0.0
 10
5.743904349692496
 20
9.026287975173982
 30
0.0
 10
5.711107040672918
 20
9.026408553515967
 30
0.0
 10
5.680290661557358
 20
8.993731822838372
 30
0.0
 10
5.680290661557358
 20
8.993731822838372
 30
0.0
 10
5.643393688910332
 20
8.954543861693654
 30
0.0
 10
5.643393688910332
 20
8.954543861693654
 30
0.0
 10
5.612611760749624
 20
8.921849905538634
 30
0.0
 10
5.614713268995627
 20
8.889052596519056
 30
0.0
 10
5.649663762693486
 20
8.85615193463492
 30
0.0
 10
5.649663762693486
 20
8.85615193463492
 30
0.0
 10
5.851201848580602
 20
8.666309947920228
 30
0.0
 10
5.851201848580602
 20
8.666309947920228
 30
0.0
  0
SPLINE
  5
87
330
3C
100
AcDbEntity
  8
Livello 1
 62
     7
420
 16777215
370
     9
100
AcDbSpline
210
0.0
220
0.0
230
1.0
 70
    11
 71
     3
 72
    29
 73
    25
 74
     0
 42
0.0000000001
 43
0.0000000001
 40
0.0
 40
0.0
 40
0.0
 40
0.0
 40
1.0
 40
1.0
 40
1.0
 40
2.0
 40
2.0
 40
2.0
 40
3.0
 40
3.0
 40
3.0
 40
4.0
 40
4.0
 40
4.0
 40
5.0
 40
5.0
 40
5.0
 40
6.0
 40
6.0
 40
6.0
 40
7.0
 40
7.0
 40
7.0
 40
8.0
 40
8.0
 40
8.0
 40
8.0
 10
5.689661321277237
 20
8.929411890128758
 30
0.0
 10
5.689661321277237
 20
8.929411890128758
 30
0.0
 10
5.707748072574799
 20
8.9486010719816
 30
0.0
 10
5.707748072574799
 20
8.9486010719816
 30
0.0
 10
5.71927191697296
 20
8.960779484521957
 30
0.0
 10
5.730968016145383
 20
8.961313474322171
 30
0.0
 10
5.742905272001773
 20
8.950048012085404
 30
0.0
 10
5.742905272001773
 20
8.950048012085404
 30
0.0
 10
5.938896754157637
 20
8.765442570508291
 30
0.0
 10
5.938896754157637
 20
8.765442570508291
 30
0.0
 10
5.95086846096888
 20
8.75419433374895
 30
0.0
 10
5.951746960317618
 20
8.743204479151004
 30
0.0
 10
5.941566703158705
 20
8.732438555759598
 30
0.0
 10
5.941566703158705
 20
8.732438555759598
 30
0.0
 10
5.921929658892781
 20
8.711526826164132
 30
0.0
 10
5.921929658892781
 20
8.711526826164132
 30
0.0
 10
5.91040581449462
 20
8.699296737191494
 30
0.0
 10
5.898675264367345
 20
8.698797198346133
 30
0.0
 10
5.886772459465806
 20
8.710062660582901
 30
0.0
 10
5.886772459465806
 20
8.710062660582901
 30
0.0
 10
5.690746526355091
 20
8.894668102160013
 30
0.0
 10
5.690746526355091
 20
8.894668102160013
 30
0.0
 10
5.678774819543848
 20
8.905899113441928
 30
0.0
 10
5.678447535472749
 20
8.917474634272367
 30
0.0
 10
5.689661321277237
 20
8.929411890128758
 30
0.0
  0
SPLINE
  5
88
330
3C
100
AcDbEntity
  8
Livello 1
 62
     7
420
 16777215
370
     9
100
AcDbSpline
210
0.0
220
0.0
230
1.0
 70
    11
 71
     3
 72
    35
 73
    31
 74
     0
 42
0.0000000001
 43
0.0000000001
 40
0.0
 40
0.0
 40
0.0
 40
0.0
 40
1.0
 40
1.0
 40
1.0
 40
2.0
 40
2.0
 40
2.0
 40
3.0
 40
3.0
 40
3.0
 40
4.0
 40
4.0
 40
4.0
 40
5.0
 40
5.0
 40
5.0
 40
6.0
 40
6.0
 40
6.0
 40
7.0
 40
7.0
 40
7.0
 40
8.0
 40
8.0
 40
8.0
 40
9.0
 40
9.0
 40
9.0
 40
10.0
 40
10.0
 40
10.0
 40
10.0
 10
9.68095947023601
 20
9.94111585580465
 30
0.0
 10
9.68095947023601
 20
9.94111585580465
 30
0.0
 10
9.698667261030193
 20
10.04498548468493
 30
0.0
 10
9.698667261030193
 20
10.04498548468493
 30
0.0
 10
9.70262912083823
 20
10.06806762443611
 30
0.0
 10
9.690088973271921
 20
10.08644720884991
 30
0.0
 10
9.661150171195823
 20
10.10007256149408
 30
0.0
 10
9.661150171195823
 20
10.10007256149408
 30
0.0
 10
9.661632484563757
 20
10.10298366717911
 30
0.0
 10
9.661632484563757
 20
10.10298366717911
 30
0.0
 10
9.6890898955812
 20
10.10381049009557
 30
0.0
 10
9.704833981948791
 20
10.11617838288762
 30
0.0
 10
9.708968096531091
 20
10.14000121816812
 30
0.0
 10
9.708968096531091
 20
10.14000121816812
 30
0.0
 10
9.722507321788122
 20
10.21968627674195
 30
0.0
 10
9.722507321788122
 20
10.21968627674195
 30
0.0
 10
9.731051158591542
 20
10.26967461223293
 30
0.0
 10
9.710690644273715
 20
10.29887179647042
 30
0.0
 10
9.661460229789496
 20
10.30729505493186
 30
0.0
 10
9.661460229789496
 20
10.30729505493186
 30
0.0
 10
9.566823456809683
 20
10.32341810180283
 30
0.0
 10
9.566823456809683
 20
10.32341810180283
 30
0.0
 10
9.566823456809683
 20
10.32341810180283
 30
0.0
 10
9.496198999362061
 20
9.90911091874668
 30
0.0
 10
9.496198999362061
 20
9.90911091874668
 30
0.0
 10
9.496198999362061
 20
9.90911091874668
 30
0.0
 10
9.607544485445336
 20
9.890111217145527
 30
0.0
 10
9.607544485445336
 20
9.890111217145527
 30
0.0
 10
9.649436846545973
 20
9.88297986949106
 30
0.0
 10
9.673897024491247
 20
9.899981415710768
 30
0.0
 10
9.68095947023601
 20
9.94111585580465
 30
0.0
  0
SPLINE
  5
89
330
3C
100
AcDbEntity
  8
Livello 1
 62
     7
420
 16777215
370
     9
100
AcDbSpline
210
0.0
220
0.0
230
1.0
 70
    11
 71
     3
 72
    23
 73
    19
 74
     0
 42
0.0000000001
 43
0.0000000001
 40
0.0
 40
0.0
 40
0.0
 40
0.0
 40
1.0
 40
1.0
 40
1.0
 40
2.0
 40
2.0
 40
2.0
 40
3.0
 40
3.0
 40
3.0
 40
4.0
 40
4.0
 40
4.0
 40
5.0
 40
5.0
 40
5.0
 40
6.0
 40
6.0
 40
6.0
 40
6.0
 10
9.613642304454228
 20
10.2637490479983
 30
0.0
 10
9.613642304454228
 20
10.2637490479983
 30
0.0
 10
9.646542966338364
 20
10.25816799331219
 30
0.0
 10
9.646542966338364
 20
10.25816799331219
 30
0.0
 10
9.66304497371271
 20
10.25534301501429
 30
0.0
 10
9.66965955704439
 20
10.24392252348069
 30
0.0
 10
9.66621446155914
 20
10.22390651871138
 30
0.0
 10
9.66621446155914
 20
10.22390651871138
 30
0.0
 10
9.655224606961193
 20
10.15929375288552
 30
0.0
 10
9.655224606961193
 20
10.15929375288552
 30
0.0
 10
9.651813962430795
 20
10.13929497359365
 30
0.0
 10
9.639480520593601
 20
10.13109564633875
 30
0.0
 10
9.618327634314168
 20
10.13467854564341
 30
0.0
 10
9.618327634314168
 20
10.13467854564341
 30
0.0
 10
9.592420516265088
 20
10.13913994429681
 30
0.0
 10
9.592420516265088
 20
10.13913994429681
 30
0.0
 10
9.592420516265088
 20
10.13913994429681
 30
0.0
 10
9.613642304454228
 20
10.2637490479983
 30
0.0
 10
9.613642304454228
 20
10.2637490479983
 30
0.0
  0
SPLINE
  5
8A
330
3C
100
AcDbEntity
  8
Livello 1
 62
     7
420
 16777215
370
     9
100
AcDbSpline
210
0.0
220
0.0
230
1.0
 70
    11
 71
     3
 72
    23
 73
    19
 74
     0
 42
0.0000000001
 43
0.0000000001
 40
0.0
 40
0.0
 40
0.0
 40
0.0
 40
1.0
 40
1.0
 40
1.0
 40
2.0
 40
2.0
 40
2.0
 40
3.0
 40
3.0
 40
3.0
 40
4.0
 40
4.0
 40
4.0
 40
5.0
 40
5.0
 40
5.0
 40
6.0
 40
6.0
 40
6.0
 40
6.0
 10
9.560071069658592
 20
9.949866398337186
 30
0.0
 10
9.560071069658592
 20
9.949866398337186
 30
0.0
 10
9.583842228506816
 20
10.0889276775993
 30
0.0
 10
9.583842228506816
 20
10.0889276775993
 30
0.0
 10
9.583842228506816
 20
10.0889276775993
 30
0.0
 10
9.614400225460983
 20
10.08370835793914
 30
0.0
 10
9.614400225460983
 20
10.08370835793914
 30
0.0
 10
9.636379934656876
 20
10.07998765481507
 30
0.0
 10
9.645647241512199
 20
10.0682571046878
 30
0.0
 10
9.642271047936653
 20
10.048706187809
 30
0.0
 10
9.642271047936653
 20
10.048706187809
 30
0.0
 10
9.62663031443362
 20
9.956928844081947
 30
0.0
 10
9.62663031443362
 20
9.956928844081947
 30
0.0
 10
9.624632159052174
 20
9.944991588225557
 30
0.0
 10
9.61629502797787
 20
9.940306258365617
 30
0.0
 10
9.601687823120411
 20
9.94276950163757
 30
0.0
 10
9.601687823120411
 20
9.94276950163757
 30
0.0
 10
9.560071069658592
 20
9.949866398337186
 30
0.0
 10
9.560071069658592
 20
9.949866398337186
 30
0.0
  0
POLYLINE
  5
8B
330
3C
100
AcDbEntity
  8
Livello 1
 62
     7
420
 16777215
370
     9
100
AcDb2dPolyline
 66
     1
 10
0.0
 20
0.0
 30
0.0
  0
VERTEX
  5
8C
330
8B
100
AcDbEntity
  8
Livello 1
 62
     7
420
 16777215
370
     9
100
AcDbVertex
100
AcDb2dVertex
 10
10.71004394263499
 20
9.4901873077403
 30
0.0
  0
VERTEX
  5
8D
330
8B
100
AcDbEntity
  8
Livello 1
 62
     7
420
 16777215
370
     9
100
AcDbVertex
100
AcDb2dVertex
 10
11.04614745817596
 20
9.854678410079732
 30
0.0
  0
VERTEX
  5
8E
330
8B
100
AcDbEntity
  8
Livello 1
 62
     7
420
 16777215
370
     9
100
AcDbVertex
100
AcDb2dVertex
 10
11.01090413136186
 20
9.87310967092582
 30
0.0
  0
VERTEX
  5
8F
330
8B
100
AcDbEntity
  8
Livello 1
 62
     7
420
 16777215
370
     9
100
AcDbVertex
100
AcDb2dVertex
 10
10.67528292918882
 20
9.50841186285727
 30
0.0
  0
VERTEX
  5
90
330
8B
100
AcDbEntity
  8
Livello 1
 62
     7
420
 16777215
370
     9
100
AcDbVertex
100
AcDb2dVertex
 10
10.71004394263499
 20
9.4901873077403
 30
0.0
  0
SEQEND
  5
91
330
8B
100
AcDbEntity
  8
Livello 1
370
     9
  0
POLYLINE
  5
92
330
3C
100
AcDbEntity
  8
Livello 1
 62
     7
420
 16777215
370
     9
100
AcDb2dPolyline
 66
     1
 10
0.0
 20
0.0
 30
0.0
  0
VERTEX
  5
93
330
92
100
AcDbEntity
  8
Livello 1
 62
     7
420
 16777215
370
     9
100
AcDbVertex
100
AcDb2dVertex
 10
8.168252493617658
 20
9.886166582814916
 30
0.0
  0
VERTEX
  5
94
330
92
100
AcDbEntity
  8
Livello 1
 62
     7
420
 16777215
370
     9
100
AcDbVertex
100
AcDb2dVertex
 10
8.089549287257126
 20
10.29904405124468
 30
0.0
  0
VERTEX
  5
95
330
92
100
AcDbEntity
  8
Livello 1
 62
     7
420
 16777215
370
     9
100
AcDbVertex
100
AcDb2dVertex
 10
8.03437608306085
 20
10.28850205905982
 30
0.0
  0
VERTEX
  5
96
330
92
100
AcDbEntity
  8
Livello 1
 62
     7
420
 16777215
370
     9
100
AcDbVertex
100
AcDb2dVertex
 10
8.113062063943955
 20
9.87567626706233
 30
0.0
  0
VERTEX
  5
97
330
92
100
AcDbEntity
  8
Livello 1
 62
     7
420
 16777215
370
     9
100
AcDbVertex
100
AcDb2dVertex
 10
8.168252493617658
 20
9.886166582814916
 30
0.0
  0
SEQEND
  5
98
330
92
100
AcDbEntity
  8
Livello 1
370
     9
  0
SPLINE
  5
99
330
3C
100
AcDbEntity
  8
Livello 1
 62
     7
420
 16777215
370
     9
100
AcDbSpline
210
0.0
220
0.0
230
1.0
 70
    11
 71
     3
 72
    23
 73
    19
 74
     0
 42
0.0000000001
 43
0.0000000001
 40
0.0
 40
0.0
 40
0.0
 40
0.0
 40
1.0
 40
1.0
 40
1.0
 40
2.0
 40
2.0
 40
2.0
 40
3.0
 40
3.0
 40
3.0
 40
4.0
 40
4.0
 40
4.0
 40
5.0
 40
5.0
 40
5.0
 40
6.0
 40
6.0
 40
6.0
 40
6.0
 10
10.5019601753259
 20
9.620394691605318
 30
0.0
 10
10.54319796828434
 20
9.602738577243413
 30
0.0
 10
10.57182671176676
 20
9.612557099376374
 30
0.0
 10
10.58777750386347
 20
9.649850258004204
 30
0.0
 10
10.58777750386347
 20
9.649850258004204
 30
0.0
 10
10.69740044220412
 20
9.90602755828738
 30
0.0
 10
10.69740044220412
 20
9.90602755828738
 30
0.0
 10
10.71862223039326
 20
9.955550805887848
 30
0.0
 10
10.70494520131682
 20
9.99067355435997
 30
0.0
 10
10.65654160974906
 20
10.01139580370375
 30
0.0
 10
10.65654160974906
 20
10.01139580370375
 30
0.0
 10
10.56669351949374
 20
10.04986029479656
 30
0.0
 10
10.56669351949374
 20
10.04986029479656
 30
0.0
 10
10.56669351949374
 20
10.04986029479656
 30
0.0
 10
10.4013633871566
 20
9.66345838517094
 30
0.0
 10
10.4013633871566
 20
9.66345838517094
 30
0.0
 10
10.4013633871566
 20
9.66345838517094
 30
0.0
 10
10.5019601753259
 20
9.620394691605318
 30
0.0
 10
10.5019601753259
 20
9.620394691605318
 30
0.0
  0
SPLINE
  5
9A
330
3C
100
AcDbEntity
  8
Livello 1
 62
     7
420
 16777215
370
     9
100
AcDbSpline
210
0.0
220
0.0
230
1.0
 70
    11
 71
     3
 72
    23
 73
    19
 74
     0
 42
0.0000000001
 43
0.0000000001
 40
0.0
 40
0.0
 40
0.0
 40
0.0
 40
1.0
 40
1.0
 40
1.0
 40
2.0
 40
2.0
 40
2.0
 40
3.0
 40
3.0
 40
3.0
 40
4.0
 40
4.0
 40
4.0
 40
5.0
 40
5.0
 40
5.0
 40
6.0
 40
6.0
 40
6.0
 40
6.0
 10
10.59831949604834
 20
9.980923934136714
 30
0.0
 10
10.59831949604834
 20
9.980923934136714
 30
0.0
 10
10.6343207438692
 20
9.965489906362793
 30
0.0
 10
10.6343207438692
 20
9.965489906362793
 30
0.0
 10
10.64975477164312
 20
9.958909773985967
 30
0.0
 10
10.65350992572204
 20
9.946283499032525
 30
0.0
 10
10.64551730419626
 20
9.927611081502471
 30
0.0
 10
10.64551730419626
 20
9.927611081502471
 30
0.0
 10
10.53954616706997
 20
9.680080970887271
 30
0.0
 10
10.53954616706997
 20
9.680080970887271
 30
0.0
 10
10.53465413148092
 20
9.66855712648911
 30
0.0
 10
10.5253868246256
 20
9.665766599146057
 30
0.0
 10
10.51174424650401
 20
9.67158881051613
 30
0.0
 10
10.51174424650401
 20
9.67158881051613
 30
0.0
 10
10.47298692229495
 20
9.688176945277608
 30
0.0
 10
10.47298692229495
 20
9.688176945277608
 30
0.0
 10
10.47298692229495
 20
9.688176945277608
 30
0.0
 10
10.59831949604834
 20
9.980923934136714
 30
0.0
 10
10.59831949604834
 20
9.980923934136714
 30
0.0
  0
SPLINE
  5
9B
330
3C
100
AcDbEntity
  8
Livello 1
 62
     7
420
 16777215
370
     9
100
AcDbSpline
210
0.0
220
0.0
230
1.0
 70
    11
 71
     3
 72
    38
 73
    34
 74
     0
 42
0.0000000001
 43
0.0000000001
 40
0.0
 40
0.0
 40
0.0
 40
0.0
 40
1.0
 40
1.0
 40
1.0
 40
2.0
 40
2.0
 40
2.0
 40
3.0
 40
3.0
 40
3.0
 40
4.0
 40
4.0
 40
4.0
 40
5.0
 40
5.0
 40
5.0
 40
6.0
 40
6.0
 40
6.0
 40
7.0
 40
7.0
 40
7.0
 40
8.0
 40
8.0
 40
8.0
 40
9.0
 40
9.0
 40
9.0
 40
10.0
 40
10.0
 40
10.0
 40
11.0
 40
11.0
 40
11.0
 40
11.0
 10
10.23765244969753
 20
9.7242643204856
 30
0.0
 10
10.23765244969753
 20
9.7242643204856
 30
0.0
 10
10.29528889716576
 20
9.883978947181783
 30
0.0
 10
10.29528889716576
 20
9.883978947181783
 30
0.0
 10
10.29528889716576
 20
9.883978947181783
 30
0.0
 10
10.32715603040432
 20
9.872455102783622
 30
0.0
 10
10.32715603040432
 20
9.872455102783622
 30
0.0
 10
10.32715603040432
 20
9.872455102783622
 30
0.0
 10
10.30428059638226
 20
9.700269230430834
 30
0.0
 10
10.30428059638226
 20
9.700269230430834
 30
0.0
 10
10.30428059638226
 20
9.700269230430834
 30
0.0
 10
10.35440673569265
 20
9.682182479133273
 30
0.0
 10
10.35440673569265
 20
9.682182479133273
 30
0.0
 10
10.35440673569265
 20
9.682182479133273
 30
0.0
 10
10.37690320921133
 20
9.860173337378706
 30
0.0
 10
10.37690320921133
 20
9.860173337378706
 30
0.0
 10
10.40108777951778
 20
9.861792532256773
 30
0.0
 10
10.41945013845416
 20
9.879844832599483
 30
0.0
 10
10.43188693315592
 20
9.914381914839112
 30
0.0
 10
10.43188693315592
 20
9.914381914839112
 30
0.0
 10
10.46702690710547
 20
10.01184366611683
 30
0.0
 10
10.46702690710547
 20
10.01184366611683
 30
0.0
 10
10.48328775779584
 20
10.05702609340588
 30
0.0
 10
10.47129882550717
 20
10.08687784578557
 30
0.0
 10
10.43088785546519
 20
10.1013989232559
 30
0.0
 10
10.43088785546519
 20
10.1013989232559
 30
0.0
 10
10.32736273613344
 20
10.13870930736116
 30
0.0
 10
10.32736273613344
 20
10.13870930736116
 30
0.0
 10
10.32736273613344
 20
10.13870930736116
 30
0.0
 10
10.18483913590865
 20
9.743332923996459
 30
0.0
 10
10.18483913590865
 20
9.743332923996459
 30
0.0
 10
10.18483913590865
 20
9.743332923996459
 30
0.0
 10
10.23765244969753
 20
9.7242643204856
 30
0.0
 10
10.23765244969753
 20
9.7242643204856
 30
0.0
  0
SPLINE
  5
9C
330
3C
100
AcDbEntity
  8
Livello 1
 62
     7
420
 16777215
370
     9
100
AcDbSpline
210
0.0
220
0.0
230
1.0
 70
    11
 71
     3
 72
    23
 73
    19
 74
     0
 42
0.0000000001
 43
0.0000000001
 40
0.0
 40
0.0
 40
0.0
 40
0.0
 40
1.0
 40
1.0
 40
1.0
 40
2.0
 40
2.0
 40
2.0
 40
3.0
 40
3.0
 40
3.0
 40
4.0
 40
4.0
 40
4.0
 40
5.0
 40
5.0
 40
5.0
 40
6.0
 40
6.0
 40
6.0
 40
6.0
 10
10.36291612154121
 20
10.07177110208275
 30
0.0
 10
10.36291612154121
 20
10.07177110208275
 30
0.0
 10
10.39760823307768
 20
10.05926540547129
 30
0.0
 10
10.39760823307768
 20
10.05926540547129
 30
0.0
 10
10.41342122135498
 20
10.05358099792063
 30
0.0
 10
10.41786539453095
 20
10.04117865417373
 30
0.0
 10
10.4110096545153
 20
10.02209282518545
 30
0.0
 10
10.4110096545153
 20
10.02209282518545
 30
0.0
 10
10.38021050087717
 20
9.936723359060958
 30
0.0
 10
10.38021050087717
 20
9.936723359060958
 30
0.0
 10
10.37335476086152
 20
9.917637530072673
 30
0.0
 10
10.3619859457602
 20
9.910936819353863
 30
0.0
 10
10.34620740843775
 20
9.916621226904525
 30
0.0
 10
10.34620740843775
 20
9.916621226904525
 30
0.0
 10
10.31154974785614
 20
9.929144148993407
 30
0.0
 10
10.31154974785614
 20
9.929144148993407
 30
0.0
 10
10.31154974785614
 20
9.929144148993407
 30
0.0
 10
10.36291612154121
 20
10.07177110208275
 30
0.0
 10
10.36291612154121
 20
10.07177110208275
 30
0.0
  0
POLYLINE
  5
9D
330
3C
100
AcDbEntity
  8
Livello 1
 62
     7
420
 16777215
370
     9
100
AcDb2dPolyline
 66
     1
 10
0.0
 20
0.0
 30
0.0
  0
VERTEX
  5
9E
330
9D
100
AcDbEntity
  8
Livello 1
 62
     7
420
 16777215
370
     9
100
AcDbVertex
100
AcDb2dVertex
 10
11.43127468247204
 20
9.056208629463377
 30
0.0
  0
VERTEX
  5
9F
330
9D
100
AcDbEntity
  8
Livello 1
 62
     7
420
 16777215
370
     9
100
AcDbVertex
100
AcDb2dVertex
 10
11.61234890117677
 20
9.222503388536387
 30
0.0
  0
VERTEX
  5
A0
330
9D
100
AcDbEntity
  8
Livello 1
 62
     7
420
 16777215
370
     9
100
AcDbVertex
100
AcDb2dVertex
 10
11.48408799626092
 20
9.01266262252982
 30
0.0
  0
VERTEX
  5
A1
330
9D
100
AcDbEntity
  8
Livello 1
 62
     7
420
 16777215
370
     9
100
AcDbVertex
100
AcDb2dVertex
 10
11.53111354963458
 20
8.973905298320759
 30
0.0
  0
VERTEX
  5
A2
330
9D
100
AcDbEntity
  8
Livello 1
 62
     7
420
 16777215
370
     9
100
AcDbVertex
100
AcDb2dVertex
 10
11.84633978653494
 20
9.258780243996068
 30
0.0
  0
VERTEX
  5
A3
330
9D
100
AcDbEntity
  8
Livello 1
 62
     7
420
 16777215
370
     9
100
AcDbVertex
100
AcDb2dVertex
 10
11.80341389678873
 20
9.294126923674732
 30
0.0
  0
VERTEX
  5
A4
330
9D
100
AcDbEntity
  8
Livello 1
 62
     7
420
 16777215
370
     9
100
AcDbVertex
100
AcDb2dVertex
 10
11.57238579354788
 20
9.076465790916647
 30
0.0
  0
VERTEX
  5
A5
330
9D
100
AcDbEntity
  8
Livello 1
 62
     7
420
 16777215
370
     9
100
AcDbVertex
100
AcDb2dVertex
 10
11.74198784428672
 20
9.34478705278533
 30
0.0
  0
VERTEX
  5
A6
330
9D
100
AcDbEntity
  8
Livello 1
 62
     7
420
 16777215
370
     9
100
AcDbVertex
100
AcDb2dVertex
 10
11.70812255566672
 20
9.372692326215853
 30
0.0
  0
VERTEX
  5
A7
330
9D
100
AcDbEntity
  8
Livello 1
 62
     7
420
 16777215
370
     9
100
AcDbVertex
100
AcDb2dVertex
 10
11.47706000147101
 20
9.15503119345777
 30
0.0
  0
VERTEX
  5
A8
330
9D
100
AcDbEntity
  8
Livello 1
 62
     7
420
 16777215
370
     9
100
AcDbVertex
100
AcDb2dVertex
 10
11.64662760125501
 20
9.423352455326453
 30
0.0
  0
VERTEX
  5
A9
330
9D
100
AcDbEntity
  8
Livello 1
 62
     7
420
 16777215
370
     9
100
AcDbVertex
100
AcDb2dVertex
 10
11.6037706134185
 20
9.458664684050264
 30
0.0
  0
VERTEX
  5
AA
330
9D
100
AcDbEntity
  8
Livello 1
 62
     7
420
 16777215
370
     9
100
AcDbVertex
100
AcDb2dVertex
 10
11.38431803100809
 20
9.094931502717586
 30
0.0
  0
VERTEX
  5
AB
330
9D
100
AcDbEntity
  8
Livello 1
 62
     7
420
 16777215
370
     9
100
AcDbVertex
100
AcDb2dVertex
 10
11.43127468247204
 20
9.056208629463377
 30
0.0
  0
SEQEND
  5
AC
330
9D
100
AcDbEntity
  8
Livello 1
370
     9
  0
SPLINE
  5
AD
330
3C
100
AcDbEntity
  8
Livello 1
 62
     7
420
 16777215
370
     9
100
AcDbSpline
210
0.0
220
0.0
230
1.0
 70
    11
 71
     3
 72
    29
 73
    25
 74
     0
 42
0.0000000001
 43
0.0000000001
 40
0.0
 40
0.0
 40
0.0
 40
0.0
 40
1.0
 40
1.0
 40
1.0
 40
2.0
 40
2.0
 40
2.0
 40
3.0
 40
3.0
 40
3.0
 40
4.0
 40
4.0
 40
4.0
 40
5.0
 40
5.0
 40
5.0
 40
6.0
 40
6.0
 40
6.0
 40
7.0
 40
7.0
 40
7.0
 40
8.0
 40
8.0
 40
8.0
 40
8.0
 10
11.21206325674559
 20
9.221745467529633
 30
0.0
 10
11.21206325674559
 20
9.221745467529633
 30
0.0
 10
11.25495469553696
 20
9.191135794143188
 30
0.0
 10
11.25495469553696
 20
9.191135794143188
 30
0.0
 10
11.29178276627428
 20
9.164866941068158
 30
0.0
 10
11.32402886001621
 20
9.171085338419033
 30
0.0
 10
11.35165852580792
 20
9.209877113582946
 30
0.0
 10
11.35165852580792
 20
9.209877113582946
 30
0.0
 10
11.51244113210453
 20
9.43530693666027
 30
0.0
 10
11.51244113210453
 20
9.43530693666027
 30
0.0
 10
11.5403119545802
 20
9.474357093985576
 30
0.0
 10
11.53600558522364
 20
9.50694769727604
 30
0.0
 10
11.49948757307999
 20
9.533009844621954
 30
0.0
 10
11.49948757307999
 20
9.533009844621954
 30
0.0
 10
11.45559705659791
 20
9.564291311628024
 30
0.0
 10
11.45559705659791
 20
9.564291311628024
 30
0.0
 10
11.41907904445426
 20
9.590319008019087
 30
0.0
 10
11.38686740166717
 20
9.583825003029391
 30
0.0
 10
11.35896212823665
 20
9.544705943794378
 30
0.0
 10
11.35896212823665
 20
9.544705943794378
 30
0.0
 10
11.19821397289489
 20
9.319310571671908
 30
0.0
 10
11.19821397289489
 20
9.319310571671908
 30
0.0
 10
11.17058430710319
 20
9.280501571030568
 30
0.0
 10
11.17516628409857
 20
9.248014320604662
 30
0.0
 10
11.21206325674559
 20
9.221745467529633
 30
0.0
  0
SPLINE
  5
AE
330
3C
100
AcDbEntity
  8
Livello 1
 62
     7
420
 16777215
370
     9
100
AcDbSpline
210
0.0
220
0.0
230
1.0
 70
    11
 71
     3
 72
    29
 73
    25
 74
     0
 42
0.0000000001
 43
0.0000000001
 40
0.0
 40
0.0
 40
0.0
 40
0.0
 40
1.0
 40
1.0
 40
1.0
 40
2.0
 40
2.0
 40
2.0
 40
3.0
 40
3.0
 40
3.0
 40
4.0
 40
4.0
 40
4.0
 40
5.0
 40
5.0
 40
5.0
 40
6.0
 40
6.0
 40
6.0
 40
7.0
 40
7.0
 40
7.0
 40
8.0
 40
8.0
 40
8.0
 40
8.0
 10
11.24637640777868
 20
9.290010034569859
 30
0.0
 10
11.24637640777868
 20
9.290010034569859
 30
0.0
 10
11.40268038994447
 20
9.509255911251158
 30
0.0
 10
11.40268038994447
 20
9.509255911251158
 30
0.0
 10
11.41218885348376
 20
9.522588430779074
 30
0.0
 10
11.42362657049479
 20
9.524500458773389
 30
0.0
 10
11.4369590900227
 20
9.514974769756673
 30
0.0
 10
11.4369590900227
 20
9.514974769756673
 30
0.0
 10
11.45845648585066
 20
9.499695771279589
 30
0.0
 10
11.45845648585066
 20
9.499695771279589
 30
0.0
 10
11.47209906397225
 20
9.489963376533758
 30
0.0
 10
11.47420057221825
 20
9.47838785570332
 30
0.0
 10
11.46465765772411
 20
9.465072561652828
 30
0.0
 10
11.46465765772411
 20
9.465072561652828
 30
0.0
 10
11.30828477364862
 20
9.245843910448954
 30
0.0
 10
11.30828477364862
 20
9.245843910448954
 30
0.0
 10
11.29884521201904
 20
9.232476939966185
 30
0.0
 10
11.28802761219535
 20
9.230134275036216
 30
0.0
 10
11.27596977799698
 20
9.238712562794488
 30
0.0
 10
11.27596977799698
 20
9.238712562794488
 30
0.0
 10
11.25257757965213
 20
9.25536959946567
 30
0.0
 10
11.25257757965213
 20
9.25536959946567
 30
0.0
 10
11.23893500153054
 20
9.265119219688929
 30
0.0
 10
11.23683349328454
 20
9.276660289564514
 30
0.0
 10
11.24637640777868
 20
9.290010034569859
 30
0.0
  0
POLYLINE
  5
AF
330
3C
100
AcDbEntity
  8
Livello 1
 62
     7
420
 16777215
370
     9
100
AcDb2dPolyline
 66
     1
 10
0.0
 20
0.0
 30
0.0
  0
VERTEX
  5
B0
330
AF
100
AcDbEntity
  8
Livello 1
 62
     7
420
 16777215
370
     9
100
AcDbVertex
100
AcDb2dVertex
 10
11.64779893371999
 20
8.867693004510507
 30
0.0
  0
VERTEX
  5
B1
330
AF
100
AcDbEntity
  8
Livello 1
 62
     7
420
 16777215
370
     9
100
AcDbVertex
100
AcDb2dVertex
 10
11.83717583254418
 20
9.067198484061326
 30
0.0
  0
VERTEX
  5
B2
330
AF
100
AcDbEntity
  8
Livello 1
 62
     7
420
 16777215
370
     9
100
AcDbVertex
100
AcDb2dVertex
 10
11.74915364289604
 20
8.88683050993107
 30
0.0
  0
VERTEX
  5
B3
330
AF
100
AcDbEntity
  8
Livello 1
 62
     7
420
 16777215
370
     9
100
AcDbVertex
100
AcDb2dVertex
 10
11.69148274447296
 20
8.826145152958393
 30
0.0
  0
VERTEX
  5
B4
330
AF
100
AcDbEntity
  8
Livello 1
 62
     7
420
 16777215
370
     9
100
AcDbVertex
100
AcDb2dVertex
 10
11.73227267501832
 20
8.787456730659038
 30
0.0
  0
VERTEX
  5
B5
330
AF
100
AcDbEntity
  8
Livello 1
 62
     7
420
 16777215
370
     9
100
AcDbVertex
100
AcDb2dVertex
 10
12.0215917938696
 20
9.09229600467137
 30
0.0
  0
VERTEX
  5
B6
330
AF
100
AcDbEntity
  8
Livello 1
 62
     7
420
 16777215
370
     9
100
AcDbVertex
100
AcDb2dVertex
 10
11.98087076523395
 20
9.130967201493299
 30
0.0
  0
VERTEX
  5
B7
330
AF
100
AcDbEntity
  8
Livello 1
 62
     7
420
 16777215
370
     9
100
AcDbVertex
100
AcDb2dVertex
 10
11.8409998885328
 20
8.983654918544016
 30
0.0
  0
VERTEX
  5
B8
330
AF
100
AcDbEntity
  8
Livello 1
 62
     7
420
 16777215
370
     9
100
AcDbVertex
100
AcDb2dVertex
 10
11.93711805257128
 20
9.172497827567986
 30
0.0
  0
VERTEX
  5
B9
330
AF
100
AcDbEntity
  8
Livello 1
 62
     7
420
 16777215
370
     9
100
AcDbVertex
100
AcDb2dVertex
 10
11.89632812202592
 20
9.211203475344767
 30
0.0
  0
VERTEX
  5
BA
330
AF
100
AcDbEntity
  8
Livello 1
 62
     7
420
 16777215
370
     9
100
AcDbVertex
100
AcDb2dVertex
 10
11.60700900317464
 20
8.90634697585501
 30
0.0
  0
VERTEX
  5
BB
330
AF
100
AcDbEntity
  8
Livello 1
 62
     7
420
 16777215
370
     9
100
AcDbVertex
100
AcDb2dVertex
 10
11.64779893371999
 20
8.867693004510507
 30
0.0
  0
SEQEND
  5
BC
330
AF
100
AcDbEntity
  8
Livello 1
370
     9
  0
SPLINE
  5
BD
330
3C
100
AcDbEntity
  8
Livello 1
 62
     7
420
 16777215
370
     9
100
AcDbSpline
210
0.0
220
0.0
230
1.0
 70
    11
 71
     3
 72
    35
 73
    31
 74
     0
 42
0.0000000001
 43
0.0000000001
 40
0.0
 40
0.0
 40
0.0
 40
0.0
 40
1.0
 40
1.0
 40
1.0
 40
2.0
 40
2.0
 40
2.0
 40
3.0
 40
3.0
 40
3.0
 40
4.0
 40
4.0
 40
4.0
 40
5.0
 40
5.0
 40
5.0
 40
6.0
 40
6.0
 40
6.0
 40
7.0
 40
7.0
 40
7.0
 40
8.0
 40
8.0
 40
8.0
 40
9.0
 40
9.0
 40
9.0
 40
10.0
 40
10.0
 40
10.0
 40
10.0
 10
10.0132044788335
 20
9.796060110398207
 30
0.0
 10
10.0132044788335
 20
9.796060110398207
 30
0.0
 10
10.05688828958647
 20
9.943716902896014
 30
0.0
 10
10.05688828958647
 20
9.943716902896014
 30
0.0
 10
10.05688828958647
 20
9.943716902896014
 30
0.0
 10
10.118658851637
 20
9.925440671346765
 30
0.0
 10
10.118658851637
 20
9.925440671346765
 30
0.0
 10
10.118658851637
 20
9.925440671346765
 30
0.0
 10
10.07494058992918
 20
9.777818329803809
 30
0.0
 10
10.07494058992918
 20
9.777818329803809
 30
0.0
 10
10.07494058992918
 20
9.777818329803809
 30
0.0
 10
10.12878743236364
 20
9.761867537707102
 30
0.0
 10
10.12878743236364
 20
9.761867537707102
 30
0.0
 10
10.12878743236364
 20
9.761867537707102
 30
0.0
 10
10.22769612374516
 20
10.09576619213752
 30
0.0
 10
10.22769612374516
 20
10.09576619213752
 30
0.0
 10
10.24133870186675
 20
10.14180989329788
 30
0.0
 10
10.22662814414473
 20
10.17123100874191
 30
0.0
 10
10.18363335248881
 20
10.18394341108249
 30
0.0
 10
10.18363335248881
 20
10.18394341108249
 30
0.0
 10
10.14322238244683
 20
10.1958978924163
 30
0.0
 10
10.14322238244683
 20
10.1958978924163
 30
0.0
 10
10.10015868888121
 20
10.20864474571173
 30
0.0
 10
10.07184000399246
 20
10.19203938547282
 30
0.0
 10
10.05823187682572
 20
10.14599568431246
 30
0.0
 10
10.05823187682572
 20
10.14599568431246
 30
0.0
 10
9.959288734489343
 20
9.812079804404618
 30
0.0
 10
9.959288734489343
 20
9.812079804404618
 30
0.0
 10
9.959288734489343
 20
9.812079804404618
 30
0.0
 10
10.0132044788335
 20
9.796060110398207
 30
0.0
 10
10.0132044788335
 20
9.796060110398207
 30
0.0
  0
SPLINE
  5
BE
330
3C
100
AcDbEntity
  8
Livello 1
 62
     7
420
 16777215
370
     9
100
AcDbSpline
210
0.0
220
0.0
230
1.0
 70
    11
 71
     3
 72
    23
 73
    19
 74
     0
 42
0.0000000001
 43
0.0000000001
 40
0.0
 40
0.0
 40
0.0
 40
0.0
 40
1.0
 40
1.0
 40
1.0
 40
2.0
 40
2.0
 40
2.0
 40
3.0
 40
3.0
 40
3.0
 40
4.0
 40
4.0
 40
4.0
 40
5.0
 40
5.0
 40
5.0
 40
6.0
 40
6.0
 40
6.0
 40
6.0
 10
10.11107964156945
 20
10.12666869864021
 30
0.0
 10
10.11573052047454
 20
10.1424127850078
 30
0.0
 10
10.12596245406573
 20
10.1479249377842
 30
0.0
 10
10.14163763852362
 20
10.14325683340168
 30
0.0
 10
10.14163763852362
 20
10.14325683340168
 30
0.0
 10
10.15624484338108
 20
10.1389332385677
 30
0.0
 10
10.15624484338108
 20
10.1389332385677
 30
0.0
 10
10.17192002783896
 20
10.13428235966261
 30
0.0
 10
10.17746663157022
 20
10.1241021025037
 30
0.0
 10
10.17281575266513
 20
10.10839246709096
 30
0.0
 10
10.17281575266513
 20
10.10839246709096
 30
0.0
 10
10.13312825267505
 20
9.974240448895328
 30
0.0
 10
10.13312825267505
 20
9.974240448895328
 30
0.0
 10
10.13312825267505
 20
9.974240448895328
 30
0.0
 10
10.07139214157937
 20
9.992516680444579
 30
0.0
 10
10.07139214157937
 20
9.992516680444579
 30
0.0
 10
10.07139214157937
 20
9.992516680444579
 30
0.0
 10
10.11107964156945
 20
10.12666869864021
 30
0.0
 10
10.11107964156945
 20
10.12666869864021
 30
0.0
  0
SPLINE
  5
BF
330
3C
100
AcDbEntity
  8
Livello 1
 62
     7
420
 16777215
370
     9
100
AcDbSpline
210
0.0
220
0.0
230
1.0
 70
    11
 71
     3
 72
    23
 73
    19
 74
     0
 42
0.0000000001
 43
0.0000000001
 40
0.0
 40
0.0
 40
0.0
 40
0.0
 40
1.0
 40
1.0
 40
1.0
 40
2.0
 40
2.0
 40
2.0
 40
3.0
 40
3.0
 40
3.0
 40
4.0
 40
4.0
 40
4.0
 40
5.0
 40
5.0
 40
5.0
 40
6.0
 40
6.0
 40
6.0
 40
6.0
 10
11.05307210010131
 20
9.327992212294737
 30
0.0
 10
11.09107150330362
 20
9.30410047510453
 30
0.0
 10
11.12087157925103
 20
9.309371471196963
 30
0.0
 10
11.1424378769887
 20
9.343787975094608
 30
0.0
 10
11.1424378769887
 20
9.343787975094608
 30
0.0
 10
11.29043917903503
 20
9.57988036869878
 30
0.0
 10
11.29043917903503
 20
9.57988036869878
 30
0.0
 10
11.3190334715626
 20
9.625510658400913
 30
0.0
 10
11.31104085003682
 20
9.662287052705956
 30
0.0
 10
11.26635796159313
 20
9.69027845352361
 30
0.0
 10
11.26635796159313
 20
9.69027845352361
 30
0.0
 10
11.18353786612773
 20
9.742196042486325
 30
0.0
 10
11.18353786612773
 20
9.742196042486325
 30
0.0
 10
11.18353786612773
 20
9.742196042486325
 30
0.0
 10
10.96036458059324
 20
9.386093747653476
 30
0.0
 10
10.96036458059324
 20
9.386093747653476
 30
0.0
 10
10.96036458059324
 20
9.386093747653476
 30
0.0
 10
11.05307210010131
 20
9.327992212294737
 30
0.0
 10
11.05307210010131
 20
9.327992212294737
 30
0.0
  0
SPLINE
  5
C0
330
3C
100
AcDbEntity
  8
Livello 1
 62
     7
420
 16777215
370
     9
100
AcDbSpline
210
0.0
220
0.0
230
1.0
 70
    11
 71
     3
 72
    23
 73
    19
 74
     0
 42
0.0000000001
 43
0.0000000001
 40
0.0
 40
0.0
 40
0.0
 40
0.0
 40
1.0
 40
1.0
 40
1.0
 40
2.0
 40
2.0
 40
2.0
 40
3.0
 40
3.0
 40
3.0
 40
4.0
 40
4.0
 40
4.0
 40
5.0
 40
5.0
 40
5.0
 40
6.0
 40
6.0
 40
6.0
 40
6.0
 10
11.20413953712952
 20
9.669211694631308
 30
0.0
 10
11.20413953712952
 20
9.669211694631308
 30
0.0
 10
11.23735025760733
 20
9.648368866945546
 30
0.0
 10
11.23735025760733
 20
9.648368866945546
 30
0.0
 10
11.25157850196141
 20
9.63944606963875
 30
0.0
 10
11.25330104970404
 20
9.626389157749651
 30
0.0
 10
11.24248344988035
 20
9.609215356755682
 30
0.0
 10
11.24248344988035
 20
9.609215356755682
 30
0.0
 10
11.09951198724248
 20
9.381081133722438
 30
0.0
 10
11.09951198724248
 20
9.381081133722438
 30
0.0
 10
11.09286295295595
 20
9.370487465105294
 30
0.0
 10
11.0832511365521
 20
9.369109426911194
 30
0.0
 10
11.07067653803094
 20
9.377015921049843
 30
0.0
 10
11.07067653803094
 20
9.377015921049843
 30
0.0
 10
11.03498534880375
 20
9.39939181622654
 30
0.0
 10
11.03498534880375
 20
9.39939181622654
 30
0.0
 10
11.03498534880375
 20
9.39939181622654
 30
0.0
 10
11.20413953712952
 20
9.669211694631308
 30
0.0
 10
11.20413953712952
 20
9.669211694631308
 30
0.0
  0
SPLINE
  5
C1
330
3C
100
AcDbEntity
  8
Livello 1
 62
     7
420
 16777215
370
     9
100
AcDbSpline
210
0.0
220
0.0
230
1.0
 70
    11
 71
     3
 72
   137
 73
   133
 74
     0
 42
0.0000000001
 43
0.0000000001
 40
0.0
 40
0.0
 40
0.0
 40
0.0
 40
1.0
 40
1.0
 40
1.0
 40
2.0
 40
2.0
 40
2.0
 40
3.0
 40
3.0
 40
3.0
 40
4.0
 40
4.0
 40
4.0
 40
5.0
 40
5.0
 40
5.0
 40
6.0
 40
6.0
 40
6.0
 40
7.0
 40
7.0
 40
7.0
 40
8.0
 40
8.0
 40
8.0
 40
9.0
 40
9.0
 40
9.0
 40
10.0
 40
10.0
 40
10.0
 40
11.0
 40
11.0
 40
11.0
 40
12.0
 40
12.0
 40
12.0
 40
13.0
 40
13.0
 40
13.0
 40
14.0
 40
14.0
 40
14.0
 40
15.0
 40
15.0
 40
15.0
 40
16.0
 40
16.0
 40
16.0
 40
17.0
 40
17.0
 40
17.0
 40
18.0
 40
18.0
 40
18.0
 40
19.0
 40
19.0
 40
19.0
 40
20.0
 40
20.0
 40
20.0
 40
21.0
 40
21.0
 40
21.0
 40
22.0
 40
22.0
 40
22.0
 40
23.0
 40
23.0
 40
23.0
 40
24.0
 40
24.0
 40
24.0
 40
25.0
 40
25.0
 40
25.0
 40
26.0
 40
26.0
 40
26.0
 40
27.0
 40
27.0
 40
27.0
 40
28.0
 40
28.0
 40
28.0
 40
29.0
 40
29.0
 40
29.0
 40
30.0
 40
30.0
 40
30.0
 40
31.0
 40
31.0
 40
31.0
 40
32.0
 40
32.0
 40
32.0
 40
33.0
 40
33.0
 40
33.0
 40
34.0
 40
34.0
 40
34.0
 40
35.0
 40
35.0
 40
35.0
 40
36.0
 40
36.0
 40
36.0
 40
37.0
 40
37.0
 40
37.0
 40
38.0
 40
38.0
 40
38.0
 40
39.0
 40
39.0
 40
39.0
 40
40.0
 40
40.0
 40
40.0
 40
41.0
 40
41.0
 40
41.0
 40
42.0
 40
42.0
 40
42.0
 40
43.0
 40
43.0
 40
43.0
 40
44.0
 40
44.0
 40
44.0
 40
44.0
 10
7.028098142774225
 20
7.336882051117168
 30
0.0
 10
7.028098142774225
 20
7.336882051117168
 30
0.0
 10
7.006566295991414
 20
7.584687769371189
 30
0.0
 10
7.006566295991414
 20
7.724765351801447
 30
0.0
 10
7.006566295991414
 20
7.724765351801447
 30
0.0
 10
6.722879908258515
 20
7.295644258158728
 30
0.0
 10
6.488165552848444
 20
6.847885197940806
 30
0.0
 10
6.55808376572159
 20
6.84249362350639
 30
0.0
 10
6.621800806721286
 20
6.832192788005493
 30
0.0
 10
6.677439098808071
 20
6.817086044302672
 30
0.0
 10
6.758967283466507
 20
6.79491685485509
 30
0.0
 10
6.829281682320457
 20
6.763652613326448
 30
0.0
 10
6.886797551446703
 20
6.724016789768648
 30
0.0
 10
6.894945202269319
 20
6.76534071011422
 30
0.0
 10
6.904143607214936
 20
6.805717229201348
 30
0.0
 10
6.91427218794157
 20
6.844319524113573
 30
0.0
 10
6.91427218794157
 20
6.844319524113573
 30
0.0
 10
6.933461369794412
 20
6.911481660598518
 30
0.0
 10
6.933461369794412
 20
6.911481660598518
 30
0.0
 10
6.937543807944433
 20
6.924900307513566
 30
0.0
 10
6.941281736545929
 20
6.936561955731137
 30
0.0
 10
6.945140243489409
 20
6.947965221787314
 30
0.0
 10
6.945140243489409
 20
6.947965221787314
 30
0.0
 10
6.978385414922069
 20
7.035677352841774
 30
0.0
 10
6.978385414922069
 20
7.035677352841774
 30
0.0
 10
6.978385414922069
 20
7.035677352841774
 30
0.0
 10
6.987084281022326
 20
7.056123994546732
 30
0.0
 10
6.987084281022326
 20
7.056123994546732
 30
0.0
 10
6.987084281022326
 20
7.056123994546732
 30
0.0
 10
7.003930797945197
 20
7.041654593508683
 30
0.0
 10
7.003930797945197
 20
7.041654593508683
 30
0.0
 10
7.054401446804108
 20
6.998298066826814
 30
0.0
 10
7.097275660118042
 20
6.962279593528526
 30
0.0
 10
7.134275985629625
 20
6.931187606774147
 30
0.0
 10
7.239161917678056
 20
6.843010387829177
 30
0.0
 10
7.297780217359582
 20
6.793745522390105
 30
0.0
 10
7.348991561747821
 20
6.729718422796736
 30
0.0
 10
7.578762205136559
 20
7.479715709935626
 30
0.0
 10
7.798524846140646
 20
7.71983886525754
 30
0.0
 10
8.03098266400788
 20
7.973811304430158
 30
0.0
 10
8.03098266400788
 20
7.973811304430158
 30
0.0
 10
8.071135251888466
 20
8.017667369957389
 30
0.0
 10
8.071135251888466
 20
8.017667369957389
 30
0.0
 10
8.071135251888466
 20
8.017667369957389
 30
0.0
 10
8.058887937438403
 20
7.959496932688944
 30
0.0
 10
8.058887937438403
 20
7.959496932688944
 30
0.0
 10
8.042713214135155
 20
7.882619626935594
 30
0.0
 10
8.085570201971663
 20
7.699564478326844
 30
0.0
 10
8.217000594733944
 20
7.476287839927802
 30
0.0
 10
8.296995711901445
 20
7.531908906537161
 30
0.0
 10
8.393062199507636
 20
7.897554115864152
 30
0.0
 10
8.394026826243506
 20
8.106671411818818
 30
0.0
 10
8.394405786746884
 20
8.189129772258273
 30
0.0
 10
8.379574650682883
 20
8.223477374246214
 30
0.0
 10
8.365587563012769
 20
8.228111027673874
 30
0.0
 10
8.365587563012769
 20
8.228111027673874
 30
0.0
 10
8.369446069956249
 20
8.240151636394822
 30
0.0
 10
8.369446069956249
 20
8.240151636394822
 30
0.0
 10
8.369446069956249
 20
8.240151636394822
 30
0.0
 10
8.36503634773513
 20
8.228283282448137
 30
0.0
 10
8.36503634773513
 20
8.228283282448137
 30
0.0
 10
8.36503634773513
 20
8.228283282448137
 30
0.0
 10
8.365897621606441
 20
8.231452770294567
 30
0.0
 10
8.365897621606441
 20
8.231452770294567
 30
0.0
 10
8.365897621606441
 20
8.231452770294567
 30
0.0
 10
8.364691838186603
 20
8.228386635312694
 30
0.0
 10
8.364691838186603
 20
8.228386635312694
 30
0.0
 10
8.364691838186603
 20
8.228386635312694
 30
0.0
 10
8.37380411574509
 20
8.259599200409058
 30
0.0
 10
8.37380411574509
 20
8.259599200409058
 30
0.0
 10
8.37380411574509
 20
8.259599200409058
 30
0.0
 10
8.373183998557746
 20
8.256360810652923
 30
0.0
 10
8.373183998557746
 20
8.256360810652923
 30
0.0
 10
8.373183998557746
 20
8.256360810652923
 30
0.0
 10
8.37413139981619
 20
8.259513073021926
 30
0.0
 10
8.37413139981619
 20
8.259513073021926
 30
0.0
 10
8.37413139981619
 20
8.259513073021926
 30
0.0
 10
8.37104803935689
 20
8.24521592675814
 30
0.0
 10
8.37104803935689
 20
8.24521592675814
 30
0.0
 10
8.37104803935689
 20
8.24521592675814
 30
0.0
 10
8.375492212532862
 20
8.259099661563697
 30
0.0
 10
8.375492212532862
 20
8.259099661563697
 30
0.0
 10
8.520840791055553
 20
8.214158390958612
 30
0.0
 10
8.770024547503674
 20
7.997858070917202
 30
0.0
 10
8.90088649951089
 20
7.694517413440954
 30
0.0
 10
8.918938799853597
 20
7.94909274432349
 30
0.0
 10
9.090401202154482
 20
8.306383597098751
 30
0.0
 10
9.226689179550966
 20
8.493779566018915
 30
0.0
 10
9.226689179550966
 20
8.493779566018915
 30
0.0
 10
9.253905433884439
 20
8.53119330298873
 30
0.0
 10
9.253905433884439
 20
8.53119330298873
 30
0.0
 10
9.253905433884439
 20
8.53119330298873
 30
0.0
 10
9.256075844040147
 20
8.484977347054102
 30
0.0
 10
9.256075844040147
 20
8.484977347054102
 30
0.0
 10
9.259658743344806
 20
8.408720158488098
 30
0.0
 10
9.354295516324619
 20
8.280510930004525
 30
0.0
 10
9.52320854796642
 20
8.122449949141261
 30
0.0
 10
9.55107937044209
 20
8.268504772238428
 30
0.0
 10
9.663079424667563
 20
8.50964423072849
 30
0.0
 10
9.90089436601436
 20
8.755469019078493
 30
0.0
 10
9.90089436601436
 20
8.755469019078493
 30
0.0
 10
9.928868541354587
 20
8.784356144722313
 30
0.0
 10
9.928868541354587
 20
8.784356144722313
 30
0.0
 10
9.928868541354587
 20
8.784356144722313
 30
0.0
 10
9.928868541354587
 20
8.744169105886874
 30
0.0
 10
9.928868541354587
 20
8.744169105886874
 30
0.0
 10
9.928868541354587
 20
8.330309785243811
 30
0.0
 10
10.08999565719972
 20
7.751516518244412
 30
0.0
 10
10.33225477172249
 20
7.520884600984362
 30
0.0
 10
10.36253716103784
 20
7.648645967054851
 30
0.0
 10
10.52631700040661
 20
7.986213648177057
 30
0.0
 10
10.54667751472444
 20
8.02789930354858
 30
0.0
 10
10.54667751472444
 20
8.02789930354858
 30
0.0
 10
10.56862277296548
 20
8.072840574153664
 30
0.0
 10
10.56862277296548
 20
8.072840574153664
 30
0.0
 10
10.56862277296548
 20
8.072840574153664
 30
0.0
 10
10.57730441358831
 20
8.023592934192019
 30
0.0
 10
10.57730441358831
 20
8.023592934192019
 30
0.0
 10
10.64730875384859
 20
7.626890189065499
 30
0.0
 10
10.92353650985592
 20
7.319587671781214
 30
0.0
 10
11.4397151664109
 20
6.866798772154827
 30
0.0
 10
11.4397151664109
 20
6.866798772154827
 30
0.0
 10
9.878225637721416
 20
9.761729733887693
 30
0.0
 10
9.878225637721416
 20
9.761729733887693
 30
0.0
 10
9.878225637721416
 20
9.761729733887693
 30
0.0
 10
8.77197102645284
 20
8.353219670220723
 30
0.0
 10
8.77197102645284
 20
8.353219670220723
 30
0.0
 10
8.77197102645284
 20
8.353219670220723
 30
0.0
 10
7.901429848285058
 20
9.157287731000608
 30
0.0
 10
7.901429848285058
 20
9.157287731000608
 30
0.0
 10
7.901429848285058
 20
9.157287731000608
 30
0.0
 10
7.345305309578603
 20
8.141656356471529
 30
0.0
 10
7.028098142774225
 20
7.336882051117168
 30
0.0
  0
SPLINE
  5
C2
330
3C
100
AcDbEntity
  8
Livello 1
 62
     7
420
 16777215
370
     9
100
AcDbSpline
210
0.0
220
0.0
230
1.0
 70
    11
 71
     3
 72
    17
 73
    13
 74
     0
 42
0.0000000001
 43
0.0000000001
 40
0.0
 40
0.0
 40
0.0
 40
0.0
 40
1.0
 40
1.0
 40
1.0
 40
2.0
 40
2.0
 40
2.0
 40
3.0
 40
3.0
 40
3.0
 40
4.0
 40
4.0
 40
4.0
 40
4.0
 10
9.874539385552199
 20
9.679598657519335
 30
0.0
 10
9.987848576062065
 20
9.416668970085068
 30
0.0
 10
10.24509385594567
 20
9.004084334771548
 30
0.0
 10
10.24509385594567
 20
9.004084334771548
 30
0.0
 10
10.08193413376424
 20
9.13105332888043
 30
0.0
 10
9.842775605178193
 20
9.334985756129795
 30
0.0
 10
9.842775605178193
 20
9.334985756129795
 30
0.0
 10
9.747587616920741
 20
9.285169675413082
 30
0.0
 10
9.566306692486895
 20
9.267048473160667
 30
0.0
 10
9.52996093511751
 20
9.257970646557034
 30
0.0
 10
9.52996093511751
 20
9.257970646557034
 30
0.0
 10
9.874539385552199
 20
9.679598657519335
 30
0.0
 10
9.874539385552199
 20
9.679598657519335
 30
0.0
  0
SPLINE
  5
C3
330
3C
100
AcDbEntity
  8
Livello 1
 62
     7
420
 16777215
370
     9
100
AcDbSpline
210
0.0
220
0.0
230
1.0
 70
    11
 71
     3
 72
    23
 73
    19
 74
     0
 42
0.0000000001
 43
0.0000000001
 40
0.0
 40
0.0
 40
0.0
 40
0.0
 40
1.0
 40
1.0
 40
1.0
 40
2.0
 40
2.0
 40
2.0
 40
3.0
 40
3.0
 40
3.0
 40
4.0
 40
4.0
 40
4.0
 40
5.0
 40
5.0
 40
5.0
 40
6.0
 40
6.0
 40
6.0
 40
6.0
 10
8.387567272208663
 20
8.629292396931218
 30
0.0
 10
8.387567272208663
 20
8.629292396931218
 30
0.0
 10
8.156349688716121
 20
8.674612628039679
 30
0.0
 10
8.156349688716121
 20
8.674612628039679
 30
0.0
 10
8.156349688716121
 20
8.674612628039679
 30
0.0
 10
8.074735376670551
 20
8.32099080195621
 30
0.0
 10
8.074735376670551
 20
8.32099080195621
 30
0.0
 10
8.074735376670551
 20
8.32099080195621
 30
0.0
 10
7.807258163195755
 20
8.647430824661058
 30
0.0
 10
7.807258163195755
 20
8.647430824661058
 30
0.0
 10
7.807258163195755
 20
8.647430824661058
 30
0.0
 10
7.657620440793927
 20
8.4570203971913
 30
0.0
 10
7.562398001581622
 20
8.389031437789894
 30
0.0
 10
7.562398001581622
 20
8.389031437789894
 30
0.0
 10
7.725626625672759
 20
8.706359182936257
 30
0.0
 10
7.906993677493737
 20
9.091727563916304
 30
0.0
 10
7.906993677493737
 20
9.091727563916304
 30
0.0
 10
8.183531492094742
 20
8.815172523837873
 30
0.0
 10
8.387567272208663
 20
8.629292396931218
 30
0.0
  0
POLYLINE
  5
C4
330
3C
100
AcDbEntity
  8
Livello 1
 62
     7
420
 16777215
370
     9
100
AcDb2dPolyline
 66
     1
 10
0.0
 20
0.0
 30
0.0
  0
VERTEX
  5
C5
330
C4
100
AcDbEntity
  8
Livello 1
 62
     7
420
 16777215
370
     9
100
AcDbVertex
100
AcDb2dVertex
 10
8.75088704208311
 20
9.95026258431799
 30
0.0
  0
VERTEX
  5
C6
330
C4
100
AcDbEntity
  8
Livello 1
 62
     7
420
 16777215
370
     9
100
AcDbVertex
100
AcDb2dVertex
 10
8.748096514740059
 20
10.00109496820285
 30
0.0
  0
VERTEX
  5
C7
330
C4
100
AcDbEntity
  8
Livello 1
 62
     7
420
 16777215
370
     9
100
AcDbVertex
100
AcDb2dVertex
 10
8.670960826825315
 20
9.99687472623342
 30
0.0
  0
VERTEX
  5
C8
330
C4
100
AcDbEntity
  8
Livello 1
 62
     7
420
 16777215
370
     9
100
AcDbVertex
100
AcDb2dVertex
 10
8.650669214417194
 20
10.36565497245199
 30
0.0
  0
VERTEX
  5
C9
330
C4
100
AcDbEntity
  8
Livello 1
 62
     7
420
 16777215
370
     9
100
AcDbVertex
100
AcDb2dVertex
 10
8.594531383485046
 20
10.36260606294754
 30
0.0
  0
VERTEX
  5
CA
330
C4
100
AcDbEntity
  8
Livello 1
 62
     7
420
 16777215
370
     9
100
AcDbVertex
100
AcDb2dVertex
 10
8.617613523236221
 20
9.942924530934407
 30
0.0
  0
VERTEX
  5
CB
330
C4
100
AcDbEntity
  8
Livello 1
 62
     7
420
 16777215
370
     9
100
AcDbVertex
100
AcDb2dVertex
 10
8.75088704208311
 20
9.95026258431799
 30
0.0
  0
SEQEND
  5
CC
330
C4
100
AcDbEntity
  8
Livello 1
370
     9
  0
SPLINE
  5
CD
330
3C
100
AcDbEntity
  8
Livello 1
 62
     7
420
 16777215
370
     9
100
AcDbSpline
210
0.0
220
0.0
230
1.0
 70
    11
 71
     3
 72
    29
 73
    25
 74
     0
 42
0.0000000001
 43
0.0000000001
 40
0.0
 40
0.0
 40
0.0
 40
0.0
 40
1.0
 40
1.0
 40
1.0
 40
2.0
 40
2.0
 40
2.0
 40
3.0
 40
3.0
 40
3.0
 40
4.0
 40
4.0
 40
4.0
 40
5.0
 40
5.0
 40
5.0
 40
6.0
 40
6.0
 40
6.0
 40
7.0
 40
7.0
 40
7.0
 40
8.0
 40
8.0
 40
8.0
 40
8.0
 10
8.858666854339152
 20
9.951761200854072
 30
0.0
 10
8.858666854339152
 20
9.951761200854072
 30
0.0
 10
8.911325138831195
 20
9.952622474725386
 30
0.0
 10
8.911325138831195
 20
9.952622474725386
 30
0.0
 10
8.956559242552526
 20
9.953363170254715
 30
0.0
 10
8.978780108432387
 20
9.977513289606316
 30
0.0
 10
8.978022187425633
 20
10.02514173468989
 30
0.0
 10
8.978022187425633
 20
10.02514173468989
 30
0.0
 10
8.97357801424966
 20
10.30193793145229
 30
0.0
 10
8.97357801424966
 20
10.30193793145229
 30
0.0
 10
8.9727511913332
 20
10.34994533703925
 30
0.0
 10
8.949944659220847
 20
10.37356146659064
 30
0.0
 10
8.905123966957746
 20
10.37287244749359
 30
0.0
 10
8.905123966957746
 20
10.37287244749359
 30
0.0
 10
8.85124267356844
 20
10.37199394814485
 30
0.0
 10
8.85124267356844
 20
10.37199394814485
 30
0.0
 10
8.806404755827913
 20
10.37125325261552
 30
0.0
 10
8.784356144722313
 20
10.3468964275348
 30
0.0
 10
8.78514851668392
 20
10.2989234729027
 30
0.0
 10
8.78514851668392
 20
10.2989234729027
 30
0.0
 10
8.789627140814746
 20
10.02207559970802
 30
0.0
 10
8.789627140814746
 20
10.02207559970802
 30
0.0
 10
8.790419512776353
 20
9.974429929147016
 30
0.0
 10
8.81339829966297
 20
9.951020505324744
 30
0.0
 10
8.858666854339152
 20
9.951761200854072
 30
0.0
  0
SPLINE
  5
CE
330
3C
100
AcDbEntity
  8
Livello 1
 62
     7
420
 16777215
370
     9
100
AcDbSpline
210
0.0
220
0.0
230
1.0
 70
    11
 71
     3
 72
    29
 73
    25
 74
     0
 42
0.0000000001
 43
0.0000000001
 40
0.0
 40
0.0
 40
0.0
 40
0.0
 40
1.0
 40
1.0
 40
1.0
 40
2.0
 40
2.0
 40
2.0
 40
3.0
 40
3.0
 40
3.0
 40
4.0
 40
4.0
 40
4.0
 40
5.0
 40
5.0
 40
5.0
 40
6.0
 40
6.0
 40
6.0
 40
7.0
 40
7.0
 40
7.0
 40
8.0
 40
8.0
 40
8.0
 40
8.0
 10
8.865522594354799
 20
10.3212993680794
 30
0.0
 10
8.865522594354799
 20
10.3212993680794
 30
0.0
 10
8.891894800294386
 20
10.32171277953763
 30
0.0
 10
8.891894800294386
 20
10.32171277953763
 30
0.0
 10
8.908672415307553
 20
10.32200561265387
 30
0.0
 10
8.91718180115612
 20
10.31390963826354
 30
0.0
 10
8.917422957840088
 20
10.29756266018603
 30
0.0
 10
8.917422957840088
 20
10.29756266018603
 30
0.0
 10
8.921798229106356
 20
10.02827677158147
 30
0.0
 10
8.921798229106356
 20
10.02827677158147
 30
0.0
 10
8.922073836745176
 20
10.01189534254911
 30
0.0
 10
8.914839136226151
 20
10.00357543695223
 30
0.0
 10
8.899956323729871
 20
10.00338595670054
 30
0.0
 10
8.899956323729871
 20
10.00338595670054
 30
0.0
 10
8.871310354770019
 20
10.00288641785518
 30
0.0
 10
8.871310354770019
 20
10.00288641785518
 30
0.0
 10
8.854463837847147
 20
10.00264526117121
 30
0.0
 10
8.845988902953433
 20
10.01065510817442
 30
0.0
 10
8.845713295314614
 20
10.02705376268421
 30
0.0
 10
8.845713295314614
 20
10.02705376268421
 30
0.0
 10
8.841338024048346
 20
10.29628797485648
 30
0.0
 10
8.841338024048346
 20
10.29628797485648
 30
0.0
 10
8.841062416409525
 20
10.31266940388885
 30
0.0
 10
8.849141165322436
 20
10.32098930948573
 30
0.0
 10
8.865522594354799
 20
10.3212993680794
 30
0.0
  0
POLYLINE
  5
CF
330
3C
100
AcDbEntity
  8
Livello 1
 62
     7
420
 16777215
370
     9
100
AcDb2dPolyline
 66
     1
 10
0.0
 20
0.0
 30
0.0
  0
VERTEX
  5
D0
330
CF
100
AcDbEntity
  8
Livello 1
 62
     7
420
 16777215
370
     9
100
AcDbVertex
100
AcDb2dVertex
 10
8.419813365950601
 20
10.37716159137272
 30
0.0
  0
VERTEX
  5
D1
330
CF
100
AcDbEntity
  8
Livello 1
 62
     7
420
 16777215
370
     9
100
AcDbVertex
100
AcDb2dVertex
 10
8.380315346212212
 20
10.37221787935139
 30
0.0
  0
VERTEX
  5
D2
330
CF
100
AcDbEntity
  8
Livello 1
 62
     7
420
 16777215
370
     9
100
AcDbVertex
100
AcDb2dVertex
 10
8.312757023746462
 20
9.88113674340645
 30
0.0
  0
VERTEX
  5
D3
330
CF
100
AcDbEntity
  8
Livello 1
 62
     7
420
 16777215
370
     9
100
AcDbVertex
100
AcDb2dVertex
 10
8.351652151774934
 20
9.88601155351808
 30
0.0
  0
VERTEX
  5
D4
330
CF
100
AcDbEntity
  8
Livello 1
 62
     7
420
 16777215
370
     9
100
AcDbVertex
100
AcDb2dVertex
 10
8.419813365950601
 20
10.37716159137272
 30
0.0
  0
SEQEND
  5
D5
330
CF
100
AcDbEntity
  8
Livello 1
370
     9
  0
POLYLINE
  5
D6
330
3C
100
AcDbEntity
  8
Livello 1
 62
     7
420
 16777215
370
     9
100
AcDb2dPolyline
 66
     1
 10
0.0
 20
0.0
 30
0.0
  0
VERTEX
  5
D7
330
D6
100
AcDbEntity
  8
Livello 1
 62
     7
420
 16777215
370
     9
100
AcDbVertex
100
AcDb2dVertex
 10
9.108660208226306
 20
10.22237345122045
 30
0.0
  0
VERTEX
  5
D8
330
D6
100
AcDbEntity
  8
Livello 1
 62
     7
420
 16777215
370
     9
100
AcDbVertex
100
AcDb2dVertex
 10
9.15833848512361
 20
10.02793226203295
 30
0.0
  0
VERTEX
  5
D9
330
D6
100
AcDbEntity
  8
Livello 1
 62
     7
420
 16777215
370
     9
100
AcDbVertex
100
AcDb2dVertex
 10
9.153756508128227
 20
9.944354245560787
 30
0.0
  0
VERTEX
  5
DA
330
D6
100
AcDbEntity
  8
Livello 1
 62
     7
420
 16777215
370
     9
100
AcDbVertex
100
AcDb2dVertex
 10
9.209842662628095
 20
9.941270885101487
 30
0.0
  0
VERTEX
  5
DB
330
D6
100
AcDbEntity
  8
Livello 1
 62
     7
420
 16777215
370
     9
100
AcDbVertex
100
AcDb2dVertex
 10
9.232993704288972
 20
10.36095241711462
 30
0.0
  0
VERTEX
  5
DC
330
D6
100
AcDbEntity
  8
Livello 1
 62
     7
420
 16777215
370
     9
100
AcDbVertex
100
AcDb2dVertex
 10
9.1768386478794
 20
10.36400132661907
 30
0.0
  0
VERTEX
  5
DD
330
D6
100
AcDbEntity
  8
Livello 1
 62
     7
420
 16777215
370
     9
100
AcDbVertex
100
AcDb2dVertex
 10
9.165642087552339
 20
10.16120578087984
 30
0.0
  0
VERTEX
  5
DE
330
D6
100
AcDbEntity
  8
Livello 1
 62
     7
420
 16777215
370
     9
100
AcDbVertex
100
AcDb2dVertex
 10
9.116618378797234
 20
10.36734306923976
 30
0.0
  0
VERTEX
  5
DF
330
D6
100
AcDbEntity
  8
Livello 1
 62
     7
420
 16777215
370
     9
100
AcDbVertex
100
AcDb2dVertex
 10
9.060532224297367
 20
10.37044365517649
 30
0.0
  0
VERTEX
  5
E0
330
D6
100
AcDbEntity
  8
Livello 1
 62
     7
420
 16777215
370
     9
100
AcDbVertex
100
AcDb2dVertex
 10
9.03741563359134
 20
9.95076212316335
 30
0.0
  0
VERTEX
  5
E1
330
D6
100
AcDbEntity
  8
Livello 1
 62
     7
420
 16777215
370
     9
100
AcDbVertex
100
AcDb2dVertex
 10
9.093570690000913
 20
9.947678762704053
 30
0.0
  0
VERTEX
  5
E2
330
D6
100
AcDbEntity
  8
Livello 1
 62
     7
420
 16777215
370
     9
100
AcDbVertex
100
AcDb2dVertex
 10
9.108660208226306
 20
10.22237345122045
 30
0.0
  0
SEQEND
  5
E3
330
D6
100
AcDbEntity
  8
Livello 1
370
     9
  0
SPLINE
  5
E4
330
3C
100
AcDbEntity
  8
Livello 1
 62
     7
420
 16777215
370
     9
100
AcDbSpline
210
0.0
220
0.0
230
1.0
 70
    11
 71
     3
 72
   107
 73
   103
 74
     0
 42
0.0000000001
 43
0.0000000001
 40
0.0
 40
0.0
 40
0.0
 40
0.0
 40
1.0
 40
1.0
 40
1.0
 40
2.0
 40
2.0
 40
2.0
 40
3.0
 40
3.0
 40
3.0
 40
4.0
 40
4.0
 40
4.0
 40
5.0
 40
5.0
 40
5.0
 40
6.0
 40
6.0
 40
6.0
 40
7.0
 40
7.0
 40
7.0
 40
8.0
 40
8.0
 40
8.0
 40
9.0
 40
9.0
 40
9.0
 40
10.0
 40
10.0
 40
10.0
 40
11.0
 40
11.0
 40
11.0
 40
12.0
 40
12.0
 40
12.0
 40
13.0
 40
13.0
 40
13.0
 40
14.0
 40
14.0
 40
14.0
 40
15.0
 40
15.0
 40
15.0
 40
16.0
 40
16.0
 40
16.0
 40
17.0
 40
17.0
 40
17.0
 40
18.0
 40
18.0
 40
18.0
 40
19.0
 40
19.0
 40
19.0
 40
20.0
 40
20.0
 40
20.0
 40
21.0
 40
21.0
 40
21.0
 40
22.0
 40
22.0
 40
22.0
 40
23.0
 40
23.0
 40
23.0
 40
24.0
 40
24.0
 40
24.0
 40
25.0
 40
25.0
 40
25.0
 40
26.0
 40
26.0
 40
26.0
 40
27.0
 40
27.0
 40
27.0
 40
28.0
 40
28.0
 40
28.0
 40
29.0
 40
29.0
 40
29.0
 40
30.0
 40
30.0
 40
30.0
 40
31.0
 40
31.0
 40
31.0
 40
32.0
 40
32.0
 40
32.0
 40
33.0
 40
33.0
 40
33.0
 40
34.0
 40
34.0
 40
34.0
 40
34.0
 10
5.338072101530065
 20
8.468544241589461
 30
0.0
 10
5.338072101530065
 20
8.468544241589461
 30
0.0
 10
5.407077364099619
 20
8.417126191472107
 30
0.0
 10
5.407077364099619
 20
8.417126191472107
 30
0.0
 10
5.415862357587006
 20
8.410614961004985
 30
0.0
 10
5.423699949815949
 20
8.40622246426129
 30
0.0
 10
5.430572915309023
 20
8.404034828628157
 30
0.0
 10
5.437463106279523
 20
8.401829967517598
 30
0.0
 10
5.444198267953186
 20
8.401571585356203
 30
0.0
 10
5.450761174852587
 20
8.403225231189124
 30
0.0
 10
5.457358532706841
 20
8.40489610249947
 30
0.0
 10
5.466625839562163
 20
8.408530678236408
 30
0.0
 10
5.478666448283111
 20
8.41421508578707
 30
0.0
 10
5.478666448283111
 20
8.41421508578707
 30
0.0
 10
5.534408093234453
 20
8.439140351622854
 30
0.0
 10
5.534408093234453
 20
8.439140351622854
 30
0.0
 10
5.542038979734282
 20
8.4421892611273
 30
0.0
 10
5.547861191104354
 20
8.444152965553892
 30
0.0
 10
5.551926403776949
 20
8.44503146490263
 30
0.0
 10
5.555991616449544
 20
8.445892738773942
 30
0.0
 10
5.561176485154844
 20
8.443997936257055
 30
0.0
 10
5.567412107983147
 20
8.439364282829395
 30
0.0
 10
5.567412107983147
 20
8.439364282829395
 30
0.0
 10
5.624704045902852
 20
8.396696775244575
 30
0.0
 10
5.624704045902852
 20
8.396696775244575
 30
0.0
 10
5.63784708517908
 20
8.386912704066466
 30
0.0
 10
5.640000269857361
 20
8.376043427810503
 30
0.0
 10
5.631111923505416
 20
8.364175073863816
 30
0.0
 10
5.631111923505416
 20
8.364175073863816
 30
0.0
 10
5.62516913379336
 20
8.356182452338038
 30
0.0
 10
5.62516913379336
 20
8.356182452338038
 30
0.0
 10
5.615178356886136
 20
8.34271212899071
 30
0.0
 10
5.603568385100844
 20
8.340886228383528
 30
0.0
 10
5.590442571302042
 20
8.350687525039064
 30
0.0
 10
5.590442571302042
 20
8.350687525039064
 30
0.0
 10
5.572131888797939
 20
8.364312877683227
 30
0.0
 10
5.572131888797939
 20
8.364312877683227
 30
0.0
 10
5.572131888797939
 20
8.364312877683227
 30
0.0
 10
5.538559433294179
 20
8.319233803258733
 30
0.0
 10
5.538559433294179
 20
8.319233803258733
 30
0.0
 10
5.538559433294179
 20
8.319233803258733
 30
0.0
 10
5.555474852126756
 20
8.306693655692424
 30
0.0
 10
5.555474852126756
 20
8.306693655692424
 30
0.0
 10
5.596764321517475
 20
8.275877276576864
 30
0.0
 10
5.63081909038917
 20
8.278478323668226
 30
0.0
 10
5.657621933264414
 20
8.314514022443941
 30
0.0
 10
5.657621933264414
 20
8.314514022443941
 30
0.0
 10
5.67825805522106
 20
8.342195364667923
 30
0.0
 10
5.67825805522106
 20
8.342195364667923
 30
0.0
 10
5.705284829302845
 20
8.378523896559882
 30
0.0
 10
5.699893254868429
 20
8.410769990301821
 30
0.0
 10
5.661997204530681
 20
8.43896809684859
 30
0.0
 10
5.661997204530681
 20
8.43896809684859
 30
0.0
 10
5.590166963663222
 20
8.49247042973452
 30
0.0
 10
5.590166963663222
 20
8.49247042973452
 30
0.0
 10
5.578298609716536
 20
8.501307099654186
 30
0.0
 10
5.569427488842018
 20
8.506181909765814
 30
0.0
 10
5.563570826517093
 20
8.507198212933964
 30
0.0
 10
5.557679713237316
 20
8.508145614192408
 30
0.0
 10
5.551840276389817
 20
8.50776665368903
 30
0.0
 10
5.54594916311004
 20
8.506061331423831
 30
0.0
 10
5.540058049830263
 20
8.504356009158633
 30
0.0
 10
5.530962997749203
 20
8.500790335331398
 30
0.0
 10
5.518629555912009
 20
8.495364309942131
 30
0.0
 10
5.518629555912009
 20
8.495364309942131
 30
0.0
 10
5.463835312219111
 20
8.469767250486724
 30
0.0
 10
5.463835312219111
 20
8.469767250486724
 30
0.0
 10
5.456204425719282
 20
8.466718340982277
 30
0.0
 10
5.450330537916931
 20
8.464720185600834
 30
0.0
 10
5.446265325244336
 20
8.463893362684374
 30
0.0
 10
5.442200112571741
 20
8.462963186903355
 30
0.0
 10
5.437066920298719
 20
8.464892440375095
 30
0.0
 10
5.430814071992991
 20
8.469543319280183
 30
0.0
 10
5.430814071992991
 20
8.469543319280183
 30
0.0
 10
5.374934623222238
 20
8.511177298219428
 30
0.0
 10
5.374934623222238
 20
8.511177298219428
 30
0.0
 10
5.361498750829764
 20
8.521150849649226
 30
0.0
 10
5.359517820925745
 20
8.532588566660255
 30
0.0
 10
5.369060735419887
 20
8.545404321865384
 30
0.0
 10
5.369060735419887
 20
8.545404321865384
 30
0.0
 10
5.374348956989746
 20
8.552483993087574
 30
0.0
 10
5.374348956989746
 20
8.552483993087574
 30
0.0
 10
5.384098577213003
 20
8.565609806886375
 30
0.0
 10
5.395760225430574
 20
8.567160099854737
 30
0.0
 10
5.409196097823048
 20
8.557169322947512
 30
0.0
 10
5.409196097823048
 20
8.557169322947512
 30
0.0
 10
5.438789468041344
 20
8.53513793731934
 30
0.0
 10
5.438789468041344
 20
8.53513793731934
 30
0.0
 10
5.438789468041344
 20
8.53513793731934
 30
0.0
 10
5.472310247112825
 20
8.580199786266407
 30
0.0
 10
5.472310247112825
 20
8.580199786266407
 30
0.0
 10
5.472310247112825
 20
8.580199786266407
 30
0.0
 10
5.439478487138394
 20
8.604694415166534
 30
0.0
 10
5.439478487138394
 20
8.604694415166534
 30
0.0
 10
5.400962319613301
 20
8.63337483508124
 30
0.0
 10
5.368320039890558
 20
8.629671357434596
 30
0.0
 10
5.341517197015315
 20
8.593704560568588
 30
0.0
 10
5.341517197015315
 20
8.593704560568588
 30
0.0
 10
5.320536565510143
 20
8.56554090497667
 30
0.0
 10
5.320536565510143
 20
8.56554090497667
 30
0.0
 10
5.293750948112326
 20
8.529522431678382
 30
0.0
 10
5.299590384959824
 20
8.497190210549313
 30
0.0
 10
5.338072101530065
 20
8.468544241589461
 30
0.0
  0
SPLINE
  5
E5
330
3C
100
AcDbEntity
  8
Livello 1
 62
     7
420
 16777215
370
     9
100
AcDbSpline
210
0.0
220
0.0
230
1.0
 70
    11
 71
     3
 72
    65
 73
    61
 74
     0
 42
0.0000000001
 43
0.0000000001
 40
0.0
 40
0.0
 40
0.0
 40
0.0
 40
1.0
 40
1.0
 40
1.0
 40
2.0
 40
2.0
 40
2.0
 40
3.0
 40
3.0
 40
3.0
 40
4.0
 40
4.0
 40
4.0
 40
5.0
 40
5.0
 40
5.0
 40
6.0
 40
6.0
 40
6.0
 40
7.0
 40
7.0
 40
7.0
 40
8.0
 40
8.0
 40
8.0
 40
9.0
 40
9.0
 40
9.0
 40
10.0
 40
10.0
 40
10.0
 40
11.0
 40
11.0
 40
11.0
 40
12.0
 40
12.0
 40
12.0
 40
13.0
 40
13.0
 40
13.0
 40
14.0
 40
14.0
 40
14.0
 40
15.0
 40
15.0
 40
15.0
 40
16.0
 40
16.0
 40
16.0
 40
17.0
 40
17.0
 40
17.0
 40
18.0
 40
18.0
 40
18.0
 40
19.0
 40
19.0
 40
19.0
 40
20.0
 40
20.0
 40
20.0
 40
20.0
 10
9.332832571451513
 20
9.929126923515982
 30
0.0
 10
9.332832571451513
 20
9.929126923515982
 30
0.0
 10
9.44214545119849
 20
9.91682793263364
 30
0.0
 10
9.44214545119849
 20
9.91682793263364
 30
0.0
 10
9.44214545119849
 20
9.91682793263364
 30
0.0
 10
9.464986434265697
 20
10.12045030128933
 30
0.0
 10
9.464986434265697
 20
10.12045030128933
 30
0.0
 10
9.464986434265697
 20
10.12045030128933
 30
0.0
 10
9.38006483055429
 20
10.1300104412609
 30
0.0
 10
9.38006483055429
 20
10.1300104412609
 30
0.0
 10
9.38006483055429
 20
10.1300104412609
 30
0.0
 10
9.374414873958479
 20
10.07936753762773
 30
0.0
 10
9.374414873958479
 20
10.07936753762773
 30
0.0
 10
9.374414873958479
 20
10.07936753762773
 30
0.0
 10
9.40352593080884
 20
10.07607747143931
 30
0.0
 10
9.40352593080884
 20
10.07607747143931
 30
0.0
 10
9.40352593080884
 20
10.07607747143931
 30
0.0
 10
9.392019311888106
 20
9.973706459095114
 30
0.0
 10
9.392019311888106
 20
9.973706459095114
 30
0.0
 10
9.392019311888106
 20
9.973706459095114
 30
0.0
 10
9.35415771250521
 20
9.977961152019398
 30
0.0
 10
9.35415771250521
 20
9.977961152019398
 30
0.0
 10
9.33789686181483
 20
9.97978705262658
 30
0.0
 10
9.330903317979773
 20
9.990776907224527
 30
0.0
 10
9.333142630045186
 20
10.01094794129066
 30
0.0
 10
9.333142630045186
 20
10.01094794129066
 30
0.0
 10
9.361909177347021
 20
10.26691853584473
 30
0.0
 10
9.361909177347021
 20
10.26691853584473
 30
0.0
 10
9.364182940367288
 20
10.28707234443344
 30
0.0
 10
9.373484698177462
 20
10.2962362984242
 30
0.0
 10
9.389745548867841
 20
10.29437594686217
 30
0.0
 10
9.389745548867841
 20
10.29437594686217
 30
0.0
 10
9.403698185583103
 20
10.29282565389381
 30
0.0
 10
9.403698185583103
 20
10.29282565389381
 30
0.0
 10
9.419580075770105
 20
10.29106865519633
 30
0.0
 10
9.426366913876047
 20
10.28007880059838
 30
0.0
 10
9.424162052765487
 20
10.25990776653224
 30
0.0
 10
9.424162052765487
 20
10.25990776653224
 30
0.0
 10
9.419959036273482
 20
10.22268350981412
 30
0.0
 10
9.419959036273482
 20
10.22268350981412
 30
0.0
 10
9.419959036273482
 20
10.22268350981412
 30
0.0
 10
9.475804034089382
 20
10.21639621055354
 30
0.0
 10
9.475804034089382
 20
10.21639621055354
 30
0.0
 10
9.475804034089382
 20
10.21639621055354
 30
0.0
 10
9.480868324452699
 20
10.26176811809428
 30
0.0
 10
9.480868324452699
 20
10.26176811809428
 30
0.0
 10
9.486346026274246
 20
10.31029228800402
 30
0.0
 10
9.46543429667878
 20
10.33714680731155
 30
0.0
 10
9.418133135666299
 20
10.34248670531368
 30
0.0
 10
9.418133135666299
 20
10.34248670531368
 30
0.0
 10
9.379685870050912
 20
10.34681030014767
 30
0.0
 10
9.379685870050912
 20
10.34681030014767
 30
0.0
 10
9.336691078394994
 20
10.35163343382702
 30
0.0
 10
9.312437606178834
 20
10.33018771443134
 30
0.0
 10
9.307097708176697
 20
10.28249036743806
 30
0.0
 10
9.307097708176697
 20
10.28249036743806
 30
0.0
 10
9.276160750719153
 20
10.00677937575351
 30
0.0
 10
9.276160750719153
 20
10.00677937575351
 30
0.0
 10
9.27088975462672
 20
9.959822724289557
 30
0.0
 10
9.28976887788589
 20
9.933932831717906
 30
0.0
 10
9.332832571451513
 20
9.929126923515982
 30
0.0
  0
SPLINE
  5
E6
330
3C
100
AcDbEntity
  8
Livello 1
 62
     7
420
 16777215
370
     9
100
AcDbSpline
210
0.0
220
0.0
230
1.0
 70
    11
 71
     3
 72
    29
 73
    25
 74
     0
 42
0.0000000001
 43
0.0000000001
 40
0.0
 40
0.0
 40
0.0
 40
0.0
 40
1.0
 40
1.0
 40
1.0
 40
2.0
 40
2.0
 40
2.0
 40
3.0
 40
3.0
 40
3.0
 40
4.0
 40
4.0
 40
4.0
 40
5.0
 40
5.0
 40
5.0
 40
6.0
 40
6.0
 40
6.0
 40
7.0
 40
7.0
 40
7.0
 40
8.0
 40
8.0
 40
8.0
 40
8.0
 10
9.788343096511246
 20
9.853644881434157
 30
0.0
 10
9.788343096511246
 20
9.853644881434157
 30
0.0
 10
9.839675019241469
 20
9.841759302010045
 30
0.0
 10
9.839675019241469
 20
9.841759302010045
 30
0.0
 10
9.883772241452668
 20
9.831510142941427
 30
0.0
 10
9.911195201515255
 20
9.849510766851857
 30
0.0
 10
9.921943899429236
 20
9.8959334285156
 30
0.0
 10
9.921943899429236
 20
9.8959334285156
 30
0.0
 10
9.98461018630593
 20
10.16561550310096
 30
0.0
 10
9.98461018630593
 20
10.16561550310096
 30
0.0
 10
9.995531138994172
 20
10.21238267431322
 30
0.0
 10
9.97909803352953
 20
10.24083916302139
 30
0.0
 10
9.935414222776563
 20
10.25098496922545
 30
0.0
 10
9.935414222776563
 20
10.25098496922545
 30
0.0
 10
9.882945418536208
 20
10.26318060724323
 30
0.0
 10
9.882945418536208
 20
10.26318060724323
 30
0.0
 10
9.839227156828388
 20
10.27336086440214
 30
0.0
 10
9.811907549630355
 20
10.25505018189804
 30
0.0
 10
9.801055498851818
 20
10.20828301068578
 30
0.0
 10
9.801055498851818
 20
10.20828301068578
 30
0.0
 10
9.738389211975123
 20
9.938635387055271
 30
0.0
 10
9.738389211975123
 20
9.938635387055271
 30
0.0
 10
9.72757161215144
 20
9.892212725391529
 30
0.0
 10
9.744211423345197
 20
9.863911265980201
 30
0.0
 10
9.788343096511246
 20
9.853644881434157
 30
0.0
  0
SPLINE
  5
E7
330
3C
100
AcDbEntity
  8
Livello 1
 62
     7
420
 16777215
370
     9
100
AcDbSpline
210
0.0
220
0.0
230
1.0
 70
    11
 71
     3
 72
    29
 73
    25
 74
     0
 42
0.0000000001
 43
0.0000000001
 40
0.0
 40
0.0
 40
0.0
 40
0.0
 40
1.0
 40
1.0
 40
1.0
 40
2.0
 40
2.0
 40
2.0
 40
3.0
 40
3.0
 40
3.0
 40
4.0
 40
4.0
 40
4.0
 40
5.0
 40
5.0
 40
5.0
 40
6.0
 40
6.0
 40
6.0
 40
7.0
 40
7.0
 40
7.0
 40
8.0
 40
8.0
 40
8.0
 40
8.0
 10
9.794027504061908
 20
9.929884844522736
 30
0.0
 10
9.794027504061908
 20
9.929884844522736
 30
0.0
 10
9.854971243195978
 20
10.19215996381481
 30
0.0
 10
9.854971243195978
 20
10.19215996381481
 30
0.0
 10
9.858726397274902
 20
10.20811075591151
 30
0.0
 10
9.868579370362715
 20
10.21422580039783
 30
0.0
 10
9.884530162459422
 20
10.21052232275119
 30
0.0
 10
9.884530162459422
 20
10.21052232275119
 30
0.0
 10
9.910196123824534
 20
10.20454508208428
 30
0.0
 10
9.910196123824534
 20
10.20454508208428
 30
0.0
 10
9.926491425469765
 20
10.20073825157308
 30
0.0
 10
9.932864852117477
 20
10.19088527848526
 30
0.0
 10
9.929109698038555
 20
10.17491726091113
 30
0.0
 10
9.929109698038555
 20
10.17491726091113
 30
0.0
 10
9.868131507949633
 20
9.912642141619061
 30
0.0
 10
9.868131507949633
 20
9.912642141619061
 30
0.0
 10
9.864445255780415
 20
9.896674124044928
 30
0.0
 10
9.855384654654209
 20
9.890352373829495
 30
0.0
 10
9.840880802661307
 20
9.893745792882466
 30
0.0
 10
9.840880802661307
 20
9.893745792882466
 30
0.0
 10
9.813009980185635
 20
9.900222572394735
 30
0.0
 10
9.813009980185635
 20
9.900222572394735
 30
0.0
 10
9.796611325675846
 20
9.904029402905936
 30
0.0
 10
9.790341251892691
 20
9.913899601471178
 30
0.0
 10
9.794027504061908
 20
9.929884844522736
 30
0.0
  0
SPLINE
  5
E8
330
3C
100
AcDbEntity
  8
Livello 1
 62
     7
420
 16777215
370
     9
100
AcDbSpline
210
0.0
220
0.0
230
1.0
 70
    11
 71
     3
 72
    65
 73
    61
 74
     0
 42
0.0000000001
 43
0.0000000001
 40
0.0
 40
0.0
 40
0.0
 40
0.0
 40
1.0
 40
1.0
 40
1.0
 40
2.0
 40
2.0
 40
2.0
 40
3.0
 40
3.0
 40
3.0
 40
4.0
 40
4.0
 40
4.0
 40
5.0
 40
5.0
 40
5.0
 40
6.0
 40
6.0
 40
6.0
 40
7.0
 40
7.0
 40
7.0
 40
8.0
 40
8.0
 40
8.0
 40
9.0
 40
9.0
 40
9.0
 40
10.0
 40
10.0
 40
10.0
 40
11.0
 40
11.0
 40
11.0
 40
12.0
 40
12.0
 40
12.0
 40
13.0
 40
13.0
 40
13.0
 40
14.0
 40
14.0
 40
14.0
 40
15.0
 40
15.0
 40
15.0
 40
16.0
 40
16.0
 40
16.0
 40
17.0
 40
17.0
 40
17.0
 40
18.0
 40
18.0
 40
18.0
 40
19.0
 40
19.0
 40
19.0
 40
20.0
 40
20.0
 40
20.0
 40
20.0
 10
8.4611545117736
 20
5.681754827138588
 30
0.0
 10
8.453248017634952
 20
5.631077472550563
 30
0.0
 10
8.443343368114858
 20
5.578918726903881
 30
0.0
 10
8.431423337735893
 20
5.525106335424279
 30
0.0
 10
8.419382729014945
 20
5.471328394899529
 30
0.0
 10
8.406480846422685
 20
5.418239473471829
 30
0.0
 10
8.392510984229997
 20
5.365770669231473
 30
0.0
 10
8.378610023947013
 20
5.313232963081414
 30
0.0
 10
8.364364554115506
 20
5.262417804673978
 30
0.0
 10
8.349653996393489
 20
5.213394095918873
 30
0.0
 10
8.335029566058603
 20
5.164301485254063
 30
0.0
 10
8.3208529981368
 20
5.118791773893912
 30
0.0
 10
8.30712429262808
 20
5.077002765657832
 30
0.0
 10
8.293378361641933
 20
5.035282659331457
 30
0.0
 10
8.28057983191423
 20
4.998178980955316
 30
0.0
 10
8.2688148308321
 20
4.965863985303672
 30
0.0
 10
8.25701537879512
 20
4.933652342516586
 30
0.0
 10
8.2474207878687
 20
4.908193086880591
 30
0.0
 10
8.23984157780115
 20
4.889658473169946
 30
0.0
 10
8.238825274633001
 20
4.886351181504106
 30
0.0
 10
8.23782619694228
 20
4.882837184109151
 30
0.0
 10
8.236947697593541
 20
4.879150931939934
 30
0.0
 10
8.236034747289949
 20
4.875430228815865
 30
0.0
 10
8.235586884876867
 20
4.872226290014582
 30
0.0
 10
8.235586884876867
 20
4.869780272220055
 30
0.0
 10
8.235586884876867
 20
4.86226996406221
 30
0.0
 10
8.237946775284263
 20
4.85675781128581
 30
0.0
 10
8.242856036350744
 20
4.85317491198115
 30
0.0
 10
8.247644719075241
 20
4.849557561721638
 30
0.0
 10
8.253966469290674
 20
4.847800563024161
 30
0.0
 10
8.261855737951896
 20
4.847800563024161
 30
0.0
 10
8.272259926317352
 20
4.847800563024161
 30
0.0
 10
8.283869898102642
 20
4.853347166755412
 30
0.0
 10
8.296944035469167
 20
4.864681530901885
 30
0.0
 10
8.309949270925983
 20
4.8759125421838
 30
0.0
 10
8.323712427389557
 20
4.891553275686833
 30
0.0
 10
8.338147377472755
 20
4.91150037854643
 30
0.0
 10
8.352616778510804
 20
4.931516383315731
 30
0.0
 10
8.367223983368262
 20
4.954977483570283
 30
0.0
 10
8.382055119432263
 20
4.981987032174642
 30
0.0
 10
8.396886255496264
 20
5.008927678869296
 30
0.0
 10
8.411355656534313
 20
5.038210990493919
 30
0.0
 10
8.425428871591558
 20
5.06952690845484
 30
0.0
 10
8.439588214035936
 20
5.100946179280319
 30
0.0
 10
8.452782929744442
 20
5.133846841164455
 30
0.0
 10
8.46509914610421
 20
5.16840114888151
 30
0.0
 10
8.477432587941404
 20
5.202852103734009
 30
0.0
 10
8.488164060377958
 20
5.237406411451064
 30
0.0
 10
8.497241886981591
 20
5.271995170122973
 30
0.0
 10
8.5063024881078
 20
5.306618379749734
 30
0.0
 10
8.513588865059102
 20
5.340724825053707
 30
0.0
 10
8.518963214016091
 20
5.374348956989746
 30
0.0
 10
8.524337562973082
 20
5.407869736061227
 30
0.0
 10
8.526990286496725
 20
5.439426810706115
 30
0.0
 10
8.526990286496725
 20
5.469089082834116
 30
0.0
 10
8.526990286496725
 20
5.520937769887126
 30
0.0
 10
8.520978594874963
 20
5.565207246872586
 30
0.0
 10
8.509041339018573
 20
5.601897513790497
 30
0.0
 10
8.497052406729903
 20
5.638760035482671
 30
0.0
 10
8.481067163678343
 20
5.665356172628799
 30
0.0
 10
8.4611545117736
 20
5.681754827138588
 30
0.0
  0
SPLINE
  5
E9
330
3C
100
AcDbEntity
  8
Livello 1
 62
     7
420
 16777215
370
     9
100
AcDbSpline
210
0.0
220
0.0
230
1.0
 70
    11
 71
     3
 72
    11
 73
     7
 74
     0
 42
0.0000000001
 43
0.0000000001
 40
0.0
 40
0.0
 40
0.0
 40
0.0
 40
1.0
 40
1.0
 40
1.0
 40
2.0
 40
2.0
 40
2.0
 40
2.0
 10
9.527928328781211
 20
2.380147568849408
 30
0.0
 10
9.447140839652103
 20
2.39093071771824
 30
0.0
 10
9.285496959484181
 20
2.353275824064458
 30
0.0
 10
9.258556312789526
 20
2.240069986419149
 30
0.0
 10
9.334038354871351
 20
2.229355739460022
 30
0.0
 10
9.474081486346757
 20
2.250887586242833
 30
0.0
 10
9.527928328781211
 20
2.380147568849408
 30
0.0
  0
SPLINE
  5
EA
330
3C
100
AcDbEntity
  8
Livello 1
 62
     7
420
 16777215
370
     9
100
AcDbSpline
210
0.0
220
0.0
230
1.0
 70
    11
 71
     3
 72
    29
 73
    25
 74
     0
 42
0.0000000001
 43
0.0000000001
 40
0.0
 40
0.0
 40
0.0
 40
0.0
 40
1.0
 40
1.0
 40
1.0
 40
2.0
 40
2.0
 40
2.0
 40
3.0
 40
3.0
 40
3.0
 40
4.0
 40
4.0
 40
4.0
 40
5.0
 40
5.0
 40
5.0
 40
6.0
 40
6.0
 40
6.0
 40
7.0
 40
7.0
 40
7.0
 40
8.0
 40
8.0
 40
8.0
 40
8.0
 10
6.285438909018918
 20
2.703745387778925
 30
0.0
 10
5.638708359050392
 20
3.347151420604184
 30
0.0
 10
5.166885306868001
 20
4.216900226810358
 30
0.0
 10
4.98851548811919
 20
5.22107665885098
 30
0.0
 10
4.810059541983248
 20
6.225235865414176
 30
0.0
 10
4.9534788670342
 20
7.204228649457623
 30
0.0
 10
5.338985051833657
 20
8.031034340440158
 30
0.0
 10
5.140116914947609
 20
7.696980656712907
 30
0.0
 10
4.987705890680156
 20
7.334418807845214
 30
0.0
 10
4.888779973821207
 20
6.953511825518566
 30
0.0
 10
4.961126979011454
 20
7.355313311963254
 30
0.0
 10
5.083186712053855
 20
7.739303654749201
 30
0.0
 10
5.249326441830029
 20
8.095629880788591
 30
0.0
 10
4.746463079325537
 20
7.250858016850479
 30
0.0
 10
4.533108315924014
 20
6.228405353260607
 30
0.0
 10
4.718557805895013
 20
5.184420842887922
 30
0.0
 10
4.904024521343438
 20
4.140488008947517
 30
0.0
 10
5.456583386222659
 20
3.253996038683029
 30
0.0
 10
6.219654810728072
 20
2.63418890993173
 30
0.0
 10
5.969179143472982
 20
2.883372666379851
 30
0.0
 10
5.744421114015283
 20
3.16576714330578
 30
0.0
 10
5.551668021615555
 20
3.476066893662233
 30
0.0
 10
5.763059080590485
 20
3.186644421946394
 30
0.0
 10
6.010141328792603
 20
2.927400986681344
 30
0.0
 10
6.285438909018918
 20
2.703745387778925
 30
0.0
  0
SPLINE
  5
EB
330
3C
100
AcDbEntity
  8
Livello 1
 62
     7
420
 16777215
370
     9
100
AcDbSpline
210
0.0
220
0.0
230
1.0
 70
    11
 71
     3
 72
    11
 73
     7
 74
     0
 42
0.0000000001
 43
0.0000000001
 40
0.0
 40
0.0
 40
0.0
 40
0.0
 40
1.0
 40
1.0
 40
1.0
 40
2.0
 40
2.0
 40
2.0
 40
2.0
 10
10.53930501038601
 20
4.23664062394084
 30
0.0
 10
10.38840982813206
 20
4.155853134811731
 30
0.0
 10
10.20637098269146
 20
4.067383082750515
 30
0.0
 10
9.952054033970319
 20
3.951145561078186
 30
0.0
 10
10.28602159031044
 20
3.719428438740282
 30
0.0
 10
10.57695990403979
 20
4.123503688205234
 30
0.0
 10
10.53930501038601
 20
4.23664062394084
 30
0.0
  0
SPLINE
  5
EC
330
3C
100
AcDbEntity
  8
Livello 1
 62
     7
420
 16777215
370
     9
100
AcDbSpline
210
0.0
220
0.0
230
1.0
 70
    11
 71
     3
 72
    35
 73
    31
 74
     0
 42
0.0000000001
 43
0.0000000001
 40
0.0
 40
0.0
 40
0.0
 40
0.0
 40
1.0
 40
1.0
 40
1.0
 40
2.0
 40
2.0
 40
2.0
 40
3.0
 40
3.0
 40
3.0
 40
4.0
 40
4.0
 40
4.0
 40
5.0
 40
5.0
 40
5.0
 40
6.0
 40
6.0
 40
6.0
 40
7.0
 40
7.0
 40
7.0
 40
8.0
 40
8.0
 40
8.0
 40
9.0
 40
9.0
 40
9.0
 40
10.0
 40
10.0
 40
10.0
 40
10.0
 10
9.56045003016197
 20
2.009317490817115
 30
0.0
 10
9.56045003016197
 20
2.009317490817115
 30
0.0
 10
9.518867727655005
 20
2.002599554620878
 30
0.0
 10
9.518867727655005
 20
2.002599554620878
 30
0.0
 10
9.47452934875984
 20
1.995399305056706
 30
0.0
 10
9.456235891733163
 20
1.968114148813527
 30
0.0
 10
9.46391845466527
 20
1.920709634936489
 30
0.0
 10
9.46391845466527
 20
1.920709634936489
 30
0.0
 10
9.51962564866176
 20
1.57695800741826
 30
0.0
 10
9.51962564866176
 20
1.57695800741826
 30
0.0
 10
9.51962564866176
 20
1.57695800741826
 30
0.0
 10
9.575057235019429
 20
1.58591525567991
 30
0.0
 10
9.575057235019429
 20
1.58591525567991
 30
0.0
 10
9.575057235019429
 20
1.58591525567991
 30
0.0
 10
9.550493704209599
 20
1.737912868489133
 30
0.0
 10
9.550493704209599
 20
1.737912868489133
 30
0.0
 10
9.550493704209599
 20
1.737912868489133
 30
0.0
 10
9.614021264957605
 20
1.74821370399003
 30
0.0
 10
9.614021264957605
 20
1.74821370399003
 30
0.0
 10
9.614021264957605
 20
1.74821370399003
 30
0.0
 10
9.63865369767714
 20
1.596216091180807
 30
0.0
 10
9.63865369767714
 20
1.596216091180807
 30
0.0
 10
9.63865369767714
 20
1.596216091180807
 30
0.0
 10
9.694154185944516
 20
1.605242241352162
 30
0.0
 10
9.694154185944516
 20
1.605242241352162
 30
0.0
 10
9.694154185944516
 20
1.605242241352162
 30
0.0
 10
9.638412540993174
 20
1.949062770780095
 30
0.0
 10
9.638412540993174
 20
1.949062770780095
 30
0.0
 10
9.630695527106214
 20
1.996432833702281
 30
0.0
 10
9.604719507147431
 20
2.016517740381287
 30
0.0
 10
9.56045003016197
 20
2.009317490817115
 30
0.0
  0
SPLINE
  5
ED
330
3C
100
AcDbEntity
  8
Livello 1
 62
     7
420
 16777215
370
     9
100
AcDbSpline
210
0.0
220
0.0
230
1.0
 70
    11
 71
     3
 72
    23
 73
    19
 74
     0
 42
0.0000000001
 43
0.0000000001
 40
0.0
 40
0.0
 40
0.0
 40
0.0
 40
1.0
 40
1.0
 40
1.0
 40
2.0
 40
2.0
 40
2.0
 40
3.0
 40
3.0
 40
3.0
 40
4.0
 40
4.0
 40
4.0
 40
5.0
 40
5.0
 40
5.0
 40
6.0
 40
6.0
 40
6.0
 40
6.0
 10
9.542294376954704
 20
1.788176811618928
 30
0.0
 10
9.542294376954704
 20
1.788176811618928
 30
0.0
 10
9.519935707255431
 20
1.926256238667741
 30
0.0
 10
9.519935707255431
 20
1.926256238667741
 30
0.0
 10
9.517351885641494
 20
1.942448187448416
 30
0.0
 10
9.524138723747436
 20
1.951853298123148
 30
0.0
 10
9.540261770618406
 20
1.954437119737085
 30
0.0
 10
9.540261770618406
 20
1.954437119737085
 30
0.0
 10
9.555316837888947
 20
1.956917588486465
 30
0.0
 10
9.555316837888947
 20
1.956917588486465
 30
0.0
 10
9.571508786669622
 20
1.959535861055255
 30
0.0
 10
9.580913897344354
 20
1.952749022949313
 30
0.0
 10
9.583532169913145
 20
1.936591525123491
 30
0.0
 10
9.583532169913145
 20
1.936591525123491
 30
0.0
 10
9.605890839612416
 20
1.798443196164973
 30
0.0
 10
9.605890839612416
 20
1.798443196164973
 30
0.0
 10
9.605890839612416
 20
1.798443196164973
 30
0.0
 10
9.542294376954704
 20
1.788176811618928
 30
0.0
 10
9.542294376954704
 20
1.788176811618928
 30
0.0
  0
SPLINE
  5
EE
330
3C
100
AcDbEntity
  8
Livello 1
 62
     7
420
 16777215
370
     9
100
AcDbSpline
210
0.0
220
0.0
230
1.0
 70
    11
 71
     3
 72
    65
 73
    61
 74
     0
 42
0.0000000001
 43
0.0000000001
 40
0.0
 40
0.0
 40
0.0
 40
0.0
 40
1.0
 40
1.0
 40
1.0
 40
2.0
 40
2.0
 40
2.0
 40
3.0
 40
3.0
 40
3.0
 40
4.0
 40
4.0
 40
4.0
 40
5.0
 40
5.0
 40
5.0
 40
6.0
 40
6.0
 40
6.0
 40
7.0
 40
7.0
 40
7.0
 40
8.0
 40
8.0
 40
8.0
 40
9.0
 40
9.0
 40
9.0
 40
10.0
 40
10.0
 40
10.0
 40
11.0
 40
11.0
 40
11.0
 40
12.0
 40
12.0
 40
12.0
 40
13.0
 40
13.0
 40
13.0
 40
14.0
 40
14.0
 40
14.0
 40
15.0
 40
15.0
 40
15.0
 40
16.0
 40
16.0
 40
16.0
 40
17.0
 40
17.0
 40
17.0
 40
18.0
 40
18.0
 40
18.0
 40
19.0
 40
19.0
 40
19.0
 40
20.0
 40
20.0
 40
20.0
 40
20.0
 10
9.22910074639064
 20
5.681754827138588
 30
0.0
 10
9.22124592868427
 20
5.631077472550563
 30
0.0
 10
9.211324053686752
 20
5.578918726903881
 30
0.0
 10
9.199369572352934
 20
5.525106335424279
 30
0.0
 10
9.187415091019117
 20
5.471328394899529
 30
0.0
 10
9.17449598294943
 20
5.418239473471829
 30
0.0
 10
9.160577797189022
 20
5.365770669231473
 30
0.0
 10
9.146659611428612
 20
5.313232963081414
 30
0.0
 10
9.132362465164825
 20
5.262417804673978
 30
0.0
 10
9.11768635839766
 20
5.213394095918873
 30
0.0
 10
9.103079153540202
 20
5.164301485254063
 30
0.0
 10
9.08885090918612
 20
5.118791773893912
 30
0.0
 10
9.07520833106453
 20
5.077002765657832
 30
0.0
 10
9.061393498168679
 20
5.035282659331457
 30
0.0
 10
9.04857774296355
 20
4.998178980955316
 30
0.0
 10
9.036829967358848
 20
4.965863985303672
 30
0.0
 10
9.025013289844441
 20
4.933652342516586
 30
0.0
 10
9.015435924395446
 20
4.908193086880591
 30
0.0
 10
9.007891165282748
 20
4.889658473169946
 30
0.0
 10
9.006857636637173
 20
4.886351181504106
 30
0.0
 10
9.005893009901303
 20
4.882837184109151
 30
0.0
 10
9.004962834120287
 20
4.879150931939934
 30
0.0
 10
9.004067109294121
 20
4.875430228815865
 30
0.0
 10
9.003619246881039
 20
4.872226290014582
 30
0.0
 10
9.003619246881039
 20
4.869780272220055
 30
0.0
 10
9.003619246881039
 20
4.86226996406221
 30
0.0
 10
9.005961911811008
 20
4.85675781128581
 30
0.0
 10
9.010853947400063
 20
4.85317491198115
 30
0.0
 10
9.015677081079414
 20
4.849557561721638
 30
0.0
 10
9.022050507727126
 20
4.847800563024161
 30
0.0
 10
9.02983642352379
 20
4.847800563024161
 30
0.0
 10
9.040275062844097
 20
4.847800563024161
 30
0.0
 10
9.051850583674536
 20
4.853347166755412
 30
0.0
 10
9.06497639747334
 20
4.864681530901885
 30
0.0
 10
9.077929956497877
 20
4.8759125421838
 30
0.0
 10
9.091779240348583
 20
4.891553275686833
 30
0.0
 10
9.106248641386632
 20
4.91150037854643
 30
0.0
 10
9.12068359146983
 20
4.931516383315731
 30
0.0
 10
9.135290796327288
 20
4.954977483570283
 30
0.0
 10
9.150104706913861
 20
4.981987032174642
 30
0.0
 10
9.164953068455288
 20
5.008927678869296
 30
0.0
 10
9.179422469493337
 20
5.038210990493919
 30
0.0
 10
9.193478459073157
 20
5.06952690845484
 30
0.0
 10
9.207637801517535
 20
5.100946179280319
 30
0.0
 10
9.220798066271188
 20
5.133846841164455
 30
0.0
 10
9.233165959063236
 20
5.16840114888151
 30
0.0
 10
9.245430498990725
 20
5.202852103734009
 30
0.0
 10
9.256144745949852
 20
5.237406411451064
 30
0.0
 10
9.265308699940617
 20
5.271995170122973
 30
0.0
 10
9.274403752021676
 20
5.306618379749734
 30
0.0
 10
9.281638452540701
 20
5.340724825053707
 30
0.0
 10
9.286978350542839
 20
5.374348956989746
 30
0.0
 10
9.292283797590123
 20
5.407869736061227
 30
0.0
 10
9.295039873978324
 20
5.439426810706115
 30
0.0
 10
9.295039873978324
 20
5.469089082834116
 30
0.0
 10
9.295039873978324
 20
5.520937769887126
 30
0.0
 10
9.289045407833989
 20
5.565207246872586
 30
0.0
 10
9.277056475545319
 20
5.601897513790497
 30
0.0
 10
9.265101994211502
 20
5.638760035482671
 30
0.0
 10
9.249116751159942
 20
5.665356172628799
 30
0.0
 10
9.22910074639064
 20
5.681754827138588
 30
0.0
  0
SPLINE
  5
EF
330
3C
100
AcDbEntity
  8
Livello 1
 62
     7
420
 16777215
370
     9
100
AcDbSpline
210
0.0
220
0.0
230
1.0
 70
    11
 71
     3
 72
  1031
 73
  1027
 74
     0
 42
0.0000000001
 43
0.0000000001
 40
0.0
 40
0.0
 40
0.0
 40
0.0
 40
1.0
 40
1.0
 40
1.0
 40
2.0
 40
2.0
 40
2.0
 40
3.0
 40
3.0
 40
3.0
 40
4.0
 40
4.0
 40
4.0
 40
5.0
 40
5.0
 40
5.0
 40
6.0
 40
6.0
 40
6.0
 40
7.0
 40
7.0
 40
7.0
 40
8.0
 40
8.0
 40
8.0
 40
9.0
 40
9.0
 40
9.0
 40
10.0
 40
10.0
 40
10.0
 40
11.0
 40
11.0
 40
11.0
 40
12.0
 40
12.0
 40
12.0
 40
13.0
 40
13.0
 40
13.0
 40
14.0
 40
14.0
 40
14.0
 40
15.0
 40
15.0
 40
15.0
 40
16.0
 40
16.0
 40
16.0
 40
17.0
 40
17.0
 40
17.0
 40
18.0
 40
18.0
 40
18.0
 40
19.0
 40
19.0
 40
19.0
 40
20.0
 40
20.0
 40
20.0
 40
21.0
 40
21.0
 40
21.0
 40
22.0
 40
22.0
 40
22.0
 40
23.0
 40
23.0
 40
23.0
 40
24.0
 40
24.0
 40
24.0
 40
25.0
 40
25.0
 40
25.0
 40
26.0
 40
26.0
 40
26.0
 40
27.0
 40
27.0
 40
27.0
 40
28.0
 40
28.0
 40
28.0
 40
29.0
 40
29.0
 40
29.0
 40
30.0
 40
30.0
 40
30.0
 40
31.0
 40
31.0
 40
31.0
 40
32.0
 40
32.0
 40
32.0
 40
33.0
 40
33.0
 40
33.0
 40
34.0
 40
34.0
 40
34.0
 40
35.0
 40
35.0
 40
35.0
 40
36.0
 40
36.0
 40
36.0
 40
37.0
 40
37.0
 40
37.0
 40
38.0
 40
38.0
 40
38.0
 40
39.0
 40
39.0
 40
39.0
 40
40.0
 40
40.0
 40
40.0
 40
41.0
 40
41.0
 40
41.0
 40
42.0
 40
42.0
 40
42.0
 40
43.0
 40
43.0
 40
43.0
 40
44.0
 40
44.0
 40
44.0
 40
45.0
 40
45.0
 40
45.0
 40
46.0
 40
46.0
 40
46.0
 40
47.0
 40
47.0
 40
47.0
 40
48.0
 40
48.0
 40
48.0
 40
49.0
 40
49.0
 40
49.0
 40
50.0
 40
50.0
 40
50.0
 40
51.0
 40
51.0
 40
51.0
 40
52.0
 40
52.0
 40
52.0
 40
53.0
 40
53.0
 40
53.0
 40
54.0
 40
54.0
 40
54.0
 40
55.0
 40
55.0
 40
55.0
 40
56.0
 40
56.0
 40
56.0
 40
57.0
 40
57.0
 40
57.0
 40
58.0
 40
58.0
 40
58.0
 40
59.0
 40
59.0
 40
59.0
 40
60.0
 40
60.0
 40
60.0
 40
61.0
 40
61.0
 40
61.0
 40
62.0
 40
62.0
 40
62.0
 40
63.0
 40
63.0
 40
63.0
 40
64.0
 40
64.0
 40
64.0
 40
65.0
 40
65.0
 40
65.0
 40
66.0
 40
66.0
 40
66.0
 40
67.0
 40
67.0
 40
67.0
 40
68.0
 40
68.0
 40
68.0
 40
69.0
 40
69.0
 40
69.0
 40
70.0
 40
70.0
 40
70.0
 40
71.0
 40
71.0
 40
71.0
 40
72.0
 40
72.0
 40
72.0
 40
73.0
 40
73.0
 40
73.0
 40
74.0
 40
74.0
 40
74.0
 40
75.0
 40
75.0
 40
75.0
 40
76.0
 40
76.0
 40
76.0
 40
77.0
 40
77.0
 40
77.0
 40
78.0
 40
78.0
 40
78.0
 40
79.0
 40
79.0
 40
79.0
 40
80.0
 40
80.0
 40
80.0
 40
81.0
 40
81.0
 40
81.0
 40
82.0
 40
82.0
 40
82.0
 40
83.0
 40
83.0
 40
83.0
 40
84.0
 40
84.0
 40
84.0
 40
85.0
 40
85.0
 40
85.0
 40
86.0
 40
86.0
 40
86.0
 40
87.0
 40
87.0
 40
87.0
 40
88.0
 40
88.0
 40
88.0
 40
89.0
 40
89.0
 40
89.0
 40
90.0
 40
90.0
 40
90.0
 40
91.0
 40
91.0
 40
91.0
 40
92.0
 40
92.0
 40
92.0
 40
93.0
 40
93.0
 40
93.0
 40
94.0
 40
94.0
 40
94.0
 40
95.0
 40
95.0
 40
95.0
 40
96.0
 40
96.0
 40
96.0
 40
97.0
 40
97.0
 40
97.0
 40
98.0
 40
98.0
 40
98.0
 40
99.0
 40
99.0
 40
99.0
 40
100.0
 40
100.0
 40
100.0
 40
101.0
 40
101.0
 40
101.0
 40
102.0
 40
102.0
 40
102.0
 40
103.0
 40
103.0
 40
103.0
 40
104.0
 40
104.0
 40
104.0
 40
105.0
 40
105.0
 40
105.0
 40
106.0
 40
106.0
 40
106.0
 40
107.0
 40
107.0
 40
107.0
 40
108.0
 40
108.0
 40
108.0
 40
109.0
 40
109.0
 40
109.0
 40
110.0
 40
110.0
 40
110.0
 40
111.0
 40
111.0
 40
111.0
 40
112.0
 40
112.0
 40
112.0
 40
113.0
 40
113.0
 40
113.0
 40
114.0
 40
114.0
 40
114.0
 40
115.0
 40
115.0
 40
115.0
 40
116.0
 40
116.0
 40
116.0
 40
117.0
 40
117.0
 40
117.0
 40
118.0
 40
118.0
 40
118.0
 40
119.0
 40
119.0
 40
119.0
 40
120.0
 40
120.0
 40
120.0
 40
121.0
 40
121.0
 40
121.0
 40
122.0
 40
122.0
 40
122.0
 40
123.0
 40
123.0
 40
123.0
 40
124.0
 40
124.0
 40
124.0
 40
125.0
 40
125.0
 40
125.0
 40
126.0
 40
126.0
 40
126.0
 40
127.0
 40
127.0
 40
127.0
 40
128.0
 40
128.0
 40
128.0
 40
129.0
 40
129.0
 40
129.0
 40
130.0
 40
130.0
 40
130.0
 40
131.0
 40
131.0
 40
131.0
 40
132.0
 40
132.0
 40
132.0
 40
133.0
 40
133.0
 40
133.0
 40
134.0
 40
134.0
 40
134.0
 40
135.0
 40
135.0
 40
135.0
 40
136.0
 40
136.0
 40
136.0
 40
137.0
 40
137.0
 40
137.0
 40
138.0
 40
138.0
 40
138.0
 40
139.0
 40
139.0
 40
139.0
 40
140.0
 40
140.0
 40
140.0
 40
141.0
 40
141.0
 40
141.0
 40
142.0
 40
142.0
 40
142.0
 40
143.0
 40
143.0
 40
143.0
 40
144.0
 40
144.0
 40
144.0
 40
145.0
 40
145.0
 40
145.0
 40
146.0
 40
146.0
 40
146.0
 40
147.0
 40
147.0
 40
147.0
 40
148.0
 40
148.0
 40
148.0
 40
149.0
 40
149.0
 40
149.0
 40
150.0
 40
150.0
 40
150.0
 40
151.0
 40
151.0
 40
151.0
 40
152.0
 40
152.0
 40
152.0
 40
153.0
 40
153.0
 40
153.0
 40
154.0
 40
154.0
 40
154.0
 40
155.0
 40
155.0
 40
155.0
 40
156.0
 40
156.0
 40
156.0
 40
157.0
 40
157.0
 40
157.0
 40
158.0
 40
158.0
 40
158.0
 40
159.0
 40
159.0
 40
159.0
 40
160.0
 40
160.0
 40
160.0
 40
161.0
 40
161.0
 40
161.0
 40
162.0
 40
162.0
 40
162.0
 40
163.0
 40
163.0
 40
163.0
 40
164.0
 40
164.0
 40
164.0
 40
165.0
 40
165.0
 40
165.0
 40
166.0
 40
166.0
 40
166.0
 40
167.0
 40
167.0
 40
167.0
 40
168.0
 40
168.0
 40
168.0
 40
169.0
 40
169.0
 40
169.0
 40
170.0
 40
170.0
 40
170.0
 40
171.0
 40
171.0
 40
171.0
 40
172.0
 40
172.0
 40
172.0
 40
173.0
 40
173.0
 40
173.0
 40
174.0
 40
174.0
 40
174.0
 40
175.0
 40
175.0
 40
175.0
 40
176.0
 40
176.0
 40
176.0
 40
177.0
 40
177.0
 40
177.0
 40
178.0
 40
178.0
 40
178.0
 40
179.0
 40
179.0
 40
179.0
 40
180.0
 40
180.0
 40
180.0
 40
181.0
 40
181.0
 40
181.0
 40
182.0
 40
182.0
 40
182.0
 40
183.0
 40
183.0
 40
183.0
 40
184.0
 40
184.0
 40
184.0
 40
185.0
 40
185.0
 40
185.0
 40
186.0
 40
186.0
 40
186.0
 40
187.0
 40
187.0
 40
187.0
 40
188.0
 40
188.0
 40
188.0
 40
189.0
 40
189.0
 40
189.0
 40
190.0
 40
190.0
 40
190.0
 40
191.0
 40
191.0
 40
191.0
 40
192.0
 40
192.0
 40
192.0
 40
193.0
 40
193.0
 40
193.0
 40
194.0
 40
194.0
 40
194.0
 40
195.0
 40
195.0
 40
195.0
 40
196.0
 40
196.0
 40
196.0
 40
197.0
 40
197.0
 40
197.0
 40
198.0
 40
198.0
 40
198.0
 40
199.0
 40
199.0
 40
199.0
 40
200.0
 40
200.0
 40
200.0
 40
201.0
 40
201.0
 40
201.0
 40
202.0
 40
202.0
 40
202.0
 40
203.0
 40
203.0
 40
203.0
 40
204.0
 40
204.0
 40
204.0
 40
205.0
 40
205.0
 40
205.0
 40
206.0
 40
206.0
 40
206.0
 40
207.0
 40
207.0
 40
207.0
 40
208.0
 40
208.0
 40
208.0
 40
209.0
 40
209.0
 40
209.0
 40
210.0
 40
210.0
 40
210.0
 40
211.0
 40
211.0
 40
211.0
 40
212.0
 40
212.0
 40
212.0
 40
213.0
 40
213.0
 40
213.0
 40
214.0
 40
214.0
 40
214.0
 40
215.0
 40
215.0
 40
215.0
 40
216.0
 40
216.0
 40
216.0
 40
217.0
 40
217.0
 40
217.0
 40
218.0
 40
218.0
 40
218.0
 40
219.0
 40
219.0
 40
219.0
 40
220.0
 40
220.0
 40
220.0
 40
221.0
 40
221.0
 40
221.0
 40
222.0
 40
222.0
 40
222.0
 40
223.0
 40
223.0
 40
223.0
 40
224.0
 40
224.0
 40
224.0
 40
225.0
 40
225.0
 40
225.0
 40
226.0
 40
226.0
 40
226.0
 40
227.0
 40
227.0
 40
227.0
 40
228.0
 40
228.0
 40
228.0
 40
229.0
 40
229.0
 40
229.0
 40
230.0
 40
230.0
 40
230.0
 40
231.0
 40
231.0
 40
231.0
 40
232.0
 40
232.0
 40
232.0
 40
233.0
 40
233.0
 40
233.0
 40
234.0
 40
234.0
 40
234.0
 40
235.0
 40
235.0
 40
235.0
 40
236.0
 40
236.0
 40
236.0
 40
237.0
 40
237.0
 40
237.0
 40
238.0
 40
238.0
 40
238.0
 40
239.0
 40
239.0
 40
239.0
 40
240.0
 40
240.0
 40
240.0
 40
241.0
 40
241.0
 40
241.0
 40
242.0
 40
242.0
 40
242.0
 40
243.0
 40
243.0
 40
243.0
 40
244.0
 40
244.0
 40
244.0
 40
245.0
 40
245.0
 40
245.0
 40
246.0
 40
246.0
 40
246.0
 40
247.0
 40
247.0
 40
247.0
 40
248.0
 40
248.0
 40
248.0
 40
249.0
 40
249.0
 40
249.0
 40
250.0
 40
250.0
 40
250.0
 40
251.0
 40
251.0
 40
251.0
 40
252.0
 40
252.0
 40
252.0
 40
253.0
 40
253.0
 40
253.0
 40
254.0
 40
254.0
 40
254.0
 40
255.0
 40
255.0
 40
255.0
 40
256.0
 40
256.0
 40
256.0
 40
257.0
 40
257.0
 40
257.0
 40
258.0
 40
258.0
 40
258.0
 40
259.0
 40
259.0
 40
259.0
 40
260.0
 40
260.0
 40
260.0
 40
261.0
 40
261.0
 40
261.0
 40
262.0
 40
262.0
 40
262.0
 40
263.0
 40
263.0
 40
263.0
 40
264.0
 40
264.0
 40
264.0
 40
265.0
 40
265.0
 40
265.0
 40
266.0
 40
266.0
 40
266.0
 40
267.0
 40
267.0
 40
267.0
 40
268.0
 40
268.0
 40
268.0
 40
269.0
 40
269.0
 40
269.0
 40
270.0
 40
270.0
 40
270.0
 40
271.0
 40
271.0
 40
271.0
 40
272.0
 40
272.0
 40
272.0
 40
273.0
 40
273.0
 40
273.0
 40
274.0
 40
274.0
 40
274.0
 40
275.0
 40
275.0
 40
275.0
 40
276.0
 40
276.0
 40
276.0
 40
277.0
 40
277.0
 40
277.0
 40
278.0
 40
278.0
 40
278.0
 40
279.0
 40
279.0
 40
279.0
 40
280.0
 40
280.0
 40
280.0
 40
281.0
 40
281.0
 40
281.0
 40
282.0
 40
282.0
 40
282.0
 40
283.0
 40
283.0
 40
283.0
 40
284.0
 40
284.0
 40
284.0
 40
285.0
 40
285.0
 40
285.0
 40
286.0
 40
286.0
 40
286.0
 40
287.0
 40
287.0
 40
287.0
 40
288.0
 40
288.0
 40
288.0
 40
289.0
 40
289.0
 40
289.0
 40
290.0
 40
290.0
 40
290.0
 40
291.0
 40
291.0
 40
291.0
 40
292.0
 40
292.0
 40
292.0
 40
293.0
 40
293.0
 40
293.0
 40
294.0
 40
294.0
 40
294.0
 40
295.0
 40
295.0
 40
295.0
 40
296.0
 40
296.0
 40
296.0
 40
297.0
 40
297.0
 40
297.0
 40
298.0
 40
298.0
 40
298.0
 40
299.0
 40
299.0
 40
299.0
 40
300.0
 40
300.0
 40
300.0
 40
301.0
 40
301.0
 40
301.0
 40
302.0
 40
302.0
 40
302.0
 40
303.0
 40
303.0
 40
303.0
 40
304.0
 40
304.0
 40
304.0
 40
305.0
 40
305.0
 40
305.0
 40
306.0
 40
306.0
 40
306.0
 40
307.0
 40
307.0
 40
307.0
 40
308.0
 40
308.0
 40
308.0
 40
309.0
 40
309.0
 40
309.0
 40
310.0
 40
310.0
 40
310.0
 40
311.0
 40
311.0
 40
311.0
 40
312.0
 40
312.0
 40
312.0
 40
313.0
 40
313.0
 40
313.0
 40
314.0
 40
314.0
 40
314.0
 40
315.0
 40
315.0
 40
315.0
 40
316.0
 40
316.0
 40
316.0
 40
317.0
 40
317.0
 40
317.0
 40
318.0
 40
318.0
 40
318.0
 40
319.0
 40
319.0
 40
319.0
 40
320.0
 40
320.0
 40
320.0
 40
321.0
 40
321.0
 40
321.0
 40
322.0
 40
322.0
 40
322.0
 40
323.0
 40
323.0
 40
323.0
 40
324.0
 40
324.0
 40
324.0
 40
325.0
 40
325.0
 40
325.0
 40
326.0
 40
326.0
 40
326.0
 40
327.0
 40
327.0
 40
327.0
 40
328.0
 40
328.0
 40
328.0
 40
329.0
 40
329.0
 40
329.0
 40
330.0
 40
330.0
 40
330.0
 40
331.0
 40
331.0
 40
331.0
 40
332.0
 40
332.0
 40
332.0
 40
333.0
 40
333.0
 40
333.0
 40
334.0
 40
334.0
 40
334.0
 40
335.0
 40
335.0
 40
335.0
 40
336.0
 40
336.0
 40
336.0
 40
337.0
 40
337.0
 40
337.0
 40
338.0
 40
338.0
 40
338.0
 40
339.0
 40
339.0
 40
339.0
 40
340.0
 40
340.0
 40
340.0
 40
341.0
 40
341.0
 40
341.0
 40
342.0
 40
342.0
 40
342.0
 40
342.0
 10
9.85621147757067
 20
3.240422362471144
 30
0.0
 10
9.920290253596315
 20
3.483921711368603
 30
0.0
 10
9.927903914618717
 20
3.683289387100011
 30
0.0
 10
9.93744682911286
 20
3.75939154636918
 30
0.0
 10
9.93744682911286
 20
3.75939154636918
 30
0.0
 10
9.867373586942879
 20
3.851031086276825
 30
0.0
 10
9.829684242334245
 20
3.90487792871128
 30
0.0
 10
9.829684242334245
 20
3.90487792871128
 30
0.0
 10
9.716512855643789
 20
3.840247937407993
 30
0.0
 10
9.716512855643789
 20
3.840247937407993
 30
0.0
 10
9.716512855643789
 20
3.840247937407993
 30
0.0
 10
9.619533417734004
 20
3.845622286364983
 30
0.0
 10
9.463298337477925
 20
3.856439886188668
 30
0.0
 10
10.14056965892319
 20
4.118129339248245
 30
0.0
 10
10.67014973691579
 20
4.405967067040869
 30
0.0
 10
11.04731879064095
 20
4.675339083032553
 30
0.0
 10
11.11132866475689
 20
4.805219182826472
 30
0.0
 10
11.16479654668797
 20
4.935374890259212
 30
0.0
 10
11.20965168990592
 20
5.064497069046375
 30
0.0
 10
11.23245822201827
 20
5.048374022175406
 30
0.0
 10
11.25715955664752
 20
5.03504150264749
 30
0.0
 10
11.2837901447485
 20
5.024809569056297
 30
0.0
 10
11.29998209352917
 20
5.018573946227995
 30
0.0
 10
11.31669080663263
 20
5.013509655864678
 30
0.0
 10
11.33381293119432
 20
5.009513345101788
 30
0.0
 10
11.28988796375739
 20
4.886351181504106
 30
0.0
 10
11.23855604102717
 20
4.7614664701638
 30
0.0
 10
11.18240098461759
 20
4.626866589555089
 30
0.0
 10
11.18240098461759
 20
4.626866589555089
 30
0.0
 10
10.99719265133056
 20
4.489889593061555
 30
0.0
 10
10.84640082194118
 20
4.371343857414108
 30
0.0
 10
10.84640082194118
 20
4.371343857414108
 30
0.0
 10
10.86786376681428
 20
4.247423772809672
 30
0.0
 10
10.85174071994331
 20
3.902604165691015
 30
0.0
 10
13.14689778317161
 20
4.829300400268369
 30
0.0
 10
12.40000108196944
 20
6.512591279838865
 30
0.0
 10
11.87200574790005
 20
7.277643634248297
 30
0.0
 10
12.09304307423368
 20
6.783014049953551
 30
0.0
 10
12.07244140323189
 20
6.406620142712581
 30
0.0
 10
11.96099256428406
 20
6.143345945729788
 30
0.0
 10
11.95913221272202
 20
6.144224445078526
 30
0.0
 10
11.9574096649794
 20
6.145102944427266
 30
0.0
 10
11.95558376437221
 20
6.145878090911447
 30
0.0
 10
11.92654160943156
 20
6.158556042297166
 30
0.0
 10
11.89364094754742
 20
6.164946694422304
 30
0.0
 10
11.85788085641053
 20
6.164946694422304
 30
0.0
 10
11.82976887725089
 20
6.164946694422304
 30
0.0
 10
11.80269042673683
 20
6.159572345465315
 30
0.0
 10
11.77723117110083
 20
6.148909774938467
 30
0.0
 10
11.7699275686721
 20
6.154835339173096
 30
0.0
 10
11.76224500573999
 20
6.160175237175234
 30
0.0
 10
11.7541145803948
 20
6.165067272764288
 30
0.0
 10
11.73244492979258
 20
6.178072508221106
 30
0.0
 10
11.70843261426039
 20
6.187408716986133
 30
0.0
 10
11.68273220194043
 20
6.192869193330255
 30
0.0
 10
11.66106255133821
 20
6.197468395803063
 30
0.0
 10
11.63946180264569
 20
6.199776609778181
 30
0.0
 10
11.61851562209537
 20
6.199776609778181
 30
0.0
 10
11.56635687644869
 20
6.199776609778181
 30
0.0
 10
11.51426703271171
 20
6.188321667289725
 30
0.0
 10
11.46352077621398
 20
6.16565293899678
 30
0.0
 10
11.45049831527974
 20
6.159865178581561
 30
0.0
 10
11.43768256007461
 20
6.153353948114439
 30
0.0
 10
11.42497015773403
 20
6.146239825937398
 30
0.0
 10
11.44615749496832
 20
6.402796086723954
 30
0.0
 10
11.44987819809239
 20
6.635185002681481
 30
0.0
 10
11.45780191770847
 20
6.828696016087965
 30
0.0
 10
11.45780191770847
 20
6.828696016087965
 30
0.0
 10
11.45749185911479
 20
6.829488388049572
 30
0.0
 10
11.45749185911479
 20
6.829488388049572
 30
0.0
 10
11.08025390347994
 20
7.158701712620046
 30
0.0
 10
10.82473117133896
 20
7.413087563250894
 30
0.0
 10
10.68169080679138
 20
7.679496797125264
 30
0.0
 10
10.62277967399361
 20
7.789188637375619
 30
0.0
 10
10.58243760586133
 20
7.900861407529993
 30
0.0
 10
10.5612847195819
 20
8.02073350493926
 30
0.0
 10
10.5612847195819
 20
8.02073350493926
 30
0.0
 10
10.39467990191522
 20
7.679445120692986
 30
0.0
 10
10.35302869749855
 20
7.53637030519056
 30
0.0
 10
10.34706868230907
 20
7.515906438008176
 30
0.0
 10
10.34369248873352
 20
7.499507783498387
 30
0.0
 10
10.34369248873352
 20
7.488724634629555
 30
0.0
 10
10.29342854560373
 20
7.531306014827242
 30
0.0
 10
10.24650634509462
 20
7.588408472495258
 30
0.0
 10
10.20351155343871
 20
7.655932344006155
 30
0.0
 10
10.18914550526521
 20
7.678428817524837
 30
0.0
 10
10.1752273195048
 20
7.702113848985929
 30
0.0
 10
10.16179144711233
 20
7.726763507182892
 30
0.0
 10
10.14384249963418
 20
7.759646943589601
 30
0.0
 10
10.12675482602734
 20
7.794321829648641
 30
0.0
 10
10.11049397533696
 20
7.830409204856633
 30
0.0
 10
10.09867729782255
 20
7.856660832454237
 30
0.0
 10
10.08730848272123
 20
7.883670381058596
 30
0.0
 10
10.07638753003299
 20
7.911265595895447
 30
0.0
 10
10.04372802483282
 20
7.994102916838279
 30
0.0
 10
10.01537488898921
 20
8.082435165080085
 30
0.0
 10
9.991844886824955
 20
8.172524412019369
 30
0.0
 10
9.980097111220253
 20
8.217551810011583
 30
0.0
 10
9.969520668080536
 20
8.263027070416882
 30
0.0
 10
9.960218910270362
 20
8.308467879867328
 30
0.0
 10
9.957152775288488
 20
8.323609074525
 30
0.0
 10
9.954189993171173
 20
8.338750269182674
 30
0.0
 10
9.951399465828121
 20
8.35387423836292
 30
0.0
 10
9.945094941090115
 20
8.387894556279761
 30
0.0
 10
9.93951388640401
 20
8.421811521332046
 30
0.0
 10
9.93469075272466
 20
8.455401202313233
 30
0.0
 10
9.92022135168661
 20
8.556204696211642
 30
0.0
 10
9.912607690664208
 20
8.654252113721853
 30
0.0
 10
9.912607690664208
 20
8.744151880409447
 30
0.0
 10
9.640617402103734
 20
8.463049314290487
 30
0.0
 10
9.548082137369923
 20
8.203134085405813
 30
0.0
 10
9.534542912112892
 20
8.089773218463668
 30
0.0
 10
9.491548120456974
 20
8.129167885337498
 30
0.0
 10
9.451206052324698
 20
8.168545326733904
 30
0.0
 10
9.41482584400046
 20
8.206940915917015
 30
0.0
 10
9.321808265898714
 20
8.305091686291782
 30
0.0
 10
9.25542127589795
 20
8.396800128109133
 30
0.0
 10
9.24219210923459
 20
8.465391979220456
 30
0.0
 10
9.242157658279737
 20
8.465512557562441
 30
0.0
 10
9.242123207324886
 20
8.465615910426997
 30
0.0
 10
9.242088756370032
 20
8.465719263291556
 30
0.0
 10
9.241537541092393
 20
8.468527016112034
 30
0.0
 10
9.241468639182688
 20
8.471128063203398
 30
0.0
 10
9.241124129634162
 20
8.473849688636745
 30
0.0
 10
9.24067626722108
 20
8.477312009599421
 30
0.0
 10
9.23998724812403
 20
8.480860457949229
 30
0.0
 10
9.239849444304621
 20
8.484184975092495
 30
0.0
 10
9.189964461678203
 20
8.415627574936023
 30
0.0
 10
9.13325818999099
 20
8.320008949742913
 30
0.0
 10
9.081237248163719
 20
8.214072263571481
 30
0.0
 10
9.033936087151238
 20
8.117781844758749
 30
0.0
 10
8.990906844540467
 20
8.013085392962006
 30
0.0
 10
8.960486651405711
 20
7.911455076147136
 30
0.0
 10
8.933098142297975
 20
7.819987791013753
 30
0.0
 10
8.915700410097463
 20
7.731207680358864
 30
0.0
 10
8.915528155323202
 20
7.654192570786104
 30
0.0
 10
8.915493704368348
 20
7.637070446224413
 30
0.0
 10
8.916286076329955
 20
7.620533987895213
 30
0.0
 10
8.91800862407258
 20
7.604669323185638
 30
0.0
 10
8.91800862407258
 20
7.604669323185638
 30
0.0
 10
8.91800862407258
 20
7.604652097708211
 30
0.0
 10
8.91800862407258
 20
7.604652097708211
 30
0.0
 10
8.904503849770402
 20
7.644597979859683
 30
0.0
 10
8.888673636015678
 20
7.682993569042793
 30
0.0
 10
8.871344805724872
 20
7.720062796464081
 30
0.0
 10
8.86974283632423
 20
7.723490666471904
 30
0.0
 10
8.868347572652704
 20
7.727108016731417
 30
0.0
 10
8.86671115229721
 20
7.730518661261814
 30
0.0
 10
8.866039358677586
 20
7.731931150410767
 30
0.0
 10
8.865264212193406
 20
7.733240286695161
 30
0.0
 10
8.864592418573782
 20
7.734652775844114
 30
0.0
 10
8.729510224597135
 20
8.013584931807367
 30
0.0
 10
8.499877385027808
 20
8.204305417870797
 30
0.0
 10
8.369583873775658
 20
8.24388956499632
 30
0.0
 10
8.370565725988955
 20
8.243596731880073
 30
0.0
 10
8.371409774382842
 20
8.24292493826045
 30
0.0
 10
8.372374401118712
 20
8.242528752279645
 30
0.0
 10
8.374458683887287
 20
8.241684703885758
 30
0.0
 10
8.376577417610717
 20
8.240909557401578
 30
0.0
 10
8.37848944560503
 20
8.23956597016233
 30
0.0
 10
8.379299043044064
 20
8.238997529407264
 30
0.0
 10
8.379970836663688
 20
8.23805012814882
 30
0.0
 10
8.380763208625295
 20
8.237395560006624
 30
0.0
 10
8.382640785664757
 20
8.235793590605981
 30
0.0
 10
8.384535588181643
 20
8.234243297637619
 30
0.0
 10
8.386206459491989
 20
8.232159014869042
 30
0.0
 10
8.386981605976171
 20
8.231211613610599
 30
0.0
 10
8.38758449768609
 20
8.229936928281058
 30
0.0
 10
8.388307967737992
 20
8.228903399635481
 30
0.0
 10
8.389858260706355
 20
8.226681313047497
 30
0.0
 10
8.391425779152144
 20
8.22454535384664
 30
0.0
 10
8.392786591868816
 20
8.221875404845573
 30
0.0
 10
8.39373399312726
 20
8.220066729715816
 30
0.0
 10
8.394491914134015
 20
8.21784464312783
 30
0.0
 10
8.395353188005327
 20
8.215829262268958
 30
0.0
 10
8.396317814741197
 20
8.213538273771267
 30
0.0
 10
8.397385794341625
 20
8.211436765525265
 30
0.0
 10
8.398247068212937
 20
8.208904620343606
 30
0.0
 10
8.399538979019907
 20
8.20516669174211
 30
0.0
 10
8.40062418409776
 20
8.200980900727531
 30
0.0
 10
8.401692163698188
 20
8.196743433280675
 30
0.0
 10
8.401984996814434
 20
8.19557210081569
 30
0.0
 10
8.402363957317812
 20
8.19460747407982
 30
0.0
 10
8.402639564956631
 20
8.193418916137409
 30
0.0
 10
8.406515297377537
 20
8.176675752079094
 30
0.0
 10
8.408806285875228
 20
8.156453041580678
 30
0.0
 10
8.409736461656246
 20
8.133525931126341
 30
0.0
 10
8.41040825527587
 20
8.116317679177516
 30
0.0
 10
8.410322127888739
 20
8.097576359737758
 30
0.0
 10
8.409512530449705
 20
8.077663707833015
 30
0.0
 10
8.408789060397803
 20
8.060248750155075
 30
0.0
 10
8.407531600545687
 20
8.041938067650973
 30
0.0
 10
8.405757376370783
 20
8.02293836604982
 30
0.0
 10
8.393389483578735
 20
7.890078258661161
 30
0.0
 10
8.356354707112299
 20
7.724696449891742
 30
0.0
 10
8.310879446707002
 20
7.606322969018557
 30
0.0
 10
8.279701332565491
 20
7.525122068431219
 30
0.0
 10
8.244595809570795
 20
7.465935327994627
 30
0.0
 10
8.210730520950788
 20
7.455048826261237
 30
0.0
 10
8.210730520950788
 20
7.455048826261237
 30
0.0
 10
8.210713295473363
 20
7.455066051738664
 30
0.0
 10
8.210713295473363
 20
7.455066051738664
 30
0.0
 10
8.210713295473363
 20
7.455066051738664
 30
0.0
 10
8.210696069995937
 20
7.455048826261237
 30
0.0
 10
8.210696069995937
 20
7.455048826261237
 30
0.0
 10
8.10872124363254
 20
7.625064288458317
 30
0.0
 10
8.055184459791759
 20
7.777234156041802
 30
0.0
 10
8.042420381018909
 20
7.879053953108361
 30
0.0
 10
8.038165688094624
 20
7.912970918160646
 30
0.0
 10
8.038441295733445
 20
7.941272377571973
 30
0.0
 10
8.042954370819121
 20
7.962821449832211
 30
0.0
 10
7.969212101957349
 20
7.882257891909643
 30
0.0
 10
7.898088105664367
 20
7.803365205297422
 30
0.0
 10
7.82849717686232
 20
7.712035723983448
 30
0.0
 10
7.728709986132058
 20
7.581035968156824
 30
0.0
 10
7.632040606815948
 20
7.424077417848841
 30
0.0
 10
7.535354002022411
 20
7.199233261004011
 30
0.0
 10
7.528911673464994
 20
7.184247095643173
 30
0.0
 10
7.522469344907576
 20
7.168950871688665
 30
0.0
 10
7.516009790872733
 20
7.153344589140483
 30
0.0
 10
7.509343531108775
 20
7.137221542269513
 30
0.0
 10
7.502677271344816
 20
7.120736760372593
 30
0.0
 10
7.496011011580858
 20
7.103924694404574
 30
0.0
 10
7.490188800210785
 20
7.089214136682557
 30
0.0
 10
7.484332137885861
 20
7.074245196799146
 30
0.0
 10
7.478509926515788
 20
7.05898342379949
 30
0.0
 10
7.437633868583299
 20
6.952185463756745
 30
0.0
 10
7.396654457786252
 20
6.831848278456968
 30
0.0
 10
7.355313311963254
 20
6.694595674324614
 30
0.0
 10
7.355313311963254
 20
6.694595674324614
 30
0.0
 10
7.355296086485828
 20
6.694612899802041
 30
0.0
 10
7.355296086485828
 20
6.694612899802041
 30
0.0
 10
7.301345891186815
 20
6.768768580122043
 30
0.0
 10
7.244208982563947
 20
6.817482230283476
 30
0.0
 10
7.131709389493114
 20
6.912084552308436
 30
0.0
 10
7.092883163374348
 20
6.944726832031179
 30
0.0
 10
7.047562932265887
 20
6.982760686188337
 30
0.0
 10
6.993337129328054
 20
7.029321151671489
 30
0.0
 10
6.992992619779529
 20
7.028494328755029
 30
0.0
 10
6.992648110231004
 20
7.02761582940629
 30
0.0
 10
6.992303600682479
 20
7.02678900648983
 30
0.0
 10
6.990598278417281
 20
7.022775470249514
 30
0.0
 10
6.988858505197229
 20
7.018744708531772
 30
0.0
 10
6.987222084841735
 20
7.014593368472045
 30
0.0
 10
6.986825898860932
 20
7.013714869123307
 30
0.0
 10
6.986464163834981
 20
7.012767467864863
 30
0.0
 10
6.98610242880903
 20
7.011854517561272
 30
0.0
 10
6.985912948557341
 20
7.011389429670763
 30
0.0
 10
6.985723468305652
 20
7.010924341780255
 30
0.0
 10
6.985533988053963
 20
7.010476479367172
 30
0.0
 10
6.985396184234554
 20
7.010183646250926
 30
0.0
 10
6.985292831369995
 20
7.00989081313468
 30
0.0
 10
6.985189478505438
 20
7.00961520549586
 30
0.0
 10
6.984707165137503
 20
7.008461098508301
 30
0.0
 10
6.984242077246995
 20
7.007272540565889
 30
0.0
 10
6.983776989356485
 20
7.006118433578331
 30
0.0
 10
6.982846813575469
 20
7.003792994125788
 30
0.0
 10
6.981933863271877
 20
7.001519231105522
 30
0.0
 10
6.980986462013433
 20
6.999124889743274
 30
0.0
 10
6.980917560103729
 20
6.998900958536733
 30
0.0
 10
6.980814207239171
 20
6.998677027330191
 30
0.0
 10
6.98072807985204
 20
6.998470321601077
 30
0.0
 10
6.980486923168073
 20
6.997798527981453
 30
0.0
 10
6.980228541006679
 20
6.997143959839256
 30
0.0
 10
6.979970158845285
 20
6.996489391697057
 30
0.0
 10
6.979573972864481
 20
6.995438637574057
 30
0.0
 10
6.979177786883677
 20
6.994370657973629
 30
0.0
 10
6.978764375425447
 20
6.993337129328054
 30
0.0
 10
6.977403562708774
 20
6.989823131933099
 30
0.0
 10
6.976059975469526
 20
6.986360810970424
 30
0.0
 10
6.974768064662557
 20
6.98279513714319
 30
0.0
 10
6.974681937275427
 20
6.982588431414075
 30
0.0
 10
6.974613035365722
 20
6.982364500207534
 30
0.0
 10
6.974509682501163
 20
6.982140569000992
 30
0.0
 10
6.974130721997787
 20
6.981107040355417
 30
0.0
 10
6.973734536016982
 20
6.980056286232416
 30
0.0
 10
6.973338350036179
 20
6.979022757586841
 30
0.0
 10
6.973062742397359
 20
6.978316513012365
 30
0.0
 10
6.972821585713391
 20
6.977610268437888
 30
0.0
 10
6.972545978074572
 20
6.976869572908559
 30
0.0
 10
6.971185165357897
 20
6.97314886978449
 30
0.0
 10
6.96984157811865
 20
6.969359264750715
 30
0.0
 10
6.968446314447124
 20
6.965483532329809
 30
0.0
 10
6.967791746304926
 20
6.963692082677479
 30
0.0
 10
6.967137178162729
 20
6.961883407547723
 30
0.0
 10
6.966499835497958
 20
6.960057506940541
 30
0.0
 10
6.96488064061989
 20
6.955527206377437
 30
0.0
 10
6.963295896696676
 20
6.950893552949776
 30
0.0
 10
6.961711152773461
 20
6.946208223089837
 30
0.0
 10
6.961280515837804
 20
6.945036890624851
 30
0.0
 10
6.96093600628928
 20
6.943882783637292
 30
0.0
 10
6.960539820308476
 20
6.942763127604587
 30
0.0
 10
6.956354029293897
 20
6.930360783857688
 30
0.0
 10
6.952288816621302
 20
6.917613930562263
 30
0.0
 10
6.948223603948708
 20
6.904453665808608
 30
0.0
 10
6.948206378471281
 20
6.904384763898904
 30
0.0
 10
6.948189152993855
 20
6.904333087466624
 30
0.0
 10
6.948171927516428
 20
6.904281411034346
 30
0.0
 10
6.948154702039003
 20
6.904246960079493
 30
0.0
 10
6.948154702039003
 20
6.904178058169788
 30
0.0
 10
6.94812025108415
 20
6.90412638173751
 30
0.0
 10
6.947792967013052
 20
6.903041176659656
 30
0.0
 10
6.947448457464526
 20
6.901904295149524
 30
0.0
 10
6.947138398870853
 20
6.900801864594244
 30
0.0
 10
6.945536429470213
 20
6.89544474111468
 30
0.0
 10
6.943917234592146
 20
6.89007039215769
 30
0.0
 10
6.942349716146357
 20
6.884575464858717
 30
0.0
 10
6.942229137804373
 20
6.884213729832766
 30
0.0
 10
6.942125784939815
 20
6.883834769329388
 30
0.0
 10
6.941987981120405
 20
6.883473034303437
 30
0.0
 10
6.941901853733274
 20
6.883145750232338
 30
0.0
 10
6.941798500868717
 20
6.882870142593518
 30
0.0
 10
6.941712373481585
 20
6.882542858522419
 30
0.0
 10
6.941677922526733
 20
6.882439505657862
 30
0.0
 10
6.94164347157188
 20
6.882336152793305
 30
0.0
 10
6.941609020617028
 20
6.882232799928746
 30
0.0
 10
6.939903698351829
 20
6.876152206397281
 30
0.0
 10
6.938077797744647
 20
6.870037161910963
 30
0.0
 10
6.936372475479448
 20
6.863767088127807
 30
0.0
 10
6.936338024524596
 20
6.863680960740677
 30
0.0
 10
6.936320799047169
 20
6.863594833353545
 30
0.0
 10
6.936303573569743
 20
6.863508705966414
 30
0.0
 10
6.936096867840628
 20
6.862768010437085
 30
0.0
 10
6.935907387588939
 20
6.862027314907756
 30
0.0
 10
6.935683456382398
 20
6.861234942946149
 30
0.0
 10
6.933857555775216
 20
6.854758163433879
 30
0.0
 10
6.932117782555165
 20
6.848126354624774
 30
0.0
 10
6.930360783857688
 20
6.841442869383389
 30
0.0
 10
6.930222980038277
 20
6.841012232447732
 30
0.0
 10
6.930102401696294
 20
6.840581595512076
 30
0.0
 10
6.930016274309162
 20
6.840202635008699
 30
0.0
 10
6.927415227217798
 20
6.830263534533753
 30
0.0
 10
6.925003660378124
 20
6.81939425827779
 30
0.0
 10
6.922471515196465
 20
6.809076197299467
 30
0.0
 10
6.913738198141357
 20
6.773350557117426
 30
0.0
 10
6.905383841589626
 20
6.736005722057318
 30
0.0
 10
6.897942435341486
 20
6.695732555834747
 30
0.0
 10
6.897942435341486
 20
6.695732555834747
 30
0.0
 10
6.897942435341486
 20
6.695732555834747
 30
0.0
 10
6.89792520986406
 20
6.695749781312173
 30
0.0
 10
6.89792520986406
 20
6.695749781312173
 30
0.0
 10
6.89792520986406
 20
6.695715330357321
 30
0.0
 10
6.89792520986406
 20
6.695715330357321
 30
0.0
 10
6.89737399458642
 20
6.696232094680108
 30
0.0
 10
6.89668497548937
 20
6.696714408048043
 30
0.0
 10
6.896064858302025
 20
6.697231172370831
 30
0.0
 10
6.89599595639232
 20
6.697265623325683
 30
0.0
 10
6.895927054482615
 20
6.697334525235388
 30
0.0
 10
6.89585815257291
 20
6.697386201667667
 30
0.0
 10
6.836791990478302
 20
6.742275795840472
 30
0.0
 10
6.761947291061249
 20
6.777260740493184
 30
0.0
 10
6.67316718040636
 20
6.80139363436736
 30
0.0
 10
6.642454154155359
 20
6.809747990919091
 30
0.0
 10
6.609346786542107
 20
6.816448701637901
 30
0.0
 10
6.574361841889395
 20
6.821771374162612
 30
0.0
 10
6.544320609258016
 20
6.826353351157994
 30
0.0
 10
6.512935789387391
 20
6.829936250462654
 30
0.0
 10
6.479983451070976
 20
6.832313366347477
 30
0.0
 10
6.479983451070976
 20
6.832313366347477
 30
0.0
 10
6.480000676548402
 20
6.832330591824903
 30
0.0
 10
6.480000676548402
 20
6.832330591824903
 30
0.0
 10
6.445222437624805
 20
6.834811060574283
 30
0.0
 10
6.408928356687698
 20
6.836085745903826
 30
0.0
 10
6.371118433737081
 20
6.836085745903826
 30
0.0
 10
6.287299260580952
 20
6.836085745903826
 30
0.0
 10
6.206718477180959
 20
6.829385035185014
 30
0.0
 10
6.131735973944497
 20
6.816121417566802
 30
0.0
 10
6.056615666888623
 20
6.802892250903443
 30
0.0
 10
5.986042885873281
 20
6.784288735283094
 30
0.0
 10
5.922033011757339
 20
6.760827635028543
 30
0.0
 10
5.862674016546483
 20
6.739020180606911
 30
0.0
 10
5.808000351195569
 20
6.712871905873865
 30
0.0
 10
5.759114446259874
 20
6.683020153494175
 30
0.0
 10
5.754205185193393
 20
6.680022920422008
 30
0.0
 10
5.749295924126912
 20
6.677025687349841
 30
0.0
 10
5.744541692357267
 20
6.673976777845394
 30
0.0
 10
5.691039359471337
 20
6.639732528722011
 30
0.0
 10
5.644582246852743
 20
6.601216361196918
 30
0.0
 10
5.606307236011618
 20
6.559668509644805
 30
0.0
 10
5.56656805958926
 20
6.516449786782346
 30
0.0
 10
5.535510523789733
 20
6.469613713660374
 30
0.0
 10
5.513909775097217
 20
6.420555553950416
 30
0.0
 10
5.491241046804273
 20
6.368861896194242
 30
0.0
 10
5.47976887883839
 20
6.315118406624345
 30
0.0
 10
5.47976887883839
 20
6.260772025344528
 30
0.0
 10
5.47976887883839
 20
6.232677271662316
 30
0.0
 10
5.483076170504231
 20
6.206270614767877
 30
0.0
 10
5.489518499061647
 20
6.182275524713111
 30
0.0
 10
5.496873777922656
 20
6.155248750631326
 30
0.0
 10
5.507966985385161
 20
6.131012503892594
 30
0.0
 10
5.522798121449161
 20
6.110341930981095
 30
0.0
 10
5.527018363418592
 20
6.104416366746465
 30
0.0
 10
5.531514213026843
 20
6.098818086582934
 30
0.0
 10
5.536268444796488
 20
6.093547090490501
 30
0.0
 10
5.543761527476907
 20
6.085209959416197
 30
0.0
 10
5.552029756641506
 20
6.07780300412291
 30
0.0
 10
5.560814750128893
 20
6.071102293404099
 30
0.0
 10
5.568790146177246
 20
6.065021699872633
 30
0.0
 10
5.577213404638682
 20
6.059526772573659
 30
0.0
 10
5.586205103855185
 20
6.054824217236294
 30
0.0
 10
5.60689290224411
 20
6.044006617412609
 30
0.0
 10
5.630112845814693
 20
6.037926023881143
 30
0.0
 10
5.654280190643721
 20
6.035858966589993
 30
0.0
 10
5.65639892436715
 20
6.035686711815731
 30
0.0
 10
5.658431530703448
 20
6.035238849402648
 30
0.0
 10
5.660567489904302
 20
6.035101045583239
 30
0.0
 10
5.669386934346542
 20
6.034635957692729
 30
0.0
 10
5.678326957130765
 20
6.034722085079861
 30
0.0
 10
5.687318656347268
 20
6.035376653222058
 30
0.0
 10
5.688179930218579
 20
6.025661483953654
 30
0.0
 10
5.689127331477024
 20
6.015911863730397
 30
0.0
 10
5.690212536554877
 20
6.006196694461992
 30
0.0
 10
5.69038479132914
 20
6.004577499583925
 30
0.0
 10
5.690574271580828
 20
6.002941079228431
 30
0.0
 10
5.690763751832517
 20
6.001270207918084
 30
0.0
 10
5.690780977309943
 20
6.001166855053527
 30
0.0
 10
5.690780977309943
 20
6.001080727666396
 30
0.0
 10
5.690798202787369
 20
6.000960149324412
 30
0.0
 10
5.691659476658682
 20
5.992950302321207
 30
0.0
 10
5.692658554349404
 20
5.984974906272853
 30
0.0
 10
5.693674857517554
 20
5.976999510224499
 30
0.0
 10
5.693778210382111
 20
5.976052108966056
 30
0.0
 10
5.693881563246668
 20
5.975121933185038
 30
0.0
 10
5.694002141588652
 20
5.974208982881447
 30
0.0
 10
5.694122719930635
 20
5.97327880710043
 30
0.0
 10
5.694260523750046
 20
5.972331405841986
 30
0.0
 10
5.694329425659751
 20
5.971418455538395
 30
0.0
 10
5.696878796318836
 20
5.952418753937242
 30
0.0
 10
5.699669323661888
 20
5.933522405200646
 30
0.0
 10
5.702804360553465
 20
5.914660507418904
 30
0.0
 10
5.702907713418023
 20
5.914023164754132
 30
0.0
 10
5.70301106628258
 20
5.913403047566788
 30
0.0
 10
5.703114419147138
 20
5.912782930379443
 30
0.0
 10
5.703234997489122
 20
5.912128362237246
 30
0.0
 10
5.703355575831105
 20
5.911473794095047
 30
0.0
 10
5.703476154173089
 20
5.910802000475424
 30
0.0
 10
5.703596732515073
 20
5.910216334242931
 30
0.0
 10
5.703682859902204
 20
5.909647893487866
 30
0.0
 10
5.703803438244187
 20
5.909062227255373
 30
0.0
 10
5.703803438244187
 20
5.909062227255373
 30
0.0
 10
5.703803438244187
 20
5.909045001777947
 30
0.0
 10
5.703803438244187
 20
5.909045001777947
 30
0.0
 10
5.705164250960861
 20
5.900914576432757
 30
0.0
 10
5.706559514632388
 20
5.892835827519846
 30
0.0
 10
5.708058131168471
 20
5.884774304084361
 30
0.0
 10
5.708316513329865
 20
5.883396265890261
 30
0.0
 10
5.708540444536406
 20
5.881983776741309
 30
0.0
 10
5.708850503130079
 20
5.880571287592357
 30
0.0
 10
5.710659178259835
 20
5.87095947118851
 30
0.0
 10
5.712519529821869
 20
5.861451007649221
 30
0.0
 10
5.714500459725889
 20
5.851839191245373
 30
0.0
 10
5.714534910680741
 20
5.851701387425963
 30
0.0
 10
5.714569361635593
 20
5.851563583606553
 30
0.0
 10
5.714586587113019
 20
5.851391328832291
 30
0.0
 10
5.714621038067872
 20
5.851253525012881
 30
0.0
 10
5.714655489022725
 20
5.851081270238618
 30
0.0
 10
5.714689939977577
 20
5.850943466419208
 30
0.0
 10
5.716584742494464
 20
5.841986218157558
 30
0.0
 10
5.718531221443631
 20
5.832994518941057
 30
0.0
 10
5.720512151347649
 20
5.824071721634259
 30
0.0
 10
5.7208738863736
 20
5.822383624846487
 30
0.0
 10
5.721304523309257
 20
5.820661077103862
 30
0.0
 10
5.721649032857782
 20
5.818938529361237
 30
0.0
 10
5.723629962761801
 20
5.810187986828702
 30
0.0
 10
5.725714245530376
 20
5.801368542386463
 30
0.0
 10
5.727867430208658
 20
5.792652450808781
 30
0.0
 10
5.72790188116351
 20
5.792514646989371
 30
0.0
 10
5.727919106640936
 20
5.79237684316996
 30
0.0
 10
5.727953557595789
 20
5.792273490305403
 30
0.0
 10
5.727953557595789
 20
5.792204588395698
 30
0.0
 10
5.727953557595789
 20
5.792204588395698
 30
0.0
 10
5.727970783073215
 20
5.792135686485993
 30
0.0
 10
5.72803968498292
 20
5.791894529802026
 30
0.0
 10
5.728108586892625
 20
5.791653373118058
 30
0.0
 10
5.728160263324904
 20
5.791377765479239
 30
0.0
 10
5.730554604687152
 20
5.781731498120539
 30
0.0
 10
5.73300062248168
 20
5.77208523076184
 30
0.0
 10
5.735515542185913
 20
5.762473414357992
 30
0.0
 10
5.735636120527897
 20
5.761853297170648
 30
0.0
 10
5.735860051734437
 20
5.761129827118745
 30
0.0
 10
5.735997855553848
 20
5.7605097099314
 30
0.0
 10
5.736755776560602
 20
5.757581378768937
 30
0.0
 10
5.737565373999636
 20
5.75472194951618
 30
0.0
 10
5.738357745961244
 20
5.751862520263423
 30
0.0
 10
5.739908038929606
 20
5.746074759848203
 30
0.0
 10
5.741441106420542
 20
5.740321450387836
 30
0.0
 10
5.743077526776036
 20
5.734533689972616
 30
0.0
 10
5.743439261801987
 20
5.733190102733369
 30
0.0
 10
5.743800996827939
 20
5.731915417403826
 30
0.0
 10
5.744231633763595
 20
5.730606281119432
 30
0.0
 10
5.749450953423748
 20
5.711864961679672
 30
0.0
 10
5.755083684542131
 20
5.693192544149619
 30
0.0
 10
5.76092312138963
 20
5.674589028529269
 30
0.0
 10
5.76092312138963
 20
5.674589028529269
 30
0.0
 10
5.761457111189844
 20
5.673038735560906
 30
0.0
 10
5.761457111189844
 20
5.673038735560906
 30
0.0
 10
5.761457111189844
 20
5.673038735560906
 30
0.0
 10
5.761715493351238
 20
5.672280814554152
 30
0.0
 10
5.761715493351238
 20
5.672280814554152
 30
0.0
 10
5.762628443654829
 20
5.669352483391689
 30
0.0
 10
5.763610295868125
 20
5.666493054138932
 30
0.0
 10
5.764540471649142
 20
5.663633624886175
 30
0.0
 10
5.766400823211177
 20
5.657845864470954
 30
0.0
 10
5.768278400250638
 20
5.652023653100883
 30
0.0
 10
5.770207653722379
 20
5.646304794595368
 30
0.0
 10
5.77043158492892
 20
5.645409069769203
 30
0.0
 10
5.770724418045166
 20
5.644582246852743
 30
0.0
 10
5.771017251161412
 20
5.643755423936283
 30
0.0
 10
5.777218423034862
 20
5.625220810225639
 30
0.0
 10
5.783764104456837
 20
5.606686196514994
 30
0.0
 10
5.790533717085352
 20
5.588323837578614
 30
0.0
 10
5.790740422814467
 20
5.58773817134612
 30
0.0
 10
5.790964354021009
 20
5.58718695606848
 30
0.0
 10
5.79118828522755
 20
5.586601289835988
 30
0.0
 10
5.791308863569533
 20
5.586291231242316
 30
0.0
 10
5.791429441911517
 20
5.586015623603496
 30
0.0
 10
5.791550020253501
 20
5.585705565009823
 30
0.0
 10
5.794753959054783
 20
5.576955022477288
 30
0.0
 10
5.798095701675476
 20
5.568238930899606
 30
0.0
 10
5.801454669773594
 20
5.559557290276777
 30
0.0
 10
5.801523571683299
 20
5.559212780728252
 30
0.0
 10
5.801609699070431
 20
5.559040525953989
 30
0.0
 10
5.801730277412414
 20
5.558799369270022
 30
0.0
 10
5.799215357708182
 20
5.558385957811792
 30
0.0
 10
5.796579859661966
 20
5.557972546353562
 30
0.0
 10
5.794133841867438
 20
5.557559134895332
 30
0.0
 10
5.76436821687488
 20
5.552632648351425
 30
0.0
 10
5.738426647870948
 20
5.54622477074886
 30
0.0
 10
5.715585664803742
 20
5.538128796358523
 30
0.0
 10
5.707954778303914
 20
5.53547607283488
 30
0.0
 10
5.700685626830037
 20
5.532582192627271
 30
0.0
 10
5.693709308472406
 20
5.529516057645399
 30
0.0
 10
5.657518580399856
 20
5.513427461729282
 30
0.0
 10
5.629010415259414
 20
5.491103242984862
 30
0.0
 10
5.608994410490112
 20
5.463129067644634
 30
0.0
 10
5.587238632500759
 20
5.432639972600173
 30
0.0
 10
5.576231552425386
 20
5.396259764275935
 30
0.0
 10
5.576231552425386
 20
5.355021971317494
 30
0.0
 10
5.576231552425386
 20
5.310304631918951
 30
0.0
 10
5.582863361234492
 20
5.268584525592575
 30
0.0
 10
5.596178655284983
 20
5.23086073002909
 30
0.0
 10
5.609028861444965
 20
5.194342717885442
 30
0.0
 10
5.625944280277541
 20
5.162131075098356
 30
0.0
 10
5.646166990775958
 20
5.135121526493997
 30
0.0
 10
5.667802190423327
 20
5.106217175372751
 30
0.0
 10
5.692314044800879
 20
5.08316948657643
 30
0.0
 10
5.719030760288992
 20
5.066529675382673
 30
0.0
 10
5.723974472310325
 20
5.0634635404008
 30
0.0
 10
5.728935409809085
 20
5.061051973561126
 30
0.0
 10
5.733896347307845
 20
5.058399250037483
 30
0.0
 10
5.761215954505876
 20
5.044033201863991
 30
0.0
 10
5.788656140045891
 20
5.036316187977032
 30
0.0
 10
5.815700139605102
 20
5.036316187977032
 30
0.0
 10
5.838368867898046
 20
5.036316187977032
 30
0.0
 10
5.861054821668416
 20
5.039657930597724
 30
0.0
 10
5.88294840347718
 20
5.046272513929404
 30
0.0
 10
5.903084986588464
 20
5.052301431028591
 30
0.0
 10
5.924082843571062
 20
5.061672090748471
 30
0.0
 10
5.945459661057037
 20
5.073971081630813
 30
0.0
 10
5.963529186877173
 20
5.084513073815677
 30
0.0
 10
5.983235133052802
 20
5.097673338569331
 30
0.0
 10
6.004026284306285
 20
5.113279621117513
 30
0.0
 10
6.006937389991321
 20
5.115450031273221
 30
0.0
 10
6.009917397586062
 20
5.11765489238378
 30
0.0
 10
6.012862954225951
 20
5.120032008268603
 30
0.0
 10
6.022853731133175
 20
5.113796385440301
 30
0.0
 10
6.032672253266137
 20
5.107939723115376
 30
0.0
 10
6.042370197057116
 20
5.102151962700156
 30
0.0
 10
6.042456324444246
 20
5.102117511745304
 30
0.0
 10
6.0424907753991
 20
5.102117511745304
 30
0.0
 10
6.042525226353952
 20
5.101979707925894
 30
0.0
 10
6.063505857859123
 20
5.070594888055267
 30
0.0
 10
6.084899900822524
 20
5.039933538236544
 30
0.0
 10
6.106759031676435
 20
5.009892305605166
 30
0.0
 10
6.106759031676435
 20
5.009892305605166
 30
0.0
 10
6.106793482631288
 20
5.009892305605166
 30
0.0
 10
6.106793482631288
 20
5.009892305605166
 30
0.0
 10
6.114062634105164
 20
4.999901528697941
 30
0.0
 10
6.121314560101616
 20
4.990014104655274
 30
0.0
 10
6.128669838962624
 20
4.980230033477165
 30
0.0
 10
6.128704289917477
 20
4.980092229657754
 30
0.0
 10
6.128790417304607
 20
4.980023327748049
 30
0.0
 10
6.128859319214312
 20
4.979885523928639
 30
0.0
 10
6.158245983703494
 20
4.940645886351644
 30
0.0
 10
6.188114961560609
 20
4.902612032194486
 30
0.0
 10
6.218345674443677
 20
4.866094020050837
 30
0.0
 10
6.218362899921103
 20
4.866025118141132
 30
0.0
 10
6.218397350875955
 20
4.866025118141132
 30
0.0
 10
6.218449027308234
 20
4.865956216231427
 30
0.0
 10
6.218552380172792
 20
4.86585286336687
 30
0.0
 10
6.218638507559923
 20
4.865749510502313
 30
0.0
 10
6.218690183992202
 20
4.86571505954746
 30
0.0
 10
6.232866751914005
 20
4.848524033076063
 30
0.0
 10
6.247112221745513
 20
4.831677516153191
 30
0.0
 10
6.261374917054447
 20
4.815141057823992
 30
0.0
 10
6.277429062015711
 20
4.796537542203643
 30
0.0
 10
6.293483206976976
 20
4.778244085176967
 30
0.0
 10
6.309554577415667
 20
4.760467392473077
 30
0.0
 10
6.309709606712503
 20
4.760260686743962
 30
0.0
 10
6.309864636009339
 20
4.760122882924552
 30
0.0
 10
6.310071341738454
 20
4.759881726240585
 30
0.0
 10
6.317547198941446
 20
4.751613497075986
 30
0.0
 10
6.325023056144438
 20
4.743414169821091
 30
0.0
 10
6.332516138824857
 20
4.735352646385606
 30
0.0
 10
6.332602266211988
 20
4.735283744475901
 30
0.0
 10
6.332688393599119
 20
4.735214842566196
 30
0.0
 10
6.332740070031398
 20
4.735111489701638
 30
0.0
 10
6.332826197418529
 20
4.735008136837081
 30
0.0
 10
6.33291232480566
 20
4.734904783972524
 30
0.0
 10
6.332998452192792
 20
4.734870333017671
 30
0.0
 10
6.355563827621178
 20
4.710341253162692
 30
0.0
 10
6.378163654004417
 20
4.686776800043583
 30
0.0
 10
6.400556774658541
 20
4.663970267931229
 30
0.0
 10
6.400625676568246
 20
4.663901366021524
 30
0.0
 10
6.400694578477951
 20
4.663832464111819
 30
0.0
 10
6.400780705865082
 20
4.663763562202115
 30
0.0
 10
6.400797931342509
 20
4.663729111247262
 30
0.0
 10
6.400849607774787
 20
4.663729111247262
 30
0.0
 10
6.400884058729639
 20
4.663660209337557
 30
0.0
 10
6.400987411594197
 20
4.663522405518147
 30
0.0
 10
6.401107989936181
 20
4.663384601698737
 30
0.0
 10
6.40124579375559
 20
4.663315699789032
 30
0.0
 10
6.408497719752042
 20
4.655908744495744
 30
0.0
 10
6.415663518361361
 20
4.648605142067015
 30
0.0
 10
6.42288099340296
 20
4.641473794412548
 30
0.0
 10
6.423311630338616
 20
4.641025931999465
 30
0.0
 10
6.423759492751699
 20
4.640646971496088
 30
0.0
 10
6.424138453255076
 20
4.640268010992711
 30
0.0
 10
6.431442055683806
 20
4.633033310473686
 30
0.0
 10
6.438573403338273
 20
4.625936413774071
 30
0.0
 10
6.445739201947593
 20
4.618942869939014
 30
0.0
 10
6.445877005767002
 20
4.618873968029309
 30
0.0
 10
6.445963133154134
 20
4.618701713255047
 30
0.0
 10
6.446100936973544
 20
4.618632811345342
 30
0.0
 10
6.460639239921298
 20
4.60440456699126
 30
0.0
 10
6.475108640959347
 20
4.59062418505026
 30
0.0
 10
6.489457463655413
 20
4.577222763612639
 30
0.0
 10
6.48975029677166
 20
4.576878254064114
 30
0.0
 10
6.490060355365332
 20
4.576568195470441
 30
0.0
 10
6.490422090391283
 20
4.576258136876769
 30
0.0
 10
6.49727783040693
 20
4.569850259274204
 30
0.0
 10
6.504047443035446
 20
4.563545734536197
 30
0.0
 10
6.510817055663962
 20
4.5573790136176
 30
0.0
 10
6.511402721896454
 20
4.556758896430255
 30
0.0
 10
6.512143417425783
 20
4.556138779242909
 30
0.0
 10
6.512763534613129
 20
4.555553113010417
 30
0.0
 10
6.519464245331939
 20
4.549455294001524
 30
0.0
 10
6.526113279618471
 20
4.543426376902337
 30
0.0
 10
6.532710637472725
 20
4.537500812667708
 30
0.0
 10
6.532813990337282
 20
4.537431910758003
 30
0.0
 10
6.53291734320184
 20
4.537328557893446
 30
0.0
 10
6.533020696066397
 20
4.537190754074035
 30
0.0
 10
6.533089597976102
 20
4.53712185216433
 30
0.0
 10
6.533175725363233
 20
4.537052950254625
 30
0.0
 10
6.533227401795513
 20
4.537018499299773
 30
0.0
 10
6.53333075466007
 20
4.536949597390068
 30
0.0
 10
6.533416882047201
 20
4.536846244525511
 30
0.0
 10
6.533537460389184
 20
4.536742891660952
 30
0.0
 10
6.533795842550578
 20
4.536501734976985
 30
0.0
 10
6.534054224711972
 20
4.536260578293017
 30
0.0
 10
6.534329832350792
 20
4.536053872563903
 30
0.0
 10
6.547955184994955
 20
4.523789332636413
 30
0.0
 10
6.561391057387429
 20
4.511972655122007
 30
0.0
 10
6.574620224050789
 20
4.500534938110977
 30
0.0
 10
6.575016410031592
 20
4.500224879517305
 30
0.0
 10
6.575326468625265
 20
4.499914820923632
 30
0.0
 10
6.575757105560921
 20
4.49960476232996
 30
0.0
 10
6.582061630298929
 20
4.494127060508412
 30
0.0
 10
6.588331704082083
 20
4.488787162506275
 30
0.0
 10
6.594567326910385
 20
4.483516166413843
 30
0.0
 10
6.595394149826846
 20
4.482827147316793
 30
0.0
 10
6.5961520708336
 20
4.482138128219743
 30
0.0
 10
6.596996119227486
 20
4.48141465816784
 30
0.0
 10
6.6030422618041
 20
4.476350367804523
 30
0.0
 10
6.609002276993582
 20
4.471320528396059
 30
0.0
 10
6.61497951766049
 20
4.466428492807004
 30
0.0
 10
6.615789115099524
 20
4.465739473709954
 30
0.0
 10
6.616667614448263
 20
4.465050454612904
 30
0.0
 10
6.617494437364723
 20
4.464326984561001
 30
0.0
 10
6.623557805418763
 20
4.459400498017094
 30
0.0
 10
6.629414467743688
 20
4.45450846242804
 30
0.0
 10
6.635391708410596
 20
4.449719779703542
 30
0.0
 10
6.635856796301105
 20
4.449340819200165
 30
0.0
 10
6.63633910966904
 20
4.448961858696787
 30
0.0
 10
6.636821423036975
 20
4.448582898193409
 30
0.0
 10
6.642781438226457
 20
4.443794215468913
 30
0.0
 10
6.648638100551381
 20
4.43907443465412
 30
0.0
 10
6.654425860966602
 20
4.434561359568443
 30
0.0
 10
6.654787595992553
 20
4.434285751929623
 30
0.0
 10
6.655080429108799
 20
4.434044595245656
 30
0.0
 10
6.655338811270193
 20
4.433803438561688
 30
0.0
 10
6.661161022640265
 20
4.429221461566305
 30
0.0
 10
6.666828204713501
 20
4.42474283743548
 30
0.0
 10
6.672478161309311
 20
4.420402017124066
 30
0.0
 10
6.673356660658049
 20
4.419816350891574
 30
0.0
 10
6.67413180714223
 20
4.419196233704229
 30
0.0
 10
6.675010306490969
 20
4.418472763652326
 30
0.0
 10
6.680384655447959
 20
4.414338649070026
 30
0.0
 10
6.685776229882375
 20
4.410238985442579
 30
0.0
 10
6.691012775019955
 20
4.406277125634541
 30
0.0
 10
6.69190849984612
 20
4.405519204627787
 30
0.0
 10
6.692890352059416
 20
4.404830185530737
 30
0.0
 10
6.693872204272712
 20
4.404141166433686
 30
0.0
 10
6.699108749410292
 20
4.400179306625649
 30
0.0
 10
6.704310843593019
 20
4.39632079968217
 30
0.0
 10
6.709444035866041
 20
4.392496743693542
 30
0.0
 10
6.709702418027435
 20
4.39232448891928
 30
0.0
 10
6.709943574711403
 20
4.39218668509987
 30
0.0
 10
6.71018473139537
 20
4.391979979370754
 30
0.0
 10
6.710667044763305
 20
4.391669920777082
 30
0.0
 10
6.71114935813124
 20
4.391290960273705
 30
0.0
 10
6.711666122454027
 20
4.390980901680032
 30
0.0
 10
6.717006020456164
 20
4.386984590917143
 30
0.0
 10
6.722328692980875
 20
4.383160534928515
 30
0.0
 10
6.72749633620875
 20
4.379405380849593
 30
0.0
 10
6.72749633620875
 20
4.379405380849593
 30
0.0
 10
6.735592310599087
 20
4.59765217984017
 30
0.0
 10
6.735592310599087
 20
4.59765217984017
 30
0.0
 10
6.735592310599087
 20
4.59765217984017
 30
0.0
 10
6.881647133696254
 20
4.517553709808111
 30
0.0
 10
6.881647133696254
 20
4.517553709808111
 30
0.0
 10
6.877254636952561
 20
4.571297199378009
 30
0.0
 10
6.877254636952561
 20
4.594551593903445
 30
0.0
 10
6.877254636952561
 20
4.594551593903445
 30
0.0
 10
6.726411131130897
 20
4.713062878596039
 30
0.0
 10
6.618682995307134
 20
4.777727320854179
 30
0.0
 10
6.618682995307134
 20
4.777727320854179
 30
0.0
 10
6.618682995307134
 20
4.777727320854179
 30
0.0
 10
6.566782631821845
 20
4.959146049107435
 30
0.0
 10
6.566782631821845
 20
4.959146049107435
 30
0.0
 10
6.600768498783835
 20
4.961040851624323
 30
0.0
 10
6.63316962182261
 20
4.96472710379354
 30
0.0
 10
6.664037677370448
 20
4.970170354660235
 30
0.0
 10
6.686430798024572
 20
4.974166665423125
 30
0.0
 10
6.707618135258859
 20
4.979472112470409
 30
0.0
 10
6.728185355305801
 20
4.985432127659892
 30
0.0
 10
6.736401908038121
 20
4.987809243544714
 30
0.0
 10
6.744825166499557
 20
4.990014104655274
 30
0.0
 10
6.752731660638205
 20
4.992666828178916
 30
0.0
 10
6.760707056686559
 20
4.995319551702559
 30
0.0
 10
6.768045110070141
 20
4.998661294323251
 30
0.0
 10
6.775762123957101
 20
5.001624076440566
 30
0.0
 10
6.806371797343545
 20
5.013371852045267
 30
0.0
 10
6.835017766303398
 20
5.027014430166857
 30
0.0
 10
6.861303844855854
 20
5.042827418444154
 30
0.0
 10
6.887882756524556
 20
5.058812661495713
 30
0.0
 10
6.912549640198946
 20
5.076520452289897
 30
0.0
 10
6.934425996530281
 20
5.096467555149494
 30
0.0
 10
6.954510903209289
 20
5.114864365040728
 30
0.0
 10
6.97259765450685
 20
5.13488036981003
 30
0.0
 10
6.988737926855245
 20
5.156171059908874
 30
0.0
 10
6.988737926855245
 20
5.156171059908874
 30
0.0
 10
6.988737926855245
 20
5.156171059908874
 30
0.0
 10
6.988737926855245
 20
5.156171059908874
 30
0.0
 10
6.988737926855245
 20
5.156171059908874
 30
0.0
 10
6.988755152332672
 20
5.156171059908874
 30
0.0
 10
6.988755152332672
 20
5.156171059908874
 30
0.0
 10
6.996231009535664
 20
5.121272242643292
 30
0.0
 10
7.008840059011678
 20
5.090231932321192
 30
0.0
 10
7.026737330057551
 20
5.064118108542998
 30
0.0
 10
7.049009872369692
 20
5.031424152387977
 30
0.0
 10
7.079309487162464
 20
5.006516112029621
 30
0.0
 10
7.116654322222572
 20
4.990117457519831
 30
0.0
 10
7.150140650339201
 20
4.975441350752667
 30
0.0
 10
7.188846298115982
 20
4.968206650233642
 30
0.0
 10
7.235079479528035
 20
4.968206650233642
 30
0.0
 10
7.242228052659929
 20
4.968206650233642
 30
0.0
 10
7.249479978656379
 20
4.968654512646725
 30
0.0
 10
7.256749130130257
 20
4.96927462983407
 30
0.0
 10
7.274956459769802
 20
4.970824922802432
 30
0.0
 10
7.293542749912725
 20
4.97423556733283
 30
0.0
 10
7.312456324126747
 20
4.979575465334967
 30
0.0
 10
7.320035534194296
 20
4.981745875490675
 30
0.0
 10
7.327631969739272
 20
4.984019638510939
 30
0.0
 10
7.3352628562391
 20
4.986775714899139
 30
0.0
 10
7.3352628562391
 20
4.986775714899139
 30
0.0
 10
7.335280081716527
 20
4.986775714899139
 30
0.0
 10
7.335280081716527
 20
4.986775714899139
 30
0.0
 10
7.335280081716527
 20
4.986775714899139
 30
0.0
 10
7.335331758148805
 20
4.986775714899139
 30
0.0
 10
7.335331758148805
 20
4.986775714899139
 30
0.0
 10
7.345839299378818
 20
4.978645289553949
 30
0.0
 10
7.356829153976764
 20
4.97023925656994
 30
0.0
 10
7.367801783097285
 20
4.961798772631078
 30
0.0
 10
7.37145358431165
 20
4.959008245288025
 30
0.0
 10
7.374950356229179
 20
4.956321070809531
 30
0.0
 10
7.378636608398396
 20
4.953461641556773
 30
0.0
 10
7.379618460611692
 20
4.952669269595166
 30
0.0
 10
7.380651989257267
 20
4.951876897633558
 30
0.0
 10
7.381651066947989
 20
4.951118976626804
 30
0.0
 10
7.382667370116138
 20
4.950361055620048
 30
0.0
 10
7.383649222329434
 20
4.949568683658441
 30
0.0
 10
7.384699976452436
 20
4.948776311696833
 30
0.0
 10
7.387714435002029
 20
4.946468097721716
 30
0.0
 10
7.39083224641618
 20
4.944090981836894
 30
0.0
 10
7.393898381398053
 20
4.941679414997219
 30
0.0
 10
7.396964516379925
 20
4.939302299112397
 30
0.0
 10
7.400030651361797
 20
4.936994085137279
 30
0.0
 10
7.403114011821096
 20
4.934616969252456
 30
0.0
 10
7.404578177402327
 20
4.933514538697176
 30
0.0
 10
7.406025117506132
 20
4.932377657187044
 30
0.0
 10
7.407472057609937
 20
4.931275226631764
 30
0.0
 10
7.408901772236316
 20
4.930172796076485
 30
0.0
 10
7.410348712340121
 20
4.929035914566351
 30
0.0
 10
7.411812877921352
 20
4.927933484011072
 30
0.0
 10
7.417617863813998
 20
4.923420408925394
 30
0.0
 10
7.423560653526054
 20
4.918872882884865
 30
0.0
 10
7.429537894192962
 20
4.914290905889483
 30
0.0
 10
7.431191540025882
 20
4.91301622055994
 30
0.0
 10
7.432845185858802
 20
4.911741535230398
 30
0.0
 10
7.434498831691722
 20
4.910432398946003
 30
0.0
 10
7.436152477524642
 20
4.909157713616461
 30
0.0
 10
7.437788897880136
 20
4.907883028286918
 30
0.0
 10
7.439476994667908
 20
4.906608342957376
 30
0.0
 10
7.445437009857391
 20
4.902026365961993
 30
0.0
 10
7.451414250524299
 20
4.897375487056906
 30
0.0
 10
7.45742594214606
 20
4.892759059106671
 30
0.0
 10
7.461008841450719
 20
4.890037433673323
 30
0.0
 10
7.464591740755379
 20
4.887212455375419
 30
0.0
 10
7.468277992924596
 20
4.884387477077514
 30
0.0
 10
7.471085745745075
 20
4.882182615966954
 30
0.0
 10
7.473945174997833
 20
4.879977754856395
 30
0.0
 10
7.476787378773164
 20
4.877841795655539
 30
0.0
 10
7.479629582548495
 20
4.875671385499832
 30
0.0
 10
7.4824545608464
 20
4.873466524389272
 30
0.0
 10
7.485313990099157
 20
4.871296114233565
 30
0.0
 10
7.487467174777438
 20
4.869608017445792
 30
0.0
 10
7.489672035887998
 20
4.86791992065802
 30
0.0
 10
7.491842446043705
 20
4.866231823870248
 30
0.0
 10
7.494030081676839
 20
4.864543727082475
 30
0.0
 10
7.496166040877694
 20
4.862855630294702
 30
0.0
 10
7.498370901988254
 20
4.861201984461783
 30
0.0
 10
7.503607447125834
 20
4.857067869879483
 30
0.0
 10
7.509050697992529
 20
4.852933755297183
 30
0.0
 10
7.514338919562387
 20
4.848799640714883
 30
0.0
 10
7.519299857061147
 20
4.844941133771403
 30
0.0
 10
7.52438137290189
 20
4.840979273963366
 30
0.0
 10
7.52948011422006
 20
4.837120767019886
 30
0.0
 10
7.532529023724506
 20
4.834743651135064
 30
0.0
 10
7.535595158706379
 20
4.832366535250241
 30
0.0
 10
7.538644068210824
 20
4.829989419365419
 30
0.0
 10
7.540573321682564
 20
4.828473577351909
 30
0.0
 10
7.542502575154304
 20
4.827026637248104
 30
0.0
 10
7.54444905410347
 20
4.825476344279742
 30
0.0
 10
7.549857854015313
 20
4.821376680652294
 30
0.0
 10
7.555283879404581
 20
4.817104762250585
 30
0.0
 10
7.56070990479385
 20
4.812970647668285
 30
0.0
 10
7.563276500930361
 20
4.81097249228684
 30
0.0
 10
7.565860322544299
 20
4.808974336905395
 30
0.0
 10
7.568444144158236
 20
4.80697618152395
 30
0.0
 10
7.571027965772173
 20
4.804978026142505
 30
0.0
 10
7.573577336431258
 20
4.80297987076106
 30
0.0
 10
7.576178383522621
 20
4.800981715379615
 30
0.0
 10
7.578968910865674
 20
4.798776854269056
 30
0.0
 10
7.581828340118431
 20
4.796571993158495
 30
0.0
 10
7.584670543893762
 20
4.794367132047936
 30
0.0
 10
7.587495522191667
 20
4.792162270937376
 30
0.0
 10
7.590337725966998
 20
4.789991860781669
 30
0.0
 10
7.593179929742329
 20
4.787752548716256
 30
0.0
 10
7.598106416286237
 20
4.784031845592186
 30
0.0
 10
7.603015677352718
 20
4.780138887693854
 30
0.0
 10
7.608028291283756
 20
4.776280380750374
 30
0.0
 10
7.610026446665201
 20
4.774730087782012
 30
0.0
 10
7.612041827524072
 20
4.773145343858797
 30
0.0
 10
7.614039982905517
 20
4.771629501845287
 30
0.0
 10
7.615039060596239
 20
4.770837129883679
 30
0.0
 10
7.616038138286962
 20
4.770044757922072
 30
0.0
 10
7.617037215977684
 20
4.769286836915317
 30
0.0
 10
7.620034449049852
 20
4.7669786229402
 30
0.0
 10
7.623014456644593
 20
4.76463595801023
 30
0.0
 10
7.626063366149039
 20
4.762293293080259
 30
0.0
 10
7.628595511330698
 20
4.760295137698815
 30
0.0
 10
7.631196558422062
 20
4.75829698231737
 30
0.0
 10
7.633780380035999
 20
4.756298826935925
 30
0.0
 10
7.636329750695084
 20
4.75430067155448
 30
0.0
 10
7.638879121354169
 20
4.752302516173035
 30
0.0
 10
7.641497393922958
 20
4.75030436079159
 30
0.0
 10
7.647422958157589
 20
4.745653481886503
 30
0.0
 10
7.653469100734202
 20
4.740968152026563
 30
0.0
 10
7.659515243310815
 20
4.736317273121476
 30
0.0
 10
7.664734562970969
 20
4.732183158539176
 30
0.0
 10
7.67014336288281
 20
4.728049043956876
 30
0.0
 10
7.675500486362374
 20
4.723880478419724
 30
0.0
 10
7.681339923209872
 20
4.719367403334047
 30
0.0
 10
7.687248261967076
 20
4.714716524428959
 30
0.0
 10
7.693156600724279
 20
4.710100096478724
 30
0.0
 10
7.696016029977037
 20
4.707860784413312
 30
0.0
 10
7.698909910184647
 20
4.7056214723479
 30
0.0
 10
7.701769339437404
 20
4.70341661123734
 30
0.0
 10
7.704628768690162
 20
4.701177299171928
 30
0.0
 10
7.707488197942919
 20
4.69900688901622
 30
0.0
 10
7.710382078150529
 20
4.696733125995955
 30
0.0
 10
7.716566024546553
 20
4.691909992316606
 30
0.0
 10
7.722836098329707
 20
4.687086858637255
 30
0.0
 10
7.729106172112862
 20
4.682125921138496
 30
0.0
 10
7.734583873934409
 20
4.677888453691638
 30
0.0
 10
7.74004435027853
 20
4.673616535289929
 30
0.0
 10
7.745573728532356
 20
4.669310165933367
 30
0.0
 10
7.749242755224147
 20
4.666450736680609
 30
0.0
 10
7.753015134780496
 20
4.663522405518147
 30
0.0
 10
7.756735837904565
 20
4.660594074355685
 30
0.0
 10
7.760456541028636
 20
4.657700194148075
 30
0.0
 10
7.764142793197853
 20
4.654840764895317
 30
0.0
 10
7.767897947276775
 20
4.651912433732855
 30
0.0
 10
7.770206161251893
 20
4.650086533125672
 30
0.0
 10
7.772548826181862
 20
4.648295083473343
 30
0.0
 10
7.774839814679553
 20
4.646503633821013
 30
0.0
 10
7.777148028654671
 20
4.644712184168683
 30
0.0
 10
7.779439017152362
 20
4.642955185471205
 30
0.0
 10
7.781798907559758
 20
4.64109483390917
 30
0.0
 10
7.79396009462269
 20
4.631655272279586
 30
0.0
 10
7.806190183595326
 20
4.622043455875739
 30
0.0
 10
7.818626978297079
 20
4.612397188517039
 30
0.0
 10
7.820831839407639
 20
4.610605738864709
 30
0.0
 10
7.82312282790533
 20
4.608779838257527
 30
0.0
 10
7.825413816403021
 20
4.607057290514902
 30
0.0
 10
7.83574910285877
 20
4.598995767079417
 30
0.0
 10
7.846067163837094
 20
4.590934243643932
 30
0.0
 10
7.856540254112253
 20
4.582666014479333
 30
0.0
 10
7.856988116525335
 20
4.582355955885661
 30
0.0
 10
7.85738430250614
 20
4.581976995382283
 30
0.0
 10
7.85793551778378
 20
4.581598034878906
 30
0.0
 10
7.907407088951967
 20
4.54290961257955
 30
0.0
 10
7.958773462637042
 20
4.502670897311832
 30
0.0
 10
8.011948511451873
 20
4.460916340030604
 30
0.0
 10
8.06514078574413
 20
4.419127331794523
 30
0.0
 10
8.120176186120997
 20
4.375788030590081
 30
0.0
 10
8.176934134240488
 20
4.33096733832698
 30
0.0
 10
8.177502574995554
 20
4.330485024959045
 30
0.0
 10
8.178088241228046
 20
4.330037162545962
 30
0.0
 10
8.178673907460539
 20
4.32958930013288
 30
0.0
 10
8.179259573693031
 20
4.329141437719798
 30
0.0
 10
8.179845239925525
 20
4.328659124351863
 30
0.0
 10
8.180448131635442
 20
4.32821126193878
 30
0.0
 10
8.192988279201753
 20
4.318254935986408
 30
0.0
 10
8.205631779632618
 20
4.308195257169479
 30
0.0
 10
8.218447534837749
 20
4.298170029307402
 30
0.0
 10
8.221496444342195
 20
4.295689560558022
 30
0.0
 10
8.224717608620903
 20
4.293174640853789
 30
0.0
 10
8.227852645512481
 20
4.290694172104409
 30
0.0
 10
8.231521672204272
 20
4.287834742851652
 30
0.0
 10
8.235190698896062
 20
4.284871960734337
 30
0.0
 10
8.238859725587854
 20
4.281978080526727
 30
0.0
 10
8.240702851672463
 20
4.280531140422922
 30
0.0
 10
8.242545977757072
 20
4.279049749364265
 30
0.0
 10
8.244371878364253
 20
4.27760280926046
 30
0.0
 10
8.249884031140654
 20
4.273261988949045
 30
0.0
 10
8.2553617329622
 20
4.268921168637631
 30
0.0
 10
8.260891111216027
 20
4.264511446416511
 30
0.0
 10
8.263251001623424
 20
4.262685545809329
 30
0.0
 10
8.265593666553393
 20
4.260790743292441
 30
0.0
 10
8.267953556960789
 20
4.258930391730406
 30
0.0
 10
8.270313447368185
 20
4.257070040168371
 30
0.0
 10
8.272673337775581
 20
4.255209688606336
 30
0.0
 10
8.275033228182977
 20
4.253349337044301
 30
0.0
 10
8.284593368154546
 20
4.245770126976752
 30
0.0
 10
8.294084606216408
 20
4.238363171683464
 30
0.0
 10
8.303696422620256
 20
4.230680608751357
 30
0.0
 10
8.310844995752149
 20
4.224996201200695
 30
0.0
 10
8.318165823658305
 20
4.219242891740328
 30
0.0
 10
8.325417749654756
 20
4.213524033234813
 30
0.0
 10
8.32788099292671
 20
4.211560328808221
 30
0.0
 10
8.330344236198663
 20
4.209562173426776
 30
0.0
 10
8.33279025399319
 20
4.207667370909888
 30
0.0
 10
8.334013262890455
 20
4.206668293219166
 30
0.0
 10
8.335253497265144
 20
4.205703666483296
 30
0.0
 10
8.336476506162407
 20
4.204704588792573
 30
0.0
 10
8.340162758331626
 20
4.201810708584964
 30
0.0
 10
8.343849010500843
 20
4.198847926467649
 30
0.0
 10
8.347569713624912
 20
4.195919595305186
 30
0.0
 10
8.352392847304262
 20
4.19209553931656
 30
0.0
 10
8.357250431938464
 20
4.188237032373079
 30
0.0
 10
8.362108016572666
 20
4.184378525429599
 30
0.0
 10
8.366948375729443
 20
4.180554469440972
 30
0.0
 10
8.371788734886218
 20
4.176695962497492
 30
0.0
 10
8.376663544997847
 20
4.172871906508865
 30
0.0
 10
8.381745060838591
 20
4.16880669383627
 30
0.0
 10
8.386740449292203
 20
4.16481038307338
 30
0.0
 10
8.3918564160878
 20
4.16081407231049
 30
0.0
 10
8.39869493062602
 20
4.155336370488944
 30
0.0
 10
8.405671248983651
 20
4.149858668667396
 30
0.0
 10
8.412578665431576
 20
4.144346515890996
 30
0.0
 10
8.419486081879503
 20
4.138868814069449
 30
0.0
 10
8.426324596417723
 20
4.133391112247902
 30
0.0
 10
8.433300914775355
 20
4.127913410426355
 30
0.0
 10
8.434437796285486
 20
4.126948783690485
 30
0.0
 10
8.435626354227898
 20
4.125984156954615
 30
0.0
 10
8.436797686692882
 20
4.125053981173597
 30
0.0
 10
8.475227726830845
 20
4.094495984219432
 30
0.0
 10
8.514312335111004
 20
4.063352321032773
 30
0.0
 10
8.55405151153336
 20
4.031657442568474
 30
0.0
 10
8.593790687955718
 20
3.999962564104176
 30
0.0
 10
8.63414998156542
 20
3.96775092131709
 30
0.0
 10
8.67516384331732
 20
3.934919161342659
 30
0.0
 10
8.67516384331732
 20
3.934919161342659
 30
0.0
 10
8.675146617839893
 20
3.934919161342659
 30
0.0
 10
8.675146617839893
 20
3.934919161342659
 30
0.0
 10
8.675060490452761
 20
3.934919161342659
 30
0.0
 10
8.639731036251526
 20
3.936779512904694
 30
0.0
 10
8.588933103321516
 20
3.937020669588661
 30
0.0
 10
8.545369870910532
 20
3.937261826272629
 30
0.0
 10
8.490420597920798
 20
3.936262748581906
 30
0.0
 10
8.436642657396048
 20
3.931956379225344
 30
0.0
 10
8.409770912611098
 20
3.929751518114784
 30
0.0
 10
8.383157549987544
 20
3.926754285042617
 30
0.0
 10
8.358421764403449
 20
3.922620170460317
 30
0.0
 10
8.358421764403449
 20
3.922620170460317
 30
0.0
 10
8.358404538926024
 20
3.922620170460317
 30
0.0
 10
8.358404538926024
 20
3.922620170460317
 30
0.0
 10
8.416678329059025
 20
3.893509113609956
 30
0.0
 10
8.476071775224732
 20
3.864260252940185
 30
0.0
 10
8.53665377933285
 20
3.834908039405856
 30
0.0
 10
8.53665377933285
 20
3.834908039405856
 30
0.0
 10
8.208008895517441
 20
3.829430337584309
 30
0.0
 10
8.208008895517441
 20
3.829430337584309
 30
0.0
 10
8.208008895517441
 20
3.829430337584309
 30
0.0
 10
8.148787704125997
 20
3.888754881840311
 30
0.0
 10
8.0895320617797
 20
3.931818575405934
 30
0.0
 10
8.014067245175301
 20
3.479270832463516
 30
0.0
 10
8.159501951085124
 20
3.22064751438581
 30
0.0
 10
8.34813815437998
 20
2.703435329185252
 30
0.0
 10
8.956869301146199
 20
2.428654513281725
 30
0.0
 10
9.463298337477925
 20
2.638770886927113
 30
0.0
 10
9.619533417734004
 20
2.692686631271273
 30
0.0
 10
9.739181583936732
 20
2.878790689384469
 30
0.0
 10
9.811494138172126
 20
3.070406900274065
 30
0.0
 10
9.85621147757067
 20
3.240422362471144
 30
0.0
  0
SPLINE
  5
F0
330
3C
100
AcDbEntity
  8
Livello 1
 62
     7
420
 16777215
370
     9
100
AcDbSpline
210
0.0
220
0.0
230
1.0
 70
    11
 71
     3
 72
   185
 73
   181
 74
     0
 42
0.0000000001
 43
0.0000000001
 40
0.0
 40
0.0
 40
0.0
 40
0.0
 40
1.0
 40
1.0
 40
1.0
 40
2.0
 40
2.0
 40
2.0
 40
3.0
 40
3.0
 40
3.0
 40
4.0
 40
4.0
 40
4.0
 40
5.0
 40
5.0
 40
5.0
 40
6.0
 40
6.0
 40
6.0
 40
7.0
 40
7.0
 40
7.0
 40
8.0
 40
8.0
 40
8.0
 40
9.0
 40
9.0
 40
9.0
 40
10.0
 40
10.0
 40
10.0
 40
11.0
 40
11.0
 40
11.0
 40
12.0
 40
12.0
 40
12.0
 40
13.0
 40
13.0
 40
13.0
 40
14.0
 40
14.0
 40
14.0
 40
15.0
 40
15.0
 40
15.0
 40
16.0
 40
16.0
 40
16.0
 40
17.0
 40
17.0
 40
17.0
 40
18.0
 40
18.0
 40
18.0
 40
19.0
 40
19.0
 40
19.0
 40
20.0
 40
20.0
 40
20.0
 40
21.0
 40
21.0
 40
21.0
 40
22.0
 40
22.0
 40
22.0
 40
23.0
 40
23.0
 40
23.0
 40
24.0
 40
24.0
 40
24.0
 40
25.0
 40
25.0
 40
25.0
 40
26.0
 40
26.0
 40
26.0
 40
27.0
 40
27.0
 40
27.0
 40
28.0
 40
28.0
 40
28.0
 40
29.0
 40
29.0
 40
29.0
 40
30.0
 40
30.0
 40
30.0
 40
31.0
 40
31.0
 40
31.0
 40
32.0
 40
32.0
 40
32.0
 40
33.0
 40
33.0
 40
33.0
 40
34.0
 40
34.0
 40
34.0
 40
35.0
 40
35.0
 40
35.0
 40
36.0
 40
36.0
 40
36.0
 40
37.0
 40
37.0
 40
37.0
 40
38.0
 40
38.0
 40
38.0
 40
39.0
 40
39.0
 40
39.0
 40
40.0
 40
40.0
 40
40.0
 40
41.0
 40
41.0
 40
41.0
 40
42.0
 40
42.0
 40
42.0
 40
43.0
 40
43.0
 40
43.0
 40
44.0
 40
44.0
 40
44.0
 40
45.0
 40
45.0
 40
45.0
 40
46.0
 40
46.0
 40
46.0
 40
47.0
 40
47.0
 40
47.0
 40
48.0
 40
48.0
 40
48.0
 40
49.0
 40
49.0
 40
49.0
 40
50.0
 40
50.0
 40
50.0
 40
51.0
 40
51.0
 40
51.0
 40
52.0
 40
52.0
 40
52.0
 40
53.0
 40
53.0
 40
53.0
 40
54.0
 40
54.0
 40
54.0
 40
55.0
 40
55.0
 40
55.0
 40
56.0
 40
56.0
 40
56.0
 40
57.0
 40
57.0
 40
57.0
 40
58.0
 40
58.0
 40
58.0
 40
59.0
 40
59.0
 40
59.0
 40
60.0
 40
60.0
 40
60.0
 40
60.0
 10
6.956560735023012
 20
5.295077309874147
 30
0.0
 10
6.937285425783039
 20
5.246088052073894
 30
0.0
 10
6.908053790590694
 20
5.203851181424731
 30
0.0
 10
6.868934731355682
 20
5.168091090287838
 30
0.0
 10
6.829867348552949
 20
5.13239990106065
 30
0.0
 10
6.780809188842992
 20
5.104529078584979
 30
0.0
 10
6.721656899361252
 20
5.084581975725382
 30
0.0
 10
6.662556286311791
 20
5.06456597095608
 30
0.0
 10
6.593189288716285
 20
5.054540743094003
 30
0.0
 10
6.51362480848444
 20
5.054540743094003
 30
0.0
 10
6.475022513572216
 20
5.054540743094003
 30
0.0
 10
6.43716091418932
 20
5.057469074256466
 30
0.0
 10
6.400022784858328
 20
5.063119030852276
 30
0.0
 10
6.362884655527334
 20
5.068872340312643
 30
0.0
 10
6.324213458705405
 20
5.078725313400457
 30
0.0
 10
6.284129772734523
 20
5.092884655844834
 30
0.0
 10
6.243891057466804
 20
5.106940645424653
 30
0.0
 10
6.201189098927133
 20
5.125854219638675
 30
0.0
 10
6.15605834807036
 20
5.149625378486899
 30
0.0
 10
6.110893146258735
 20
5.17336208638027
 30
0.0
 10
6.061197643884006
 20
5.203093260417976
 30
0.0
 10
6.006902939036468
 20
5.238853351554869
 30
0.0
 10
5.99486233031552
 20
5.22906928037676
 30
0.0
 10
5.983562417123901
 20
5.220043130205405
 30
0.0
 10
5.972968748506758
 20
5.211740450085953
 30
0.0
 10
5.963374157580336
 20
5.204161240018403
 30
0.0
 10
5.954279105499277
 20
5.197202147138199
 30
0.0
 10
5.945804170605562
 20
5.190828720490487
 30
0.0
 10
5.927993026946821
 20
5.17749620096257
 30
0.0
 10
5.911628823391884
 20
5.166506346364623
 30
0.0
 10
5.896832138282736
 20
5.157928058606351
 30
0.0
 10
5.882001002218735
 20
5.149384221802931
 30
0.0
 10
5.868065590980899
 20
5.143079697064924
 30
0.0
 10
5.855008679091803
 20
5.139186739166592
 30
0.0
 10
5.841951767202706
 20
5.135190428403702
 30
0.0
 10
5.828912080791035
 20
5.133295625886815
 30
0.0
 10
5.815700139605102
 20
5.133295625886815
 30
0.0
 10
5.802074786960939
 20
5.133295625886815
 30
0.0
 10
5.786985268735545
 20
5.138428818159837
 30
0.0
 10
5.770448810406346
 20
5.148798555570439
 30
0.0
 10
5.753843450167442
 20
5.159133842026188
 30
0.0
 10
5.73823716761926
 20
5.174016654522467
 30
0.0
 10
5.723836668490915
 20
5.193240287330162
 30
0.0
 10
5.709315591020587
 20
5.212567273002414
 30
0.0
 10
5.697309433254492
 20
5.235856118482702
 30
0.0
 10
5.687680391373219
 20
5.263175725680734
 30
0.0
 10
5.678034124014519
 20
5.290495332878765
 30
0.0
 10
5.673228215812595
 20
5.321122231742636
 30
0.0
 10
5.673228215812595
 20
5.355021971317494
 30
0.0
 10
5.673228215812595
 20
5.375726995183846
 30
0.0
 10
5.678068574969371
 20
5.3930213745198
 30
0.0
 10
5.687973224489465
 20
5.406732854551094
 30
0.0
 10
5.697774521145001
 20
5.420444334582388
 30
0.0
 10
5.712743461028411
 20
5.431744247774008
 30
0.0
 10
5.732931720571975
 20
5.440770397945363
 30
0.0
 10
5.753068303683261
 20
5.449658744297307
 30
0.0
 10
5.77878594148065
 20
5.456721190042069
 30
0.0
 10
5.810067408486719
 20
5.461854382315091
 30
0.0
 10
5.819506970116303
 20
5.463439126238306
 30
0.0
 10
5.829583874410659
 20
5.464954968251816
 30
0.0
 10
5.840125866595524
 20
5.466470810265326
 30
0.0
 10
5.864379338811682
 20
5.469812552886019
 30
0.0
 10
5.891319985506336
 20
5.472844236913039
 30
0.0
 10
5.921188963363452
 20
5.475565862346386
 30
0.0
 10
5.939447969435276
 20
5.514460990374856
 30
0.0
 10
5.95743136786828
 20
5.55724907630166
 30
0.0
 10
5.975311413436727
 20
5.603757865352533
 30
0.0
 10
5.993122557095469
 20
5.650370007267963
 30
0.0
 10
6.010434161908849
 20
5.699497068887625
 30
0.0
 10
6.027246227876868
 20
5.750932344482405
 30
0.0
 10
6.044023842890035
 20
5.802298718167481
 30
0.0
 10
6.059957409509316
 20
5.855353188640328
 30
0.0
 10
6.075150280599267
 20
5.909923501126685
 30
0.0
 10
6.090343151689219
 20
5.964614391955027
 30
0.0
 10
6.10448526865617
 20
6.019322508260794
 30
0.0
 10
6.117490504112988
 20
6.074116751953692
 30
0.0
 10
6.130530190524659
 20
6.128910995646591
 30
0.0
 10
6.142312417084213
 20
6.18315402406185
 30
0.0
 10
6.152871634746504
 20
6.23665635694778
 30
0.0
 10
6.163344725021664
 20
6.290244817220841
 30
0.0
 10
6.172422551625297
 20
6.341473387086507
 30
0.0
 10
6.179863957873437
 20
6.39041096845448
 30
0.0
 10
6.132424993041546
 20
6.384295923968161
 30
0.0
 10
6.08552001800987
 20
6.375614283345332
 30
0.0
 10
6.039304062075243
 20
6.364124889902024
 30
0.0
 10
5.993036429708337
 20
6.352687172890994
 30
0.0
 10
5.949834932323305
 20
6.337442625368764
 30
0.0
 10
5.909647893487866
 20
6.31808118874166
 30
0.0
 10
5.869495305607279
 20
6.29884033045654
 30
0.0
 10
5.833166773715319
 20
6.274896916834053
 30
0.0
 10
5.800679523289413
 20
6.246302624306479
 30
0.0
 10
5.768157821908654
 20
6.217725557256332
 30
0.0
 10
5.741751165014215
 20
6.18315402406185
 30
0.0
 10
5.721390650696388
 20
6.14241576994877
 30
0.0
 10
5.714999998571249
 20
6.139229056624915
 30
0.0
 10
5.707179631819733
 20
6.136610784056125
 30
0.0
 10
5.698136256170952
 20
6.134629854152106
 30
0.0
 10
5.692675779826831
 20
6.133441296209694
 30
0.0
 10
5.687215303482709
 20
6.13268337520294
 30
0.0
 10
5.681789278093441
 20
6.132201061835005
 30
0.0
 10
5.678137476879076
 20
6.131873777763906
 30
0.0
 10
5.674623479484121
 20
6.13171874846707
 30
0.0
 10
5.671057805656888
 20
6.13171874846707
 30
0.0
 10
5.656071640296051
 20
6.13171874846707
 30
0.0
 10
5.642756346245561
 20
6.134698756061811
 30
0.0
 10
5.631146374460268
 20
6.140779349593277
 30
0.0
 10
5.619570853629829
 20
6.146894394079595
 30
0.0
 10
5.609752331496867
 20
6.155541583747572
 30
0.0
 10
5.601690808061383
 20
6.166772595029487
 30
0.0
 10
5.593698186535603
 20
6.178020831788828
 30
0.0
 10
5.587479789184727
 20
6.191577282523286
 30
0.0
 10
5.583207870783017
 20
6.20749362366514
 30
0.0
 10
5.578918726903881
 20
6.22334106289729
 30
0.0
 10
5.576748316748174
 20
6.241152206556031
 30
0.0
 10
5.576748316748174
 20
6.260754799867103
 30
0.0
 10
5.576748316748174
 20
6.301820338051281
 30
0.0
 10
5.585429957371003
 20
6.342059053318999
 30
0.0
 10
5.60275878766181
 20
6.381539847579962
 30
0.0
 10
5.620104843430043
 20
6.421003416363499
 30
0.0
 10
5.645081785698104
 20
6.458537731675295
 30
0.0
 10
5.677758516375699
 20
6.494022215173369
 30
0.0
 10
5.693399249878733
 20
6.51105821234793
 30
0.0
 10
5.71072808016954
 20
6.527439641380292
 30
0.0
 10
5.72969333081584
 20
6.543218178702737
 30
0.0
 10
5.750208874430503
 20
6.560340303264429
 30
0.0
 10
5.772619220562053
 20
6.576721732296791
 30
0.0
 10
5.796941594687917
 20
6.592328014844973
 30
0.0
 10
5.843708765900184
 20
6.622334796521499
 30
0.0
 10
5.896590981598768
 20
6.648121336228594
 30
0.0
 10
5.95550211439654
 20
6.669687633966258
 30
0.0
 10
6.014378796239461
 20
6.691322833613627
 30
0.0
 10
6.078767630858779
 20
6.708289928878482
 30
0.0
 10
6.148548039912515
 20
6.720588919760824
 30
0.0
 10
6.218362899921103
 20
6.732905136120593
 30
0.0
 10
6.292535805718532
 20
6.739106307994042
 30
0.0
 10
6.371118433737081
 20
6.739106307994042
 30
0.0
 10
6.47858818739945
 20
6.739106307994042
 30
0.0
 10
6.570796168062161
 20
6.728615992241457
 30
0.0
 10
6.647794052157495
 20
6.707773164555695
 30
0.0
 10
6.724774710775403
 20
6.686861434960228
 30
0.0
 10
6.787785507200622
 20
6.65764702524531
 30
0.0
 10
6.837102049071974
 20
6.620198837320644
 30
0.0
 10
6.886366914511047
 20
6.582681747486274
 30
0.0
 10
6.922626544493301
 20
6.537895506178026
 30
0.0
 10
6.945794811631607
 20
6.485736760531343
 30
0.0
 10
6.968997529724764
 20
6.433595240362087
 30
0.0
 10
6.980676403419761
 20
6.376303302442382
 30
0.0
 10
6.980676403419761
 20
6.313826495817376
 30
0.0
 10
6.980676403419761
 20
6.278445365183861
 30
0.0
 10
6.974750839185131
 20
6.240979951781768
 30
0.0
 10
6.96295138714815
 20
6.201344128223969
 30
0.0
 10
6.951169160588596
 20
6.161691079188744
 30
0.0
 10
6.934029810549478
 20
6.120952825075664
 30
0.0
 10
6.911533337030797
 20
6.079146591362157
 30
0.0
 10
6.889071314466968
 20
6.037409259558356
 30
0.0
 10
6.861579452494674
 20
5.995361869160881
 30
0.0
 10
6.829057751113916
 20
5.953038871124587
 30
0.0
 10
6.796536049733157
 20
5.910767549520571
 30
0.0
 10
6.759432371357017
 20
5.869236923445885
 30
0.0
 10
6.71762613764351
 20
5.828550345765084
 30
0.0
 10
6.753713512851502
 20
5.80960232059621
 30
0.0
 10
6.785425616793226
 20
5.789414061052646
 30
0.0
 10
6.812710773036405
 20
5.768020018089245
 30
0.0
 10
6.839978703802157
 20
5.746591524170991
 30
0.0
 10
6.863594833353545
 20
5.724749618794506
 30
0.0
 10
6.883404132393732
 20
5.702632105779203
 30
0.0
 10
6.903247882388771
 20
5.680549043718751
 30
0.0
 10
6.91978434071797
 20
5.65819037401948
 30
0.0
 10
6.932944605471625
 20
5.635693900500798
 30
0.0
 10
6.946173772134983
 20
5.613231877936969
 30
0.0
 10
6.956595185977864
 20
5.591286619695928
 30
0.0
 10
6.964312199864824
 20
5.570099282461642
 30
0.0
 10
6.971960311842079
 20
5.548877494272502
 30
0.0
 10
6.977351886276494
 20
5.528482528999824
 30
0.0
 10
6.980676403419761
 20
5.509052190463015
 30
0.0
 10
6.983897567698469
 20
5.4895529500165
 30
0.0
 10
6.985482311621684
 20
5.471845159222316
 30
0.0
 10
6.985482311621684
 20
5.455756563306199
 30
0.0
 10
6.985482311621684
 20
5.397499998650624
 30
0.0
 10
6.975836044262985
 20
5.343963214809842
 30
0.0
 10
6.956560735023012
 20
5.295077309874147
 30
0.0
  0
SPLINE
  5
F1
330
3C
100
AcDbEntity
  8
Livello 1
 62
     7
420
 16777215
370
     9
100
AcDbSpline
210
0.0
220
0.0
230
1.0
 70
    11
 71
     3
 72
    23
 73
    19
 74
     0
 42
0.0000000001
 43
0.0000000001
 40
0.0
 40
0.0
 40
0.0
 40
0.0
 40
1.0
 40
1.0
 40
1.0
 40
2.0
 40
2.0
 40
2.0
 40
3.0
 40
3.0
 40
3.0
 40
4.0
 40
4.0
 40
4.0
 40
5.0
 40
5.0
 40
5.0
 40
6.0
 40
6.0
 40
6.0
 40
6.0
 10
5.889976398267089
 20
6.193696016246714
 30
0.0
 10
5.909096678210226
 20
6.207700329394255
 30
0.0
 10
5.929715574689446
 20
6.220085447663728
 30
0.0
 10
5.951660832930487
 20
6.230627439848592
 30
0.0
 10
5.985061033659984
 20
6.246595457422726
 30
0.0
 10
6.02154459484878
 20
6.259704045744101
 30
0.0
 10
6.060319144535267
 20
6.269436440489932
 30
0.0
 10
6.059509547096233
 20
6.264785561584845
 30
0.0
 10
6.058596596792643
 20
6.260100231724905
 30
0.0
 10
6.057649195534198
 20
6.25534599995526
 30
0.0
 10
6.047434487420433
 20
6.203273381695709
 30
0.0
 10
6.035738388248009
 20
6.149839950719484
 30
0.0
 10
6.023112113294569
 20
6.096561549040096
 30
0.0
 10
6.018065048408678
 20
6.075408662760661
 30
0.0
 10
6.012794052316245
 20
6.054135198139243
 30
0.0
 10
6.007436928836682
 20
6.032913409950105
 30
0.0
 10
5.965234509142372
 20
6.078698728949075
 30
0.0
 10
5.925133597694064
 20
6.132321640176989
 30
0.0
 10
5.889976398267089
 20
6.193696016246714
 30
0.0
  0
SPLINE
  5
F2
330
3C
100
AcDbEntity
  8
Livello 1
 62
     7
420
 16777215
370
     9
100
AcDbSpline
210
0.0
220
0.0
230
1.0
 70
    11
 71
     3
 72
   422
 73
   418
 74
     0
 42
0.0000000001
 43
0.0000000001
 40
0.0
 40
0.0
 40
0.0
 40
0.0
 40
1.0
 40
1.0
 40
1.0
 40
2.0
 40
2.0
 40
2.0
 40
3.0
 40
3.0
 40
3.0
 40
4.0
 40
4.0
 40
4.0
 40
5.0
 40
5.0
 40
5.0
 40
6.0
 40
6.0
 40
6.0
 40
7.0
 40
7.0
 40
7.0
 40
8.0
 40
8.0
 40
8.0
 40
9.0
 40
9.0
 40
9.0
 40
10.0
 40
10.0
 40
10.0
 40
11.0
 40
11.0
 40
11.0
 40
12.0
 40
12.0
 40
12.0
 40
13.0
 40
13.0
 40
13.0
 40
14.0
 40
14.0
 40
14.0
 40
15.0
 40
15.0
 40
15.0
 40
16.0
 40
16.0
 40
16.0
 40
17.0
 40
17.0
 40
17.0
 40
18.0
 40
18.0
 40
18.0
 40
19.0
 40
19.0
 40
19.0
 40
20.0
 40
20.0
 40
20.0
 40
21.0
 40
21.0
 40
21.0
 40
22.0
 40
22.0
 40
22.0
 40
23.0
 40
23.0
 40
23.0
 40
24.0
 40
24.0
 40
24.0
 40
25.0
 40
25.0
 40
25.0
 40
26.0
 40
26.0
 40
26.0
 40
27.0
 40
27.0
 40
27.0
 40
28.0
 40
28.0
 40
28.0
 40
29.0
 40
29.0
 40
29.0
 40
30.0
 40
30.0
 40
30.0
 40
31.0
 40
31.0
 40
31.0
 40
32.0
 40
32.0
 40
32.0
 40
33.0
 40
33.0
 40
33.0
 40
34.0
 40
34.0
 40
34.0
 40
35.0
 40
35.0
 40
35.0
 40
36.0
 40
36.0
 40
36.0
 40
37.0
 40
37.0
 40
37.0
 40
38.0
 40
38.0
 40
38.0
 40
39.0
 40
39.0
 40
39.0
 40
40.0
 40
40.0
 40
40.0
 40
41.0
 40
41.0
 40
41.0
 40
42.0
 40
42.0
 40
42.0
 40
43.0
 40
43.0
 40
43.0
 40
44.0
 40
44.0
 40
44.0
 40
45.0
 40
45.0
 40
45.0
 40
46.0
 40
46.0
 40
46.0
 40
47.0
 40
47.0
 40
47.0
 40
48.0
 40
48.0
 40
48.0
 40
49.0
 40
49.0
 40
49.0
 40
50.0
 40
50.0
 40
50.0
 40
51.0
 40
51.0
 40
51.0
 40
52.0
 40
52.0
 40
52.0
 40
53.0
 40
53.0
 40
53.0
 40
54.0
 40
54.0
 40
54.0
 40
55.0
 40
55.0
 40
55.0
 40
56.0
 40
56.0
 40
56.0
 40
57.0
 40
57.0
 40
57.0
 40
58.0
 40
58.0
 40
58.0
 40
59.0
 40
59.0
 40
59.0
 40
60.0
 40
60.0
 40
60.0
 40
61.0
 40
61.0
 40
61.0
 40
62.0
 40
62.0
 40
62.0
 40
63.0
 40
63.0
 40
63.0
 40
64.0
 40
64.0
 40
64.0
 40
65.0
 40
65.0
 40
65.0
 40
66.0
 40
66.0
 40
66.0
 40
67.0
 40
67.0
 40
67.0
 40
68.0
 40
68.0
 40
68.0
 40
69.0
 40
69.0
 40
69.0
 40
70.0
 40
70.0
 40
70.0
 40
71.0
 40
71.0
 40
71.0
 40
72.0
 40
72.0
 40
72.0
 40
73.0
 40
73.0
 40
73.0
 40
74.0
 40
74.0
 40
74.0
 40
75.0
 40
75.0
 40
75.0
 40
76.0
 40
76.0
 40
76.0
 40
77.0
 40
77.0
 40
77.0
 40
78.0
 40
78.0
 40
78.0
 40
79.0
 40
79.0
 40
79.0
 40
80.0
 40
80.0
 40
80.0
 40
81.0
 40
81.0
 40
81.0
 40
82.0
 40
82.0
 40
82.0
 40
83.0
 40
83.0
 40
83.0
 40
84.0
 40
84.0
 40
84.0
 40
85.0
 40
85.0
 40
85.0
 40
86.0
 40
86.0
 40
86.0
 40
87.0
 40
87.0
 40
87.0
 40
88.0
 40
88.0
 40
88.0
 40
89.0
 40
89.0
 40
89.0
 40
90.0
 40
90.0
 40
90.0
 40
91.0
 40
91.0
 40
91.0
 40
92.0
 40
92.0
 40
92.0
 40
93.0
 40
93.0
 40
93.0
 40
94.0
 40
94.0
 40
94.0
 40
95.0
 40
95.0
 40
95.0
 40
96.0
 40
96.0
 40
96.0
 40
97.0
 40
97.0
 40
97.0
 40
98.0
 40
98.0
 40
98.0
 40
99.0
 40
99.0
 40
99.0
 40
100.0
 40
100.0
 40
100.0
 40
101.0
 40
101.0
 40
101.0
 40
102.0
 40
102.0
 40
102.0
 40
103.0
 40
103.0
 40
103.0
 40
104.0
 40
104.0
 40
104.0
 40
105.0
 40
105.0
 40
105.0
 40
106.0
 40
106.0
 40
106.0
 40
107.0
 40
107.0
 40
107.0
 40
108.0
 40
108.0
 40
108.0
 40
109.0
 40
109.0
 40
109.0
 40
110.0
 40
110.0
 40
110.0
 40
111.0
 40
111.0
 40
111.0
 40
112.0
 40
112.0
 40
112.0
 40
113.0
 40
113.0
 40
113.0
 40
114.0
 40
114.0
 40
114.0
 40
115.0
 40
115.0
 40
115.0
 40
116.0
 40
116.0
 40
116.0
 40
117.0
 40
117.0
 40
117.0
 40
118.0
 40
118.0
 40
118.0
 40
119.0
 40
119.0
 40
119.0
 40
120.0
 40
120.0
 40
120.0
 40
121.0
 40
121.0
 40
121.0
 40
122.0
 40
122.0
 40
122.0
 40
123.0
 40
123.0
 40
123.0
 40
124.0
 40
124.0
 40
124.0
 40
125.0
 40
125.0
 40
125.0
 40
126.0
 40
126.0
 40
126.0
 40
127.0
 40
127.0
 40
127.0
 40
128.0
 40
128.0
 40
128.0
 40
129.0
 40
129.0
 40
129.0
 40
130.0
 40
130.0
 40
130.0
 40
131.0
 40
131.0
 40
131.0
 40
132.0
 40
132.0
 40
132.0
 40
133.0
 40
133.0
 40
133.0
 40
134.0
 40
134.0
 40
134.0
 40
135.0
 40
135.0
 40
135.0
 40
136.0
 40
136.0
 40
136.0
 40
137.0
 40
137.0
 40
137.0
 40
138.0
 40
138.0
 40
138.0
 40
139.0
 40
139.0
 40
139.0
 40
139.0
 10
9.772495657279098
 20
5.874335664764055
 30
0.0
 10
9.80481065293074
 20
5.917347681897398
 30
0.0
 10
9.839158254918681
 20
5.954675291480081
 30
0.0
 10
9.875641816107478
 20
5.986284042557248
 30
0.0
 10
9.91195312252201
 20
6.017892793634415
 30
0.0
 10
9.949470212356381
 20
6.042680255650787
 30
0.0
 10
9.988124183700885
 20
6.060715330516071
 30
0.0
 10
10.02660590027113
 20
6.078767630858779
 30
0.0
 10
10.0641918920152
 20
6.087776555552709
 30
0.0
 10
10.10060655129429
 20
6.087776555552709
 30
0.0
 10
10.1159027752488
 20
6.087776555552709
 30
0.0
 10
10.12792615849232
 20
6.086639674042575
 30
0.0
 10
10.13646999529574
 20
6.084297009112606
 30
0.0
 10
10.14501383209916
 20
6.081971569660062
 30
0.0
 10
10.15204182688907
 20
6.077923582464893
 30
0.0
 10
10.1573128229815
 20
6.072221949436805
 30
0.0
 10
10.1573128229815
 20
6.072221949436805
 30
0.0
 10
10.16430636681656
 20
6.199707707868475
 30
0.0
 10
10.16430636681656
 20
6.199707707868475
 30
0.0
 10
10.17288465457483
 20
6.209371200704601
 30
0.0
 10
10.18401231299219
 20
6.216485322881642
 30
0.0
 10
10.19751708729437
 20
6.221136201786729
 30
0.0
 10
10.2110563125514
 20
6.225769855214391
 30
0.0
 10
10.22552571358945
 20
6.228095294666934
 30
0.0
 10
10.24092529040852
 20
6.228095294666934
 30
0.0
 10
10.27837347833318
 20
6.228095294666934
 30
0.0
 10
10.31148084594643
 20
6.222410887116272
 30
0.0
 10
10.3400062365643
 20
6.21093871915039
 30
0.0
 10
10.36856607813703
 20
6.199518227616787
 30
0.0
 10
10.39250949175951
 20
6.185169404920721
 30
0.0
 10
10.41200873220602
 20
6.167840574629914
 30
0.0
 10
10.43147352169769
 20
6.150580646248812
 30
0.0
 10
10.44625298132941
 20
6.131460366305676
 30
0.0
 10
10.45617485632693
 20
6.11054863671021
 30
0.0
 10
10.466200084189
 20
6.089688583547022
 30
0.0
 10
10.47122992359747
 20
6.06953477495831
 30
0.0
 10
10.47122992359747
 20
6.050276691195764
 30
0.0
 10
10.47122992359747
 20
6.035979544931977
 30
0.0
 10
10.46943847394514
 20
6.015997991117528
 30
0.0
 10
10.46589002559533
 20
5.990280353320138
 30
0.0
 10
10.46234157724552
 20
5.964614391955027
 30
0.0
 10
10.45603705250752
 20
5.936433510885683
 30
0.0
 10
10.44714870615557
 20
5.905651582724976
 30
0.0
 10
10.42782172048332
 20
5.836784123974831
 30
0.0
 10
10.41149196788324
 20
5.776012639615024
 30
0.0
 10
10.39812499740047
 20
5.723543835374669
 30
0.0
 10
10.38472357596285
 20
5.671075031134314
 30
0.0
 10
10.37383707422946
 20
5.625737574548427
 30
0.0
 10
10.36543104124545
 20
5.587497014662153
 30
0.0
 10
10.35702500826144
 20
5.549325356685585
 30
0.0
 10
10.35099609116225
 20
5.517699380130991
 30
0.0
 10
10.34730983899303
 20
5.492653535953225
 30
0.0
 10
10.34348578300441
 20
5.467711044640017
 30
0.0
 10
10.34159098048752
 20
5.448074000374092
 30
0.0
 10
10.34159098048752
 20
5.43384575602001
 30
0.0
 10
10.34159098048752
 20
5.422683646647801
 30
0.0
 10
10.34214219576516
 20
5.413829751250709
 30
0.0
 10
10.34324462632044
 20
5.407284069828735
 30
0.0
 10
10.34424370401116
 20
5.400635035542202
 30
0.0
 10
10.34596625175378
 20
5.395536294224033
 30
0.0
 10
10.34830891668376
 20
5.391987845874225
 30
0.0
 10
10.35061713065887
 20
5.388439397524418
 30
0.0
 10
10.35347655991163
 20
5.386096732594448
 30
0.0
 10
10.35688720444203
 20
5.384994302039168
 30
0.0
 10
10.36019449610787
 20
5.38392632243874
 30
0.0
 10
10.3640874540062
 20
5.383409558115953
 30
0.0
 10
10.36839382336276
 20
5.383409558115953
 30
0.0
 10
10.37945257987041
 20
5.383409558115953
 30
0.0
 10
10.39461100000551
 20
5.38874945611809
 30
0.0
 10
10.41393798567776
 20
5.399498154032069
 30
0.0
 10
10.43316161848546
 20
5.410143499081491
 30
0.0
 10
10.45565809200414
 20
5.426990016004363
 30
0.0
 10
10.48132405336925
 20
5.449865450026422
 30
0.0
 10
10.50709336759892
 20
5.472706433093628
 30
0.0
 10
10.53568766012649
 20
5.501817489943989
 30
0.0
 10
10.56714138190683
 20
5.5371297186678
 30
0.0
 10
10.58371229119088
 20
5.55587103810756
 30
0.0
 10
10.60079996479772
 20
5.576576061973912
 30
0.0
 10
10.61843885368219
 20
5.599106986447445
 30
0.0
 10
10.61919677468895
 20
5.602414278113285
 30
0.0
 10
10.61992024474085
 20
5.60592827550824
 30
0.0
 10
10.62067816574761
 20
5.609201116219227
 30
0.0
 10
10.62708604335017
 20
5.637554252062833
 30
0.0
 10
10.63304605853966
 20
5.663530272021617
 30
0.0
 10
10.63866156418061
 20
5.687163627050431
 30
0.0
 10
10.64417371695701
 20
5.710659178259835
 30
0.0
 10
10.64830783153931
 20
5.730158418706349
 30
0.0
 10
10.65116726079207
 20
5.745454642660858
 30
0.0
 10
10.65757513839463
 20
5.781214733797752
 30
0.0
 10
10.66487874082336
 20
5.820282116600485
 30
0.0
 10
10.67287136234914
 20
5.862518987249648
 30
0.0
 10
10.68093288578463
 20
5.904841985285942
 30
0.0
 10
10.68875325253615
 20
5.94797458076127
 30
0.0
 10
10.69643581546825
 20
5.991951224630484
 30
0.0
 10
10.70411837840036
 20
6.035824515635141
 30
0.0
 10
10.71149088273879
 20
6.079387748046125
 30
0.0
 10
10.71862223039326
 20
6.122606470908584
 30
0.0
 10
10.72585693091228
 20
6.165790742816191
 30
0.0
 10
10.73188584801147
 20
6.206150036425893
 30
0.0
 10
10.73691568741994
 20
6.243649900782837
 30
0.0
 10
10.74656195477864
 20
6.31752997346402
 30
0.0
 10
10.76306396215298
 20
6.383779159645374
 30
0.0
 10
10.78645616049783
 20
6.442380233849474
 30
0.0
 10
10.80981390788782
 20
6.500877955189016
 30
0.0
 10
10.83789143609261
 20
6.55050455565404
 30
0.0
 10
10.87079209797675
 20
6.591242809767119
 30
0.0
 10
10.90362385795118
 20
6.631963838402773
 30
0.0
 10
10.94010741913997
 20
6.663124727066857
 30
0.0
 10
10.98034613440769
 20
6.684708250281948
 30
0.0
 10
11.020447045856
 20
6.706308998974464
 30
0.0
 10
11.06216715218237
 20
6.717109373320723
 30
0.0
 10
11.10543755147711
 20
6.717109373320723
 30
0.0
 10
11.12893310268652
 20
6.717109373320723
 30
0.0
 10
11.15018934183051
 20
6.714284395022817
 30
0.0
 10
11.16913736699938
 20
6.708582761994728
 30
0.0
 10
11.1880509412134
 20
6.702795001579509
 30
0.0
 10
11.20413953712952
 20
6.693768851408154
 30
0.0
 10
11.21740315474773
 20
6.681211478364419
 30
0.0
 10
11.23056341950139
 20
6.668723007230388
 30
0.0
 10
11.24072645118287
 20
6.652565509404567
 30
0.0
 10
11.24782334788249
 20
6.632790661319232
 30
0.0
 10
11.25498914649181
 20
6.612946911324193
 30
0.0
 10
11.25864094770617
 20
6.589106850566265
 30
0.0
 10
11.25864094770617
 20
6.561236028090593
 30
0.0
 10
11.25864094770617
 20
6.545164657651902
 30
0.0
 10
11.25729736046693
 20
6.528490395503294
 30
0.0
 10
11.25457573503358
 20
6.511161565212487
 30
0.0
 10
11.25181965864538
 20
6.493867185876533
 30
0.0
 10
11.24744438737911
 20
6.474798582365675
 30
0.0
 10
11.2411398626411
 20
6.454110783976749
 30
0.0
 10
11.23493869076765
 20
6.433388534632972
 30
0.0
 10
11.22660155969335
 20
6.410306394881798
 30
0.0
 10
11.2162662732376
 20
6.384761011858671
 30
0.0
 10
11.205896535827
 20
6.359232854312969
 30
0.0
 10
11.19308078062187
 20
6.330121797462608
 30
0.0
 10
11.17771565475765
 20
6.297479517739866
 30
0.0
 10
11.16235052889344
 20
6.264751110629993
 30
0.0
 10
11.14409152282161
 20
6.227940265370098
 30
0.0
 10
11.12307644036159
 20
6.186857501708493
 30
0.0
 10
11.10199245599186
 20
6.145757512569463
 30
0.0
 10
11.0777389837757
 20
6.099558782112263
 30
0.0
 10
11.05021267084856
 20
6.048140731994909
 30
0.0
 10
11.04273681364556
 20
6.021734075100468
 30
0.0
 10
11.03467529021008
 20
5.992846949456649
 30
0.0
 10
11.02609700245181
 20
5.961634384360285
 30
0.0
 10
11.01758761660324
 20
5.930421819263922
 30
0.0
 10
11.00880262311585
 20
5.898089598134852
 30
0.0
 10
10.99984537485421
 20
5.864689397405355
 30
0.0
 10
10.99095702850226
 20
5.831271971198432
 30
0.0
 10
10.98196532928576
 20
5.797682290217246
 30
0.0
 10
10.97311143388867
 20
5.763679197777829
 30
0.0
 10
10.96408528371731
 20
5.729813909157824
 30
0.0
 10
10.95547254500419
 20
5.69667209058972
 30
0.0
 10
10.94713541392988
 20
5.664357094938077
 30
0.0
 10
10.93869492999102
 20
5.632076550241286
 30
0.0
 10
10.93101236705891
 20
5.601346298512857
 30
0.0
 10
10.92384656844959
 20
5.572200790707644
 30
0.0
 10
10.91671522079513
 20
5.543089733857283
 30
0.0
 10
10.91044514701197
 20
5.516941459124237
 30
0.0
 10
10.90503634710013
 20
5.49354926077939
 30
0.0
 10
10.8997653510077
 20
5.470122611479691
 30
0.0
 10
10.89549343260599
 20
5.450175508620094
 30
0.0
 10
10.89246174857897
 20
5.43384575602001
 30
0.0
 10
10.8893956135971
 20
5.417412650555368
 30
0.0
 10
10.88794867349329
 20
5.405699325905519
 30
0.0
 10
10.88794867349329
 20
5.398981389709282
 30
0.0
 10
10.88794867349329
 20
5.386854653601203
 30
0.0
 10
10.89060139701693
 20
5.378276365842931
 30
0.0
 10
10.89594129501907
 20
5.373246526434466
 30
0.0
 10
10.90135009493091
 20
5.368251137980853
 30
0.0
 10
10.90903265786302
 20
5.365770669231473
 30
0.0
 10
10.91898898381539
 20
5.365770669231473
 30
0.0
 10
10.93607665742223
 20
5.365770669231473
 30
0.0
 10
10.95660942651432
 20
5.373108722615056
 30
0.0
 10
10.98034613440769
 20
5.387991535111335
 30
0.0
 10
11.00404839134621
 20
5.40280544569791
 30
0.0
 10
11.02964545080162
 20
5.423544920519113
 30
0.0
 10
11.05720621468361
 20
5.450416665304062
 30
0.0
 10
11.08466362570106
 20
5.477116155314748
 30
0.0
 10
11.11322346727378
 20
5.50912109237272
 30
0.0
 10
11.14285128844693
 20
5.546259221703712
 30
0.0
 10
11.15025824374021
 20
5.555492077604182
 30
0.0
 10
11.15756184616894
 20
5.564897188278914
 30
0.0
 10
11.16486544859767
 20
5.574612357547319
 30
0.0
 10
11.16596787915295
 20
5.580193412233424
 30
0.0
 10
11.16682915302426
 20
5.585912270738938
 30
0.0
 10
11.16800048548925
 20
5.591493325425043
 30
0.0
 10
11.18057508401041
 20
5.649164223848125
 30
0.0
 10
11.1976972085721
 20
5.70356228156022
 30
0.0
 10
11.21943576108403
 20
5.754653047606475
 30
0.0
 10
11.24127766646051
 20
5.80560600983332
 30
0.0
 10
11.26708143164503
 20
5.852424857477866
 30
0.0
 10
11.29684705663759
 20
5.894971786720701
 30
0.0
 10
11.326647132585
 20
5.937432588576406
 30
0.0
 10
11.35892767728179
 20
5.974140080971742
 30
0.0
 10
11.3935164359537
 20
6.005008136519581
 30
0.0
 10
11.42813964558046
 20
6.035910643022272
 30
0.0
 10
11.46472655963382
 20
6.059905733077037
 30
0.0
 10
11.5031049233395
 20
6.077045083116155
 30
0.0
 10
11.54141438513548
 20
6.094184433155273
 30
0.0
 10
11.57996500361542
 20
6.102762720913545
 30
0.0
 10
11.61851562209537
 20
6.102762720913545
 30
0.0
 10
11.6327783174043
 20
6.102762720913545
 30
0.0
 10
11.64752332608117
 20
6.101143526035478
 30
0.0
 10
11.66264729526142
 20
6.097922361756769
 30
0.0
 10
11.67790906826108
 20
6.094735648432913
 30
0.0
 10
11.69168945020208
 20
6.089412975908202
 30
0.0
 10
11.70426404872324
 20
6.081850991318078
 30
0.0
 10
11.71670084342499
 20
6.074375134115086
 30
0.0
 10
11.72703612988074
 20
6.064470484594993
 30
0.0
 10
11.73530435904534
 20
6.052137042757798
 30
0.0
 10
11.74343478439053
 20
6.039838051875456
 30
0.0
 10
11.74777560470194
 20
6.024559053398374
 30
0.0
 10
11.74815456520532
 20
6.006351723758828
 30
0.0
 10
11.76351969106954
 20
6.025282523450276
 30
0.0
 10
11.78033175703755
 20
6.040268688811113
 30
0.0
 10
11.79876301788364
 20
6.051310219841339
 30
0.0
 10
11.81719427872973
 20
6.062420652781269
 30
0.0
 10
11.8368657739505
 20
6.067967256512522
 30
0.0
 10
11.85788085641053
 20
6.067967256512522
 30
0.0
 10
11.88044623183892
 20
6.067967256512522
 30
0.0
 10
11.90008327610484
 20
6.064281004343305
 30
0.0
 10
11.91682644016315
 20
6.056977401914574
 30
0.0
 10
11.93360405517632
 20
6.049656574008419
 30
0.0
 10
11.94759114284643
 20
6.039493542326932
 30
0.0
 10
11.95868435030894
 20
6.026419404960409
 30
0.0
 10
11.96967420490689
 20
6.013396944026164
 30
0.0
 10
11.97801133598119
 20
5.997859563387688
 30
0.0
 10
11.98352348875759
 20
5.979910615909536
 30
0.0
 10
11.98907009248884
 20
5.961823864611974
 30
0.0
 10
11.9918606198319
 20
5.94204901652664
 30
0.0
 10
11.9918606198319
 20
5.920620522608386
 30
0.0
 10
11.9918606198319
 20
5.903171113975596
 30
0.0
 10
11.99058593450235
 20
5.883981932122754
 30
0.0
 10
11.98810546575297
 20
5.863070202527288
 30
0.0
 10
11.98562499700359
 20
5.842192923886674
 30
0.0
 10
11.98197319578923
 20
5.820282116600485
 30
0.0
 10
11.97735676783899
 20
5.79747558448813
 30
0.0
 10
11.97274033988876
 20
5.774600150466072
 30
0.0
 10
11.96733153997692
 20
5.751104599256668
 30
0.0
 10
11.96130262287773
 20
5.727023381814772
 30
0.0
 10
11.95520480386884
 20
5.702976615327728
 30
0.0
 10
11.94865912244686
 20
5.679033201705241
 30
0.0
 10
11.94149332383754
 20
5.655262042857017
 30
0.0
 10
11.93429307427337
 20
5.631525334963646
 30
0.0
 10
11.92681721707038
 20
5.60827094043821
 30
0.0
 10
11.91899685031886
 20
5.585636663100118
 30
0.0
 10
11.91110758165764
 20
5.562899032897469
 30
0.0
 10
11.90304605822215
 20
5.541573891843773
 30
0.0
 10
11.89484673096726
 20
5.521626788984176
 30
0.0
 10
11.89842963027192
 20
5.518388399228042
 30
0.0
 10
11.90387288113861
 20
5.515012205652496
 30
0.0
 10
11.91124538547705
 20
5.511463757302689
 30
0.0
 10
11.91854898790578
 20
5.507846407043177
 30
0.0
 10
11.9277473928514
 20
5.506054957390847
 30
0.0
 10
11.93880614935905
 20
5.506054957390847
 30
0.0
 10
11.97056992973305
 20
5.506054957390847
 30
0.0
 10
12.00285047442984
 20
5.519387476918764
 30
0.0
 10
12.03547552867516
 20
5.54594916311004
 30
0.0
 10
12.06820393578503
 20
5.572579751211022
 30
0.0
 10
12.10255153777297
 20
5.614988876634447
 30
0.0
 10
12.13862168750354
 20
5.673176539380316
 30
0.0
 10
12.14854356250106
 20
5.673176539380316
 30
0.0
 10
12.15870659418255
 20
5.671212834953725
 30
0.0
 10
12.16886962586403
 20
5.667250975145687
 30
0.0
 10
12.17903265754552
 20
5.663323566292502
 30
0.0
 10
12.18816216058143
 20
5.65791476638066
 30
0.0
 10
12.19636148783633
 20
5.650955673500455
 30
0.0
 10
12.20462971700093
 20
5.644031031575103
 30
0.0
 10
12.21134765319716
 20
5.635624998591093
 30
0.0
 10
12.21651529642504
 20
5.625806476458131
 30
0.0
 10
12.22171739060776
 20
5.615953503370317
 30
0.0
 10
12.22426676126685
 20
5.605273707366043
 30
0.0
 10
12.22426676126685
 20
5.593904892264717
 30
0.0
 10
12.22426676126685
 20
5.578608668310209
 30
0.0
 10
12.22030490145881
 20
5.560556367967499
 30
0.0
 10
12.21251898566215
 20
5.539782442191443
 30
0.0
 10
12.20462971700093
 20
5.519146320234796
 30
0.0
 10
12.19357096049327
 20
5.49768337536169
 30
0.0
 10
12.17927381422949
 20
5.475565862346386
 30
0.0
 10
12.1650455698754
 20
5.45341389837623
 30
0.0
 10
12.1477167395846
 20
5.43164089490945
 30
0.0
 10
12.12739067622162
 20
5.410143499081491
 30
0.0
 10
12.10699571094895
 20
5.38874945611809
 30
0.0
 10
12.08446478647541
 20
5.369560274265249
 30
0.0
 10
12.05986680471073
 20
5.352679306387524
 30
0.0
 10
12.03523437199119
 20
5.335729436600095
 30
0.0
 10
12.00860378389021
 20
5.321949054659096
 30
0.0
 10
11.98011284422719
 20
5.311372611519379
 30
0.0
 10
11.95144964978991
 20
5.300830619334514
 30
0.0
 10
11.9216495738425
 20
5.295559623242082
 30
0.0
 10
11.8906092635204
 20
5.295559623242082
 30
0.0
 10
11.8705932587511
 20
5.295559623242082
 30
0.0
 10
11.85402234946705
 20
5.297282170984706
 30
0.0
 10
11.84079318280369
 20
5.300658364560252
 30
0.0
 10
11.82759846709518
 20
5.304034558135797
 30
0.0
 10
11.81488606475461
 20
5.309684514731607
 30
0.0
 10
11.80275932864653
 20
5.317539332437976
 30
0.0
 10
11.77671440677804
 20
5.281779241301082
 30
0.0
 10
11.74967040721883
 20
5.250222166656194
 30
0.0
 10
11.72166178092375
 20
5.222799206593606
 30
0.0
 10
11.69358425271896
 20
5.195203991756754
 30
0.0
 10
11.66416313727493
 20
5.172156302960433
 30
0.0
 10
11.63350178745621
 20
5.153346081610969
 30
0.0
 10
11.60280598668263
 20
5.134639213126062
 30
0.0
 10
11.57049099103099
 20
5.120342066862276
 30
0.0
 10
11.53655680050128
 20
5.11048909377446
 30
0.0
 10
11.50265706092642
 20
5.100705022596351
 30
0.0
 10
11.46638020546674
 20
5.095812987007297
 30
0.0
 10
11.42782958698679
 20
5.095812987007297
 30
0.0
 10
11.38883110609376
 20
5.095812987007297
 30
0.0
 10
11.35248534872438
 20
5.102289766519566
 30
0.0
 10
11.31851670723981
 20
5.115381129363516
 30
0.0
 10
11.28465141861981
 20
5.128334688388055
 30
0.0
 10
11.25519585222092
 20
5.148006183608832
 30
0.0
 10
11.23021890995286
 20
5.174257811206435
 30
0.0
 10
11.20513861482024
 20
5.200543889758891
 30
0.0
 10
11.18546711959947
 20
5.233651257372142
 30
0.0
 10
11.17096326760656
 20
5.273579914046188
 30
0.0
 10
11.16531331101075
 20
5.289427353278337
 30
0.0
 10
11.1610758435639
 20
5.306618379749734
 30
0.0
 10
11.15756184616894
 20
5.324532876273033
 30
0.0
 10
11.14181775980135
 20
5.308030868898686
 30
0.0
 10
11.12555690911097
 20
5.291770018208307
 30
0.0
 10
11.10833143168472
 20
5.276025931840715
 30
0.0
 10
11.07918592387951
 20
5.249464245649439
 30
0.0
 10
11.04869682883505
 20
5.224315048607115
 30
0.0
 10
11.01676079368678
 20
5.200750595488007
 30
0.0
 10
10.98475585662881
 20
5.177186142368898
 30
0.0
 10
10.95261311575143
 20
5.156653373276809
 30
0.0
 10
10.92033257105464
 20
5.139186739166592
 30
0.0
 10
10.88801757540299
 20
5.12165120314667
 30
0.0
 10
10.85625379502899
 20
5.107939723115376
 30
0.0
 10
10.82500677897777
 20
5.097914495253299
 30
0.0
 10
10.79375976292656
 20
5.087923718346074
 30
0.0
 10
10.76440754939223
 20
5.082962780847314
 30
0.0
 10
10.73691568741994
 20
5.082962780847314
 30
0.0
 10
10.70515190704593
 20
5.082962780847314
 30
0.0
 10
10.67814235844157
 20
5.086407876332564
 30
0.0
 10
10.65605929638112
 20
5.093401420167622
 30
0.0
 10
10.63387288145611
 20
5.100326062092973
 30
0.0
 10
10.61585503206826
 20
5.110799152368133
 30
0.0
 10
10.60217800299182
 20
5.124717338128542
 30
0.0
 10
10.58839762105082
 20
5.138635523888952
 30
0.0
 10
10.57851019700815
 20
5.156171059908874
 30
0.0
 10
10.57241237799926
 20
5.177186142368898
 30
0.0
 10
10.56634900994522
 20
5.198339028648332
 30
0.0
 10
10.5633862278279
 20
5.223109265187277
 30
0.0
 10
10.5633862278279
 20
5.251669106759999
 30
0.0
 10
10.5633862278279
 20
5.271443954845333
 30
0.0
 10
10.564764266022
 20
5.293216958312112
 30
0.0
 10
10.56714138190683
 20
5.316230196153581
 30
0.0
 10
10.56007893616206
 20
5.309098848499114
 30
0.0
 10
10.55322319614642
 20
5.302001951799499
 30
0.0
 10
10.54591959371769
 20
5.295077309874147
 30
0.0
 10
10.51828992792598
 20
5.26865342750228
 30
0.0
 10
10.48969563539841
 20
5.243607583324515
 30
0.0
 10
10.46024006899952
 20
5.220043130205405
 30
0.0
 10
10.43081895355549
 20
5.196547578996002
 30
0.0
 10
10.40198350434395
 20
5.17584255512965
 30
0.0
 10
10.37376817231975
 20
5.158238117200024
 30
0.0
 10
10.3455183893407
 20
5.140530326405839
 30
0.0
 10
10.31864664455575
 20
5.126508787780873
 30
0.0
 10
10.29311848701005
 20
5.11613905037027
 30
0.0
 10
10.26752142755465
 20
5.105803763914521
 30
0.0
 10
10.24502495403597
 20
5.100636120686646
 30
0.0
 10
10.22535345881519
 20
5.100636120686646
 30
0.0
 10
10.20147894710241
 20
5.100636120686646
 30
0.0
 10
10.17967149268078
 20
5.103426648029698
 30
0.0
 10
10.1600688993697
 20
5.108973251760951
 30
0.0
 10
10.14036295319407
 20
5.11448540453735
 30
0.0
 10
10.12379204391002
 20
5.124097220941198
 30
0.0
 10
10.11018391674329
 20
5.137808700972492
 30
0.0
 10
10.09667914244111
 20
5.151589082913492
 30
0.0
 10
10.08606824834654
 20
5.169985892804726
 30
0.0
 10
10.07855794018869
 20
5.192999130646195
 30
0.0
 10
10.0710820829857
 20
5.216046819442516
 30
0.0
 10
10.06736137986163
 20
5.245020072473467
 30
0.0
 10
10.06736137986163
 20
5.280022242603605
 30
0.0
 10
10.06736137986163
 20
5.292148978711684
 30
0.0
 10
10.06801594800383
 20
5.305412596329896
 30
0.0
 10
10.06922173142367
 20
5.319640840683978
 30
0.0
 10
10.07049641675321
 20
5.333937986947765
 30
0.0
 10
10.07221896449583
 20
5.349303112811979
 30
0.0
 10
10.07432047274184
 20
5.365770669231473
 30
0.0
 10
10.05685383863162
 20
5.315782333740499
 30
0.0
 10
10.03759575486907
 20
5.274372286007796
 30
0.0
 10
10.01675292718331
 20
5.241712780807627
 30
0.0
 10
9.995875648542697
 20
5.209053275607459
 30
0.0
 10
9.974447154624443
 20
5.183077255648675
 30
0.0
 10
9.952811954977074
 20
5.163853622840981
 30
0.0
 10
9.930935598645737
 20
5.144526637168729
 30
0.0
 10
9.909231497088664
 20
5.130952960956844
 30
0.0
 10
9.887630748396147
 20
5.123132594205328
 30
0.0
 10
9.866029999703631
 20
5.115243325544106
 30
0.0
 10
9.845635034430952
 20
5.111315916690921
 30
0.0
 10
9.826342499713553
 20
5.111315916690921
 30
0.0
 10
9.794888777933222
 20
5.111315916690921
 30
0.0
 10
9.765949975857122
 20
5.117723794293485
 30
0.0
 10
9.739319387756142
 20
5.130574000453468
 30
0.0
 10
9.712723250610013
 20
5.143458657568302
 30
0.0
 10
9.689778914678248
 20
5.162578937511438
 30
0.0
 10
9.67048637996085
 20
5.187900389328025
 30
0.0
 10
9.651159394288598
 20
5.213256292099463
 30
0.0
 10
9.636035425108352
 20
5.244882268654057
 30
0.0
 10
9.625183374329815
 20
5.282674966127248
 30
0.0
 10
9.614331323551278
 20
5.320536565510143
 30
0.0
 10
9.60885362172973
 20
5.364289278172816
 30
0.0
 10
9.60885362172973
 20
5.413967555070119
 30
0.0
 10
9.60885362172973
 20
5.468985729969559
 30
0.0
 10
9.615916067474492
 20
5.523728297230178
 30
0.0
 10
9.63007540991887
 20
5.578333060671389
 30
0.0
 10
9.644165850453541
 20
5.633041176977156
 30
0.0
 10
9.663286130396678
 20
5.685234373578691
 30
0.0
 10
9.687608504522542
 20
5.735050454295403
 30
0.0
 10
9.711896427693553
 20
5.784900985966969
 30
0.0
 10
9.740215112582307
 20
5.831271971198432
 30
0.0
 10
9.772495657279098
 20
5.874335664764055
 30
0.0
  0
SPLINE
  5
F3
330
3C
100
AcDbEntity
  8
Livello 1
 62
     7
420
 16777215
370
     9
100
AcDbSpline
210
0.0
220
0.0
230
1.0
 70
    11
 71
     3
 72
   407
 73
   403
 74
     0
 42
0.0000000001
 43
0.0000000001
 40
0.0
 40
0.0
 40
0.0
 40
0.0
 40
1.0
 40
1.0
 40
1.0
 40
2.0
 40
2.0
 40
2.0
 40
3.0
 40
3.0
 40
3.0
 40
4.0
 40
4.0
 40
4.0
 40
5.0
 40
5.0
 40
5.0
 40
6.0
 40
6.0
 40
6.0
 40
7.0
 40
7.0
 40
7.0
 40
8.0
 40
8.0
 40
8.0
 40
9.0
 40
9.0
 40
9.0
 40
10.0
 40
10.0
 40
10.0
 40
11.0
 40
11.0
 40
11.0
 40
12.0
 40
12.0
 40
12.0
 40
13.0
 40
13.0
 40
13.0
 40
14.0
 40
14.0
 40
14.0
 40
15.0
 40
15.0
 40
15.0
 40
16.0
 40
16.0
 40
16.0
 40
17.0
 40
17.0
 40
17.0
 40
18.0
 40
18.0
 40
18.0
 40
19.0
 40
19.0
 40
19.0
 40
20.0
 40
20.0
 40
20.0
 40
21.0
 40
21.0
 40
21.0
 40
22.0
 40
22.0
 40
22.0
 40
23.0
 40
23.0
 40
23.0
 40
24.0
 40
24.0
 40
24.0
 40
25.0
 40
25.0
 40
25.0
 40
26.0
 40
26.0
 40
26.0
 40
27.0
 40
27.0
 40
27.0
 40
28.0
 40
28.0
 40
28.0
 40
29.0
 40
29.0
 40
29.0
 40
30.0
 40
30.0
 40
30.0
 40
31.0
 40
31.0
 40
31.0
 40
32.0
 40
32.0
 40
32.0
 40
33.0
 40
33.0
 40
33.0
 40
34.0
 40
34.0
 40
34.0
 40
35.0
 40
35.0
 40
35.0
 40
36.0
 40
36.0
 40
36.0
 40
37.0
 40
37.0
 40
37.0
 40
38.0
 40
38.0
 40
38.0
 40
39.0
 40
39.0
 40
39.0
 40
40.0
 40
40.0
 40
40.0
 40
41.0
 40
41.0
 40
41.0
 40
42.0
 40
42.0
 40
42.0
 40
43.0
 40
43.0
 40
43.0
 40
44.0
 40
44.0
 40
44.0
 40
45.0
 40
45.0
 40
45.0
 40
46.0
 40
46.0
 40
46.0
 40
47.0
 40
47.0
 40
47.0
 40
48.0
 40
48.0
 40
48.0
 40
49.0
 40
49.0
 40
49.0
 40
50.0
 40
50.0
 40
50.0
 40
51.0
 40
51.0
 40
51.0
 40
52.0
 40
52.0
 40
52.0
 40
53.0
 40
53.0
 40
53.0
 40
54.0
 40
54.0
 40
54.0
 40
55.0
 40
55.0
 40
55.0
 40
56.0
 40
56.0
 40
56.0
 40
57.0
 40
57.0
 40
57.0
 40
58.0
 40
58.0
 40
58.0
 40
59.0
 40
59.0
 40
59.0
 40
60.0
 40
60.0
 40
60.0
 40
61.0
 40
61.0
 40
61.0
 40
62.0
 40
62.0
 40
62.0
 40
63.0
 40
63.0
 40
63.0
 40
64.0
 40
64.0
 40
64.0
 40
65.0
 40
65.0
 40
65.0
 40
66.0
 40
66.0
 40
66.0
 40
67.0
 40
67.0
 40
67.0
 40
68.0
 40
68.0
 40
68.0
 40
69.0
 40
69.0
 40
69.0
 40
70.0
 40
70.0
 40
70.0
 40
71.0
 40
71.0
 40
71.0
 40
72.0
 40
72.0
 40
72.0
 40
73.0
 40
73.0
 40
73.0
 40
74.0
 40
74.0
 40
74.0
 40
75.0
 40
75.0
 40
75.0
 40
76.0
 40
76.0
 40
76.0
 40
77.0
 40
77.0
 40
77.0
 40
78.0
 40
78.0
 40
78.0
 40
79.0
 40
79.0
 40
79.0
 40
80.0
 40
80.0
 40
80.0
 40
81.0
 40
81.0
 40
81.0
 40
82.0
 40
82.0
 40
82.0
 40
83.0
 40
83.0
 40
83.0
 40
84.0
 40
84.0
 40
84.0
 40
85.0
 40
85.0
 40
85.0
 40
86.0
 40
86.0
 40
86.0
 40
87.0
 40
87.0
 40
87.0
 40
88.0
 40
88.0
 40
88.0
 40
89.0
 40
89.0
 40
89.0
 40
90.0
 40
90.0
 40
90.0
 40
91.0
 40
91.0
 40
91.0
 40
92.0
 40
92.0
 40
92.0
 40
93.0
 40
93.0
 40
93.0
 40
94.0
 40
94.0
 40
94.0
 40
95.0
 40
95.0
 40
95.0
 40
96.0
 40
96.0
 40
96.0
 40
97.0
 40
97.0
 40
97.0
 40
98.0
 40
98.0
 40
98.0
 40
99.0
 40
99.0
 40
99.0
 40
100.0
 40
100.0
 40
100.0
 40
101.0
 40
101.0
 40
101.0
 40
102.0
 40
102.0
 40
102.0
 40
103.0
 40
103.0
 40
103.0
 40
104.0
 40
104.0
 40
104.0
 40
105.0
 40
105.0
 40
105.0
 40
106.0
 40
106.0
 40
106.0
 40
107.0
 40
107.0
 40
107.0
 40
108.0
 40
108.0
 40
108.0
 40
109.0
 40
109.0
 40
109.0
 40
110.0
 40
110.0
 40
110.0
 40
111.0
 40
111.0
 40
111.0
 40
112.0
 40
112.0
 40
112.0
 40
113.0
 40
113.0
 40
113.0
 40
114.0
 40
114.0
 40
114.0
 40
115.0
 40
115.0
 40
115.0
 40
116.0
 40
116.0
 40
116.0
 40
117.0
 40
117.0
 40
117.0
 40
118.0
 40
118.0
 40
118.0
 40
119.0
 40
119.0
 40
119.0
 40
120.0
 40
120.0
 40
120.0
 40
121.0
 40
121.0
 40
121.0
 40
122.0
 40
122.0
 40
122.0
 40
123.0
 40
123.0
 40
123.0
 40
124.0
 40
124.0
 40
124.0
 40
125.0
 40
125.0
 40
125.0
 40
126.0
 40
126.0
 40
126.0
 40
127.0
 40
127.0
 40
127.0
 40
128.0
 40
128.0
 40
128.0
 40
129.0
 40
129.0
 40
129.0
 40
130.0
 40
130.0
 40
130.0
 40
131.0
 40
131.0
 40
131.0
 40
132.0
 40
132.0
 40
132.0
 40
133.0
 40
133.0
 40
133.0
 40
134.0
 40
134.0
 40
134.0
 40
134.0
 10
8.545679929504205
 20
4.888487140704961
 30
0.0
 10
8.51570759878253
 20
4.841358234466743
 30
0.0
 10
8.483719887201985
 20
4.797777776578333
 30
0.0
 10
8.449785696672276
 20
4.757849119904288
 30
0.0
 10
8.415868731619991
 20
4.717817110365684
 30
0.0
 10
8.381004365309263
 20
4.683228351693776
 30
0.0
 10
8.34510647035296
 20
4.653876138159447
 30
0.0
 10
8.309225800874081
 20
4.624661728444528
 30
0.0
 10
8.272707788730434
 20
4.601717392512764
 30
0.0
 10
8.235586884876867
 20
4.585353188957828
 30
0.0
 10
8.198483206500725
 20
4.568954534448038
 30
0.0
 10
8.16186184149252
 20
4.560651854328587
 30
0.0
 10
8.125791691761954
 20
4.560651854328587
 30
0.0
 10
8.051153698074016
 20
4.560651854328587
 30
0.0
 10
7.995946042922888
 20
4.577395018386901
 30
0.0
 10
7.960030922489159
 20
4.610777993638972
 30
0.0
 10
7.924133027532855
 20
4.644160968891042
 30
0.0
 10
7.906184080054703
 20
4.691083169400145
 30
0.0
 10
7.906184080054703
 20
4.751441242301722
 30
0.0
 10
7.906184080054703
 20
4.765256075197574
 30
0.0
 10
7.90661471699036
 20
4.779002006183721
 30
0.0
 10
7.907475990861673
 20
4.792334525711638
 30
0.0
 10
7.908440617597542
 20
4.80573594714926
 30
0.0
 10
7.910455998456413
 20
4.821101073013474
 30
0.0
 10
7.9137288391674
 20
4.838395452349428
 30
0.0
 10
7.916915552491257
 20
4.855724282640235
 30
0.0
 10
7.921497529486639
 20
4.875843640274094
 30
0.0
 10
7.927336966334138
 20
4.898650172386448
 30
0.0
 10
7.933228079613914
 20
4.921594508318212
 30
0.0
 10
7.941048446365432
 20
4.949465330793883
 30
0.0
 10
7.950901419453246
 20
4.982503796497429
 30
0.0
 10
7.960719941586208
 20
5.015542262200976
 30
0.0
 10
7.972950030558845
 20
5.054471841184299
 30
0.0
 10
7.98762613732601
 20
5.099292533447398
 30
0.0
 10
8.002250567660894
 20
5.144078774755647
 30
0.0
 10
8.019751652725965
 20
5.19706434331879
 30
0.0
 10
8.040060490611513
 20
5.258111435317416
 30
0.0
 10
8.044263507103517
 20
5.270341524290053
 30
0.0
 10
8.048690454802063
 20
5.283432887134002
 30
0.0
 10
8.053169078932887
 20
5.297144367165297
 30
0.0
 10
8.040938989960251
 20
5.285534395380004
 30
0.0
 10
8.028691675510188
 20
5.27402777645927
 30
0.0
 10
8.015979273169616
 20
5.262865667087061
 30
0.0
 10
7.990296086327078
 20
5.240059134974707
 30
0.0
 10
7.963975556819769
 20
5.218733993921011
 30
0.0
 10
7.936948782737985
 20
5.198855792971119
 30
0.0
 10
7.910025361520757
 20
5.179080944885785
 30
0.0
 10
7.883119165780956
 20
5.161855467459536
 30
0.0
 10
7.856367999337991
 20
5.147213811647224
 30
0.0
 10
7.829565156462747
 20
5.132606606789764
 30
0.0
 10
7.803416881729701
 20
5.121168889778735
 30
0.0
 10
7.777923175138852
 20
5.11296956252384
 30
0.0
 10
7.752395017593151
 20
5.104701333359241
 30
0.0
 10
7.728003741557582
 20
5.100636120686646
 30
0.0
 10
7.704783797986998
 20
5.100636120686646
 30
0.0
 10
7.682287324468317
 20
5.100636120686646
 30
0.0
 10
7.662116290402179
 20
5.102634276068091
 30
0.0
 10
7.644305146743437
 20
5.106699488740686
 30
0.0
 10
7.626373424742711
 20
5.110936956187543
 30
0.0
 10
7.611163328175333
 20
5.118309460525978
 30
0.0
 10
7.598468151312188
 20
5.129023707485104
 30
0.0
 10
7.585807425403895
 20
5.139703503489379
 30
0.0
 10
7.576126707090343
 20
5.154241806437134
 30
0.0
 10
7.569546574713516
 20
5.17267306728322
 30
0.0
 10
7.562931991381836
 20
5.191035426219602
 30
0.0
 10
7.559624699715996
 20
5.214462075519301
 30
0.0
 10
7.559624699715996
 20
5.24312526995658
 30
0.0
 10
7.559624699715996
 20
5.258421493911088
 30
0.0
 10
7.560796032180981
 20
5.275509167517928
 30
0.0
 10
7.563104246156098
 20
5.294319388867392
 30
0.0
 10
7.565446911086068
 20
5.312991806397446
 30
0.0
 10
7.568754202751908
 20
5.333937986947765
 30
0.0
 10
7.573026121153618
 20
5.357192381473202
 30
0.0
 10
7.546619464259178
 20
5.307204045982227
 30
0.0
 10
7.518869220125491
 20
5.263864744777783
 30
0.0
 10
7.489775388752555
 20
5.227277830724431
 30
0.0
 10
7.460664331902194
 20
5.190656465716224
 30
0.0
 10
7.431398245754997
 20
5.160339625446026
 30
0.0
 10
7.401891002923832
 20
5.136223957049277
 30
0.0
 10
7.372435436524946
 20
5.112108288652528
 30
0.0
 10
7.343427732539142
 20
5.094297144993787
 30
0.0
 10
7.314850665488995
 20
5.082721624163347
 30
0.0
 10
7.286273598438847
 20
5.071111652378055
 30
0.0
 10
7.259711912247571
 20
5.065254990053131
 30
0.0
 10
7.235096705005462
 20
5.065254990053131
 30
0.0
 10
7.202902287695801
 20
5.065254990053131
 30
0.0
 10
7.176461179846509
 20
5.069836967048513
 30
0.0
 10
7.155825057889863
 20
5.078932019129573
 30
0.0
 10
7.135068357591233
 20
5.088061522165484
 30
0.0
 10
7.118738604991148
 20
5.101325139783696
 30
0.0
 10
7.106732447225053
 20
5.118791773893912
 30
0.0
 10
7.094777965891236
 20
5.136327309913835
 30
0.0
 10
7.08649251124921
 20
5.157928058606351
 30
0.0
 10
7.081876083298975
 20
5.183662921881167
 30
0.0
 10
7.077242429871314
 20
5.209328883246278
 30
0.0
 10
7.074899764941344
 20
5.238646645825755
 30
0.0
 10
7.074899764941344
 20
5.271443954845333
 30
0.0
 10
7.074899764941344
 20
5.28794596221968
 30
0.0
 10
7.076760116503379
 20
5.307893065079276
 30
0.0
 10
7.080532496059727
 20
5.331457518198385
 30
0.0
 10
7.084270424661224
 20
5.355021971317494
 30
0.0
 10
7.08993760673446
 20
5.381239147960246
 30
0.0
 10
7.097413463937452
 20
5.410143499081491
 30
0.0
 10
7.104889321140444
 20
5.439116752112443
 30
0.0
 10
7.114087726086061
 20
5.469984807660281
 30
0.0
 10
7.12497422781945
 20
5.502816567634712
 30
0.0
 10
7.135929631462544
 20
5.535786131428553
 30
0.0
 10
7.148469779028854
 20
5.569754772913116
 30
0.0
 10
7.162715248860362
 20
5.605135903546632
 30
0.0
 10
7.150605738229709
 20
5.628355847117216
 30
0.0
 10
7.14283704791047
 20
5.651334634003833
 30
0.0
 10
7.139426403380074
 20
5.674003362296776
 30
0.0
 10
7.136050209804528
 20
5.69667209058972
 30
0.0
 10
7.134379338494182
 20
5.719030760288992
 30
0.0
 10
7.134379338494182
 20
5.741217175214
 30
0.0
 10
7.134379338494182
 20
5.764058158281207
 30
0.0
 10
7.139805363883451
 20
5.789207355323531
 30
0.0
 10
7.150709091094266
 20
5.816733668250677
 30
0.0
 10
7.161630043782509
 20
5.844225530222971
 30
0.0
 10
7.176202797685115
 20
5.872165254608347
 30
0.0
 10
7.194616833053776
 20
5.900604517839085
 30
0.0
 10
7.21301364294501
 20
5.928974879160117
 30
0.0
 10
7.234424911385838
 20
5.95646674113241
 30
0.0
 10
7.258902314808537
 20
5.983062878278539
 30
0.0
 10
7.283328041798959
 20
6.009659015424668
 30
0.0
 10
7.309045679596349
 20
6.033326821408335
 30
0.0
 10
7.336038002723281
 20
6.053997394319834
 30
0.0
 10
7.363013100372788
 20
6.074788545573316
 30
0.0
 10
7.390384384003098
 20
6.091359454857368
 30
0.0
 10
7.418220755523916
 20
6.103899602423677
 30
0.0
 10
7.446091577999588
 20
6.116284720693151
 30
0.0
 10
7.472894420874831
 20
6.122606470908584
 30
0.0
 10
7.49852593128509
 20
6.122606470908584
 30
0.0
 10
7.515682506801634
 20
6.122606470908584
 30
0.0
 10
7.530806475981882
 20
6.121090628895074
 30
0.0
 10
7.543846162393552
 20
6.11807617034548
 30
0.0
 10
7.55685139785037
 20
6.115010035363608
 30
0.0
 10
7.567772350538612
 20
6.110100774297127
 30
0.0
 10
7.576522893071147
 20
6.103296710713758
 30
0.0
 10
7.585273435603681
 20
6.096544323562669
 30
0.0
 10
7.591974146322492
 20
6.087535398868741
 30
0.0
 10
7.596590574272727
 20
6.076252711154548
 30
0.0
 10
7.601241453177814
 20
6.064987248917781
 30
0.0
 10
7.603618569062636
 20
6.051137965067076
 30
0.0
 10
7.603618569062636
 20
6.034756536034713
 30
0.0
 10
7.603618569062636
 20
5.99940985635605
 30
0.0
 10
7.589510903050538
 20
5.949542099207059
 30
0.0
 10
7.561502276755458
 20
5.885325519362001
 30
0.0
 10
7.533441974028097
 20
5.82104003760724
 30
0.0
 10
7.491256779811213
 20
5.742974173911478
 30
0.0
 10
7.434808890285394
 20
5.651196830184422
 30
0.0
 10
7.423750133777743
 20
5.611233722555524
 30
0.0
 10
7.415102944109766
 20
5.575611435238041
 30
0.0
 10
7.408850095804037
 20
5.544364419186826
 30
0.0
 10
7.402614472975735
 20
5.513117403135609
 30
0.0
 10
7.399462210606731
 20
5.488795029009745
 30
0.0
 10
7.399462210606731
 20
5.471225042034972
 30
0.0
 10
7.399462210606731
 20
5.45341389837623
 30
0.0
 10
7.403010658956538
 20
5.43935790879641
 30
0.0
 10
7.409900849927038
 20
5.429194877114923
 30
0.0
 10
7.416911619239522
 20
5.419031845433437
 30
0.0
 10
7.428039277656879
 20
5.413967555070119
 30
0.0
 10
7.443421628998519
 20
5.413967555070119
 30
0.0
 10
7.452688935853841
 20
5.413967555070119
 30
0.0
 10
7.463713241406641
 20
5.416964788142286
 30
0.0
 10
7.476580673044049
 20
5.423062607151178
 30
0.0
 10
7.489465330158883
 20
5.429091524250365
 30
0.0
 10
7.502866751596505
 20
5.436911891001882
 30
0.0
 10
7.516802162834341
 20
5.446351452631467
 30
0.0
 10
7.530668672162471
 20
5.455825465215904
 30
0.0
 10
7.544431828626045
 20
5.466436359310474
 30
0.0
 10
7.558005504837928
 20
5.478184134915176
 30
0.0
 10
7.571596406527239
 20
5.490000812429582
 30
0.0
 10
7.583912622887008
 20
5.50154188230517
 30
0.0
 10
7.595005830349512
 20
5.513048501225904
 30
0.0
 10
7.613574895015009
 20
5.572304143572201
 30
0.0
 10
7.629542912589142
 20
5.626943357968264
 30
0.0
 10
7.642961559504189
 20
5.676931693459239
 30
0.0
 10
7.656362980941812
 20
5.726920028950214
 30
0.0
 10
7.667680119610857
 20
5.774875758104892
 30
0.0
 10
7.676947426466179
 20
5.820798880923272
 30
0.0
 10
7.686214733321501
 20
5.866653101831948
 30
0.0
 10
7.693604463137362
 20
5.911594372437031
 30
0.0
 10
7.699168292346041
 20
5.955467663441688
 30
0.0
 10
7.704714896077293
 20
5.99940985635605
 30
0.0
 10
7.708693981362757
 20
6.044902342238774
 30
0.0
 10
7.711226126544415
 20
6.092048473954418
 30
0.0
 10
7.722250432097215
 20
6.106328394740778
 30
0.0
 10
7.736306421677034
 20
6.116835935970791
 30
0.0
 10
7.75322184050961
 20
6.123657225031585
 30
0.0
 10
7.770257837684171
 20
6.130426837660101
 30
0.0
 10
7.786897648877928
 20
6.133803031235646
 30
0.0
 10
7.803365205297422
 20
6.133803031235646
 30
0.0
 10
7.834026555116146
 20
6.133803031235646
 30
0.0
 10
7.862345240004899
 20
6.128842093736886
 30
0.0
 10
7.888235132576551
 20
6.118885767784514
 30
0.0
 10
7.914125025148205
 20
6.108826088967585
 30
0.0
 10
7.93655259675718
 20
6.095562471349373
 30
0.0
 10
7.955483396448629
 20
6.078939885633043
 30
0.0
 10
7.974379745185224
 20
6.062317299916712
 30
0.0
 10
7.989176430294372
 20
6.043300372838133
 30
0.0
 10
7.999907902730925
 20
6.021871878919879
 30
0.0
 10
8.010639375167479
 20
6.000477835956477
 30
0.0
 10
8.015979273169616
 20
5.978498126760583
 30
0.0
 10
8.015979273169616
 20
5.956018878719328
 30
0.0
 10
8.015979273169616
 20
5.94604532728953
 30
0.0
 10
8.01535915598227
 20
5.935589462491797
 30
0.0
 10
8.014153372562433
 20
5.924668509803555
 30
0.0
 10
8.012844236278038
 20
5.913764782592739
 30
0.0
 10
8.010708277077184
 20
5.901603595529807
 30
0.0
 10
8.007676593050164
 20
5.888288301479316
 30
0.0
 10
8.00466213450057
 20
5.874852429086842
 30
0.0
 10
8.000493568963417
 20
5.859728459906595
 30
0.0
 10
7.995101994529001
 20
5.843019746803134
 30
0.0
 10
7.989796547481717
 20
5.826173229880262
 30
0.0
 10
7.982992483898348
 20
5.806742891343453
 30
0.0
 10
7.97481038212088
 20
5.784590927373296
 30
0.0
 10
7.967231172053331
 20
5.763885903506945
 30
0.0
 10
7.958583982385353
 20
5.741320528078559
 30
0.0
 10
7.948713783820113
 20
5.716860350133285
 30
0.0
 10
7.938998614551708
 20
5.692434623142863
 30
0.0
 10
7.9288872593025
 20
5.667526582784506
 30
0.0
 10
7.918517521891898
 20
5.642377385742183
 30
0.0
 10
7.908165009958722
 20
5.617228188699859
 30
0.0
 10
7.898088105664367
 20
5.592492403115766
 30
0.0
 10
7.888235132576551
 20
5.568238930899606
 30
0.0
 10
7.878451061398442
 20
5.543916556773743
 30
0.0
 10
7.869700518865907
 20
5.521488985164766
 30
0.0
 10
7.8620179559338
 20
5.50099066702753
 30
0.0
 10
7.85435261847912
 20
5.480457897935441
 30
0.0
 10
7.848134221128244
 20
5.462543401412142
 30
0.0
 10
7.843517793178009
 20
5.447178275547928
 30
0.0
 10
7.838832463318069
 20
5.431744247774008
 30
0.0
 10
7.836558700297804
 20
5.420685491266356
 30
0.0
 10
7.836558700297804
 20
5.413967555070119
 30
0.0
 10
7.836558700297804
 20
5.399670408806332
 30
0.0
 10
7.839418129550562
 20
5.3902652981316
 30
0.0
 10
7.845068086146371
 20
5.385821124955628
 30
0.0
 10
7.850873072039017
 20
5.381376951779655
 30
0.0
 10
7.858193899945173
 20
5.379172090669096
 30
0.0
 10
7.867065020819692
 20
5.379172090669096
 30
0.0
 10
7.879587942908574
 20
5.379172090669096
 30
0.0
 10
7.895521509527855
 20
5.3847531453552
 30
0.0
 10
7.914727916858123
 20
5.395984156637114
 30
0.0
 10
7.934054902530375
 20
5.407284069828735
 30
0.0
 10
7.95625854293281
 20
5.424509547254983
 30
0.0
 10
7.981476641884838
 20
5.447695039870715
 30
0.0
 10
8.006574162494884
 20
5.470880532486446
 30
0.0
 10
8.034479435925407
 20
5.500405000795038
 30
0.0
 10
8.065020207402148
 20
5.536268444796488
 30
0.0
 10
8.094837508826984
 20
5.571408418746036
 30
0.0
 10
8.126894122317234
 20
5.613094074117559
 30
0.0
 10
8.161052244053487
 20
5.661049803272237
 30
0.0
 10
8.161276175260028
 20
5.661738822369287
 30
0.0
 10
8.16153455742142
 20
5.662496743376042
 30
0.0
 10
8.161706812195684
 20
5.663323566292502
 30
0.0
 10
8.17095689357358
 20
5.697740070190147
 30
0.0
 10
8.17936292655759
 20
5.730158418706349
 30
0.0
 10
8.186838783760582
 20
5.7605097099314
 30
0.0
 10
8.194383542873279
 20
5.790861001156451
 30
0.0
 10
8.200222979720778
 20
5.817284883528317
 30
0.0
 10
8.204563800032192
 20
5.839781357046999
 30
0.0
 10
8.163446585415736
 20
5.841882865293001
 30
0.0
 10
8.142931041801072
 20
5.860176322319678
 30
0.0
 10
8.142931041801072
 20
5.894437796920488
 30
0.0
 10
8.142931041801072
 20
5.909802922784702
 30
0.0
 10
8.145635441756994
 20
5.925133597694064
 30
0.0
 10
8.150992565236557
 20
5.940515949035704
 30
0.0
 10
8.156366914193546
 20
5.955846623945066
 30
0.0
 10
8.16337768350603
 20
5.969678682318344
 30
0.0
 10
8.172128226038565
 20
5.982029349632964
 30
0.0
 10
8.1808787685711
 20
5.994259438605601
 30
0.0
 10
8.190938447388028
 20
6.004474146719367
 30
0.0
 10
8.20241061535391
 20
6.012535670154851
 30
0.0
 10
8.213865557842366
 20
6.020545517158058
 30
0.0
 10
8.225596107969642
 20
6.025110268676014
 30
0.0
 10
8.237757295032575
 20
6.026195473753868
 30
0.0
 10
8.23984157780115
 20
6.045436332038988
 30
0.0
 10
8.242408173937662
 20
6.068570148222441
 30
0.0
 10
8.24521592675814
 20
6.095562471349373
 30
0.0
 10
8.248075356010897
 20
6.1224858925666
 30
0.0
 10
8.251055363605639
 20
6.150683999113371
 30
0.0
 10
8.254052596677806
 20
6.180139565512256
 30
0.0
 10
8.257067055227399
 20
6.209646808343421
 30
0.0
 10
8.26004706282214
 20
6.238757865193782
 30
0.0
 10
8.262872041120046
 20
6.267489961540766
 30
0.0
 10
8.26578314680508
 20
6.29622205788775
 30
0.0
 10
8.268263615554462
 20
6.321853568298009
 30
0.0
 10
8.270416800232743
 20
6.34435004181669
 30
0.0
 10
8.275377737731501
 20
6.394992945449863
 30
0.0
 10
8.280683184778788
 20
6.438745658112535
 30
0.0
 10
8.286212563032613
 20
6.475522052417578
 30
0.0
 10
8.291759166763866
 20
6.512350123154898
 30
0.0
 10
8.297994789592167
 20
6.543493786341557
 30
0.0
 10
8.30491943151752
 20
6.568987492932405
 30
0.0
 10
8.311930200830004
 20
6.594515650478106
 30
0.0
 10
8.319871145923504
 20
6.615168997912179
 30
0.0
 10
8.328811168707727
 20
6.630913084279771
 30
0.0
 10
8.337716740537099
 20
6.646588268737658
 30
0.0
 10
8.347862546741158
 20
6.65874945580059
 30
0.0
 10
8.359351940184467
 20
6.667293292604009
 30
0.0
 10
8.370737980763218
 20
6.675854354884855
 30
0.0
 10
8.383777667174888
 20
6.68157321339037
 30
0.0
 10
8.398402097509774
 20
6.68446709359798
 30
0.0
 10
8.413078204276939
 20
6.687326522850737
 30
0.0
 10
8.429666339038416
 20
6.688721786522263
 30
0.0
 10
8.448235403703913
 20
6.688721786522263
 30
0.0
 10
8.467545163898738
 20
6.688721786522263
 30
0.0
 10
8.487130531732383
 20
6.68515611269503
 30
0.0
 10
8.507146536501685
 20
6.678024765040563
 30
0.0
 10
8.527162541270986
 20
6.670876191908669
 30
0.0
 10
8.546506752420663
 20
6.660988767866002
 30
0.0
 10
8.565230846382997
 20
6.648310816480283
 30
0.0
 10
8.584006616777609
 20
6.635632865094563
 30
0.0
 10
8.601628280184661
 20
6.620595023301448
 30
0.0
 10
8.618009709217025
 20
6.603300643965494
 30
0.0
 10
8.634442814681666
 20
6.585954588197261
 30
0.0
 10
8.648757186422879
 20
6.56726494518978
 30
0.0
 10
8.660866697053534
 20
6.547076685646217
 30
0.0
 10
8.672976207684187
 20
6.526905651580079
 30
0.0
 10
8.682639700520312
 20
6.50540825575212
 30
0.0
 10
8.689788273652205
 20
6.48280842936888
 30
0.0
 10
8.696954072261525
 20
6.460122475598511
 30
0.0
 10
8.700485295133905
 20
6.437350394441009
 30
0.0
 10
8.700485295133905
 20
6.414492185896377
 30
0.0
 10
8.700485295133905
 20
6.39702555178616
 30
0.0
 10
8.697401934674607
 20
6.376923419629727
 30
0.0
 10
8.69114908636888
 20
6.354254691336783
 30
0.0
 10
8.684913463540576
 20
6.331568737566413
 30
0.0
 10
8.675146617839893
 20
6.305162080671973
 30
0.0
 10
8.661917451176533
 20
6.274965818743758
 30
0.0
 10
8.648757186422879
 20
6.244804007770396
 30
0.0
 10
8.631703963770892
 20
6.210266925530767
 30
0.0
 10
8.610757783220574
 20
6.171337346547443
 30
0.0
 10
8.589932181012239
 20
6.132442218518972
 30
0.0
 10
8.565006915176456
 20
6.087759330075282
 30
0.0
 10
8.536068113100358
 20
6.037426485035782
 30
0.0
 10
8.54748860463396
 20
6.037770994584307
 30
0.0
 10
8.562061358536567
 20
6.038287758907094
 30
0.0
 10
8.579751923853324
 20
6.039011228958997
 30
0.0
 10
8.597373587260378
 20
6.039717473533473
 30
0.0
 10
8.61642496529381
 20
6.04050984549508
 30
0.0
 10
8.63671657770193
 20
6.041457246753525
 30
0.0
 10
8.657145993929463
 20
6.042352971579689
 30
0.0
 10
8.677885468750667
 20
6.043300372838133
 30
0.0
 10
8.698935002165543
 20
6.044385577915986
 30
0.0
 10
8.720001761057846
 20
6.045436332038988
 30
0.0
 10
8.739587128891491
 20
6.046555988071693
 30
0.0
 10
8.757777233053611
 20
6.047606742194695
 30
0.0
 10
8.776036239125435
 20
6.048657496317697
 30
0.0
 10
8.791814776447879
 20
6.049846054260107
 30
0.0
 10
8.80513007049837
 20
6.051103514112223
 30
0.0
 10
8.818600393845696
 20
6.052343748486914
 30
0.0
 10
8.827609318539626
 20
6.053480629997046
 30
0.0
 10
8.832260197444713
 20
6.054548609597473
 30
0.0
 10
8.845472138630646
 20
6.044575058167675
 30
0.0
 10
8.855583493879854
 20
6.03091525456866
 30
0.0
 10
8.862783743444025
 20
6.013534747845574
 30
0.0
 10
8.869915091098493
 20
5.996274819464473
 30
0.0
 10
8.8734635394483
 20
5.979238822289912
 30
0.0
 10
8.8734635394483
 20
5.962426756321893
 30
0.0
 10
8.8734635394483
 20
5.941738957932968
 30
0.0
 10
8.87029405160187
 20
5.922429197738142
 30
0.0
 10
8.86386894852188
 20
5.904618054079401
 30
0.0
 10
8.857392169009609
 20
5.886703557556102
 30
0.0
 10
8.84852104813509
 20
5.871200627872478
 30
0.0
 10
8.837066105646636
 20
5.857937010254266
 30
0.0
 10
8.825662839590459
 20
5.844742294545759
 30
0.0
 10
8.812261418152836
 20
5.834441459044862
 30
0.0
 10
8.796947968720902
 20
5.826896699932164
 30
0.0
 10
8.781565617379261
 20
5.819386391774319
 30
0.0
 10
8.764753551411241
 20
5.815631237695397
 30
0.0
 10
8.746580672726548
 20
5.815631237695397
 30
0.0
 10
8.721190319000257
 20
5.815631237695397
 30
0.0
 10
8.697401934674607
 20
5.81621690392789
 30
0.0
 10
8.675077715930188
 20
5.817284883528317
 30
0.0
 10
8.652736271708344
 20
5.818387314083597
 30
0.0
 10
8.630515405828481
 20
5.819972058006812
 30
0.0
 10
8.608363441858325
 20
5.822073566252815
 30
0.0
 10
8.629102916679528
 20
5.810635849241785
 30
0.0
 10
8.648050941848403
 20
5.795305174332423
 30
0.0
 10
8.665396997616636
 20
5.776012639615024
 30
0.0
 10
8.682674151475164
 20
5.756685653942773
 30
0.0
 10
8.69757418944887
 20
5.734016925649828
 30
0.0
 10
8.709890405808638
 20
5.707730847097372
 30
0.0
 10
8.722241073123259
 20
5.681479219499769
 30
0.0
 10
8.731801213094826
 20
5.652023653100883
 30
0.0
 10
8.73853637476849
 20
5.619329696945861
 30
0.0
 10
8.745340438351858
 20
5.586670191745693
 30
0.0
 10
8.748682180972551
 20
5.551220159202472
 30
0.0
 10
8.748682180972551
 20
5.513048501225904
 30
0.0
 10
8.748682180972551
 20
5.463749184831979
 30
0.0
 10
8.74368679251894
 20
5.412313909237199
 30
0.0
 10
8.733730466566566
 20
5.358742674441564
 30
0.0
 10
8.723739689659343
 20
5.305240341555634
 30
0.0
 10
8.709769827466655
 20
5.251496851985737
 30
0.0
 10
8.69192423285306
 20
5.197581107641577
 30
0.0
 10
8.674113089194318
 20
5.143630912342564
 30
0.0
 10
8.652736271708344
 20
5.090404187095454
 30
0.0
 10
8.627931584214544
 20
5.037900931900246
 30
0.0
 10
8.603126896720745
 20
4.985501029569597
 30
0.0
 10
8.575721162135583
 20
4.935616046943179
 30
0.0
 10
8.545679929504205
 20
4.888487140704961
 30
0.0
  0
SPLINE
  5
F4
330
3C
100
AcDbEntity
  8
Livello 1
 62
     7
420
 16777215
370
     9
100
AcDbSpline
210
0.0
220
0.0
230
1.0
 70
    11
 71
     3
 72
   200
 73
   196
 74
     0
 42
0.0000000001
 43
0.0000000001
 40
0.0
 40
0.0
 40
0.0
 40
0.0
 40
1.0
 40
1.0
 40
1.0
 40
2.0
 40
2.0
 40
2.0
 40
3.0
 40
3.0
 40
3.0
 40
4.0
 40
4.0
 40
4.0
 40
5.0
 40
5.0
 40
5.0
 40
6.0
 40
6.0
 40
6.0
 40
7.0
 40
7.0
 40
7.0
 40
8.0
 40
8.0
 40
8.0
 40
9.0
 40
9.0
 40
9.0
 40
10.0
 40
10.0
 40
10.0
 40
11.0
 40
11.0
 40
11.0
 40
12.0
 40
12.0
 40
12.0
 40
13.0
 40
13.0
 40
13.0
 40
14.0
 40
14.0
 40
14.0
 40
15.0
 40
15.0
 40
15.0
 40
16.0
 40
16.0
 40
16.0
 40
17.0
 40
17.0
 40
17.0
 40
18.0
 40
18.0
 40
18.0
 40
19.0
 40
19.0
 40
19.0
 40
20.0
 40
20.0
 40
20.0
 40
21.0
 40
21.0
 40
21.0
 40
22.0
 40
22.0
 40
22.0
 40
23.0
 40
23.0
 40
23.0
 40
24.0
 40
24.0
 40
24.0
 40
25.0
 40
25.0
 40
25.0
 40
26.0
 40
26.0
 40
26.0
 40
27.0
 40
27.0
 40
27.0
 40
28.0
 40
28.0
 40
28.0
 40
29.0
 40
29.0
 40
29.0
 40
30.0
 40
30.0
 40
30.0
 40
31.0
 40
31.0
 40
31.0
 40
32.0
 40
32.0
 40
32.0
 40
33.0
 40
33.0
 40
33.0
 40
34.0
 40
34.0
 40
34.0
 40
35.0
 40
35.0
 40
35.0
 40
36.0
 40
36.0
 40
36.0
 40
37.0
 40
37.0
 40
37.0
 40
38.0
 40
38.0
 40
38.0
 40
39.0
 40
39.0
 40
39.0
 40
40.0
 40
40.0
 40
40.0
 40
41.0
 40
41.0
 40
41.0
 40
42.0
 40
42.0
 40
42.0
 40
43.0
 40
43.0
 40
43.0
 40
44.0
 40
44.0
 40
44.0
 40
45.0
 40
45.0
 40
45.0
 40
46.0
 40
46.0
 40
46.0
 40
47.0
 40
47.0
 40
47.0
 40
48.0
 40
48.0
 40
48.0
 40
49.0
 40
49.0
 40
49.0
 40
50.0
 40
50.0
 40
50.0
 40
51.0
 40
51.0
 40
51.0
 40
52.0
 40
52.0
 40
52.0
 40
53.0
 40
53.0
 40
53.0
 40
54.0
 40
54.0
 40
54.0
 40
55.0
 40
55.0
 40
55.0
 40
56.0
 40
56.0
 40
56.0
 40
57.0
 40
57.0
 40
57.0
 40
58.0
 40
58.0
 40
58.0
 40
59.0
 40
59.0
 40
59.0
 40
60.0
 40
60.0
 40
60.0
 40
61.0
 40
61.0
 40
61.0
 40
62.0
 40
62.0
 40
62.0
 40
63.0
 40
63.0
 40
63.0
 40
64.0
 40
64.0
 40
64.0
 40
65.0
 40
65.0
 40
65.0
 40
65.0
 10
9.396015622650996
 20
5.037900931900246
 30
0.0
 10
9.371176484202344
 20
4.985501029569597
 30
0.0
 10
9.343753524139755
 20
4.935616046943179
 30
0.0
 10
9.313781193418082
 20
4.888487140704961
 30
0.0
 10
9.283739960786702
 20
4.841358234466743
 30
0.0
 10
9.25183837659329
 20
4.797777776578333
 30
0.0
 10
9.217938637018431
 20
4.757849119904288
 30
0.0
 10
9.183935544579015
 20
4.717817110365684
 30
0.0
 10
9.149071178268287
 20
4.683228351693776
 30
0.0
 10
9.113104381402279
 20
4.653876138159447
 30
0.0
 10
9.077309839310534
 20
4.624661728444528
 30
0.0
 10
9.040791827166885
 20
4.601717392512764
 30
0.0
 10
9.003619246881039
 20
4.585353188957828
 30
0.0
 10
8.966481117550046
 20
4.568954534448038
 30
0.0
 10
8.929894203496692
 20
4.560651854328587
 30
0.0
 10
8.89385850472098
 20
4.560651854328587
 30
0.0
 10
8.819220511033041
 20
4.560651854328587
 30
0.0
 10
8.76397840492706
 20
4.577395018386901
 30
0.0
 10
8.728080509970757
 20
4.610777993638972
 30
0.0
 10
8.69219984049188
 20
4.644160968891042
 30
0.0
 10
8.674250893013728
 20
4.691083169400145
 30
0.0
 10
8.674250893013728
 20
4.751441242301722
 30
0.0
 10
8.674250893013728
 20
4.765256075197574
 30
0.0
 10
8.67469875542681
 20
4.779002006183721
 30
0.0
 10
8.675577254775549
 20
4.792334525711638
 30
0.0
 10
8.676524656033994
 20
4.80573594714926
 30
0.0
 10
8.678540036892864
 20
4.821101073013474
 30
0.0
 10
8.681795652126425
 20
4.838395452349428
 30
0.0
 10
8.684982365450281
 20
4.855724282640235
 30
0.0
 10
8.689529891490812
 20
4.875843640274094
 30
0.0
 10
8.695421004770589
 20
4.898650172386448
 30
0.0
 10
8.701294892572939
 20
4.921594508318212
 30
0.0
 10
8.70914971027931
 20
4.949465330793883
 30
0.0
 10
8.718968232412271
 20
4.982503796497429
 30
0.0
 10
8.728786754545233
 20
5.015542262200976
 30
0.0
 10
8.741051294472722
 20
5.054471841184299
 30
0.0
 10
8.755692950285034
 20
5.099292533447398
 30
0.0
 10
8.77031738061992
 20
5.144078774755647
 30
0.0
 10
8.787784014730137
 20
5.19706434331879
 30
0.0
 10
8.80816175452539
 20
5.258111435317416
 30
0.0
 10
8.81706732635476
 20
5.284156357185905
 30
0.0
 10
8.82666191728118
 20
5.313474119765381
 30
0.0
 10
8.836807723485242
 20
5.345926919236435
 30
0.0
 10
8.846987980644155
 20
5.37841416966234
 30
0.0
 10
8.85747829639674
 20
5.412382811146904
 30
0.0
 10
8.86814086692359
 20
5.447936196554682
 30
0.0
 10
8.878872339360143
 20
5.483420680052755
 30
0.0
 10
8.889466007977285
 20
5.519663084557584
 30
0.0
 10
8.900025225639576
 20
5.556422253385199
 30
0.0
 10
8.910567217824441
 20
5.593181422212815
 30
0.0
 10
8.920420190912255
 20
5.628838160485151
 30
0.0
 10
8.929756399677283
 20
5.663323566292502
 30
0.0
 10
8.938954804622899
 20
5.697740070190147
 30
0.0
 10
8.947395288561761
 20
5.730158418706349
 30
0.0
 10
8.954905596719605
 20
5.7605097099314
 30
0.0
 10
8.962347002967746
 20
5.790861001156451
 30
0.0
 10
8.968307018157228
 20
5.817284883528317
 30
0.0
 10
8.972544485604086
 20
5.839781357046999
 30
0.0
 10
8.931478947419908
 20
5.841882865293001
 30
0.0
 10
8.91098062928267
 20
5.860176322319678
 30
0.0
 10
8.91098062928267
 20
5.894437796920488
 30
0.0
 10
8.91098062928267
 20
5.909802922784702
 30
0.0
 10
8.913633352806313
 20
5.925133597694064
 30
0.0
 10
8.919007701763302
 20
5.940515949035704
 30
0.0
 10
8.92434759976544
 20
5.955846623945066
 30
0.0
 10
8.931410045510203
 20
5.969678682318344
 30
0.0
 10
8.940160588042737
 20
5.982029349632964
 30
0.0
 10
8.948876679620419
 20
5.994259438605601
 30
0.0
 10
8.9589708093922
 20
6.004474146719367
 30
0.0
 10
8.970408526403231
 20
6.012535670154851
 30
0.0
 10
8.981915145323965
 20
6.020545517158058
 30
0.0
 10
8.993594019018962
 20
6.025110268676014
 30
0.0
 10
9.005789657036747
 20
6.026195473753868
 30
0.0
 10
9.007891165282748
 20
6.045436332038988
 30
0.0
 10
9.01040608498698
 20
6.068570148222441
 30
0.0
 10
9.01326551423974
 20
6.095562471349373
 30
0.0
 10
9.016124943492496
 20
6.1224858925666
 30
0.0
 10
9.019053274654958
 20
6.150683999113371
 30
0.0
 10
9.022050507727126
 20
6.180139565512256
 30
0.0
 10
9.025151093663851
 20
6.209646808343421
 30
0.0
 10
9.028079424826313
 20
6.238757865193782
 30
0.0
 10
9.03093885407907
 20
6.267489961540766
 30
0.0
 10
9.033798283331828
 20
6.29622205788775
 30
0.0
 10
9.036278752081207
 20
6.321853568298009
 30
0.0
 10
9.038483613191767
 20
6.34435004181669
 30
0.0
 10
9.043444550690527
 20
6.394992945449863
 30
0.0
 10
9.04871554678296
 20
6.438745658112535
 30
0.0
 10
9.054227699559359
 20
6.475522052417578
 30
0.0
 10
9.059774303290611
 20
6.512350123154898
 30
0.0
 10
9.066044377073766
 20
6.543493786341557
 30
0.0
 10
9.072969018999117
 20
6.568987492932405
 30
0.0
 10
9.079962562834176
 20
6.594515650478106
 30
0.0
 10
9.087920733405102
 20
6.615168997912179
 30
0.0
 10
9.096809079757048
 20
6.630913084279771
 30
0.0
 10
9.105766328018696
 20
6.646588268737658
 30
0.0
 10
9.115929359700184
 20
6.65874945580059
 30
0.0
 10
9.127367076711213
 20
6.667293292604009
 30
0.0
 10
9.13877034276739
 20
6.675854354884855
 30
0.0
 10
9.151792803701634
 20
6.68157321339037
 30
0.0
 10
9.166468910468799
 20
6.68446709359798
 30
0.0
 10
9.181076115326258
 20
6.687326522850737
 30
0.0
 10
9.19764702461031
 20
6.688721786522263
 30
0.0
 10
9.216284991185512
 20
6.688721786522263
 30
0.0
 10
9.23557752590291
 20
6.688721786522263
 30
0.0
 10
9.255180119213982
 20
6.68515611269503
 30
0.0
 10
9.275230574938137
 20
6.678024765040563
 30
0.0
 10
9.29514322684288
 20
6.670876191908669
 30
0.0
 10
9.314539114424838
 20
6.660988767866002
 30
0.0
 10
9.333280433864596
 20
6.648310816480283
 30
0.0
 10
9.351987302349503
 20
6.635632865094563
 30
0.0
 10
9.369591740279128
 20
6.620595023301448
 30
0.0
 10
9.385990394788918
 20
6.603300643965494
 30
0.0
 10
9.402492402163265
 20
6.585954588197261
 30
0.0
 10
9.416789548427053
 20
6.56726494518978
 30
0.0
 10
9.42891628453513
 20
6.547076685646217
 30
0.0
 10
9.44104302064321
 20
6.526905651580079
 30
0.0
 10
9.450723738956762
 20
6.50540825575212
 30
0.0
 10
9.457820635656377
 20
6.48280842936888
 30
0.0
 10
9.464986434265697
 20
6.460122475598511
 30
0.0
 10
9.468569333570358
 20
6.437350394441009
 30
0.0
 10
9.468569333570358
 20
6.414492185896377
 30
0.0
 10
9.468569333570358
 20
6.39702555178616
 30
0.0
 10
9.46543429667878
 20
6.376923419629727
 30
0.0
 10
9.459164222895625
 20
6.354254691336783
 30
0.0
 10
9.452928600067322
 20
6.331568737566413
 30
0.0
 10
9.443213430798918
 20
6.305162080671973
 30
0.0
 10
9.429984264135559
 20
6.274965818743758
 30
0.0
 10
9.416789548427053
 20
6.244804007770396
 30
0.0
 10
9.399701874820213
 20
6.210266925530767
 30
0.0
 10
9.378824596179598
 20
6.171337346547443
 30
0.0
 10
9.357981768493838
 20
6.132442218518972
 30
0.0
 10
9.333004826225777
 20
6.087759330075282
 30
0.0
 10
9.30410047510453
 20
6.037426485035782
 30
0.0
 10
9.31553819211556
 20
6.037770994584307
 30
0.0
 10
9.330076495063313
 20
6.038287758907094
 30
0.0
 10
9.347749834902645
 20
6.039011228958997
 30
0.0
 10
9.365457625696829
 20
6.039717473533473
 30
0.0
 10
9.384474552775409
 20
6.04050984549508
 30
0.0
 10
9.404800616138383
 20
6.041457246753525
 30
0.0
 10
9.425126679501357
 20
6.042352971579689
 30
0.0
 10
9.445831703367707
 20
6.043300372838133
 30
0.0
 10
9.466915687737437
 20
6.044385577915986
 30
0.0
 10
9.487999672107167
 20
6.045436332038988
 30
0.0
 10
9.50763671637309
 20
6.046555988071693
 30
0.0
 10
9.525861271490061
 20
6.047606742194695
 30
0.0
 10
9.544016924697328
 20
6.048657496317697
 30
0.0
 10
9.55989881488433
 20
6.049846054260107
 30
0.0
 10
9.573231334412247
 20
6.051103514112223
 30
0.0
 10
9.58663275584987
 20
6.052343748486914
 30
0.0
 10
9.595658906021223
 20
6.053480629997046
 30
0.0
 10
9.600275333971458
 20
6.054548609597473
 30
0.0
 10
9.613573402544523
 20
6.044575058167675
 30
0.0
 10
9.623667532316304
 20
6.03091525456866
 30
0.0
 10
9.630833330925624
 20
6.013534747845574
 30
0.0
 10
9.637964678580092
 20
5.996274819464473
 30
0.0
 10
9.641582028839604
 20
5.979238822289912
 30
0.0
 10
9.641582028839604
 20
5.962426756321893
 30
0.0
 10
9.641582028839604
 20
5.941738957932968
 30
0.0
 10
9.63834363908347
 20
5.922429197738142
 30
0.0
 10
9.631935761480904
 20
5.904618054079401
 30
0.0
 10
9.625493432923488
 20
5.886703557556102
 30
0.0
 10
9.616536184661838
 20
5.871200627872478
 30
0.0
 10
9.60513291860566
 20
5.857937010254266
 30
0.0
 10
9.593695201594631
 20
5.844742294545759
 30
0.0
 10
9.580293780157008
 20
5.834441459044862
 30
0.0
 10
9.564963105247648
 20
5.826896699932164
 30
0.0
 10
9.549597979383433
 20
5.819386391774319
 30
0.0
 10
9.532820364370266
 20
5.815631237695397
 30
0.0
 10
9.514595809253295
 20
5.815631237695397
 30
0.0
 10
9.489274357436708
 20
5.815631237695397
 30
0.0
 10
9.46543429667878
 20
5.81621690392789
 30
0.0
 10
9.443075626979509
 20
5.817284883528317
 30
0.0
 10
9.420785859189941
 20
5.818387314083597
 30
0.0
 10
9.398496091400375
 20
5.819972058006812
 30
0.0
 10
9.376378578385072
 20
5.822073566252815
 30
0.0
 10
9.397152504161127
 20
5.810635849241785
 30
0.0
 10
9.416169431239707
 20
5.795305174332423
 30
0.0
 10
9.433498261530513
 20
5.776012639615024
 30
0.0
 10
9.450758189911616
 20
5.756685653942773
 30
0.0
 10
9.465641002407894
 20
5.734016925649828
 30
0.0
 10
9.477939993290237
 20
5.707730847097372
 30
0.0
 10
9.490273435127431
 20
5.681479219499769
 30
0.0
 10
9.499747447711869
 20
5.652023653100883
 30
0.0
 10
9.506603187727515
 20
5.619329696945861
 30
0.0
 10
9.513321123923753
 20
5.586670191745693
 30
0.0
 10
9.516662866544445
 20
5.551220159202472
 30
0.0
 10
9.516662866544445
 20
5.513048501225904
 30
0.0
 10
9.516662866544445
 20
5.463749184831979
 30
0.0
 10
9.511701929045685
 20
5.412313909237199
 30
0.0
 10
9.501745603093314
 20
5.358742674441564
 30
0.0
 10
9.491754826186089
 20
5.305240341555634
 30
0.0
 10
9.477836640425679
 20
5.251496851985737
 30
0.0
 10
9.459991045812085
 20
5.197581107641577
 30
0.0
 10
9.442111000243639
 20
5.143630912342564
 30
0.0
 10
9.420785859189941
 20
5.090404187095454
 30
0.0
 10
9.396015622650996
 20
5.037900931900246
 30
0.0
  0
SPLINE
  5
F5
330
3C
100
AcDbEntity
  8
Livello 1
 62
     7
420
 16777215
370
     9
100
AcDbSpline
210
0.0
220
0.0
230
1.0
 70
    11
 71
     3
 72
    56
 73
    52
 74
     0
 42
0.0000000001
 43
0.0000000001
 40
0.0
 40
0.0
 40
0.0
 40
0.0
 40
1.0
 40
1.0
 40
1.0
 40
2.0
 40
2.0
 40
2.0
 40
3.0
 40
3.0
 40
3.0
 40
4.0
 40
4.0
 40
4.0
 40
5.0
 40
5.0
 40
5.0
 40
6.0
 40
6.0
 40
6.0
 40
7.0
 40
7.0
 40
7.0
 40
8.0
 40
8.0
 40
8.0
 40
9.0
 40
9.0
 40
9.0
 40
10.0
 40
10.0
 40
10.0
 40
11.0
 40
11.0
 40
11.0
 40
12.0
 40
12.0
 40
12.0
 40
13.0
 40
13.0
 40
13.0
 40
14.0
 40
14.0
 40
14.0
 40
15.0
 40
15.0
 40
15.0
 40
16.0
 40
16.0
 40
16.0
 40
17.0
 40
17.0
 40
17.0
 40
17.0
 10
8.898888344129444
 20
10.92672322317978
 30
0.0
 10
7.388696287215326
 20
10.92672322317978
 30
0.0
 10
6.03491156533155
 20
10.25723781753118
 30
0.0
 10
5.118119980274289
 20
9.198852808030146
 30
0.0
 10
4.358459200299274
 20
8.321920977737227
 30
0.0
 10
3.89881456065724
 20
7.177977021860019
 30
0.0
 10
3.89881456065724
 20
5.926701116139852
 30
0.0
 10
3.89881456065724
 20
3.208348523503468
 30
0.0
 10
6.0680189329448
 20
0.9967005748376303
 30
0.0
 10
8.76981784177456
 20
0.9282120765908636
 30
0.0
 10
8.812709280565919
 20
0.9271440969904361
 30
0.0
 10
8.855721297699263
 20
0.9265928817127962
 30
0.0
 10
8.898888344129444
 20
0.9265928817127962
 30
0.0
 10
9.287219507226805
 20
0.9265928817127962
 30
0.0
 10
9.665215383868418
 20
0.9708623586982565
 30
0.0
 10
10.02805284037493
 20
1.05461262994468
 30
0.0
 10
10.10866807472978
 20
1.073216145565029
 30
0.0
 10
10.18859428998757
 20
1.093817816566823
 30
0.0
 10
10.26765923137406
 20
1.116279839130652
 30
0.0
 10
10.38630831988606
 20
1.149972872976396
 30
0.0
 10
10.50313150779088
 20
1.187937825223849
 30
0.0
 10
10.61802544222397
 20
1.230002441098749
 30
0.0
 10
10.69460991486107
 20
1.258045518348683
 30
0.0
 10
10.77029866267201
 20
1.287880045250946
 30
0.0
 10
10.84505723470193
 20
1.31950602180554
 30
0.0
 10
10.95719509274681
 20
1.366910535682578
 30
0.0
 10
11.0673003444554
 20
1.41838026223221
 30
0.0
 10
11.17509738218886
 20
1.473605142860765
 30
0.0
 10
11.28289441992233
 20
1.52883002348932
 30
0.0
 10
11.38845214559039
 20
1.58784450915165
 30
0.0
 10
11.49149495155421
 20
1.650476345073492
 30
0.0
 10
11.525877004497
 20
1.671353623714106
 30
0.0
 10
11.55994899884612
 20
1.69264431381295
 30
0.0
 10
11.59377983651128
 20
1.714279513460319
 30
0.0
 10
11.66140706088673
 20
1.757687716574467
 30
0.0
 10
11.7279318547069
 20
1.802611761702125
 30
0.0
 10
11.79328531606209
 20
1.849086099798145
 30
0.0
 10
11.92399223877247
 20
1.942034775990186
 30
0.0
 10
12.05001383162291
 20
2.041081271191119
 30
0.0
 10
12.17097113411003
 20
2.145881075852418
 30
0.0
 10
12.23143255987617
 20
2.198246527228216
 30
0.0
 10
12.29065375126761
 20
2.252093369662671
 30
0.0
 10
12.34853135541981
 20
2.307283799336374
 30
0.0
 10
13.30364962775048
 20
3.21789143799761
 30
0.0
 10
13.89882432378224
 20
4.502808701131242
 30
0.0
 10
13.89882432378224
 20
5.926701116139852
 30
0.0
 10
13.89882432378224
 20
5.926701116139852
 30
0.0
 10
13.89882432378224
 20
5.926718341617279
 30
0.0
 10
13.89882432378224
 20
5.926718341617279
 30
0.0
 10
13.89882432378224
 20
8.688151853296711
 30
0.0
 10
11.66023572842175
 20
10.92672322317978
 30
0.0
 10
8.898888344129444
 20
10.92672322317978
 30
0.0
  0
SPLINE
  5
F6
330
3C
100
AcDbEntity
  8
Livello 1
 62
     7
420
 16777215
370
     9
100
AcDbSpline
210
0.0
220
0.0
230
1.0
 70
    11
 71
     3
 72
    29
 73
    25
 74
     0
 42
0.0000000001
 43
0.0000000001
 40
0.0
 40
0.0
 40
0.0
 40
0.0
 40
1.0
 40
1.0
 40
1.0
 40
2.0
 40
2.0
 40
2.0
 40
3.0
 40
3.0
 40
3.0
 40
4.0
 40
4.0
 40
4.0
 40
5.0
 40
5.0
 40
5.0
 40
6.0
 40
6.0
 40
6.0
 40
7.0
 40
7.0
 40
7.0
 40
8.0
 40
8.0
 40
8.0
 40
8.0
 10
12.32086723867326
 20
2.504618868731484
 30
0.0
 10
11.40681450452677
 20
1.590566134584997
 30
0.0
 10
10.19148817019518
 20
1.087134331325438
 30
0.0
 10
8.898888344129444
 20
1.087134331325438
 30
0.0
 10
7.606150714244295
 20
1.087134331325438
 30
0.0
 10
6.39082437991271
 20
1.590566134584997
 30
0.0
 10
5.47678887124365
 20
2.504618868731484
 30
0.0
 10
4.562718911619736
 20
3.418706053832823
 30
0.0
 10
4.05937323574731
 20
4.633997937209556
 30
0.0
 10
4.05937323574731
 20
5.926718341617279
 30
0.0
 10
4.05937323574731
 20
7.219387069592722
 30
0.0
 10
4.562718911619736
 20
8.434696178446881
 30
0.0
 10
5.47678887124365
 20
9.348748912593368
 30
0.0
 10
6.39082437991271
 20
10.26281887221728
 30
0.0
 10
7.606150714244295
 20
10.76619899904456
 30
0.0
 10
8.898888344129444
 20
10.76619899904456
 30
0.0
 10
10.19148817019518
 20
10.76619899904456
 30
0.0
 10
11.40681450452677
 20
10.26281887221728
 30
0.0
 10
12.32086723867326
 20
9.348748912593368
 30
0.0
 10
13.23491997281974
 20
8.434696178446881
 30
0.0
 10
13.7382828741696
 20
7.219387069592722
 30
0.0
 10
13.7382828741696
 20
5.926718341617279
 30
0.0
 10
13.7382828741696
 20
4.633997937209556
 30
0.0
 10
13.23491997281974
 20
3.418706053832823
 30
0.0
 10
12.32086723867326
 20
2.504618868731484
 30
0.0
  0
POLYLINE
  5
F7
330
3C
100
AcDbEntity
  8
Livello 1
 62
     7
420
 16777215
370
     9
100
AcDb2dPolyline
 66
     1
 10
0.0
 20
0.0
 30
0.0
  0
VERTEX
  5
F8
330
F7
100
AcDbEntity
  8
Livello 1
 62
     7
420
 16777215
370
     9
100
AcDbVertex
100
AcDb2dVertex
 10
11.99110269882514
 20
8.867606877123375
 30
0.0
  0
VERTEX
  5
F9
330
F7
100
AcDbEntity
  8
Livello 1
 62
     7
420
 16777215
370
     9
100
AcDbVertex
100
AcDb2dVertex
 10
12.12143066103214
 20
8.989632159210924
 30
0.0
  0
VERTEX
  5
FA
330
F7
100
AcDbEntity
  8
Livello 1
 62
     7
420
 16777215
370
     9
100
AcDbVertex
100
AcDb2dVertex
 10
12.08298339541675
 20
9.03066324644025
 30
0.0
  0
VERTEX
  5
FB
330
F7
100
AcDbEntity
  8
Livello 1
 62
     7
420
 16777215
370
     9
100
AcDbVertex
100
AcDb2dVertex
 10
11.77623209341011
 20
8.743445635834972
 30
0.0
  0
VERTEX
  5
FC
330
F7
100
AcDbEntity
  8
Livello 1
 62
     7
420
 16777215
370
     9
100
AcDbVertex
100
AcDb2dVertex
 10
11.81457600616094
 20
8.702397323128219
 30
0.0
  0
VERTEX
  5
FD
330
F7
100
AcDbEntity
  8
Livello 1
 62
     7
420
 16777215
370
     9
100
AcDbVertex
100
AcDb2dVertex
 10
11.95393011853929
 20
8.832811412722352
 30
0.0
  0
VERTEX
  5
FE
330
F7
100
AcDbEntity
  8
Livello 1
 62
     7
420
 16777215
370
     9
100
AcDbVertex
100
AcDb2dVertex
 10
12.00112792668722
 20
8.782409665773146
 30
0.0
  0
VERTEX
  5
FF
330
F7
100
AcDbEntity
  8
Livello 1
 62
     7
420
 16777215
370
     9
100
AcDbVertex
100
AcDb2dVertex
 10
11.86184271621857
 20
8.651978350701588
 30
0.0
  0
VERTEX
  5
100
330
F7
100
AcDbEntity
  8
Livello 1
 62
     7
420
 16777215
370
     9
100
AcDbVertex
100
AcDb2dVertex
 10
11.9001866289694
 20
8.610930037994835
 30
0.0
  0
VERTEX
  5
101
330
F7
100
AcDbEntity
  8
Livello 1
 62
     7
420
 16777215
370
     9
100
AcDbVertex
100
AcDb2dVertex
 10
12.2070412838406
 20
8.898182099554967
 30
0.0
  0
VERTEX
  5
102
330
F7
100
AcDbEntity
  8
Livello 1
 62
     7
420
 16777215
370
     9
100
AcDbVertex
100
AcDb2dVertex
 10
12.16862846918006
 20
8.939195961306867
 30
0.0
  0
VERTEX
  5
103
330
F7
100
AcDbEntity
  8
Livello 1
 62
     7
420
 16777215
370
     9
100
AcDbVertex
100
AcDb2dVertex
 10
12.03826605601821
 20
8.81720513017417
 30
0.0
  0
VERTEX
  5
104
330
F7
100
AcDbEntity
  8
Livello 1
 62
     7
420
 16777215
370
     9
100
AcDbVertex
100
AcDb2dVertex
 10
11.99110269882514
 20
8.867606877123375
 30
0.0
  0
SEQEND
  5
105
330
F7
100
AcDbEntity
  8
Livello 1
370
     9
  0
POLYLINE
  5
106
330
3C
100
AcDbEntity
  8
Livello 1
 62
     7
420
 16777215
370
     9
100
AcDb2dPolyline
 66
     1
 10
0.0
 20
0.0
 30
0.0
  0
VERTEX
  5
107
330
106
100
AcDbEntity
  8
Livello 1
 62
     7
420
 16777215
370
     9
100
AcDbVertex
100
AcDb2dVertex
 10
11.97770127738752
 20
8.520324026732766
 30
0.0
  0
VERTEX
  5
108
330
106
100
AcDbEntity
  8
Livello 1
 62
     7
420
 16777215
370
     9
100
AcDbVertex
100
AcDb2dVertex
 10
12.29709607982503
 20
8.793451196803373
 30
0.0
  0
VERTEX
  5
109
330
106
100
AcDbEntity
  8
Livello 1
 62
     7
420
 16777215
370
     9
100
AcDbVertex
100
AcDb2dVertex
 10
12.26057806768138
 20
8.836153155343045
 30
0.0
  0
VERTEX
  5
10A
330
106
100
AcDbEntity
  8
Livello 1
 62
     7
420
 16777215
370
     9
100
AcDbVertex
100
AcDb2dVertex
 10
11.94114881428902
 20
8.562991534317584
 30
0.0
  0
VERTEX
  5
10B
330
106
100
AcDbEntity
  8
Livello 1
 62
     7
420
 16777215
370
     9
100
AcDbVertex
100
AcDb2dVertex
 10
11.97770127738752
 20
8.520324026732766
 30
0.0
  0
SEQEND
  5
10C
330
106
100
AcDbEntity
  8
Livello 1
370
     9
  0
POLYLINE
  5
10D
330
3C
100
AcDbEntity
  8
Livello 1
 62
     7
420
 16777215
370
     9
100
AcDb2dPolyline
 66
     1
 10
0.0
 20
0.0
 30
0.0
  0
VERTEX
  5
10E
330
10D
100
AcDbEntity
  8
Livello 1
 62
     7
420
 16777215
370
     9
100
AcDbVertex
100
AcDb2dVertex
 10
12.10141465626284
 20
8.367137855981131
 30
0.0
  0
VERTEX
  5
10F
330
10D
100
AcDbEntity
  8
Livello 1
 62
     7
420
 16777215
370
     9
100
AcDbVertex
100
AcDb2dVertex
 10
12.14130886198203
 20
8.398815508968005
 30
0.0
  0
VERTEX
  5
110
330
10D
100
AcDbEntity
  8
Livello 1
 62
     7
420
 16777215
370
     9
100
AcDbVertex
100
AcDb2dVertex
 10
12.09328423091765
 20
8.459328611166418
 30
0.0
  0
VERTEX
  5
111
330
10D
100
AcDbEntity
  8
Livello 1
 62
     7
420
 16777215
370
     9
100
AcDbVertex
100
AcDb2dVertex
 10
12.38260334976893
 20
8.688961450735745
 30
0.0
  0
VERTEX
  5
112
330
10D
100
AcDbEntity
  8
Livello 1
 62
     7
420
 16777215
370
     9
100
AcDbVertex
100
AcDb2dVertex
 10
12.34760117963879
 20
8.732955320082386
 30
0.0
  0
VERTEX
  5
113
330
10D
100
AcDbEntity
  8
Livello 1
 62
     7
420
 16777215
370
     9
100
AcDbVertex
100
AcDb2dVertex
 10
12.01845675697802
 20
8.471679278481037
 30
0.0
  0
VERTEX
  5
114
330
10D
100
AcDbEntity
  8
Livello 1
 62
     7
420
 16777215
370
     9
100
AcDbVertex
100
AcDb2dVertex
 10
12.10141465626284
 20
8.367137855981131
 30
0.0
  0
SEQEND
  5
115
330
10D
100
AcDbEntity
  8
Livello 1
370
     9
  0
SPLINE
  5
116
330
3C
100
AcDbEntity
  8
Livello 1
 62
     7
420
 16777215
370
     9
100
AcDbSpline
210
0.0
220
0.0
230
1.0
 70
    11
 71
     3
 72
    38
 73
    34
 74
     0
 42
0.0000000001
 43
0.0000000001
 40
0.0
 40
0.0
 40
0.0
 40
0.0
 40
1.0
 40
1.0
 40
1.0
 40
2.0
 40
2.0
 40
2.0
 40
3.0
 40
3.0
 40
3.0
 40
4.0
 40
4.0
 40
4.0
 40
5.0
 40
5.0
 40
5.0
 40
6.0
 40
6.0
 40
6.0
 40
7.0
 40
7.0
 40
7.0
 40
8.0
 40
8.0
 40
8.0
 40
9.0
 40
9.0
 40
9.0
 40
10.0
 40
10.0
 40
10.0
 40
11.0
 40
11.0
 40
11.0
 40
11.0
 10
9.948161076071987
 20
5.432950031193846
 30
0.0
 10
9.953363170254715
 20
5.426748859320396
 30
0.0
 10
9.959392087353901
 20
5.422683646647801
 30
0.0
 10
9.966385631188958
 20
5.420892196995471
 30
0.0
 10
9.973379175024016
 20
5.419169649252846
 30
0.0
 10
9.980579424588187
 20
5.418239473471829
 30
0.0
 10
9.988124183700885
 20
5.418239473471829
 30
0.0
 10
10.0034893095651
 20
5.418239473471829
 30
0.0
 10
10.01857882779049
 20
5.423234861925441
 30
0.0
 10
10.03359944410618
 20
5.433225638832665
 30
0.0
 10
10.04858560946702
 20
5.443250866694743
 30
0.0
 10
10.0627449519114
 20
5.456652288132364
 30
0.0
 10
10.07597411857476
 20
5.473361001235826
 30
0.0
 10
10.07597411857476
 20
5.473361001235826
 30
0.0
 10
10.14608181169959
 20
5.929801702076577
 30
0.0
 10
10.14608181169959
 20
5.929801702076577
 30
0.0
 10
10.1185899497273
 20
5.912266166056655
 30
0.0
 10
10.09202826353602
 20
5.888391654343874
 30
0.0
 10
10.0662244983515
 20
5.858247068847938
 30
0.0
 10
10.04059298794124
 20
5.828102483352001
 30
0.0
 10
10.01771755391918
 20
5.794099390912586
 30
0.0
 10
9.997701549149879
 20
5.756203340574838
 30
0.0
 10
9.977754446290282
 20
5.718410643101647
 30
0.0
 10
9.961631399419314
 20
5.678206378788781
 30
0.0
 10
9.949470212356381
 20
5.635693900500798
 30
0.0
 10
9.937377927203155
 20
5.593215873167668
 30
0.0
 10
9.931280108194263
 20
5.550703394879685
 30
0.0
 10
9.931280108194263
 20
5.508225367546554
 30
0.0
 10
9.931280108194263
 20
5.48789930418358
 30
0.0
 10
9.932795950207773
 20
5.471845159222316
 30
0.0
 10
9.935827634234792
 20
5.460028481707909
 30
0.0
 10
9.93896267112637
 20
5.448211804193503
 30
0.0
 10
9.943027883798965
 20
5.439185654022148
 30
0.0
 10
9.948161076071987
 20
5.432950031193846
 30
0.0
  0
SPLINE
  5
117
330
3C
100
AcDbEntity
  8
Livello 1
 62
     7
420
 16777215
370
     9
100
AcDbSpline
210
0.0
220
0.0
230
1.0
 70
    11
 71
     3
 72
    29
 73
    25
 74
     0
 42
0.0000000001
 43
0.0000000001
 40
0.0
 40
0.0
 40
0.0
 40
0.0
 40
1.0
 40
1.0
 40
1.0
 40
2.0
 40
2.0
 40
2.0
 40
3.0
 40
3.0
 40
3.0
 40
4.0
 40
4.0
 40
4.0
 40
5.0
 40
5.0
 40
5.0
 40
6.0
 40
6.0
 40
6.0
 40
7.0
 40
7.0
 40
7.0
 40
8.0
 40
8.0
 40
8.0
 40
8.0
 10
12.4586366071284
 20
8.031034340440158
 30
0.0
 10
12.84414279192785
 20
7.204228649457623
 30
0.0
 10
12.98752766602395
 20
6.225235865414176
 30
0.0
 10
12.80910617084286
 20
5.22107665885098
 30
0.0
 10
12.63075357757148
 20
4.216900226810358
 30
0.0
 10
12.15891329991166
 20
3.347151420604184
 30
0.0
 10
11.51213107351085
 20
2.703745387778925
 30
0.0
 10
11.78739420278232
 20
2.927332084771639
 30
0.0
 10
12.03447645098444
 20
3.186541069081837
 30
0.0
 10
12.24583305900451
 20
3.475860187933118
 30
0.0
 10
12.05311441755964
 20
3.16562933948637
 30
0.0
 10
11.82839083905679
 20
2.883303764470146
 30
0.0
 10
11.57796684823398
 20
2.63418890993173
 30
0.0
 10
12.34105549821682
 20
3.253996038683029
 30
0.0
 10
12.89357991214119
 20
4.140488008947517
 30
0.0
 10
13.07906385306704
 20
5.184420842887922
 30
0.0
 10
13.26451334303804
 20
6.228405353260607
 30
0.0
 10
13.05115857963652
 20
7.250858016850479
 30
0.0
 10
12.54831244260945
 20
8.095629880788591
 30
0.0
 10
12.7144349469082
 20
7.739338105704054
 30
0.0
 10
12.8364946799506
 20
7.355416664827812
 30
0.0
 10
12.90884168514084
 20
6.953666854815403
 30
0.0
 10
12.80986409184962
 20
7.334504935232346
 30
0.0
 10
12.65745306758216
 20
7.697032333145186
 30
0.0
 10
12.4586366071284
 20
8.031034340440158
 30
0.0
  0
POLYLINE
  5
118
330
3C
100
AcDbEntity
  8
Livello 1
 62
     7
420
 16777215
370
     9
100
AcDb2dPolyline
 66
     1
 10
0.0
 20
0.0
 30
0.0
  0
VERTEX
  5
119
330
118
100
AcDbEntity
  8
Livello 1
 62
     7
420
 16777215
370
     9
100
AcDbVertex
100
AcDb2dVertex
 10
12.20521538323342
 20
8.224820961485461
 30
0.0
  0
VERTEX
  5
11A
330
118
100
AcDbEntity
  8
Livello 1
 62
     7
420
 16777215
370
     9
100
AcDbVertex
100
AcDb2dVertex
 10
12.246418725237
 20
8.254707164820003
 30
0.0
  0
VERTEX
  5
11B
330
118
100
AcDbEntity
  8
Livello 1
 62
     7
420
 16777215
370
     9
100
AcDbVertex
100
AcDb2dVertex
 10
12.20108126865112
 20
8.31727009883214
 30
0.0
  0
VERTEX
  5
11C
330
118
100
AcDbEntity
  8
Livello 1
 62
     7
420
 16777215
370
     9
100
AcDbVertex
100
AcDb2dVertex
 10
12.5001155567708
 20
8.53408718319634
 30
0.0
  0
VERTEX
  5
11D
330
118
100
AcDbEntity
  8
Livello 1
 62
     7
420
 16777215
370
     9
100
AcDbVertex
100
AcDb2dVertex
 10
12.46714599297696
 20
8.57959689455649
 30
0.0
  0
VERTEX
  5
11E
330
118
100
AcDbEntity
  8
Livello 1
 62
     7
420
 16777215
370
     9
100
AcDbVertex
100
AcDb2dVertex
 10
12.12687391189884
 20
8.332859155902895
 30
0.0
  0
VERTEX
  5
11F
330
118
100
AcDbEntity
  8
Livello 1
 62
     7
420
 16777215
370
     9
100
AcDbVertex
100
AcDb2dVertex
 10
12.20521538323342
 20
8.224820961485461
 30
0.0
  0
SEQEND
  5
120
330
118
100
AcDbEntity
  8
Livello 1
370
     9
  0
POLYLINE
  5
121
330
3C
100
AcDbEntity
  8
Livello 1
 62
     7
420
 16777215
370
     9
100
AcDb2dPolyline
 66
     1
 10
0.0
 20
0.0
 30
0.0
  0
VERTEX
  5
122
330
121
100
AcDbEntity
  8
Livello 1
 62
     7
420
 16777215
370
     9
100
AcDbVertex
100
AcDb2dVertex
 10
10.86703694389782
 20
2.475266655197155
 30
0.0
  0
VERTEX
  5
123
330
121
100
AcDbEntity
  8
Livello 1
 62
     7
420
 16777215
370
     9
100
AcDbVertex
100
AcDb2dVertex
 10
10.94124430065011
 20
2.233972167410257
 30
0.0
  0
VERTEX
  5
124
330
121
100
AcDbEntity
  8
Livello 1
 62
     7
420
 16777215
370
     9
100
AcDbVertex
100
AcDb2dVertex
 10
10.77591416831297
 20
2.42472710442854
 30
0.0
  0
VERTEX
  5
125
330
121
100
AcDbEntity
  8
Livello 1
 62
     7
420
 16777215
370
     9
100
AcDbVertex
100
AcDb2dVertex
 10
10.72165391442028
 20
2.394685871797162
 30
0.0
  0
VERTEX
  5
126
330
121
100
AcDbEntity
  8
Livello 1
 62
     7
420
 16777215
370
     9
100
AcDbVertex
100
AcDb2dVertex
 10
10.92543131237281
 20
2.027059732566152
 30
0.0
  0
VERTEX
  5
127
330
121
100
AcDbEntity
  8
Livello 1
 62
     7
420
 16777215
370
     9
100
AcDbVertex
100
AcDb2dVertex
 10
10.97459282494732
 20
2.054310437854478
 30
0.0
  0
VERTEX
  5
128
330
121
100
AcDbEntity
  8
Livello 1
 62
     7
420
 16777215
370
     9
100
AcDbVertex
100
AcDb2dVertex
 10
10.83606553548543
 20
2.292090928246421
 30
0.0
  0
VERTEX
  5
129
330
121
100
AcDbEntity
  8
Livello 1
 62
     7
420
 16777215
370
     9
100
AcDbVertex
100
AcDb2dVertex
 10
10.96942518171945
 20
2.138439669604279
 30
0.0
  0
VERTEX
  5
12A
330
121
100
AcDbEntity
  8
Livello 1
 62
     7
420
 16777215
370
     9
100
AcDbVertex
100
AcDb2dVertex
 10
11.00728678110234
 20
2.159489203019155
 30
0.0
  0
VERTEX
  5
12B
330
121
100
AcDbEntity
  8
Livello 1
 62
     7
420
 16777215
370
     9
100
AcDbVertex
100
AcDb2dVertex
 10
10.94765217825267
 20
2.353964843161509
 30
0.0
  0
VERTEX
  5
12C
330
121
100
AcDbEntity
  8
Livello 1
 62
     7
420
 16777215
370
     9
100
AcDbVertex
100
AcDb2dVertex
 10
11.07594753412337
 20
2.110499945218903
 30
0.0
  0
VERTEX
  5
12D
330
121
100
AcDbEntity
  8
Livello 1
 62
     7
420
 16777215
370
     9
100
AcDbVertex
100
AcDb2dVertex
 10
11.12510904669789
 20
2.137750650507229
 30
0.0
  0
VERTEX
  5
12E
330
121
100
AcDbEntity
  8
Livello 1
 62
     7
420
 16777215
370
     9
100
AcDbVertex
100
AcDb2dVertex
 10
10.92129719779051
 20
2.505307887828534
 30
0.0
  0
VERTEX
  5
12F
330
121
100
AcDbEntity
  8
Livello 1
 62
     7
420
 16777215
370
     9
100
AcDbVertex
100
AcDb2dVertex
 10
10.86703694389782
 20
2.475266655197155
 30
0.0
  0
SEQEND
  5
130
330
121
100
AcDbEntity
  8
Livello 1
370
     9
  0
SPLINE
  5
131
330
3C
100
AcDbEntity
  8
Livello 1
 62
     7
420
 16777215
370
     9
100
AcDbSpline
210
0.0
220
0.0
230
1.0
 70
    11
 71
     3
 72
    32
 73
    28
 74
     0
 42
0.0000000001
 43
0.0000000001
 40
0.0
 40
0.0
 40
0.0
 40
0.0
 40
1.0
 40
1.0
 40
1.0
 40
2.0
 40
2.0
 40
2.0
 40
3.0
 40
3.0
 40
3.0
 40
4.0
 40
4.0
 40
4.0
 40
5.0
 40
5.0
 40
5.0
 40
6.0
 40
6.0
 40
6.0
 40
7.0
 40
7.0
 40
7.0
 40
8.0
 40
8.0
 40
8.0
 40
9.0
 40
9.0
 40
9.0
 40
9.0
 10
10.0290174671108
 20
3.700170354977735
 30
0.0
 10
10.00748562032799
 20
3.479270832463516
 30
0.0
 10
9.99136257345702
 20
3.00512234082858
 30
0.0
 10
9.657257213297491
 20
2.606421440320617
 30
0.0
 10
9.738044702426599
 20
2.595707193361489
 30
0.0
 10
9.770394149033095
 20
2.590298393449647
 30
0.0
 10
9.770394149033095
 20
2.590298393449647
 30
0.0
 10
9.716512855643789
 20
2.482570257625885
 30
0.0
 10
9.635725366514679
 20
2.245478786330991
 30
0.0
 10
9.635725366514679
 20
2.153942599287903
 30
0.0
 10
9.759645451119116
 20
2.240069986419149
 30
0.0
 10
9.894383135547237
 20
2.337083875283784
 30
0.0
 10
9.894383135547237
 20
2.337083875283784
 30
0.0
 10
9.88890543372569
 20
2.256261935199823
 30
0.0
 10
9.88890543372569
 20
2.15928249729004
 30
0.0
 10
9.88890543372569
 20
2.15928249729004
 30
0.0
 10
10.06674126267429
 20
2.428654513281725
 30
0.0
 10
10.25525688762716
 20
2.725036077877768
 30
0.0
 10
10.25525688762716
 20
2.725036077877768
 30
0.0
 10
10.19066134727872
 20
2.708844129097094
 30
0.0
 10
10.09368190936894
 20
2.687312282314283
 30
0.0
 10
10.09368190936894
 20
2.687312282314283
 30
0.0
 10
10.38999457205528
 20
2.983590494045769
 30
0.0
 10
10.74559732804277
 20
3.166766220996503
 30
0.0
 10
10.70246473256744
 20
4.168875595745975
 30
0.0
 10
10.54616075040165
 20
3.710919052891714
 30
0.0
 10
10.23379394275405
 20
3.710919052891714
 30
0.0
 10
10.0290174671108
 20
3.700170354977735
 30
0.0
  0
SPLINE
  5
132
330
3C
100
AcDbEntity
  8
Livello 1
 62
     7
420
 16777215
370
     9
100
AcDbSpline
210
0.0
220
0.0
230
1.0
 70
    11
 71
     3
 72
    50
 73
    46
 74
     0
 42
0.0000000001
 43
0.0000000001
 40
0.0
 40
0.0
 40
0.0
 40
0.0
 40
1.0
 40
1.0
 40
1.0
 40
2.0
 40
2.0
 40
2.0
 40
3.0
 40
3.0
 40
3.0
 40
4.0
 40
4.0
 40
4.0
 40
5.0
 40
5.0
 40
5.0
 40
6.0
 40
6.0
 40
6.0
 40
7.0
 40
7.0
 40
7.0
 40
8.0
 40
8.0
 40
8.0
 40
9.0
 40
9.0
 40
9.0
 40
10.0
 40
10.0
 40
10.0
 40
11.0
 40
11.0
 40
11.0
 40
12.0
 40
12.0
 40
12.0
 40
13.0
 40
13.0
 40
13.0
 40
14.0
 40
14.0
 40
14.0
 40
15.0
 40
15.0
 40
15.0
 40
15.0
 10
6.470991751854474
 20
5.892835827519846
 30
0.0
 10
6.488992375764904
 20
5.891733396964566
 30
0.0
 10
6.506786293946219
 20
5.890183103996204
 30
0.0
 10
6.524287379011289
 20
5.887943791930791
 30
0.0
 10
6.542460257695982
 20
5.916917044961743
 30
0.0
 10
6.558204344063573
 20
5.945924748947546
 30
0.0
 10
6.571433510726933
 20
5.975035805797908
 30
0.0
 10
6.584611000958014
 20
6.004146862648269
 30
0.0
 10
6.59560085555596
 20
6.032258841807908
 30
0.0
 10
6.604385849043347
 20
6.059388968754249
 30
0.0
 10
6.613084715143604
 20
6.086501870223166
 30
0.0
 10
6.619544269178447
 20
6.112202282543129
 30
0.0
 10
6.623626707328468
 20
6.136490205714141
 30
0.0
 10
6.627726370955915
 20
6.160778128885152
 30
0.0
 10
6.629810653724491
 20
6.182533906874505
 30
0.0
 10
6.629810653724491
 20
6.201895343501609
 30
0.0
 10
6.629810653724491
 20
6.226114364762916
 30
0.0
 10
6.626486136581225
 20
6.248421358029908
 30
0.0
 10
6.619888778726971
 20
6.268781872347734
 30
0.0
 10
6.613291420872718
 20
6.289211288575266
 30
0.0
 10
6.602267115319919
 20
6.307384167259959
 30
0.0
 10
6.586953665887983
 20
6.323421086743797
 30
0.0
 10
6.571571314546343
 20
6.33952690813734
 30
0.0
 10
6.551365829525353
 20
6.353462319375176
 30
0.0
 10
6.526130505095898
 20
6.365210094979878
 30
0.0
 10
6.500964082576147
 20
6.376975096062006
 30
0.0
 10
6.469682615570079
 20
6.386121824575344
 30
0.0
 10
6.432148300258282
 20
6.392546927655335
 30
0.0
 10
6.422898218880386
 20
6.337167017729944
 30
0.0
 10
6.413751490367048
 20
6.285507810928623
 30
0.0
 10
6.404897594969956
 20
6.237465954386813
 30
0.0
 10
6.395905895753454
 20
6.189458548799857
 30
0.0
 10
6.386983098446657
 20
6.144620631059331
 30
0.0
 10
6.378077526617286
 20
6.103003877597512
 30
0.0
 10
6.369154729310488
 20
6.061438800567974
 30
0.0
 10
6.360524765119938
 20
6.022853731133175
 30
0.0
 10
6.352084281181075
 20
5.987352022157675
 30
0.0
 10
6.343695473674492
 20
5.951815862227323
 30
0.0
 10
6.335341117122762
 20
5.918742945568925
 30
0.0
 10
6.327141789867867
 20
5.887943791930791
 30
0.0
 10
6.351429713038878
 20
5.892301837719632
 30
0.0
 10
6.382142739289881
 20
5.894455022397914
 30
0.0
 10
6.419263643143448
 20
5.894455022397914
 30
0.0
 10
6.435713974085515
 20
5.894455022397914
 30
0.0
 10
6.452905000556912
 20
5.8939210325977
 30
0.0
 10
6.470991751854474
 20
5.892835827519846
 30
0.0
  0
SPLINE
  5
133
330
3C
100
AcDbEntity
  8
Livello 1
 62
     7
420
 16777215
370
     9
100
AcDbSpline
210
0.0
220
0.0
230
1.0
 70
    11
 71
     3
 72
    83
 73
    79
 74
     0
 42
0.0000000001
 43
0.0000000001
 40
0.0
 40
0.0
 40
0.0
 40
0.0
 40
1.0
 40
1.0
 40
1.0
 40
2.0
 40
2.0
 40
2.0
 40
3.0
 40
3.0
 40
3.0
 40
4.0
 40
4.0
 40
4.0
 40
5.0
 40
5.0
 40
5.0
 40
6.0
 40
6.0
 40
6.0
 40
7.0
 40
7.0
 40
7.0
 40
8.0
 40
8.0
 40
8.0
 40
9.0
 40
9.0
 40
9.0
 40
10.0
 40
10.0
 40
10.0
 40
11.0
 40
11.0
 40
11.0
 40
12.0
 40
12.0
 40
12.0
 40
13.0
 40
13.0
 40
13.0
 40
14.0
 40
14.0
 40
14.0
 40
15.0
 40
15.0
 40
15.0
 40
16.0
 40
16.0
 40
16.0
 40
17.0
 40
17.0
 40
17.0
 40
18.0
 40
18.0
 40
18.0
 40
19.0
 40
19.0
 40
19.0
 40
20.0
 40
20.0
 40
20.0
 40
21.0
 40
21.0
 40
21.0
 40
22.0
 40
22.0
 40
22.0
 40
23.0
 40
23.0
 40
23.0
 40
24.0
 40
24.0
 40
24.0
 40
25.0
 40
25.0
 40
25.0
 40
26.0
 40
26.0
 40
26.0
 40
26.0
 10
8.310397133339066
 20
2.611830240232459
 30
0.0
 10
8.104053139250027
 20
3.051355522240633
 30
0.0
 10
7.944080130392452
 20
3.59778211715611
 30
0.0
 10
7.944080130392452
 20
3.59778211715611
 30
0.0
 10
7.944080130392452
 20
3.59778211715611
 30
0.0
 10
7.938654105003183
 20
3.818716090625182
 30
0.0
 10
7.938654105003183
 20
3.818716090625182
 30
0.0
 10
7.792737085725427
 20
3.81151584106101
 30
0.0
 10
7.585617945152206
 20
3.823332518575417
 30
0.0
 10
7.429227835599289
 20
3.970438095795584
 30
0.0
 10
7.423836261164873
 20
3.954142794150353
 30
0.0
 10
7.419185382259786
 20
3.938260903963351
 30
0.0
 10
7.414947914812929
 20
3.922654621415169
 30
0.0
 10
7.413690454960813
 20
3.918003742510082
 30
0.0
 10
7.412639700837811
 20
3.913490667424405
 30
0.0
 10
7.411485593850253
 20
3.908943141383875
 30
0.0
 10
7.408712291984627
 20
3.897987737740781
 30
0.0
 10
7.406162921325542
 20
3.887135686962244
 30
0.0
 10
7.403940834737556
 20
3.876490341912822
 30
0.0
 10
7.402855629659702
 20
3.871426051549504
 30
0.0
 10
7.401856551968979
 20
3.866327310231334
 30
0.0
 10
7.400926376187963
 20
3.861331921777722
 30
0.0
 10
7.399703367290699
 20
3.854855142265452
 30
0.0
 10
7.398773191509681
 20
3.848516166572593
 30
0.0
 10
7.397774113818959
 20
3.842177190879733
 30
0.0
 10
7.39717122210904
 20
3.838387585845958
 30
0.0
 10
7.396447752057138
 20
3.834529078902479
 30
0.0
 10
7.395913762256924
 20
3.830773924823556
 30
0.0
 10
7.395276419592153
 20
3.826329751647584
 30
0.0
 10
7.394535724062824
 20
3.821816676561907
 30
0.0
 10
7.39400173426261
 20
3.817475856250492
 30
0.0
 10
7.392434215816821
 20
3.804591199135658
 30
0.0
 10
7.391262883351836
 20
3.79194769870479
 30
0.0
 10
7.390487736867655
 20
3.779579805912744
 30
0.0
 10
7.388179522892538
 20
3.742786186130275
 30
0.0
 10
7.389264727970391
 20
3.7079562707744
 30
0.0
 10
7.393433293507544
 20
3.674952256025706
 30
0.0
 10
7.435635713201854
 20
3.340881346821029
 30
0.0
 10
7.788275687072027
 20
3.191777614219416
 30
0.0
 10
7.98018473107787
 20
2.981316731025504
 30
0.0
 10
7.98018473107787
 20
2.981316731025504
 30
0.0
 10
7.996325003426265
 20
2.811611327422097
 30
0.0
 10
8.012482501252087
 20
2.609625379121899
 30
0.0
 10
8.012482501252087
 20
2.609625379121899
 30
0.0
 10
8.01246527577466
 20
2.609625379121899
 30
0.0
 10
8.01246527577466
 20
2.609625379121899
 30
0.0
 10
8.01246527577466
 20
2.609625379121899
 30
0.0
 10
7.966662731298264
 20
2.624887152121556
 30
0.0
 10
7.914366181832172
 20
2.655479600030574
 30
0.0
 10
7.890612248461374
 20
2.669363334836131
 30
0.0
 10
7.865531953328755
 20
2.686416557488118
 30
0.0
 10
7.842794323126107
 20
2.706570366076829
 30
0.0
 10
7.842794323126107
 20
2.706570366076829
 30
0.0
 10
7.856092391699171
 20
2.48346598245205
 30
0.0
 10
7.856092391699171
 20
2.48346598245205
 30
0.0
 10
7.856092391699171
 20
2.48346598245205
 30
0.0
 10
7.862758651463129
 20
2.371948241594513
 30
0.0
 10
7.862758651463129
 20
2.371948241594513
 30
0.0
 10
7.862758651463129
 20
2.371948241594513
 30
0.0
 10
7.862741425985703
 20
2.371982692549365
 30
0.0
 10
7.862741425985703
 20
2.371982692549365
 30
0.0
 10
7.862741425985703
 20
2.371982692549365
 30
0.0
 10
7.862741425985703
 20
2.371948241594513
 30
0.0
 10
7.862741425985703
 20
2.371948241594513
 30
0.0
 10
7.928956161212205
 20
2.232456325396747
 30
0.0
 10
7.981717798568806
 20
2.126967501638397
 30
0.0
 10
7.981717798568806
 20
2.126967501638397
 30
0.0
 10
7.976377900566669
 20
2.229355739460022
 30
0.0
 10
7.987143823958075
 20
2.320857475548258
 30
0.0
 10
7.987143823958075
 20
2.320857475548258
 30
0.0
 10
8.09485473430441
 20
2.267010633113803
 30
0.0
 10
8.245732691080928
 20
2.229286837550317
 30
0.0
 10
8.391201847945602
 20
2.234730088417012
 30
0.0
 10
8.305022784382077
 20
2.396339517630082
 30
0.0
 10
8.186494274212057
 20
2.601115993273332
 30
0.0
 10
8.186494274212057
 20
2.601115993273332
 30
0.0
 10
8.224149167865837
 20
2.601115993273332
 30
0.0
 10
8.310397133339066
 20
2.611830240232459
 30
0.0
 10
8.310397133339066
 20
2.611830240232459
 30
0.0
  0
SPLINE
  5
134
330
3C
100
AcDbEntity
  8
Livello 1
 62
     7
420
 16777215
370
     9
100
AcDbSpline
210
0.0
220
0.0
230
1.0
 70
    11
 71
     3
 72
    11
 73
     7
 74
     0
 42
0.0000000001
 43
0.0000000001
 40
0.0
 40
0.0
 40
0.0
 40
0.0
 40
1.0
 40
1.0
 40
1.0
 40
2.0
 40
2.0
 40
2.0
 40
2.0
 10
8.493555634812374
 20
2.380147568849408
 30
0.0
 10
8.54748860463396
 20
2.250887586242833
 30
0.0
 10
8.687548961586792
 20
2.229355739460022
 30
0.0
 10
8.762962101758912
 20
2.240069986419149
 30
0.0
 10
8.736021455064257
 20
2.353275824064458
 30
0.0
 10
8.574412025851188
 20
2.39093071771824
 30
0.0
 10
8.493555634812374
 20
2.380147568849408
 30
0.0
  0
SPLINE
  5
135
330
3C
100
AcDbEntity
  8
Livello 1
 62
     7
420
 16777215
370
     9
100
AcDbSpline
210
0.0
220
0.0
230
1.0
 70
    11
 71
     3
 72
    68
 73
    64
 74
     0
 42
0.0000000001
 43
0.0000000001
 40
0.0
 40
0.0
 40
0.0
 40
0.0
 40
1.0
 40
1.0
 40
1.0
 40
2.0
 40
2.0
 40
2.0
 40
3.0
 40
3.0
 40
3.0
 40
4.0
 40
4.0
 40
4.0
 40
5.0
 40
5.0
 40
5.0
 40
6.0
 40
6.0
 40
6.0
 40
7.0
 40
7.0
 40
7.0
 40
8.0
 40
8.0
 40
8.0
 40
9.0
 40
9.0
 40
9.0
 40
10.0
 40
10.0
 40
10.0
 40
11.0
 40
11.0
 40
11.0
 40
12.0
 40
12.0
 40
12.0
 40
13.0
 40
13.0
 40
13.0
 40
14.0
 40
14.0
 40
14.0
 40
15.0
 40
15.0
 40
15.0
 40
16.0
 40
16.0
 40
16.0
 40
17.0
 40
17.0
 40
17.0
 40
18.0
 40
18.0
 40
18.0
 40
19.0
 40
19.0
 40
19.0
 40
20.0
 40
20.0
 40
20.0
 40
21.0
 40
21.0
 40
21.0
 40
21.0
 10
8.898888344129444
 20
10.6360949680441
 30
0.0
 10
7.476477320179491
 20
10.6360949680441
 30
0.0
 10
6.201361353701396
 20
10.00550469042397
 30
0.0
 10
5.337848170323523
 20
9.00866631176693
 30
0.0
 10
5.248413491526438
 20
8.905416800073992
 30
0.0
 10
5.163388534950472
 20
8.79823987952787
 30
0.0
 10
5.083066133711872
 20
8.687428383244809
 30
0.0
 10
5.030373398264976
 20
8.614702417551184
 30
0.0
 10
4.979696043676951
 20
8.540426158889199
 30
0.0
 10
4.931120197334928
 20
8.464651283691127
 30
0.0
 10
4.905213079285849
 20
8.424205862694295
 30
0.0
 10
4.880063882243525
 20
8.383243677374674
 30
0.0
 10
4.855345322136857
 20
8.341971433461381
 30
0.0
 10
4.432614880619276
 20
7.635744084462591
 30
0.0
 10
4.189460041270343
 20
6.809661863531959
 30
0.0
 10
4.189460041270343
 20
5.926718341617279
 30
0.0
 10
4.189460041270343
 20
3.48512749478844
 30
0.0
 10
6.04740003646558
 20
1.477498100759097
 30
0.0
 10
8.426600204056545
 20
1.240578884238466
 30
0.0
 10
8.464358450574881
 20
1.236858181114396
 30
0.0
 10
8.50225450091263
 20
1.233516438493704
 30
0.0
 10
8.540271129592362
 20
1.230657009240947
 30
0.0
 10
8.618784855701206
 20
1.224731445006317
 30
0.0
 10
8.697815346132836
 20
1.22076958519828
 30
0.0
 10
8.777328149932403
 20
1.218736978861982
 30
0.0
 10
8.817721894496957
 20
1.21773790117126
 30
0.0
 10
8.858253442880923
 20
1.217221136848472
 30
0.0
 10
8.898888344129444
 20
1.217221136848472
 30
0.0
 10
9.26465413179842
 20
1.217221136848472
 30
0.0
 10
9.620635848289284
 20
1.258906792219995
 30
0.0
 10
9.962423771380921
 20
1.337799478832217
 30
0.0
 10
10.03835367587583
 20
1.355335014852138
 30
0.0
 10
10.11362901222854
 20
1.374696451479242
 30
0.0
 10
10.18811197661964
 20
1.395883788713529
 30
0.0
 10
10.29983642320629
 20
1.42761311813268
 30
0.0
 10
10.40990722396002
 20
1.463373209269573
 30
0.0
 10
10.51808322219687
 20
1.502991807349946
 30
0.0
 10
10.590223521658
 20
1.529415689721813
 30
0.0
 10
10.66150254724782
 20
1.557493217926599
 30
0.0
 10
10.73195474992118
 20
1.58729329387401
 30
0.0
 10
10.83758137749894
 20
1.6319761823177
 30
0.0
 10
10.94127875160496
 20
1.680414224840313
 30
0.0
 10
11.04280571555527
 20
1.732435166667585
 30
0.0
 10
11.14433267950558
 20
1.784456108494858
 30
0.0
 10
11.24372368425504
 20
1.840025498671938
 30
0.0
 10
11.34080647502938
 20
1.899039984334268
 30
0.0
 10
11.37319037259073
 20
1.918677028600192
 30
0.0
 10
11.40529866251326
 20
1.938727484324346
 30
0.0
 10
11.43713134479697
 20
1.959156900551877
 30
0.0
 10
11.50083116031924
 20
1.999981282052088
 30
0.0
 10
11.56349744719593
 20
2.042321505565808
 30
0.0
 10
11.62506130351735
 20
2.086074218228481
 30
0.0
 10
11.74815456520532
 20
2.173648545463532
 30
0.0
 10
11.86683810467218
 20
2.266941731204098
 30
0.0
 10
11.98076741236939
 20
2.365609265901653
 30
0.0
 10
12.03774929169542
 20
2.414977484205283
 30
0.0
 10
12.09352538760162
 20
2.465654838793308
 30
0.0
 10
12.14799234722342
 20
2.517641329665728
 30
0.0
 10
13.04761013128671
 20
3.37536675262838
 30
0.0
 10
13.60819606864656
 20
4.585559894686943
 30
0.0
 10
13.60819606864656
 20
5.926701116139852
 30
0.0
 10
13.60819606864656
 20
8.527627629161495
 30
0.0
 10
11.49972872976396
 20
10.6360949680441
 30
0.0
 10
8.898888344129444
 20
10.6360949680441
 30
0.0
  0
SPLINE
  5
136
330
3C
100
AcDbEntity
  8
Livello 1
 62
     7
420
 16777215
370
     9
100
AcDbSpline
210
0.0
220
0.0
230
1.0
 70
    11
 71
     3
 72
    29
 73
    25
 74
     0
 42
0.0000000001
 43
0.0000000001
 40
0.0
 40
0.0
 40
0.0
 40
0.0
 40
1.0
 40
1.0
 40
1.0
 40
2.0
 40
2.0
 40
2.0
 40
3.0
 40
3.0
 40
3.0
 40
4.0
 40
4.0
 40
4.0
 40
5.0
 40
5.0
 40
5.0
 40
6.0
 40
6.0
 40
6.0
 40
7.0
 40
7.0
 40
7.0
 40
8.0
 40
8.0
 40
8.0
 40
8.0
 10
12.13686468880606
 20
2.688552516688973
 30
0.0
 10
11.27197346723409
 20
1.823661295117001
 30
0.0
 10
10.12200059425769
 20
1.347307942371506
 30
0.0
 10
8.898888344129444
 20
1.347307942371506
 30
0.0
 10
7.675707192091489
 20
1.347307942371506
 30
0.0
 10
6.525665417205389
 20
1.823661295117001
 30
0.0
 10
5.660791421110844
 20
2.688552516688973
 30
0.0
 10
4.795814072151741
 20
3.553512640170649
 30
0.0
 10
4.319529621315951
 20
4.703485513147045
 30
0.0
 10
4.319529621315951
 20
5.926718341617279
 30
0.0
 10
4.319529621315951
 20
7.149882268177807
 30
0.0
 10
4.795814072151741
 20
8.299872366631629
 30
0.0
 10
5.660791421110844
 20
9.1647635882036
 30
0.0
 10
6.525665417205389
 20
10.02970648620785
 30
0.0
 10
7.675707192091489
 20
10.50602538799849
 30
0.0
 10
8.898888344129444
 20
10.50602538799849
 30
0.0
 10
10.12200059425769
 20
10.50602538799849
 30
0.0
 10
11.27197346723409
 20
10.02970648620785
 30
0.0
 10
12.13686468880606
 20
9.1647635882036
 30
0.0
 10
13.00182481228774
 20
8.299837915676775
 30
0.0
 10
13.47810926312353
 20
7.149882268177807
 30
0.0
 10
13.47810926312353
 20
5.926718341617279
 30
0.0
 10
13.47810926312353
 20
4.703485513147045
 30
0.0
 10
13.00182481228774
 20
3.553512640170649
 30
0.0
 10
12.13686468880606
 20
2.688552516688973
 30
0.0
  0
POLYLINE
  5
137
330
3C
100
AcDbEntity
  8
Livello 1
 62
     7
420
 16777215
370
     9
100
AcDb2dPolyline
 66
     1
 10
0.0
 20
0.0
 30
0.0
  0
VERTEX
  5
138
330
137
100
AcDbEntity
  8
Livello 1
 62
     7
420
 16777215
370
     9
100
AcDbVertex
100
AcDb2dVertex
 10
8.098523760996201
 20
1.606585828591409
 30
0.0
  0
VERTEX
  5
139
330
137
100
AcDbEntity
  8
Livello 1
 62
     7
420
 16777215
370
     9
100
AcDbVertex
100
AcDb2dVertex
 10
8.235879717993113
 20
1.583400335975678
 30
0.0
  0
VERTEX
  5
13A
330
137
100
AcDbEntity
  8
Livello 1
 62
     7
420
 16777215
370
     9
100
AcDbVertex
100
AcDb2dVertex
 10
8.244371878364253
 20
1.633560926240915
 30
0.0
  0
VERTEX
  5
13B
330
137
100
AcDbEntity
  8
Livello 1
 62
     7
420
 16777215
370
     9
100
AcDbVertex
100
AcDb2dVertex
 10
8.16241305677016
 20
1.647410210091619
 30
0.0
  0
VERTEX
  5
13C
330
137
100
AcDbEntity
  8
Livello 1
 62
     7
420
 16777215
370
     9
100
AcDbVertex
100
AcDb2dVertex
 10
8.185770804160153
 20
1.785386284275875
 30
0.0
  0
VERTEX
  5
13D
330
137
100
AcDbEntity
  8
Livello 1
 62
     7
420
 16777215
370
     9
100
AcDbVertex
100
AcDb2dVertex
 10
8.2584450934215
 20
1.773121744348386
 30
0.0
  0
VERTEX
  5
13E
330
137
100
AcDbEntity
  8
Livello 1
 62
     7
420
 16777215
370
     9
100
AcDbVertex
100
AcDb2dVertex
 10
8.266971704747492
 20
1.823282334613624
 30
0.0
  0
VERTEX
  5
13F
330
137
100
AcDbEntity
  8
Livello 1
 62
     7
420
 16777215
370
     9
100
AcDbVertex
100
AcDb2dVertex
 10
8.194228513576443
 20
1.835615776450818
 30
0.0
  0
VERTEX
  5
140
330
137
100
AcDbEntity
  8
Livello 1
 62
     7
420
 16777215
370
     9
100
AcDbVertex
100
AcDb2dVertex
 10
8.215536429152712
 20
1.961430663572142
 30
0.0
  0
VERTEX
  5
141
330
137
100
AcDbEntity
  8
Livello 1
 62
     7
420
 16777215
370
     9
100
AcDbVertex
100
AcDb2dVertex
 10
8.29747802526938
 20
1.947581379721438
 30
0.0
  0
VERTEX
  5
142
330
137
100
AcDbEntity
  8
Livello 1
 62
     7
420
 16777215
370
     9
100
AcDbVertex
100
AcDb2dVertex
 10
8.30597018564052
 20
1.997776420941528
 30
0.0
  0
VERTEX
  5
143
330
137
100
AcDbEntity
  8
Livello 1
 62
     7
420
 16777215
370
     9
100
AcDbVertex
100
AcDb2dVertex
 10
8.168597003166184
 20
2.021030815466964
 30
0.0
  0
VERTEX
  5
144
330
137
100
AcDbEntity
  8
Livello 1
 62
     7
420
 16777215
370
     9
100
AcDbVertex
100
AcDb2dVertex
 10
8.098523760996201
 20
1.606585828591409
 30
0.0
  0
SEQEND
  5
145
330
137
100
AcDbEntity
  8
Livello 1
370
     9
  0
SPLINE
  5
146
330
3C
100
AcDbEntity
  8
Livello 1
 62
     7
420
 16777215
370
     9
100
AcDbSpline
210
0.0
220
0.0
230
1.0
 70
    11
 71
     3
 72
    47
 73
    43
 74
     0
 42
0.0000000001
 43
0.0000000001
 40
0.0
 40
0.0
 40
0.0
 40
0.0
 40
1.0
 40
1.0
 40
1.0
 40
2.0
 40
2.0
 40
2.0
 40
3.0
 40
3.0
 40
3.0
 40
4.0
 40
4.0
 40
4.0
 40
5.0
 40
5.0
 40
5.0
 40
6.0
 40
6.0
 40
6.0
 40
7.0
 40
7.0
 40
7.0
 40
8.0
 40
8.0
 40
8.0
 40
9.0
 40
9.0
 40
9.0
 40
10.0
 40
10.0
 40
10.0
 40
11.0
 40
11.0
 40
11.0
 40
12.0
 40
12.0
 40
12.0
 40
13.0
 40
13.0
 40
13.0
 40
14.0
 40
14.0
 40
14.0
 40
14.0
 10
6.580511337330566
 20
5.566585285066687
 30
0.0
 10
6.550487330176614
 20
5.593078069348258
 30
0.0
 10
6.511109888780208
 20
5.619880912223501
 30
0.0
 10
6.462172307412234
 20
5.647269421331238
 30
0.0
 10
6.413217500566834
 20
5.674589028529269
 30
0.0
 10
6.352928329574962
 20
5.70356228156022
 30
0.0
 10
6.281098088707503
 20
5.734292533288649
 30
0.0
 10
6.265422904249616
 20
5.680273436079931
 30
0.0
 10
6.245837536415971
 20
5.627839082794429
 30
0.0
 10
6.222497014503403
 20
5.576748316748174
 30
0.0
 10
6.199104816158557
 20
5.525692001656771
 30
0.0
 10
6.170234915992163
 20
5.475910371894911
 30
0.0
 10
6.135956215913927
 20
5.427300074598036
 30
0.0
 10
6.179502222847485
 20
5.412313909237199
 30
0.0
 10
6.222497014503403
 20
5.398016762973412
 30
0.0
 10
6.264768336107418
 20
5.384236381032412
 30
0.0
 10
6.307125785098565
 20
5.370524901001119
 30
0.0
 10
6.347175020114594
 20
5.358260361073629
 30
0.0
 10
6.385071070452343
 20
5.347787270798469
 30
0.0
 10
6.422898218880386
 20
5.33731418052331
 30
0.0
 10
6.45728027182318
 20
5.328839245629595
 30
0.0
 10
6.488406709532412
 20
5.322638073756146
 30
0.0
 10
6.519464245331939
 20
5.316402450927844
 30
0.0
 10
6.54540581433587
 20
5.313232963081414
 30
0.0
 10
6.566041936292517
 20
5.313232963081414
 30
0.0
 10
6.579994573007778
 20
5.313232963081414
 30
0.0
 10
6.592965357509744
 20
5.315403373237121
 30
0.0
 10
6.604902613366135
 20
5.319640840683978
 30
0.0
 10
6.616874320177378
 20
5.324016111950246
 30
0.0
 10
6.627209606633127
 20
5.330045029049433
 30
0.0
 10
6.635960149165662
 20
5.337934297710655
 30
0.0
 10
6.644710691698197
 20
5.345754664462172
 30
0.0
 10
6.651652559100976
 20
5.355400931820872
 30
0.0
 10
6.656837427806276
 20
5.366838648831901
 30
0.0
 10
6.662005071034151
 20
5.378276365842931
 30
0.0
 10
6.664640569080367
 20
5.39109212104806
 30
0.0
 10
6.664640569080367
 20
5.405320365402142
 30
0.0
 10
6.664640569080367
 20
5.433983559839421
 30
0.0
 10
6.658112113135819
 20
5.461406519902009
 30
0.0
 10
6.645106877679001
 20
5.487658147499613
 30
0.0
 10
6.632015514835051
 20
5.513875324142364
 30
0.0
 10
6.610569795439371
 20
5.54016140269482
 30
0.0
 10
6.580511337330566
 20
5.566585285066687
 30
0.0
  0
SPLINE
  5
147
330
3C
100
AcDbEntity
  8
Livello 1
 62
     7
420
 16777215
370
     9
100
AcDbSpline
210
0.0
220
0.0
230
1.0
 70
    11
 71
     3
 72
    71
 73
    67
 74
     0
 42
0.0000000001
 43
0.0000000001
 40
0.0
 40
0.0
 40
0.0
 40
0.0
 40
1.0
 40
1.0
 40
1.0
 40
2.0
 40
2.0
 40
2.0
 40
3.0
 40
3.0
 40
3.0
 40
4.0
 40
4.0
 40
4.0
 40
5.0
 40
5.0
 40
5.0
 40
6.0
 40
6.0
 40
6.0
 40
7.0
 40
7.0
 40
7.0
 40
8.0
 40
8.0
 40
8.0
 40
9.0
 40
9.0
 40
9.0
 40
10.0
 40
10.0
 40
10.0
 40
11.0
 40
11.0
 40
11.0
 40
12.0
 40
12.0
 40
12.0
 40
13.0
 40
13.0
 40
13.0
 40
14.0
 40
14.0
 40
14.0
 40
15.0
 40
15.0
 40
15.0
 40
16.0
 40
16.0
 40
16.0
 40
17.0
 40
17.0
 40
17.0
 40
18.0
 40
18.0
 40
18.0
 40
19.0
 40
19.0
 40
19.0
 40
20.0
 40
20.0
 40
20.0
 40
21.0
 40
21.0
 40
21.0
 40
22.0
 40
22.0
 40
22.0
 40
22.0
 10
11.4851215249065
 20
5.385821124955628
 30
0.0
 10
11.49266628401919
 20
5.375348034680468
 30
0.0
 10
11.50114121891291
 20
5.367837726522623
 30
0.0
 10
11.51051187863279
 20
5.363600259075766
 30
0.0
 10
11.52005479312693
 20
5.359293889719204
 30
0.0
 10
11.52976996239533
 20
5.357192381473202
 30
0.0
 10
11.53979519025741
 20
5.357192381473202
 30
0.0
 10
11.55302435692077
 20
5.357192381473202
 30
0.0
 10
11.56559895544193
 20
5.359535046403171
 30
0.0
 10
11.57755343677575
 20
5.364427081992226
 30
0.0
 10
11.58954236906442
 20
5.369181313761871
 30
0.0
 10
11.60084228225604
 20
5.375726995183846
 30
0.0
 10
11.61159098017002
 20
5.38392632243874
 30
0.0
 10
11.62223632521944
 20
5.392125649693635
 30
0.0
 10
11.63222710212666
 20
5.40170301514263
 30
0.0
 10
11.64149440898199
 20
5.412555065921167
 30
0.0
 10
11.65083061774701
 20
5.423510469564261
 30
0.0
 10
11.65920219977617
 20
5.435051539439848
 30
0.0
 10
11.66664360602431
 20
5.447178275547928
 30
0.0
 10
11.66061468892512
 20
5.459649521204532
 30
0.0
 10
11.65555039856181
 20
5.473981118423171
 30
0.0
 10
11.65120957825039
 20
5.49024196911355
 30
0.0
 10
11.64690320889383
 20
5.50650281980393
 30
0.0
 10
11.64335476054402
 20
5.523590493410769
 30
0.0
 10
11.64049533129126
 20
5.541436088024363
 30
0.0
 10
11.63763590203851
 20
5.559212780728252
 30
0.0
 10
11.6354654918828
 20
5.577402884890371
 30
0.0
 10
11.63405300273385
 20
5.595799694781605
 30
0.0
 10
11.63260606263004
 20
5.614162053717987
 30
0.0
 10
11.63191704353299
 20
5.631938746421876
 30
0.0
 10
11.63191704353299
 20
5.64909532193842
 30
0.0
 10
11.63191704353299
 20
5.670523815856674
 30
0.0
 10
11.63350178745621
 20
5.693433700833586
 30
0.0
 10
11.63674017721234
 20
5.71789387877886
 30
0.0
 10
11.63997856696848
 20
5.742354056724134
 30
0.0
 10
11.64466389682842
 20
5.767227646127637
 30
0.0
 10
11.65089951965672
 20
5.792652450808781
 30
0.0
 10
11.65713514248502
 20
5.81800835358022
 30
0.0
 10
11.66474880350742
 20
5.843157550622544
 30
0.0
 10
11.67370605176907
 20
5.868168943845458
 30
0.0
 10
11.68266330003072
 20
5.893197562545797
 30
0.0
 10
11.6927574298025
 20
5.916555309935791
 30
0.0
 10
11.70426404872324
 20
5.93832831340257
 30
0.0
 10
11.68169867329485
 20
5.927614066443443
 30
0.0
 10
11.66002902269263
 20
5.91343749852164
 30
0.0
 10
11.63915174405202
 20
5.895781384159735
 30
0.0
 10
11.61824001445655
 20
5.878125269797829
 30
0.0
 10
11.59874077401004
 20
5.857799206434855
 30
0.0
 10
11.58079182653188
 20
5.834992674322502
 30
0.0
 10
11.56273952618917
 20
5.81208278934559
 30
0.0
 10
11.54627196976968
 20
5.787174748987233
 30
0.0
 10
11.53149251013796
 20
5.760199651337728
 30
0.0
 10
11.51660969764168
 20
5.733259004643074
 30
0.0
 10
11.50400064816567
 20
5.705112574528583
 30
0.0
 10
11.4934586559808
 20
5.675829262903959
 30
0.0
 10
11.48295111475079
 20
5.646649304143893
 30
0.0
 10
11.47478623845075
 20
5.616642522467367
 30
0.0
 10
11.46910183090008
 20
5.586153427422905
 30
0.0
 10
11.46334852143972
 20
5.555664332378445
 30
0.0
 10
11.46052354314181
 20
5.525381943063098
 30
0.0
 10
11.46052354314181
 20
5.495409612341425
 30
0.0
 10
11.46052354314181
 20
5.468606769466181
 30
0.0
 10
11.46269395329752
 20
5.446282550721762
 30
0.0
 10
11.46713812647349
 20
5.428368054198463
 30
0.0
 10
11.47165120155917
 20
5.410522459584869
 30
0.0
 10
11.47761121674865
 20
5.396363117140492
 30
0.0
 10
11.4851215249065
 20
5.385821124955628
 30
0.0
  0
POLYLINE
  5
148
330
3C
100
AcDbEntity
  8
Livello 1
 62
     7
420
 16777215
370
     9
100
AcDb2dPolyline
 66
     1
 10
0.0
 20
0.0
 30
0.0
  0
VERTEX
  5
149
330
148
100
AcDbEntity
  8
Livello 1
 62
     7
420
 16777215
370
     9
100
AcDbVertex
100
AcDb2dVertex
 10
6.919388154737167
 20
2.422487792363128
 30
0.0
  0
VERTEX
  5
14A
330
148
100
AcDbEntity
  8
Livello 1
 62
     7
420
 16777215
370
     9
100
AcDbVertex
100
AcDb2dVertex
 10
6.966809894091631
 20
2.396959634817426
 30
0.0
  0
VERTEX
  5
14B
330
148
100
AcDbEntity
  8
Livello 1
 62
     7
420
 16777215
370
     9
100
AcDbVertex
100
AcDb2dVertex
 10
6.791420082937561
 20
2.071880424829252
 30
0.0
  0
VERTEX
  5
14C
330
148
100
AcDbEntity
  8
Livello 1
 62
     7
420
 16777215
370
     9
100
AcDbVertex
100
AcDb2dVertex
 10
6.840857203150897
 20
2.045215385773418
 30
0.0
  0
VERTEX
  5
14D
330
148
100
AcDbEntity
  8
Livello 1
 62
     7
420
 16777215
370
     9
100
AcDbVertex
100
AcDb2dVertex
 10
7.016281465259818
 20
2.370225693851888
 30
0.0
  0
VERTEX
  5
14E
330
148
100
AcDbEntity
  8
Livello 1
 62
     7
420
 16777215
370
     9
100
AcDbVertex
100
AcDb2dVertex
 10
7.063651528182003
 20
2.344697536306187
 30
0.0
  0
VERTEX
  5
14F
330
148
100
AcDbEntity
  8
Livello 1
 62
     7
420
 16777215
370
     9
100
AcDbVertex
100
AcDb2dVertex
 10
7.087818873011031
 20
2.389483777614434
 30
0.0
  0
VERTEX
  5
150
330
148
100
AcDbEntity
  8
Livello 1
 62
     7
420
 16777215
370
     9
100
AcDbVertex
100
AcDb2dVertex
 10
6.943624401475899
 20
2.467342935581081
 30
0.0
  0
VERTEX
  5
151
330
148
100
AcDbEntity
  8
Livello 1
 62
     7
420
 16777215
370
     9
100
AcDbVertex
100
AcDb2dVertex
 10
6.919388154737167
 20
2.422487792363128
 30
0.0
  0
SEQEND
  5
152
330
148
100
AcDbEntity
  8
Livello 1
370
     9
  0
SPLINE
  5
153
330
3C
100
AcDbEntity
  8
Livello 1
 62
     7
420
 16777215
370
     9
100
AcDbSpline
210
0.0
220
0.0
230
1.0
 70
    11
 71
     3
 72
    44
 73
    40
 74
     0
 42
0.0000000001
 43
0.0000000001
 40
0.0
 40
0.0
 40
0.0
 40
0.0
 40
1.0
 40
1.0
 40
1.0
 40
2.0
 40
2.0
 40
2.0
 40
3.0
 40
3.0
 40
3.0
 40
4.0
 40
4.0
 40
4.0
 40
5.0
 40
5.0
 40
5.0
 40
6.0
 40
6.0
 40
6.0
 40
7.0
 40
7.0
 40
7.0
 40
8.0
 40
8.0
 40
8.0
 40
9.0
 40
9.0
 40
9.0
 40
10.0
 40
10.0
 40
10.0
 40
11.0
 40
11.0
 40
11.0
 40
12.0
 40
12.0
 40
12.0
 40
13.0
 40
13.0
 40
13.0
 40
13.0
 10
7.853594697472364
 20
2.718731553139762
 30
0.0
 10
7.901739906878731
 20
2.675943467212958
 30
0.0
 10
7.961753470231783
 20
2.647521429459647
 30
0.0
 10
7.99418904422541
 20
2.63405110611232
 30
0.0
 10
7.980529240626395
 20
2.802619628205595
 30
0.0
 10
7.967231172053331
 20
2.945177679385233
 30
0.0
 10
7.964509546619984
 20
2.974323187190447
 30
0.0
 10
7.907493216339098
 20
3.035955945421566
 30
0.0
 10
7.837247719394854
 20
3.091835394192319
 30
0.0
 10
7.762971460732867
 20
3.150884330809501
 30
0.0
 10
7.532201739653408
 20
3.334473469218465
 30
0.0
 10
7.270632864935814
 20
3.54248833461785
 30
0.0
 10
7.41379380782537
 20
3.975536837113754
 30
0.0
 10
7.41379380782537
 20
3.975536837113754
 30
0.0
 10
7.41641208039416
 20
3.983460556729829
 30
0.0
 10
7.41641208039416
 20
3.983460556729829
 30
0.0
 10
7.341911890525632
 20
4.058598089263128
 30
0.0
 10
7.279917397268561
 20
4.165878362673808
 30
0.0
 10
7.243640541808881
 20
4.319701876090213
 30
0.0
 10
7.178976099550741
 20
4.368243271477383
 30
0.0
 10
7.076656763638821
 20
4.449065211561344
 30
0.0
 10
7.076656763638821
 20
4.449065211561344
 30
0.0
 10
7.130503606073276
 20
4.018014864446885
 30
0.0
 10
7.184367673985157
 20
3.586998968287278
 30
0.0
 10
7.259780814157277
 20
3.430763888031198
 30
0.0
 10
7.335211179806822
 20
3.27456325872997
 30
0.0
 10
7.604583195798506
 20
2.988930392047906
 30
0.0
 10
7.814768471353599
 20
2.843478460660658
 30
0.0
 10
7.706954208142705
 20
2.892054307002681
 30
0.0
 10
7.631575518925439
 20
2.90280300491666
 30
0.0
 10
7.631575518925439
 20
2.90280300491666
 30
0.0
 10
7.678015406066606
 20
2.771579317883494
 30
0.0
 10
7.767243379134578
 20
2.574416503262646
 30
0.0
 10
7.844103459410501
 20
2.411429035855476
 30
0.0
 10
7.844103459410501
 20
2.411429035855476
 30
0.0
 10
7.824208032983184
 20
2.744879827872808
 30
0.0
 10
7.824208032983184
 20
2.744879827872808
 30
0.0
 10
7.824208032983184
 20
2.744879827872808
 30
0.0
 10
7.853594697472364
 20
2.718731553139762
 30
0.0
 10
7.853594697472364
 20
2.718731553139762
 30
0.0
  0
ENDBLK
  5
3F
330
3C
100
AcDbEntity
  8
0
100
AcDbBlockEnd
  0
ENDSEC
  0
SECTION
  2
ENTITIES
  0
INSERT
  5
3D
330
1F
100
AcDbEntity
  8
Livello 1
100
AcDbBlockReference
  2
block 2
 10
0.0
 20
0.0
 30
0.0
  0
ENDSEC
  0
SECTION
  2
OBJECTS
  0
DICTIONARY
  5
C
330
0
100
AcDbDictionary
281
     1
  3
ACAD_GROUP
350
D
  3
ACAD_LAYOUT
350
1A
  3
ACAD_MLINESTYLE
350
17
  3
ACAD_PLOTSETTINGS
350
19
  3
ACAD_PLOTSTYLENAME
350
E
  3
ACAD_TABLESTYLE
350
154
  3
ACAD_VISUALSTYLE
350
2A
  0
DICTIONARY
  5
D
102
{ACAD_REACTORS
330
C
102
}
330
C
100
AcDbDictionary
281
     1
  0
DICTIONARY
  5
1A
102
{ACAD_REACTORS
330
C
102
}
330
C
100
AcDbDictionary
281
     1
  3
Layout1
350
1E
  3
Layout2
350
26
  3
Model
350
22
  0
DICTIONARY
  5
17
102
{ACAD_REACTORS
330
C
102
}
330
C
100
AcDbDictionary
281
     1
  3
Standard
350
18
  0
DICTIONARY
  5
19
102
{ACAD_REACTORS
330
C
102
}
330
C
100
AcDbDictionary
281
     1
  0
ACDBDICTIONARYWDFLT
  5
E
102
{ACAD_REACTORS
330
C
102
}
330
C
100
AcDbDictionary
281
     1
  3
Normal
350
F
100
AcDbDictionaryWithDefault
340
F
  0
DICTIONARY
  5
154
102
{ACAD_REACTORS
330
C
102
}
330
C
100
AcDbDictionary
281
     1
  0
DICTIONARY
  5
2A
102
{ACAD_REACTORS
330
C
102
}
330
C
100
AcDbDictionary
281
     1
  3
2dWireframe
350
2F
  3
3D Hidden
350
31
  3
3dWireframe
350
30
  3
Basic
350
32
  3
Brighten
350
36
  3
ColorChange
350
3A
  3
Conceptual
350
34
  3
Dim
350
35
  3
Facepattern
350
39
  3
Flat
350
2B
  3
FlatWithEdges
350
2C
  3
Gouraud
350
2D
  3
GouraudWithEdges
350
2E
  3
Linepattern
350
38
  3
Realistic
350
33
  3
Thicken
350
37
  0
LAYOUT
  5
1E
102
{ACAD_REACTORS
330
1A
102
}
330
1A
100
AcDbPlotSettings
  1

  2
none_device
  4

  6

 40
0.0
 41
0.0
 42
0.0
 43
0.0
 44
0.0
 45
0.0
 46
0.0
 47
0.0
 48
0.0
 49
0.0
140
0.0
141
0.0
142
1.0
143
1.0
 70
   688
 72
     0
 73
     0
 74
     5
  7

 75
    16
 76
     0
 77
     2
 78
   300
147
1.0
148
0.0
149
0.0
100
AcDbLayout
  1
Layout1
 70
     1
 71
     1
 10
0.0
 20
0.0
 11
12.0
 21
9.0
 12
0.0
 22
0.0
 32
0.0
 14
1.000000000000000E+20
 24
1.000000000000000E+20
 34
1.000000000000000E+20
 15
-1.000000000000000E+20
 25
-1.000000000000000E+20
 35
-1.000000000000000E+20
146
0.0
 13
0.0
 23
0.0
 33
0.0
 16
1.0
 26
0.0
 36
0.0
 17
0.0
 27
1.0
 37
0.0
 76
     0
330
1B
  0
LAYOUT
  5
26
102
{ACAD_REACTORS
330
1A
102
}
330
1A
100
AcDbPlotSettings
  1

  2
none_device
  4

  6

 40
0.0
 41
0.0
 42
0.0
 43
0.0
 44
0.0
 45
0.0
 46
0.0
 47
0.0
 48
0.0
 49
0.0
140
0.0
141
0.0
142
1.0
143
1.0
 70
   688
 72
     0
 73
     0
 74
     5
  7

 75
    16
 76
     0
 77
     2
 78
   300
147
1.0
148
0.0
149
0.0
100
AcDbLayout
  1
Layout2
 70
     1
 71
     2
 10
0.0
 20
0.0
 11
0.0
 21
0.0
 12
0.0
 22
0.0
 32
0.0
 14
0.0
 24
0.0
 34
0.0
 15
0.0
 25
0.0
 35
0.0
146
0.0
 13
0.0
 23
0.0
 33
0.0
 16
1.0
 26
0.0
 36
0.0
 17
0.0
 27
1.0
 37
0.0
 76
     0
330
23
  0
LAYOUT
  5
22
102
{ACAD_REACTORS
330
1A
102
}
330
1A
100
AcDbPlotSettings
  1

  2
none_device
  4

  6

 40
0.0
 41
0.0
 42
0.0
 43
0.0
 44
0.0
 45
0.0
 46
0.0
 47
0.0
 48
0.0
 49
0.0
140
0.0
141
0.0
142
1.0
143
1.0
 70
  1712
 72
     0
 73
     0
 74
     0
  7

 75
     0
 76
     0
 77
     2
 78
   300
147
1.0
148
0.0
149
0.0
100
AcDbLayout
  1
Model
 70
     1
 71
     0
 10
0.0
 20
0.0
 11
12.0
 21
9.0
 12
0.0
 22
0.0
 32
0.0
 14
1.000000000000000E+20
 24
1.000000000000000E+20
 34
1.000000000000000E+20
 15
-1.000000000000000E+20
 25
-1.000000000000000E+20
 35
-1.000000000000000E+20
146
0.0
 13
0.0
 23
0.0
 33
0.0
 16
1.0
 26
0.0
 36
0.0
 17
0.0
 27
1.0
 37
0.0
 76
     0
330
1F
331
29
  0
MLINESTYLE
  5
18
102
{ACAD_REACTORS
330
17
102
}
330
17
100
AcDbMlineStyle
  2
Standard
 70
     0
  3

 62
   256
 51
90.0
 52
90.0
 71
     2
 49
0.5
 62
   256
  6
BYLAYER
 49
-0.5
 62
   256
  6
BYLAYER
  0
ACDBPLACEHOLDER
  5
F
102
{ACAD_REACTORS
330
E
102
}
330
E
  0
VISUALSTYLE
  5
2F
102
{ACAD_REACTORS
330
2A
102
}
330
2A
100
AcDbVisualStyle
  2
2dWireframe
 70
     4
 71
     0
 72
     2
 73
     0
 90
        0
 40
-0.6
 41
-30.0
 62
     5
 63
     7
421
 16777215
 74
     1
 91
        4
 64
     7
 65
   257
 75
     1
175
     1
 42
1.0
 92
        0
 66
   257
 43
1.0
 76
     1
 77
     6
 78
     2
 67
     7
 79
     5
170
     0
171
     0
290
     0
174
     0
 93
        1
 44
0.0
173
     0
291
     0
 45
0.0
1001
ACAD
1000
AcDbSavedByObjectVersion
1070
     0
  0
VISUALSTYLE
  5
31
102
{ACAD_REACTORS
330
2A
102
}
330
2A
100
AcDbVisualStyle
  2
3D Hidden
 70
     6
 71
     1
 72
     2
 73
     2
 90
        0
 40
-0.6
 41
-30.0
 62
     5
 63
     7
421
 16777215
 74
     2
 91
        2
 64
     7
 65
   257
 75
     2
175
     1
 42
40.0
 92
        0
 66
   257
 43
1.0
 76
     1
 77
     6
 78
     2
 67
     7
 79
     3
170
     0
171
     0
290
     0
174
     0
 93
        1
 44
0.0
173
     0
291
     0
 45
0.0
1001
ACAD
1000
AcDbSavedByObjectVersion
1070
     0
  0
VISUALSTYLE
  5
30
102
{ACAD_REACTORS
330
2A
102
}
330
2A
100
AcDbVisualStyle
  2
3dWireframe
 70
     5
 71
     0
 72
     2
 73
     0
 90
        0
 40
-0.6
 41
-30.0
 62
     5
 63
     7
421
 16777215
 74
     1
 91
        4
 64
     7
 65
   257
 75
     1
175
     1
 42
1.0
 92
        0
 66
   257
 43
1.0
 76
     1
 77
     6
 78
     2
 67
     7
 79
     5
170
     0
171
     0
290
     0
174
     0
 93
        1
 44
0.0
173
     0
291
     0
 45
0.0
1001
ACAD
1000
AcDbSavedByObjectVersion
1070
     0
  0
VISUALSTYLE
  5
32
102
{ACAD_REACTORS
330
2A
102
}
330
2A
100
AcDbVisualStyle
  2
Basic
 70
     7
 71
     1
 72
     0
 73
     1
 90
        0
 40
-0.6
 41
-30.0
 62
     5
 63
     7
421
 16777215
 74
     0
 91
        4
 64
     7
 65
   257
 75
     1
175
     1
 42
1.0
 92
        8
 66
     7
 43
1.0
 76
     1
 77
     6
 78
     2
 67
     7
 79
     5
170
     0
171
     0
290
     0
174
     0
 93
        1
 44
0.0
173
     0
291
     1
 45
0.0
1001
ACAD
1000
AcDbSavedByObjectVersion
1070
     0
  0
VISUALSTYLE
  5
36
102
{ACAD_REACTORS
330
2A
102
}
330
2A
100
AcDbVisualStyle
  2
Brighten
 70
    12
 71
     2
 72
     2
 73
     0
 90
        0
 40
-0.6
 41
-30.0
 62
     5
 63
     7
421
 16777215
 74
     1
 91
        4
 64
     7
 65
   257
 75
     1
175
     1
 42
1.0
 92
        8
 66
     7
 43
1.0
 76
     1
 77
     6
 78
     2
 67
     7
 79
     5
170
     0
171
     0
290
     0
174
     0
 93
        1
 44
50.0
173
     0
291
     1
 45
0.0
1001
ACAD
1000
AcDbSavedByObjectVersion
1070
     0
  0
VISUALSTYLE
  5
3A
102
{ACAD_REACTORS
330
2A
102
}
330
2A
100
AcDbVisualStyle
  2
ColorChange
 70
    16
 71
     2
 72
     2
 73
     3
 90
        0
 40
-0.6
 41
-30.0
 62
     5
 63
     8
421
  8421504
 74
     1
 91
        4
 64
     7
 65
   257
 75
     1
175
     1
 42
1.0
 92
        8
 66
     8
424
  8421504
 43
1.0
 76
     1
 77
     6
 78
     2
 67
     7
 79
     5
170
     0
171
     0
290
     0
174
     0
 93
        1
 44
0.0
173
     0
291
     1
 45
0.0
1001
ACAD
1000
AcDbSavedByObjectVersion
1070
     0
  0
VISUALSTYLE
  5
34
102
{ACAD_REACTORS
330
2A
102
}
330
2A
100
AcDbVisualStyle
  2
Conceptual
 70
     9
 71
     3
 72
     2
 73
     0
 90
        0
 40
-0.6
 41
-30.0
 62
     5
 63
     7
421
 16777215
 74
     2
 91
        2
 64
     7
 65
   257
 75
     1
175
     1
 42
40.0
 92
        8
 66
     7
 43
1.0
 76
     1
 77
     6
 78
     2
 67
     7
 79
     3
170
     0
171
     0
290
     0
174
     0
 93
        1
 44
0.0
173
     0
291
     0
 45
0.0
1001
ACAD
1000
AcDbSavedByObjectVersion
1070
     0
  0
VISUALSTYLE
  5
35
102
{ACAD_REACTORS
330
2A
102
}
330
2A
100
AcDbVisualStyle
  2
Dim
 70
    11
 71
     2
 72
     2
 73
     0
 90
        0
 40
-0.6
 41
-30.0
 62
     5
 63
     7
421
 16777215
 74
     1
 91
        4
 64
     7
 65
   257
 75
     1
175
     1
 42
1.0
 92
        8
 66
     7
 43
1.0
 76
     1
 77
     6
 78
     2
 67
     7
 79
     5
170
     0
171
     0
290
     0
174
     0
 93
        1
 44
-50.0
173
     0
291
     1
 45
0.0
1001
ACAD
1000
AcDbSavedByObjectVersion
1070
     0
  0
VISUALSTYLE
  5
39
102
{ACAD_REACTORS
330
2A
102
}
330
2A
100
AcDbVisualStyle
  2
Facepattern
 70
    15
 71
     2
 72
     2
 73
     0
 90
        0
 40
-0.6
 41
-30.0
 62
     5
 63
     7
421
 16777215
 74
     1
 91
        4
 64
     7
 65
   257
 75
     1
175
     1
 42
1.0
 92
        8
 66
     7
 43
1.0
 76
     1
 77
     6
 78
     2
 67
     7
 79
     5
170
     0
171
     0
290
     0
174
     0
 93
        1
 44
0.0
173
     0
291
     1
 45
0.0
1001
ACAD
1000
AcDbSavedByObjectVersion
1070
     0
  0
VISUALSTYLE
  5
2B
102
{ACAD_REACTORS
330
2A
102
}
330
2A
100
AcDbVisualStyle
  2
Flat
 70
     0
 71
     2
 72
     1
 73
     1
 90
        2
 40
-0.6
 41
30.0
 62
     5
 63
     7
421
 16777215
 74
     0
 91
        4
 64
     7
 65
   257
 75
     1
175
     1
 42
1.0
 92
        8
 66
     7
 43
1.0
 76
     1
 77
     6
 78
     2
 67
     7
 79
     5
170
     0
171
     0
290
     0
174
     0
 93
       13
 44
0.0
173
     0
291
     1
 45
0.0
1001
ACAD
1000
AcDbSavedByObjectVersion
1070
     0
  0
VISUALSTYLE
  5
2C
102
{ACAD_REACTORS
330
2A
102
}
330
2A
100
AcDbVisualStyle
  2
FlatWithEdges
 70
     1
 71
     2
 72
     1
 73
     1
 90
        2
 40
-0.6
 41
30.0
 62
     5
 63
     7
421
 16777215
 74
     1
 91
        4
 64
     7
 65
   257
 75
     1
175
     1
 42
1.0
 92
        0
 66
   257
 43
1.0
 76
     1
 77
     6
 78
     2
 67
     7
 79
     5
170
     0
171
     0
290
     0
174
     0
 93
       13
 44
0.0
173
     0
291
     1
 45
0.0
1001
ACAD
1000
AcDbSavedByObjectVersion
1070
     0
  0
VISUALSTYLE
  5
2D
102
{ACAD_REACTORS
330
2A
102
}
330
2A
100
AcDbVisualStyle
  2
Gouraud
 70
     2
 71
     2
 72
     2
 73
     1
 90
        2
 40
-0.6
 41
30.0
 62
     5
 63
     7
421
 16777215
 74
     0
 91
        4
 64
     7
 65
   257
 75
     1
175
     1
 42
1.0
 92
        0
 66
     7
 43
1.0
 76
     1
 77
     6
 78
     2
 67
     7
 79
     5
170
     0
171
     0
290
     0
174
     0
 93
       13
 44
0.0
173
     0
291
     1
 45
0.0
1001
ACAD
1000
AcDbSavedByObjectVersion
1070
     0
  0
VISUALSTYLE
  5
2E
102
{ACAD_REACTORS
330
2A
102
}
330
2A
100
AcDbVisualStyle
  2
GouraudWithEdges
 70
     3
 71
     2
 72
     2
 73
     1
 90
        2
 40
-0.6
 41
30.0
 62
     5
 63
     7
421
 16777215
 74
     1
 91
        4
 64
     7
 65
   257
 75
     1
175
     1
 42
1.0
 92
        0
 66
   257
 43
1.0
 76
     1
 77
     6
 78
     2
 67
     7
 79
     5
170
     0
171
     0
290
     0
174
     0
 93
       13
 44
0.0
173
     0
291
     1
 45
0.0
1001
ACAD
1000
AcDbSavedByObjectVersion
1070
     0
  0
VISUALSTYLE
  5
38
102
{ACAD_REACTORS
330
2A
102
}
330
2A
100
AcDbVisualStyle
  2
Linepattern
 70
    14
 71
     2
 72
     2
 73
     0
 90
        0
 40
-0.6
 41
-30.0
 62
     5
 63
     7
421
 16777215
 74
     1
 91
        4
 64
     7
 65
   257
 75
     7
175
     7
 42
1.0
 92
        8
 66
     7
 43
1.0
 76
     1
 77
     6
 78
     2
 67
     7
 79
     5
170
     0
171
     0
290
     0
174
     0
 93
        1
 44
0.0
173
     0
291
     1
 45
0.0
1001
ACAD
1000
AcDbSavedByObjectVersion
1070
     0
  0
VISUALSTYLE
  5
33
102
{ACAD_REACTORS
330
2A
102
}
330
2A
100
AcDbVisualStyle
  2
Realistic
 70
     8
 71
     2
 72
     2
 73
     0
 90
        0
 40
-0.6
 41
-30.0
 62
     5
 63
     7
421
 16777215
 74
     1
 91
        0
 64
     7
 65
   257
 75
     1
175
     1
 42
1.0
 92
        8
 66
     8
424
  7895160
 43
1.0
 76
     1
 77
     6
 78
     2
 67
     7
 79
     5
170
     0
171
     0
290
     0
174
     0
 93
       13
 44
0.0
173
     0
291
     0
 45
0.0
1001
ACAD
1000
AcDbSavedByObjectVersion
1070
     0
  0
VISUALSTYLE
  5
37
102
{ACAD_REACTORS
330
2A
102
}
330
2A
100
AcDbVisualStyle
  2
Thicken
 70
    13
 71
     2
 72
     2
 73
     0
 90
        0
 40
-0.6
 41
-30.0
 62
     5
 63
     7
421
 16777215
 74
     1
 91
        4
 64
     7
 65
   257
 75
     1
175
     1
 42
1.0
 92
       12
 66
     7
 43
1.0
 76
     1
 77
     6
 78
     2
 67
     7
 79
     5
170
     0
171
     0
290
     0
174
     0
 93
        1
 44
0.0
173
     0
291
     1
 45
0.0
1001
ACAD
1000
AcDbSavedByObjectVersion
1070
     0
  0
ENDSEC
  0
EOF
