0
SECTION
2
HEADER
9
$INSUNITS
70
4
9
$ACADVER
1
AC1014
9
$HANDSEED
5
FFFF
0
ENDSEC
0
SECTION
2
TABLES
0
TABLE
2
VPORT
5
8
100
AcDbSymbolTable
0
ENDTAB
0
TABLE
2
LTYPE
5
5
100
AcDbSymbolTable
0
LTYPE
5
14
100
AcDbSymbolTableRecord
100
AcDbLinetypeTableRecord
2
BYBLOCK
70
0
0
LTYPE
5
15
100
AcDbSymbolTableRecord
100
AcDbLinetypeTableRecord
2
BYLAYER
70
0
0
ENDTAB
0
TABLE
2
LAYER
5
2
100
AcDbSymbolTable
70
2
0
LAYER
5
50
100
AcDbSymbolTableRecord
100
AcDbLayerTableRecord
2
0
70
0
6
CONTINUOUS
0
ENDTAB
0
TABLE
2
STYLE
5
3
100
AcDbSymbolTable
70
1
0
STYLE
5
11
100
AcDbSymbolTableRecord
100
AcDbTextStyleTableRecord
2
STANDARD
70
0
0
ENDTAB
0
TABLE
2
VIEW
5
6
100
AcDbSymbolTable
70
0
0
ENDTAB
0
TABLE
2
UCS
5
7
100
AcDbSymbolTable
70
0
0
ENDTAB
0
TABLE
2
APPID
5
9
100
AcDbSymbolTable
70
2
0
APPID
5
12
100
AcDbSymbolTableRecord
100
AcDbRegAppTableRecord
2
ACAD
70
0
0
ENDTAB
0
TABLE
2
DIMSTYLE
5
A
100
AcDbSymbolTable
70
1
0
ENDTAB
0
TABLE
2
BLOCK_RECORD
5
1
100
AcDbSymbolTable
70
1
0
BLOCK_RECORD
5
1F
100
AcDbSymbolTableRecord
100
AcDbBlockTableRecord
2
*MODEL_SPACE
0
BLOCK_RECORD
5
1B
100
AcDbSymbolTableRecord
100
AcDbBlockTableRecord
2
*PAPER_SPACE
0
ENDTAB
0
ENDSEC
0
SECTION
2
BLOCKS
0
BLOCK
5
20
100
AcDbEntity
100
AcDbBlockBegin
2
*MODEL_SPACE
0
ENDBLK
5
21
100
AcDbEntity
100
AcDbBlockEnd
0
BLOCK
5
1C
100
AcDbEntity
100
AcDbBlockBegin
2
*PAPER_SPACE
0
ENDBLK
5
1D
100
AcDbEntity
100
AcDbBlockEnd
0
ENDSEC
0
SECTION
2
ENTITIES
0
LWPOLYLINE
5
100
100
AcDbEntity
8
0
100
AcDbPolyline
90
131
70
1
43
0.0
10
1.9549900000000298
20
134.96479999999997
10
1.954990000000052
20
114.96479999999998
10
421.95499000000007
20
114.96479999999998
10
421.95499000000007
20
134.96479999999997
10
441.95499000000007
20
134.96479999999997
10
441.95499000000007
20
444.96480000000014
10
421.95499000000007
20
444.96480000000014
10
419.86145232857672
20
444.98419626405712
10
415.83092816394816
20
445.21363725108904
10
411.98498561959298
20
445.66589086184842
10
408.31998048041339
20
446.33432873303047
10
404.83226853131191
20
447.2123225013309
10
401.51820555719047
20
448.29324380344468
10
398.37414734295123
20
449.5704642760677
10
395.39644967349614
20
451.03735555589503
10
392.58146833372791
20
452.68728927962206
10
389.92555910854833
20
454.51363708394433
10
387.42507778285977
20
456.50977060555726
10
385.07638014156413
20
458.66906148115618
10
382.87582196956402
20
460.98488134743656
10
380.81975905176114
20
463.45060184109377
10
378.90454717305795
20
466.05959459882297
10
377.12654211835655
20
468.8052312573202
10
375.48209967255923
20
471.68088345328033
10
373.96757562056791
20
474.67992282339873
10
372.57932574728494
20
477.79572100437099
10
371.31370583761247
20
481.02164963289255
10
370.16707167645279
20
484.35108034565877
10
369.13577904870783
20
487.77738477936504
10
368.21618373927998
20
491.29393457070677
10
367.4046415330713
20
494.89410135637922
10
366.69750821498411
20
498.57125677307818
10
366.09113956992047
20
502.31877245749877
10
365.35109187680752
20
508.05074827144614
10
364.69921204364744
20
515.8884008869619
10
364.3847950308209
20
523.88818403388177
10
364.37868711754498
20
531.99707080576843
10
364.65173458303724
20
540.16203429618577
10
365.17478370651526
20
548.33004759869652
10
365.91868076719607
20
556.44808380686425
10
366.85427204429743
20
564.46311601425191
10
367.95240381703644
20
572.32211731442283
10
369.18392236463092
20
579.97206080094054
10
370.51967396629772
20
587.3599195673678
10
371.93050490125461
20
594.43266670726803
10
373.38726144871885
20
601.13727531420466
10
375.59810286533593
20
610.45052034235368
10
378.43732498591794
20
621.01458348120275
10
380.93548258244255
20
629.15160817233459
10
381.95499000000007
20
632.0497737787083
10
395.18384548659668
20
647.04968652894547
10
335.18384548659776
20
699.9647127502376
10
321.95499000000007
20
684.96480000000008
10
320.58549803300718
20
684.42366991838196
10
317.71360520098938
20
683.40529892199856
10
314.69242279389937
20
682.46111475661542
10
311.5332853701442
20
681.58836167865331
10
306.57441025236062
20
680.39906944548443
10
299.56442000574322
20
679.04908089112712
10
292.20663174379126
20
677.93521330201543
10
284.59172193376043
20
677.03542072951086
10
276.81036704290722
20
676.32765722497402
10
268.95324353848719
20
675.78987683976607
10
261.11102788775656
20
675.40003362524817
10
253.37439655797112
20
675.13608163278138
10
242.12424050105244
20
674.91912712897272
10
221.9197337671539
20
674.91219547634523
10
211.95499000000009
20
674.96480000000008
10
201.99024623284626
20
674.91219547634523
10
181.78573949894746
20
674.91912712897272
10
170.53558344202887
20
675.13608163278138
10
162.79895211224351
20
675.40003362524817
10
154.95673646151286
20
675.78987683976607
10
147.09961295709289
20
676.32765722497402
10
139.31825806623945
20
677.03542072951086
10
131.70334825620873
20
677.93521330201543
10
124.34555999425686
20
679.04908089112712
10
117.33556974763945
20
680.39906944548443
10
112.37669462985586
20
681.58836167865331
10
109.21755720610078
20
682.46111475661542
10
106.19637479901066
20
683.40529892199856
10
103.32448196699296
20
684.42366991838196
10
101.95499000000005
20
684.96480000000008
10
88.726239232870157
20
699.96480510470587
10
28.726239232870121
20
647.04977888341443
10
41.954990000000016
20
632.0497737787083
10
42.974497417557501
20
629.15160817233459
10
45.472655014082228
20
621.01458348120275
10
48.311877134664073
20
610.45052034235368
10
50.52271855128113
20
601.13727531420466
10
51.979475098745446
20
594.43266670726803
10
53.390306033702402
20
587.3599195673678
10
54.72605763536923
20
579.97206080094054
10
55.957576182963578
20
572.32211731442283
10
57.055707955702673
20
564.46311601425191
10
57.991299232803939
20
556.44808380686425
10
58.735196293484933
20
548.33004759869652
10
59.258245416962829
20
540.16203429618577
10
59.531292882455126
20
531.99707080576843
10
59.525184969179222
20
523.88818403388177
10
59.210767956352598
20
515.8884008869619
10
58.558888123192638
20
508.05074827144614
10
57.818840430079838
20
502.31877245749877
10
57.212471785016106
20
498.57125677307818
10
56.505338466928748
20
494.89410135637922
10
55.693796260720063
20
491.29393457070677
10
54.7742009512923
20
487.77738477936504
10
53.742908323547397
20
484.35108034565877
10
52.596274162387587
20
481.02164963289255
10
51.33065425271522
20
477.79572100437099
10
49.942404379432297
20
474.67992282339873
10
48.427880327441002
20
471.68088345328033
10
46.783437881643614
20
468.8052312573202
10
45.005432826942254
20
466.05959459882297
10
43.090220948239022
20
463.45060184109377
10
41.034158030436252
20
460.98488134743656
10
38.833599858436017
20
458.66906148115618
10
36.484902217140416
20
456.50977060555726
10
33.984420891451833
20
454.51363708394433
10
31.328511666272192
20
452.68728927962206
10
28.513530326503826
20
451.03735555589503
10
25.53583265704895
20
449.5704642760677
10
22.391774442809663
20
448.29324380344468
10
19.077711468688165
20
447.2123225013309
10
15.589999519586538
20
446.33432873303047
10
11.924994380407107
20
445.66589086184842
10
8.079051836051967
20
445.21363725108904
10
4.048527671423372
20
444.98419626405712
10
1.954990000000032
20
444.96480000000014
10
-18.045009999999994
20
444.96480000000014
10
-18.045009999999991
20
134.96479999999997
0
LWPOLYLINE
5
101
100
AcDbEntity
8
0
100
AcDbPolyline
90
8
70
1
43
0.0
10
200.76483062859413
20
430
10
170.40325873703111
20
430
10
107.59639829841117
20
600.99999999999989
10
321.3463982984112
20
600.99999999999977
10
258.66984610086894
20
429.99999999999989
10
228.31575512847593
20
430
10
280.54621529309441
20
572.5
10
148.42578026307763
20
572.5
0
LWPOLYLINE
5
102
100
AcDbEntity
8
0
100
AcDbPolyline
90
10
70
1
43
0.0
10
321.3463982984112
20
458.49999999999994
10
269.11593813379278
20
458.49999999999994
10
258.66984610086899
20
430
10
280.54621529309458
20
430
10
214.55459800634543
20
249.95553104983003
10
148.42578026307763
20
430
10
170.40325873703114
20
429.99999999999989
10
159.93544866392799
20
458.49999999999994
10
107.59639829841117
20
458.49999999999989
10
214.58238263468809
20
167.21648107005205
0
LWPOLYLINE
5
103
100
AcDbEntity
8
0
100
AcDbPolyline
90
6
70
1
43
0.0
10
258.66984610086899
20
430
10
228.31575512847593
20
430
10
214.55459800634543
20
392.45553104983003
10
200.76483062859413
20
430
10
170.40325873703114
20
429.99999999999989
10
214.58238263468809
20
309.71648107005188
0
LWPOLYLINE
5
104
100
AcDbEntity
8
0
100
AcDbPolyline
90
74
70
1
43
0.0
10
62.150953284566327
20
741.93157599461915
10
65.906434563386966
20
739.58121770650575
10
69.911887109954748
20
737.38901281956464
10
74.146907792648378
20
735.34947230767079
10
78.591093479846137
20
733.45710714469851
10
83.224041039926846
20
731.70642830452312
10
88.025347341268656
20
730.09194676101947
10
92.97460925225036
20
728.60817348806165
10
98.051423641250466
20
727.24961945952498
10
103.23538737664748
20
726.01079564928432
10
108.50609732681987
20
724.88621303121386
10
113.84315036014625
20
723.87038257918891
10
121.92657443386487
20
722.52666126774614
10
132.75390141998366
20
721.08164504646527
10
143.47934436953184
20
719.97283501911193
10
153.93967822953766
20
719.15631897668402
10
163.97167794702935
20
718.58818471018003
10
173.41211846903516
20
718.22452001059764
10
186.23150368562136
20
717.95450931145911
10
199.60432892105646
20
717.92705080580413
10
204.13503000000006
20
717.93940000000009
10
208.66573107894354
20
717.92705080580413
10
222.03855631437875
20
717.95450931145911
10
234.85794153096495
20
718.22452001059764
10
244.29838205297074
20
718.58818471018003
10
254.33038177046245
20
719.15631897668413
10
264.79071563046824
20
719.97283501911193
10
275.51615858001639
20
721.08164504646527
10
286.3434855661352
20
722.52666126774614
10
294.42690963985387
20
723.87038257918891
10
299.76396267318023
20
724.88621303121386
10
305.03467262335278
20
726.01079564928432
10
310.21863635874973
20
727.24961945952498
10
315.29545074774973
20
728.60817348806165
10
320.24471265873149
20
730.09194676101947
10
325.04601896007335
20
731.70642830452312
10
329.67896652015384
20
733.45710714469851
10
334.12315220735167
20
735.34947230767079
10
338.35817289004524
20
737.38901281956464
10
342.36362543661323
20
739.58121770650575
10
346.1191067154337
20
741.93157599461915
10
347.88504148559133
20
743.17471077396146
10
314.13503000000003
20
772.93940000000009
10
312.76553803300709
20
772.39826991838208
10
309.8936452009894
20
771.37989892199857
10
306.87246279389933
20
770.43571475661554
10
303.71332537014416
20
769.56296167865332
10
298.75445025236053
20
768.37366944548444
10
291.74446000574324
20
767.02368089112713
10
284.38667174379123
20
765.90981330201566
10
276.77176193376056
20
765.01002072951087
10
268.99040704290724
20
764.30225722497403
10
261.13328353848715
20
763.76447683976619
10
253.29106788775647
20
763.37463362524818
10
245.55443655797126
20
763.11068163278151
10
234.3042805010526
20
762.89372712897261
10
214.09977376715389
20
762.88679547634524
10
204.13503000000006
20
762.93939999999998
10
194.17028623284622
20
762.88679547634524
10
173.96577949894754
20
762.89372712897261
10
162.71562344202889
20
763.11068163278151
10
154.97899211224359
20
763.37463362524818
10
147.13677646151285
20
763.76447683976619
10
139.27965295709288
20
764.30225722497403
10
131.4982980662395
20
765.01002072951087
10
123.88338825620886
20
765.90981330201566
10
116.52559999425685
20
767.02368089112713
10
109.51560974763957
20
768.37366944548444
10
104.55673462985587
20
769.56296167865332
10
101.39759720610076
20
770.43571475661554
10
98.376414799010746
20
771.37989892199857
10
95.504521966992968
20
772.39826991838208
10
94.135030000000057
20
772.93940000000009
10
60.385018514408699
20
743.17471077396146
0
LWPOLYLINE
5
105
100
AcDbEntity
8
0
100
AcDbPolyline
90
161
70
1
43
0.0
10
730.74499000000037
20
135.81519999999998
10
750.74499000000003
20
135.81519999999998
10
750.74499000000003
20
115.81519999999998
10
1210.7449900000001
20
115.81519999999998
10
1210.7449900000001
20
135.81519999999998
10
1230.7449900000001
20
135.81519999999998
10
1230.7449900000001
20
445.81520000000006
10
1210.7449900000001
20
445.81520000000006
10
1208.5775562724971
20
445.83313111563905
10
1204.3767030128802
20
446.04556473129691
10
1200.3345431844812
20
446.46495241858929
10
1196.4487172281392
20
447.08581463349276
10
1192.7168655846892
20
447.90267183198421
10
1189.1366286949669
20
448.91004447004002
10
1185.7056469998122
20
450.10245300363687
10
1182.421560940059
20
451.47441788875153
10
1179.282010956545
20
453.0204595813608
10
1176.2846374901071
20
454.73509853744099
10
1173.4270809815812
20
456.61285521296907
10
1170.7069818718041
20
458.64825006392152
10
1168.121980601612
20
460.83580354627497
10
1165.6697176118432
20
463.17003611600626
10
1163.3478333433322
20
465.64546822909176
10
1161.1539682369171
20
468.25662034150821
10
1159.0857627334342
20
470.99801290923261
10
1157.14085727372
20
473.86416638824124
10
1155.316892298611
20
476.84960123451094
10
1153.6115082489441
20
479.94883790401821
10
1152.0223455655562
20
483.15639685273982
10
1150.5470446892832
20
486.46679853665239
10
1149.1832460609621
20
489.87456341173254
10
1147.9285901214291
20
493.37421193395704
10
1146.780717311522
20
496.96026455930257
10
1145.7372680720771
20
500.62724174374551
10
1144.7958828439303
20
504.36966394326259
10
1143.954202067918
20
508.18205161383077
10
1143.2098661848781
20
512.05892521142653
10
1142.5605156356471
20
515.99480519202643
10
1141.748289972533
20
521.99161218813992
10
1140.9911861669602
20
530.15165591908487
10
1140.5715516316802
20
538.44909338962657
10
1140.4705098933871
20
546.84008824757814
10
1140.6691844787729
20
555.28080414075293
10
1141.148698914531
20
563.72740471696397
10
1141.8901767273553
20
572.13605362402461
10
1142.8747414439381
20
580.46291450974832
10
1144.0835165909732
20
588.6641510219481
10
1145.4976256951531
20
596.69592680843732
10
1147.09819228317
20
604.5144055170291
10
1148.8663398817191
20
612.07575079553681
10
1150.7831920174922
20
619.33612629177367
10
1152.829872217183
20
626.2516956535527
10
1154.9875040074839
20
632.77862252868761
10
1157.2372109150892
20
638.87307056499117
10
1159.5601164666912
20
644.49120341027719
10
1160.7449900000001
20
647.08536653792578
10
1170.4274409215552
20
664.58537065654343
10
1100.4274409215552
20
703.31520411861811
10
1090.7449900000001
20
685.8152
10
1090.632319361639
20
685.56536819737835
10
1090.0905669924762
20
684.78131805726298
10
1088.6430061174442
20
683.04722262254768
10
1085.4793727431811
20
679.69435287067972
10
1081.1026985499102
20
675.38217503196597
10
1075.6519528215913
20
670.29511968846828
10
1069.2661048421842
20
664.61761742225019
10
1062.0841238956511
20
658.53409881537414
10
1054.2449792659502
20
652.22899444990298
10
1045.8876402370411
20
645.88673490789972
10
1039.3545759085041
20
641.22552863701003
10
1034.9175442983578
20
638.19943615429315
10
1030.429134310637
20
635.26779707985361
10
1025.9067171058371
20
632.45366523644907
10
1021.3676638444521
20
629.78009444683732
10
1016.8293456869792
20
627.27013853377662
10
1012.3091337939121
20
624.94685132002451
10
1007.824399325745
20
622.83328662833901
10
1003.392513442974
20
620.95249828147792
10
999.03084730609407
20
619.3275401021989
10
994.75677207560011
20
617.98146591326019
10
990.58765891198721
20
616.93732953741926
10
986.54087897575005
20
616.21818479743399
10
982.63380342738412
20
615.84708551606252
10
980.74499000000003
20
615.8152
10
978.85617657261582
20
615.84708551606252
10
974.94910102424967
20
616.21818479743399
10
970.90232108801274
20
616.93732953741903
10
966.73320792439972
20
617.98146591326019
10
962.45913269390576
20
619.3275401021989
10
958.09746655702565
20
620.9524982814778
10
953.66558067425535
20
622.8332866283389
10
949.18084620608852
20
624.94685132002451
10
944.66063431302086
20
627.27013853377662
10
940.12231615554765
20
629.78009444683732
10
935.58326289416323
20
632.45366523644907
10
931.06084568936342
20
635.26779707985361
10
926.57243570164246
20
638.19943615429315
10
922.13540409149573
20
641.22552863701003
10
915.60233976295876
20
645.88673490789972
10
907.24500073405056
20
652.22899444990298
10
899.40585610434982
20
658.53409881537414
10
892.22387515781577
20
664.61761742225019
10
885.83802717840945
20
670.29511968846828
10
880.38728145009043
20
675.38217503196597
10
876.01060725681896
20
679.69435287067972
10
872.84697388255552
20
683.04722262254768
10
871.39941300752434
20
684.78131805726298
10
870.85766063836115
20
685.56536819737835
10
870.74499000000003
20
685.8152
10
861.08025913245626
20
703.32499660812709
10
791.08025913245626
20
664.5951631460531
10
800.74499000000003
20
647.08536653792578
10
801.92986353330934
20
644.49120341027719
10
804.25276908491105
20
638.87307056499117
10
806.50247599251588
20
632.77862252868761
10
808.66010778281702
20
626.2516956535527
10
810.70678798250754
20
619.33612629177367
10
812.62364011828083
20
612.07575079553681
10
814.39178771682975
20
604.5144055170291
10
815.99235430484725
20
596.69592680843732
10
817.40646340902697
20
588.6641510219481
10
818.61523855606163
20
580.46291450974832
10
819.59980327264475
20
572.13605362402461
10
820.34128108546895
20
563.72740471696397
10
820.82079552122741
20
555.28080414075293
10
821.0194701066132
20
546.84008824757814
10
820.91842836831972
20
538.44909338962657
10
820.49879383304017
20
530.15165591908487
10
819.74169002746737
20
521.99161218813992
10
818.92946436435318
20
515.99480519202643
10
818.28011381512181
20
512.05892521142653
10
817.53577793208194
20
508.18205161383077
10
816.69409715607003
20
504.36966394326259
10
815.75271192792343
20
500.62724174374551
10
814.70926268847802
20
496.96026455930257
10
813.56138987857082
20
493.37421193395704
10
812.30673393903828
20
489.87456341173254
10
810.94293531071742
20
486.46679853665239
10
809.46763443444468
20
483.15639685273982
10
807.8784717510564
20
479.94883790401821
10
806.17308770138948
20
476.84960123451094
10
804.34912272628071
20
473.86416638824124
10
802.40421726656632
20
470.99801290923261
10
800.33601176308321
20
468.25662034150821
10
798.14214665666793
20
465.64546822909176
10
795.8202623881574
20
463.17003611600626
10
793.36799939838806
20
460.83580354627497
10
790.78299812819648
20
458.64825006392152
10
788.06289901841922
20
456.61285521296907
10
785.20534250989328
20
454.73509853744099
10
782.20796904345491
20
453.0204595813608
10
779.06841905994099
20
451.47441788875153
10
775.78433300018787
20
450.10245300363687
10
772.35335130503245
20
448.91004447004002
10
768.77311441531162
20
447.90267183198421
10
765.04126277186128
20
447.08581463349276
10
761.15543681551901
20
446.46495241858929
10
757.11327698712068
20
446.04556473129691
10
752.91242372750321
20
445.83313111563905
10
750.74499000000003
20
445.81520000000006
10
730.74499000000037
20
445.81520000000006
0
LWPOLYLINE
5
106
100
AcDbEntity
8
0
100
AcDbPolyline
90
106
70
1
43
0.0
10
870.74499000000003
20
859.50119999999993
10
831.38710317871926
20
837.6847670889149
10
831.5189915352546
20
837.42361518517544
10
832.28414987819622
20
836.50796886956766
10
834.43075525182303
20
834.36210475669839
10
839.20867695274069
20
830.05834651094926
10
845.83382417242308
20
824.42171684147229
10
854.05192131786316
20
817.70456693703522
10
863.6086927960547
20
810.15924798640742
10
874.24986301398974
20
802.03811117835721
10
885.72115637866261
20
793.59350770165338
10
897.76829729706594
20
785.07778874506448
10
907.03267982114676
20
778.8077131028308
10
913.24975257720234
20
774.73309625409297
10
919.46775720062442
20
770.78264807906646
10
925.65490924228641
20
766.98791247634676
10
931.7794242530631
20
763.38043334453027
10
937.80951778382837
20
759.99175458221305
10
943.71340538545655
20
756.85342008799148
10
949.45930260882164
20
753.99697376046106
10
955.01542500479786
20
751.4539594982183
10
960.34998812425954
20
749.25592119985913
10
965.43120751808044
20
747.43440276397962
10
970.2272987371349
20
746.02094808917604
10
973.60748298653493
20
745.26210160226651
10
975.76188454393218
20
744.89099449060529
10
977.82712530500385
20
744.63964676217347
10
979.79923221361037
20
744.51200140429501
10
980.74499000000003
20
744.50119999999993
10
981.69074778638969
20
744.51200140429501
10
983.66285469499621
20
744.63964676217347
10
985.72809545606799
20
744.89099449060529
10
987.88249701346501
20
745.26210160226651
10
991.26268126286504
20
746.02094808917604
10
996.05877248191996
20
747.43440276397962
10
1001.1399918757401
20
749.25592119985913
10
1006.4745549952022
20
751.4539594982183
10
1012.0306773911782
20
753.99697376046106
10
1017.7765746145441
20
756.85342008799148
10
1023.680462216172
20
759.99175458221305
10
1029.7105557469372
20
763.38043334453027
10
1035.835070757714
20
766.98791247634676
10
1042.0222227993763
20
770.78264807906646
10
1048.2402274227982
20
774.73309625409297
10
1054.4573001788531
20
778.8077131028308
10
1063.7216827029342
20
785.07778874506448
10
1075.7688236213371
20
793.59350770165338
10
1087.2401169860102
20
802.03811117835721
10
1097.8812872039462
20
810.15924798640742
10
1107.4380586821371
20
817.70456693703522
10
1115.6561558275773
20
824.42171684147229
10
1122.2813030472598
20
830.05834651094926
10
1127.0592247481773
20
834.36210475669839
10
1129.2058301218042
20
836.50796886956766
10
1129.9709884647461
20
837.42361518517544
10
1130.1028768212811
20
837.6847670889149
10
1090.7449900000001
20
859.50119999999993
10
1090.632319361639
20
859.25136819737816
10
1090.0905669924762
20
858.46731805726313
10
1088.6430061174442
20
856.73322262254771
10
1085.4793727431811
20
853.3803528706801
10
1081.1026985499102
20
849.06817503196578
10
1075.6519528215913
20
843.98111968846831
10
1069.2661048421842
20
838.30361742225023
10
1062.0841238956511
20
832.22009881537406
10
1054.2449792659502
20
825.91499444990302
10
1045.8876402370411
20
819.57273490789976
10
1039.3545759085041
20
814.91152863701018
10
1034.9175442983578
20
811.88543615429307
10
1030.429134310637
20
808.95379707985353
10
1025.9067171058371
20
806.13966523644899
10
1021.3676638444521
20
803.46609444683747
10
1016.8293456869792
20
800.95613853377654
10
1012.3091337939121
20
798.63285132002466
10
1007.824399325745
20
796.51928662833916
10
1003.392513442974
20
794.63849828147772
10
999.03084730609407
20
793.0135401021987
10
994.75677207560011
20
791.66746591326
10
990.58765891198721
20
790.62332953741918
10
986.54087897575005
20
789.90418479743414
10
982.63380342738412
20
789.53308551606256
10
980.74499000000003
20
789.50119999999993
10
978.85617657261582
20
789.53308551606256
10
974.94910102424967
20
789.90418479743414
10
970.90232108801274
20
790.62332953741918
10
966.73320792439972
20
791.66746591326
10
962.45913269390576
20
793.0135401021987
10
958.09746655702565
20
794.63849828147772
10
953.66558067425535
20
796.51928662833893
10
949.18084620608852
20
798.63285132002466
10
944.66063431302086
20
800.95613853377654
10
940.12231615554765
20
803.46609444683747
10
935.58326289416323
20
806.13966523644899
10
931.06084568936342
20
808.95379707985353
10
926.57243570164246
20
811.88543615429307
10
922.13540409149573
20
814.91152863701006
10
915.60233976295876
20
819.57273490789976
10
907.24500073405056
20
825.91499444990302
10
899.40585610434982
20
832.22009881537406
10
892.22387515781577
20
838.30361742225023
10
885.83802717840945
20
843.98111968846831
10
880.38728145009043
20
849.06817503196578
10
876.01060725681896
20
853.38035287067987
10
872.84697388255552
20
856.73322262254771
10
871.39941300752434
20
858.46731805726313
10
870.85766063836115
20
859.25136819737816
0
LWPOLYLINE
5
107
100
AcDbEntity
8
0
100
AcDbPolyline
90
95
70
1
43
0.0
10
1342.614294790051
20
487.69311556938754
10
1419.0981567007661
20
576.75520218674819
10
1496.2587014693199
20
665.36321782654807
10
1473.4169560263674
20
680.20064374213064
10
1473.109969591781
20
682.27164242047581
10
1472.3286772565298
20
686.23236842653364
10
1471.3520596263543
20
689.97963748377492
10
1470.1861812172242
20
693.51797033880234
10
1468.8371065451067
20
696.85188773821869
10
1467.3109001259713
20
699.98591042862711
10
1465.6136264757845
20
702.92455915663038
10
1463.7513501105161
20
705.67235466883164
10
1461.7301355461336
20
708.23381771183335
10
1459.5560472986053
20
710.61346903223875
10
1457.2351498839002
20
712.81582937665064
10
1454.7735078179858
20
714.84541949167192
10
1452.1771856168307
20
716.70676012390527
10
1449.4522477964024
20
718.40437201995417
10
1446.6047588726699
20
719.94277592642095
10
1443.6407833616017
20
721.32649258990864
10
1440.5663857791656
20
722.56004275702014
10
1437.3876306413299
20
723.64794717435859
10
1434.1105824640631
20
724.59472658852656
10
1430.7413057633332
20
725.40490174612717
10
1427.2858650551086
20
726.08299339376299
10
1423.7503248553573
20
726.63352227803728
10
1420.1407496800484
20
727.06100914555293
10
1416.463204045149
20
727.36997474291252
10
1412.723752466628
20
727.5649398167194
10
1408.9284594604537
20
727.65042511357615
10
1403.1491684202397
20
727.59553984907882
10
1395.2963080335896
20
727.16388074032648
10
1387.3292432237552
20
726.37567596262602
10
1379.2964901184816
20
725.2670914888007
10
1371.2465648455156
20
723.87429329167333
10
1363.227983532603
20
722.23344734406726
10
1355.2892623074902
20
720.38071961880587
10
1347.4789172979229
20
718.35227608871207
10
1339.8454646316475
20
716.18428272660924
10
1332.4374204364099
20
713.91290550532062
10
1325.303300839957
20
711.5743103976688
10
1318.4916219700335
20
709.20466337647781
10
1312.0508999543868
20
706.84013041457001
10
1303.1299591654235
20
703.37009177449818
10
1293.0564497927412
20
699.10570188026259
10
1285.3400581365931
20
695.51275573397788
10
1282.6095430736473
20
694.1045488076179
10
1280.9232245577596
20
691.80456239770956
10
1277.5092964900621
20
686.77421429668038
10
1274.0704555349489
20
681.26260374052094
10
1270.6340754209655
20
675.30882837625882
10
1267.2275298766544
20
668.95198585092317
10
1263.8781926305619
20
662.23117381153997
10
1260.6134374112312
20
655.18548990513932
10
1257.460637947207
20
647.85403177874764
10
1254.4471679670348
20
640.2758970793933
10
1251.6004011992586
20
632.49018345410423
10
1248.9477113724213
20
624.53598854990912
10
1246.516472215068
20
616.45241001383522
10
1244.3340574557446
20
608.27854549290964
10
1242.4278408229941
20
600.05349263416213
10
1240.8251960453613
20
591.81634908461945
10
1239.5534968513909
20
583.60621249130963
10
1238.6401169696273
20
575.46218050126095
10
1238.2193905948034
20
569.42526125432869
10
1238.0571030085871
20
565.43947775583865
10
1237.9997929727288
20
561.49221283461713
10
1238.0508822032966
20
557.58835369654241
10
1238.2137924163583
20
553.73278754749344
10
1238.4919453279815
20
549.93040159334851
10
1238.8887626542353
20
546.18608303998576
10
1239.4076661111874
20
542.50471909328394
10
1240.0520774149056
20
538.89119695912177
10
1240.8254182814576
20
535.35040384337742
10
1241.7311104269127
20
531.88722695192939
10
1242.7725755673382
20
528.5065534906563
10
1243.9532354188018
20
525.21327066543665
10
1245.2765116973719
20
522.01226568214895
10
1246.7458261191166
20
518.90842574667158
10
1248.3646004001039
20
515.90663806488305
10
1250.1362562564025
20
513.01178984266176
10
1252.0642154040788
20
510.2287682858867
10
1254.1518995592032
20
507.56246060043566
10
1256.4027304378412
20
505.01775399218775
10
1258.8201297560627
20
502.59953566702097
10
1261.4075192299351
20
500.312692830814
10
1264.1683205755262
20
498.16211268944551
10
1267.1059555089048
20
496.15268244879388
10
1270.2238457461381
20
494.2892893147374
10
1273.5254130032963
20
492.57682049315457
10
1277.0140789964439
20
491.02016318992435
10
1280.693265441651
20
489.62420461092501
10
1284.5663940549864
20
488.39383196203448
10
1288.636886552516
20
487.33393244913213
10
1290.7556508965547
20
486.87684586821376
0
LWPOLYLINE
5
108
100
AcDbEntity
8
0
100
AcDbPolyline
90
95
70
1
43
0.0
10
1719.098156700757
20
576.75520218673762
10
1796.2587014693199
20
665.36321782654807
10
1773.4169560263674
20
680.20064374213064
10
1773.109969591781
20
682.27164242047581
10
1772.3286772565298
20
686.23236842653364
10
1771.3520596263543
20
689.97963748377492
10
1770.1861812172242
20
693.51797033880234
10
1768.8371065451067
20
696.85188773821869
10
1767.3109001259713
20
699.98591042862711
10
1765.6136264757845
20
702.92455915663038
10
1763.7513501105161
20
705.67235466883164
10
1761.7301355461336
20
708.23381771183335
10
1759.5560472986053
20
710.61346903223875
10
1757.2351498839002
20
712.81582937665064
10
1754.7735078179858
20
714.84541949167192
10
1752.1771856168307
20
716.70676012390527
10
1749.4522477964024
20
718.40437201995417
10
1746.6047588726699
20
719.94277592642095
10
1743.6407833616017
20
721.32649258990864
10
1740.5663857791656
20
722.56004275702014
10
1737.3876306413299
20
723.64794717435859
10
1734.1105824640631
20
724.59472658852656
10
1730.7413057633332
20
725.40490174612717
10
1727.2858650551086
20
726.08299339376299
10
1723.7503248553573
20
726.63352227803728
10
1720.1407496800484
20
727.06100914555293
10
1716.463204045149
20
727.36997474291252
10
1712.723752466628
20
727.5649398167194
10
1708.9284594604537
20
727.65042511357615
10
1703.1491684202397
20
727.59553984907882
10
1695.2963080335896
20
727.16388074032648
10
1687.3292432237552
20
726.37567596262602
10
1679.2964901184816
20
725.2670914888007
10
1671.2465648455156
20
723.87429329167333
10
1663.227983532603
20
722.23344734406726
10
1655.2892623074902
20
720.38071961880587
10
1647.4789172979229
20
718.35227608871207
10
1639.8454646316475
20
716.18428272660924
10
1632.4374204364099
20
713.91290550532062
10
1625.303300839957
20
711.5743103976688
10
1618.4916219700335
20
709.20466337647781
10
1612.0508999543868
20
706.84013041457001
10
1603.1299591654235
20
703.37009177449818
10
1593.0564497927412
20
699.10570188026259
10
1585.3400581365931
20
695.51275573397788
10
1582.6095430736475
20
694.10454880761802
10
1580.9232245577596
20
691.80456239770956
10
1577.5092964900618
20
686.77421429668038
10
1574.0704555349487
20
681.26260374052094
10
1570.6340754209655
20
675.30882837625882
10
1567.2275298766544
20
668.95198585092317
10
1563.8781926305617
20
662.23117381153997
10
1560.6134374112312
20
655.18548990513932
10
1557.460637947207
20
647.85403177874764
10
1554.4471679670348
20
640.2758970793933
10
1551.6004011992586
20
632.49018345410423
10
1548.9477113724215
20
624.53598854990912
10
1546.516472215068
20
616.45241001383522
10
1544.3340574557446
20
608.27854549290964
10
1542.4278408229941
20
600.05349263416213
10
1540.8251960453615
20
591.81634908461945
10
1539.5534968513907
20
583.60621249130963
10
1538.6401169696273
20
575.46218050126095
10
1538.2193905948034
20
569.42526125432869
10
1538.0571030085871
20
565.43947775583865
10
1537.9997929727288
20
561.49221283461713
10
1538.0508822032969
20
557.58835369654241
10
1538.2137924163585
20
553.73278754749344
10
1538.4919453279815
20
549.93040159334851
10
1538.8887626542351
20
546.18608303998576
10
1539.4076661111876
20
542.50471909328394
10
1540.0520774149059
20
538.89119695912177
10
1540.8254182814574
20
535.35040384337742
10
1541.7311104269129
20
531.88722695192939
10
1542.7725755673382
20
528.5065534906563
10
1543.9532354188018
20
525.21327066543665
10
1545.2765116973719
20
522.01226568214895
10
1546.7458261191166
20
518.90842574667158
10
1548.3646004001039
20
515.90663806488305
10
1550.1362562564027
20
513.01178984266176
10
1552.0642154040788
20
510.2287682858867
10
1554.1518995592032
20
507.56246060043566
10
1556.402730437841
20
505.01775399218775
10
1558.8201297560624
20
502.59953566702097
10
1561.4075192299351
20
500.312692830814
10
1564.1683205755262
20
498.16211268944551
10
1567.1059555089048
20
496.15268244879388
10
1570.2238457461383
20
494.2892893147374
10
1573.5254130032963
20
492.57682049315457
10
1577.0140789964439
20
491.02016318992435
10
1580.693265441651
20
489.62420461092501
10
1584.5663940549864
20
488.39383196203448
10
1588.636886552516
20
487.33393244913213
10
1590.7556508965549
20
486.87684586821382
10
1642.614294790051
20
487.69311556938754
0
LWPOLYLINE
5
109
100
AcDbEntity
8
0
100
AcDbPolyline
90
8
70
1
43
0.0
10
1434.2702261942566
20
313.72420130832336
10
1434.1213498301076
20
313.85200674683318
10
1513.0307438685975
20
404.46832940321781
10
1496.2587014693195
20
415.36321782654824
10
1418.9427061542676
20
326.88257495280072
10
1419.0950270675753
20
326.75160824391691
10
1342.5590113209455
20
237.59731337467247
10
1345.2727081195937
20
217.78227237837308
0
LWPOLYLINE
5
110
100
AcDbEntity
8
0
100
AcDbPolyline
90
8
70
1
43
0.0
10
1634.2702261942566
20
313.72420130832336
10
1634.1213498301076
20
313.85200674683318
10
1713.0307438685975
20
404.46832940321781
10
1696.2587014693195
20
415.36321782654824
10
1618.9427061542676
20
326.88257495280072
10
1619.0950270675753
20
326.75160824391691
10
1542.5590113209455
20
237.59731337467247
10
1545.2727081195937
20
217.78227237837308
0
LWPOLYLINE
5
111
100
AcDbEntity
8
0
100
AcDbPolyline
90
4
70
1
43
0.0
10
1210.7449900000001
20
88.191599999999895
10
750.74499000000003
20
88.191599999999895
10
750.74499000000003
20
-1.8084000000001055
10
1210.7449900000001
20
-1.8084000000001055
0
LWPOLYLINE
5
112
100
AcDbEntity
8
0
100
AcDbPolyline
90
4
70
1
43
0.0
10
3.3306690738754696e-14
20
90
10
0
20
0
10
420
20
0
10
420
20
90
0
ENDSEC
0
SECTION
2
OBJECTS
0
DICTIONARY
5
C
100
AcDbDictionary
3
ACAD_GROUP
350
D
3
ACAD_MLINESTYLE
350
17
0
DICTIONARY
5
D
100
AcDbDictionary
0
DICTIONARY
5
1A
330
C
100
AcDbDictionary
0
DICTIONARY
5
17
100
AcDbDictionary
0
ENDSEC
0
EOF
