  0
SECTION
  2
HEADER
  9
$ACADVER
  1
AC1009
  9
$DWGCODEPAGE
  3
ansi_1252
  9
$INSBASE
 10
0.0
 20
0.0
 30
0.0
  9
$EXTMIN
 10
88.14920385786559
 20
253.4083465008218
 30
0.0
  9
$EXTMAX
 10
2305.368631127391
 20
1439.559238701211
 30
0.0
  9
$LIMMIN
 10
0.0
 20
0.0
  9
$LIMMAX
 10
12.0
 20
9.0
  9
$ORTHOMODE
 70
     0
  9
$REGENMODE
 70
     1
  9
$FILLMODE
 70
     1
  9
$QTEXTMODE
 70
     0
  9
$MIRRTEXT
 70
     1
  9
$DRAGMODE
 70
     2
  9
$LTSCALE
 40
1.0
  9
$OSMODE
 70
    37
  9
$ATTMODE
 70
     1
  9
$TEXTSIZE
 40
0.2
  9
$TRACEWID
 40
0.05
  9
$TEXTSTYLE
  7
STANDARD
  9
$CLAYER
  8
0
  9
$CELTYPE
  6
BYLAYER
  9
$CECOLOR
 62
   256
  9
$DIMSCALE
 40
1.0
  9
$DIMASZ
 40
0.18
  9
$DIMEXO
 40
0.0625
  9
$DIMDLI
 40
0.38
  9
$DIMRND
 40
0.0
  9
$DIMDLE
 40
0.0
  9
$DIMEXE
 40
0.18
  9
$DIMTP
 40
0.0
  9
$DIMTM
 40
0.0
  9
$DIMTXT
 40
0.18
  9
$DIMCEN
 40
0.09
  9
$DIMTSZ
 40
0.0
  9
$DIMTOL
 70
     0
  9
$DIMLIM
 70
     0
  9
$DIMTIH
 70
     1
  9
$DIMTOH
 70
     1
  9
$DIMSE1
 70
     0
  9
$DIMSE2
 70
     0
  9
$DIMTAD
 70
     0
  9
$DIMZIN
 70
     0
  9
$DIMBLK
  1

  9
$DIMASO
 70
     1
  9
$DIMSHO
 70
     1
  9
$DIMPOST
  1

  9
$DIMAPOST
  1

  9
$DIMALT
 70
     0
  9
$DIMALTD
 70
     2
  9
$DIMALTF
 40
25.4
  9
$DIMLFAC
 40
1.0
  9
$DIMTOFL
 70
     0
  9
$DIMTVP
 40
0.0
  9
$DIMTIX
 70
     0
  9
$DIMSOXD
 70
     0
  9
$DIMSAH
 70
     0
  9
$DIMBLK1
  1

  9
$DIMBLK2
  1

  9
$DIMSTYLE
  2
STANDARD
  9
$DIMCLRD
 70
     0
  9
$DIMCLRE
 70
     0
  9
$DIMCLRT
 70
     0
  9
$DIMTFAC
 40
1.0
  9
$DIMGAP
 40
0.09
  9
$LUNITS
 70
     2
  9
$LUPREC
 70
     3
  9
$SKETCHINC
 40
0.1
  9
$FILLETRAD
 40
0.5
  9
$AUNITS
 70
     0
  9
$AUPREC
 70
     0
  9
$MENU
  1
.
  9
$ELEVATION
 40
0.0
  9
$PELEVATION
 40
0.0
  9
$THICKNESS
 40
0.0
  9
$LIMCHECK
 70
     0
  9
$CHAMFERA
 40
0.0
  9
$CHAMFERB
 40
0.0
  9
$SKPOLY
 70
     0
  9
$TDCREATE
 40
2458250.555257882
  9
$TDUPDATE
 40
2458250.555276528
  9
$TDINDWG
 40
0.0000000116
  9
$TDUSRTIMER
 40
0.0000000116
  9
$USRTIMER
 70
     1
  9
$ANGBASE
 50
0.0
  9
$ANGDIR
 70
     0
  9
$PDMODE
 70
     0
  9
$PDSIZE
 40
0.0
  9
$PLINEWID
 40
0.0
  9
$COORDS
 70
     1
  9
$SPLFRAME
 70
     0
  9
$SPLINETYPE
 70
     6
  9
$SPLINESEGS
 70
     8
  9
$ATTDIA
 70
     0
  9
$ATTREQ
 70
     1
  9
$HANDLING
 70
     1
  9
$HANDSEED
  5
461
  9
$SURFTAB1
 70
     6
  9
$SURFTAB2
 70
     6
  9
$SURFTYPE
 70
     6
  9
$SURFU
 70
     6
  9
$SURFV
 70
     6
  9
$UCSNAME
  2

  9
$UCSORG
 10
0.0
 20
0.0
 30
0.0
  9
$UCSXDIR
 10
1.0
 20
0.0
 30
0.0
  9
$UCSYDIR
 10
0.0
 20
1.0
 30
0.0
  9
$PUCSNAME
  2

  9
$PUCSORG
 10
0.0
 20
0.0
 30
0.0
  9
$PUCSXDIR
 10
1.0
 20
0.0
 30
0.0
  9
$PUCSYDIR
 10
0.0
 20
1.0
 30
0.0
  9
$USERI1
 70
     0
  9
$USERI2
 70
     0
  9
$USERI3
 70
     0
  9
$USERI4
 70
     0
  9
$USERI5
 70
     0
  9
$USERR1
 40
0.0
  9
$USERR2
 40
0.0
  9
$USERR3
 40
0.0
  9
$USERR4
 40
0.0
  9
$USERR5
 40
0.0
  9
$WORLDVIEW
 70
     1
  9
$SHADEDGE
 70
     3
  9
$SHADEDIF
 70
    70
  9
$TILEMODE
 70
     1
  9
$MAXACTVP
 70
    64
  9
$PLIMCHECK
 70
     0
  9
$PEXTMIN
 10
1.000000000000000E+20
 20
1.000000000000000E+20
 30
1.000000000000000E+20
  9
$PEXTMAX
 10
-1.000000000000000E+20
 20
-1.000000000000000E+20
 30
-1.000000000000000E+20
  9
$PLIMMIN
 10
0.0
 20
0.0
  9
$PLIMMAX
 10
12.0
 20
9.0
  9
$UNITMODE
 70
     0
  9
$VISRETAIN
 70
     1
  9
$PLINEGEN
 70
     0
  9
$PSLTSCALE
 70
     1
  0
ENDSEC
  0
SECTION
  2
TABLES
  0
TABLE
  2
VPORT
 70
     1
  0
VPORT
  2
*ACTIVE
 70
     0
 10
0.0
 20
0.0
 11
1.0
 21
1.0
 12
1196.758917492628
 22
846.4837926010163
 13
0.0
 23
0.0
 14
0.5
 24
0.5
 15
0.5
 25
0.5
 16
0.0
 26
0.0
 36
1.0
 17
0.0
 27
0.0
 37
0.0
 40
1209.873910044397
 41
1.869255793549534
 42
50.0
 43
0.0
 44
0.0
 50
0.0
 51
0.0
 71
     0
 72
   100
 73
     1
 74
     3
 75
     0
 76
     0
 77
     0
 78
     0
  0
ENDTAB
  0
TABLE
  2
LTYPE
 70
     1
  0
LTYPE
  2
CONTINUOUS
 70
     0
  3
Solid line
 72
    65
 73
     0
 40
0.0
  0
ENDTAB
  0
TABLE
  2
LAYER
 70
     1
  0
LAYER
  2
0
 70
     0
 62
     7
  6
CONTINUOUS
  0
ENDTAB
  0
TABLE
  2
STYLE
 70
     1
  0
STYLE
  2
STANDARD
 70
     0
 40
0.0
 41
1.0
 50
0.0
 71
     0
 42
0.2
  3
txt
  4

  0
ENDTAB
  0
TABLE
  2
VIEW
 70
     0
  0
ENDTAB
  0
TABLE
  2
UCS
 70
     0
  0
ENDTAB
  0
TABLE
  2
APPID
 70
     1
  0
APPID
  2
ACAD
 70
     0
  0
ENDTAB
  0
TABLE
  2
DIMSTYLE
 70
     1
  0
DIMSTYLE
  2
STANDARD
 70
     0
  3

  4

  5

  6

  7

 40
1.0
 41
0.18
 42
0.0625
 43
0.38
 44
0.18
 45
0.0
 46
0.0
 47
0.0
 48
0.0
140
0.18
141
0.09
142
0.0
143
25.4
144
1.0
145
0.0
146
1.0
147
0.09
 71
     0
 72
     0
 73
     1
 74
     1
 75
     0
 76
     0
 77
     0
 78
     0
170
     0
171
     2
172
     0
173
     0
174
     0
175
     0
176
     0
177
     0
178
     0
  0
ENDTAB
  0
ENDSEC
  0
SECTION
  2
BLOCKS
  0
BLOCK
  8
0
  2
$MODEL_SPACE
 70
     0
 10
0.0
 20
0.0
 30
0.0
  3
$MODEL_SPACE
  1

  0
ENDBLK
  5
21
  8
0
  0
BLOCK
 67
     1
  8
0
  2
$PAPER_SPACE
 70
     0
 10
0.0
 20
0.0
 30
0.0
  3
$PAPER_SPACE
  1

  0
ENDBLK
  5
1D
 67
     1
  8
0
  0
ENDSEC
  0
SECTION
  2
ENTITIES
  0
POLYLINE
  5
6E
  8
0
 66
     1
 10
0.0
 20
0.0
 30
0.0
 70
     1
  0
VERTEX
  5
6F
  8
0
 10
932.0222784399392
 20
1225.786731419811
 30
0.0
  0
VERTEX
  5
70
  8
0
 10
932.0222784399393
 20
1225.029372106929
 30
0.0
 42
-0.7957202198782574
  0
VERTEX
  5
71
  8
0
 10
928.9222784399384
 20
1220.072176919506
 30
0.0
 42
-0.795720219878758
  0
VERTEX
  5
72
  8
0
 10
925.8222784399393
 20
1225.029372106932
 30
0.0
  0
VERTEX
  5
73
  8
0
 10
925.8222784399392
 20
1232.744090732691
 30
0.0
 42
-0.7957202198786618
  0
VERTEX
  5
74
  8
0
 10
928.9222784399383
 20
1237.701285920117
 30
0.0
 42
-0.7957202198782574
  0
VERTEX
  5
75
  8
0
 10
932.0222784399392
 20
1232.744090732693
 30
0.0
  0
SEQEND
  5
76
  8
0
  0
POLYLINE
  5
77
  8
0
 66
     1
 10
0.0
 20
0.0
 30
0.0
 70
     1
  0
VERTEX
  5
78
  8
0
 10
1142.994783041499
 20
1438.04049270272
 30
0.0
  0
VERTEX
  5
79
  8
0
 10
971.8249574071202
 20
1438.04049270272
 30
0.0
  0
VERTEX
  5
7A
  8
0
 10
971.8249574071198
 20
1421.443588845847
 30
0.0
  0
VERTEX
  5
7B
  8
0
 10
1052.582316758303
 20
1421.443588845847
 30
0.0
 42
-0.9999999909736852
  0
VERTEX
  5
7C
  8
0
 10
1056.824957407119
 20
1417.200948120425
 30
0.0
  0
VERTEX
  5
7D
  8
0
 10
1056.82495740712
 20
1413.686229532968
 30
0.0
 42
-1.000000000000965
  0
VERTEX
  5
7E
  8
0
 10
1052.582316720003
 20
1409.443588845847
 30
0.0
  0
VERTEX
  5
7F
  8
0
 10
971.8249574071194
 20
1409.443588845847
 30
0.0
  0
VERTEX
  5
80
  8
0
 10
971.8249574071189
 20
777.9898340954198
 30
0.0
  0
VERTEX
  5
81
  8
0
 10
1052.58231676471
 20
777.9898341018287
 30
0.0
 42
-0.9999999894633951
  0
VERTEX
  5
82
  8
0
 10
1056.824957407119
 20
773.747193369999
 30
0.0
  0
VERTEX
  5
83
  8
0
 10
1056.824957407118
 20
770.2324747442449
 30
0.0
 42
-1.000000009027682
  0
VERTEX
  5
84
  8
0
 10
1052.582316681705
 20
765.9898340954194
 30
0.0
  0
VERTEX
  5
85
  8
0
 10
971.824957407119
 20
765.9898340954196
 30
0.0
  0
VERTEX
  5
86
  8
0
 10
971.8249574071189
 20
751.4435887702941
 30
0.0
  0
VERTEX
  5
87
  8
0
 10
1142.994783041498
 20
751.4435889224458
 30
0.0
  0
SEQEND
  5
88
  8
0
  0
POLYLINE
  5
89
  8
0
 66
     1
 10
0.0
 20
0.0
 30
0.0
 70
     1
  0
VERTEX
  5
8A
  8
0
 10
1594.471841877804
 20
1409.477249171383
 30
0.0
  0
VERTEX
  5
8B
  8
0
 10
1594.471841877804
 20
778.0234944975548
 30
0.0
  0
VERTEX
  5
8C
  8
0
 10
1553.129746780714
 20
778.0234944975547
 30
0.0
 42
0.9999999819462447
  0
VERTEX
  5
8D
  8
0
 10
1548.887106166626
 20
773.7808537374041
 30
0.0
  0
VERTEX
  5
8E
  8
0
 10
1548.887106166626
 20
766.023494420959
 30
0.0
  0
VERTEX
  5
8F
  8
0
 10
1468.85104248651
 20
766.023494497555
 30
0.0
  0
VERTEX
  5
90
  8
0
 10
1468.851042486511
 20
773.7808538104352
 30
0.0
 42
1.000000000000107
  0
VERTEX
  5
91
  8
0
 10
1464.608401799391
 20
778.0234944975548
 30
0.0
  0
VERTEX
  5
92
  8
0
 10
1423.302016243425
 20
778.023494497555
 30
0.0
  0
VERTEX
  5
93
  8
0
 10
1423.302016243425
 20
833.477249247984
 30
0.0
  0
VERTEX
  5
94
  8
0
 10
1504.633908024073
 20
833.4772492479833
 30
0.0
 42
1.000000018053756
  0
VERTEX
  5
95
  8
0
 10
1508.87654878589
 20
837.7198898604064
 30
0.0
  0
VERTEX
  5
96
  8
0
 10
1508.87654878589
 20
841.234608486167
 30
0.0
 42
1.00000000000008
  0
VERTEX
  5
97
  8
0
 10
1504.633908096871
 20
845.4772491713883
 30
0.0
  0
VERTEX
  5
98
  8
0
 10
1423.302016243425
 20
845.4772491713886
 30
0.0
  0
VERTEX
  5
99
  8
0
 10
1423.302016243425
 20
905.4772492479838
 30
0.0
  0
VERTEX
  5
9A
  8
0
 10
1504.633908024073
 20
905.4772492479831
 30
0.0
 42
1.000000018053756
  0
VERTEX
  5
9B
  8
0
 10
1508.87654878589
 20
909.7198898604062
 30
0.0
  0
VERTEX
  5
9C
  8
0
 10
1508.87654878589
 20
913.2346084861665
 30
0.0
 42
1.00000000000008
  0
VERTEX
  5
9D
  8
0
 10
1504.633908096871
 20
917.4772491713878
 30
0.0
  0
VERTEX
  5
9E
  8
0
 10
1423.302016243425
 20
917.4772491713882
 30
0.0
  0
VERTEX
  5
9F
  8
0
 10
1423.302016243425
 20
977.4772492479833
 30
0.0
  0
VERTEX
  5
A0
  8
0
 10
1504.633908024072
 20
977.4772492479826
 30
0.0
 42
1.000000018053916
  0
VERTEX
  5
A1
  8
0
 10
1508.87654878589
 20
981.719889860405
 30
0.0
  0
VERTEX
  5
A2
  8
0
 10
1508.876548785889
 20
985.2346084861666
 30
0.0
 42
1.000000000000161
  0
VERTEX
  5
A3
  8
0
 10
1504.633908096871
 20
989.4772491713875
 30
0.0
  0
VERTEX
  5
A4
  8
0
 10
1423.302016243425
 20
989.4772491713875
 30
0.0
  0
VERTEX
  5
A5
  8
0
 10
1423.302016243425
 20
1049.477249247983
 30
0.0
  0
VERTEX
  5
A6
  8
0
 10
1504.633908024073
 20
1049.477249247982
 30
0.0
 42
1.000000018053863
  0
VERTEX
  5
A7
  8
0
 10
1508.876548785889
 20
1053.719889860404
 30
0.0
  0
VERTEX
  5
A8
  8
0
 10
1508.87654878589
 20
1057.234608486165
 30
0.0
 42
1.000000000000161
  0
VERTEX
  5
A9
  8
0
 10
1504.633908096872
 20
1061.477249171386
 30
0.0
  0
VERTEX
  5
AA
  8
0
 10
1423.302016243425
 20
1061.477249171387
 30
0.0
  0
VERTEX
  5
AB
  8
0
 10
1423.302016243425
 20
1121.477249247982
 30
0.0
  0
VERTEX
  5
AC
  8
0
 10
1504.633908024072
 20
1121.477249247982
 30
0.0
 42
1.000000018054024
  0
VERTEX
  5
AD
  8
0
 10
1508.87654878589
 20
1125.719889860404
 30
0.0
  0
VERTEX
  5
AE
  8
0
 10
1508.876548785889
 20
1129.234608486165
 30
0.0
 42
1.000000000000161
  0
VERTEX
  5
AF
  8
0
 10
1504.633908096872
 20
1133.477249171386
 30
0.0
  0
VERTEX
  5
B0
  8
0
 10
1423.302016243425
 20
1133.477249171386
 30
0.0
  0
VERTEX
  5
B1
  8
0
 10
1423.302016243425
 20
1193.477249247982
 30
0.0
  0
VERTEX
  5
B2
  8
0
 10
1504.633908024072
 20
1193.477249247981
 30
0.0
 42
1.000000018054131
  0
VERTEX
  5
B3
  8
0
 10
1508.87654878589
 20
1197.719889860404
 30
0.0
  0
VERTEX
  5
B4
  8
0
 10
1508.876548785889
 20
1201.234608486165
 30
0.0
 42
1.000000000000054
  0
VERTEX
  5
B5
  8
0
 10
1504.633908096872
 20
1205.477249171386
 30
0.0
  0
VERTEX
  5
B6
  8
0
 10
1423.302016243425
 20
1205.477249171385
 30
0.0
  0
VERTEX
  5
B7
  8
0
 10
1423.302016243425
 20
1265.477249247981
 30
0.0
  0
VERTEX
  5
B8
  8
0
 10
1504.633908024072
 20
1265.477249247982
 30
0.0
 42
1.000000018054131
  0
VERTEX
  5
B9
  8
0
 10
1508.87654878589
 20
1269.719889860403
 30
0.0
  0
VERTEX
  5
BA
  8
0
 10
1508.87654878589
 20
1273.234608486164
 30
0.0
 42
0.9999999999998929
  0
VERTEX
  5
BB
  8
0
 10
1504.633908096871
 20
1277.477249171384
 30
0.0
  0
VERTEX
  5
BC
  8
0
 10
1423.302016243425
 20
1277.477249171384
 30
0.0
  0
VERTEX
  5
BD
  8
0
 10
1423.302016243425
 20
1337.477249171384
 30
0.0
  0
VERTEX
  5
BE
  8
0
 10
1504.633908100669
 20
1337.477249171383
 30
0.0
 42
0.9999999999997319
  0
VERTEX
  5
BF
  8
0
 10
1508.87654878589
 20
1341.719889860402
 30
0.0
  0
VERTEX
  5
C0
  8
0
 10
1508.87654878589
 20
1345.234608484265
 30
0.0
 42
0.9999999999999999
  0
VERTEX
  5
C1
  8
0
 10
1504.63390809877
 20
1349.477249171384
 30
0.0
  0
VERTEX
  5
C2
  8
0
 10
1423.302016243426
 20
1349.477249171384
 30
0.0
  0
VERTEX
  5
C3
  8
0
 10
1423.302016243426
 20
1409.477249171383
 30
0.0
  0
VERTEX
  5
C4
  8
0
 10
1464.644111386298
 20
1409.477249171383
 30
0.0
 42
1.000000000219461
  0
VERTEX
  5
C5
  8
0
 10
1468.886751953672
 20
1413.719889978249
 30
0.0
  0
VERTEX
  5
C6
  8
0
 10
1468.886751951968
 20
1421.477249171383
 30
0.0
  0
VERTEX
  5
C7
  8
0
 10
1548.887106163992
 20
1421.477249171383
 30
0.0
  0
VERTEX
  5
C8
  8
0
 10
1548.887106164139
 20
1413.719889856014
 30
0.0
 42
0.999999999413591
  0
VERTEX
  5
C9
  8
0
 10
1553.129746853747
 20
1409.477249171384
 30
0.0
  0
SEQEND
  5
CA
  8
0
  0
POLYLINE
  5
CB
  8
0
 66
     1
 10
0.0
 20
0.0
 30
0.0
 70
     1
  0
VERTEX
  5
CC
  8
0
 10
1820.088693343776
 20
1412.686766229549
 30
0.0
  0
VERTEX
  5
CD
  8
0
 10
1820.088693343776
 20
781.2330115557195
 30
0.0
  0
VERTEX
  5
CE
  8
0
 10
1778.746598246687
 20
781.2330115557198
 30
0.0
 42
0.999999981946084
  0
VERTEX
  5
CF
  8
0
 10
1774.503957632598
 20
776.990370795569
 30
0.0
  0
VERTEX
  5
D0
  8
0
 10
1774.503957632598
 20
769.2330114791237
 30
0.0
  0
VERTEX
  5
D1
  8
0
 10
1694.467893952482
 20
769.2330115557197
 30
0.0
  0
VERTEX
  5
D2
  8
0
 10
1694.467893952482
 20
776.9903708686003
 30
0.0
 42
1.000000000000107
  0
VERTEX
  5
D3
  8
0
 10
1690.225253265362
 20
781.2330115557198
 30
0.0
  0
VERTEX
  5
D4
  8
0
 10
1648.918867709397
 20
781.2330115557195
 30
0.0
  0
VERTEX
  5
D5
  8
0
 10
1648.918867709397
 20
836.6867663061487
 30
0.0
  0
VERTEX
  5
D6
  8
0
 10
1730.250759490045
 20
836.6867663061489
 30
0.0
 42
1.000000018053595
  0
VERTEX
  5
D7
  8
0
 10
1734.493400251861
 20
840.9294069185715
 30
0.0
  0
VERTEX
  5
D8
  8
0
 10
1734.493400251861
 20
844.4441255443325
 30
0.0
 42
1.000000000000161
  0
VERTEX
  5
D9
  8
0
 10
1730.250759562843
 20
848.6867662295533
 30
0.0
  0
VERTEX
  5
DA
  8
0
 10
1648.918867709397
 20
848.6867662295533
 30
0.0
  0
VERTEX
  5
DB
  8
0
 10
1648.918867709397
 20
908.6867663061485
 30
0.0
  0
VERTEX
  5
DC
  8
0
 10
1730.250759490045
 20
908.6867663061483
 30
0.0
 42
1.000000018053756
  0
VERTEX
  5
DD
  8
0
 10
1734.493400251861
 20
912.9294069185711
 30
0.0
  0
VERTEX
  5
DE
  8
0
 10
1734.493400251861
 20
916.4441255443317
 30
0.0
 42
1.000000000000027
  0
VERTEX
  5
DF
  8
0
 10
1730.250759562843
 20
920.6867662295527
 30
0.0
  0
VERTEX
  5
E0
  8
0
 10
1648.918867709397
 20
920.6867662295529
 30
0.0
  0
VERTEX
  5
E1
  8
0
 10
1648.918867709397
 20
980.6867663061478
 30
0.0
  0
VERTEX
  5
E2
  8
0
 10
1730.250759490044
 20
980.6867663061477
 30
0.0
 42
1.000000018053756
  0
VERTEX
  5
E3
  8
0
 10
1734.493400251861
 20
984.92940691857
 30
0.0
  0
VERTEX
  5
E4
  8
0
 10
1734.493400251861
 20
988.4441255443312
 30
0.0
 42
0.9999999999999999
  0
VERTEX
  5
E5
  8
0
 10
1730.250759562843
 20
992.6867662295522
 30
0.0
  0
VERTEX
  5
E6
  8
0
 10
1648.918867709396
 20
992.686766229552
 30
0.0
  0
VERTEX
  5
E7
  8
0
 10
1648.918867709397
 20
1052.686766306147
 30
0.0
  0
VERTEX
  5
E8
  8
0
 10
1730.250759490044
 20
1052.686766306147
 30
0.0
 42
1.00000001805397
  0
VERTEX
  5
E9
  8
0
 10
1734.493400251861
 20
1056.92940691857
 30
0.0
  0
VERTEX
  5
EA
  8
0
 10
1734.493400251861
 20
1060.44412554433
 30
0.0
 42
0.9999999999999999
  0
VERTEX
  5
EB
  8
0
 10
1730.250759562843
 20
1064.686766229551
 30
0.0
  0
VERTEX
  5
EC
  8
0
 10
1648.918867709397
 20
1064.686766229551
 30
0.0
  0
VERTEX
  5
ED
  8
0
 10
1648.918867709397
 20
1124.686766306147
 30
0.0
  0
VERTEX
  5
EE
  8
0
 10
1730.250759490044
 20
1124.686766306148
 30
0.0
 42
1.00000001805397
  0
VERTEX
  5
EF
  8
0
 10
1734.493400251861
 20
1128.929406918569
 30
0.0
  0
VERTEX
  5
F0
  8
0
 10
1734.493400251861
 20
1132.44412554433
 30
0.0
 42
1.000000000000107
  0
VERTEX
  5
F1
  8
0
 10
1730.250759562843
 20
1136.686766229551
 30
0.0
  0
VERTEX
  5
F2
  8
0
 10
1648.918867709397
 20
1136.686766229551
 30
0.0
  0
VERTEX
  5
F3
  8
0
 10
1648.918867709397
 20
1196.686766306147
 30
0.0
  0
VERTEX
  5
F4
  8
0
 10
1730.250759490043
 20
1196.686766306147
 30
0.0
 42
1.000000018053916
  0
VERTEX
  5
F5
  8
0
 10
1734.493400251861
 20
1200.929406918569
 30
0.0
  0
VERTEX
  5
F6
  8
0
 10
1734.493400251861
 20
1204.444125544329
 30
0.0
 42
0.9999999999999999
  0
VERTEX
  5
F7
  8
0
 10
1730.250759562843
 20
1208.686766229551
 30
0.0
  0
VERTEX
  5
F8
  8
0
 10
1648.918867709397
 20
1208.68676622955
 30
0.0
  0
VERTEX
  5
F9
  8
0
 10
1648.918867709397
 20
1268.686766306147
 30
0.0
  0
VERTEX
  5
FA
  8
0
 10
1730.250759490043
 20
1268.686766306147
 30
0.0
 42
1.000000018054131
  0
VERTEX
  5
FB
  8
0
 10
1734.493400251861
 20
1272.929406918568
 30
0.0
  0
VERTEX
  5
FC
  8
0
 10
1734.493400251862
 20
1276.444125544328
 30
0.0
 42
0.9999999999997856
  0
VERTEX
  5
FD
  8
0
 10
1730.250759562843
 20
1280.686766229549
 30
0.0
  0
VERTEX
  5
FE
  8
0
 10
1648.918867709397
 20
1280.686766229549
 30
0.0
  0
VERTEX
  5
FF
  8
0
 10
1648.918867709397
 20
1340.686766229549
 30
0.0
  0
VERTEX
  5
100
  8
0
 10
1730.250759566641
 20
1340.686766229549
 30
0.0
 42
0.9999999999998391
  0
VERTEX
  5
101
  8
0
 10
1734.493400251862
 20
1344.929406918568
 30
0.0
  0
VERTEX
  5
102
  8
0
 10
1734.493400251861
 20
1348.44412554243
 30
0.0
 42
1.000000000000107
  0
VERTEX
  5
103
  8
0
 10
1730.250759564742
 20
1352.686766229549
 30
0.0
  0
VERTEX
  5
104
  8
0
 10
1648.918867709398
 20
1352.686766229549
 30
0.0
  0
VERTEX
  5
105
  8
0
 10
1648.918867709398
 20
1412.686766229549
 30
0.0
  0
VERTEX
  5
106
  8
0
 10
1690.26096285227
 20
1412.686766229549
 30
0.0
 42
1.000000000219568
  0
VERTEX
  5
107
  8
0
 10
1694.503603419643
 20
1416.929407036414
 30
0.0
  0
VERTEX
  5
108
  8
0
 10
1694.50360341794
 20
1424.686766229549
 30
0.0
  0
VERTEX
  5
109
  8
0
 10
1774.503957629963
 20
1424.686766229549
 30
0.0
  0
VERTEX
  5
10A
  8
0
 10
1774.503957630111
 20
1416.929406914179
 30
0.0
 42
0.9999999994136982
  0
VERTEX
  5
10B
  8
0
 10
1778.746598319718
 20
1412.686766229549
 30
0.0
  0
SEQEND
  5
10C
  8
0
  0
POLYLINE
  5
10D
  8
0
 66
     1
 10
0.0
 20
0.0
 30
0.0
 70
     1
  0
VERTEX
  5
10E
  8
0
 10
928.9222784399384
 20
1108.812397031229
 30
0.0
 42
0.7957202198786495
  0
VERTEX
  5
10F
  8
0
 10
925.8222784399393
 20
1103.855201843803
 30
0.0
  0
VERTEX
  5
110
  8
0
 10
925.8222784399396
 20
1096.140483218043
 30
0.0
 42
0.7957202198786231
  0
VERTEX
  5
111
  8
0
 10
928.9222784399385
 20
1091.183288030616
 30
0.0
 42
0.795720219878247
  0
VERTEX
  5
112
  8
0
 10
932.0222784399391
 20
1096.140483218041
 30
0.0
  0
VERTEX
  5
113
  8
0
 10
932.0222784399396
 20
1103.855201843804
 30
0.0
 42
0.7957202198783182
  0
SEQEND
  5
114
  8
0
  0
POLYLINE
  5
115
  8
0
 66
     1
 10
0.0
 20
0.0
 30
0.0
 70
     1
  0
VERTEX
  5
116
  8
0
 10
925.8222784399394
 20
1031.696038773599
 30
0.0
  0
VERTEX
  5
117
  8
0
 10
925.8222784399393
 20
1039.410757399358
 30
0.0
 42
-0.7957202198787221
  0
VERTEX
  5
118
  8
0
 10
928.9222784399384
 20
1044.367952586785
 30
0.0
 42
-0.795720219878243
  0
VERTEX
  5
119
  8
0
 10
932.0222784399396
 20
1039.41075739936
 30
0.0
  0
VERTEX
  5
11A
  8
0
 10
932.0222784399393
 20
1031.696038773596
 30
0.0
 42
-0.7957202198782726
  0
VERTEX
  5
11B
  8
0
 10
928.9222784399384
 20
1026.738843586172
 30
0.0
 42
-0.7957202198786671
  0
SEQEND
  5
11C
  8
0
  0
POLYLINE
  5
11D
  8
0
 66
     1
 10
0.0
 20
0.0
 30
0.0
 70
     1
  0
VERTEX
  5
11E
  8
0
 10
932.0222784399394
 20
1160.584927662485
 30
0.0
 42
-0.7957202198783148
  0
VERTEX
  5
11F
  8
0
 10
928.9222784399385
 20
1155.627732475061
 30
0.0
 42
-0.7957202198786105
  0
VERTEX
  5
120
  8
0
 10
925.8222784399396
 20
1160.584927662487
 30
0.0
  0
VERTEX
  5
121
  8
0
 10
925.8222784399393
 20
1168.299646288247
 30
0.0
 42
-0.7957202198787221
  0
VERTEX
  5
122
  8
0
 10
928.9222784399386
 20
1173.256841475673
 30
0.0
 42
-0.7957202198782242
  0
VERTEX
  5
123
  8
0
 10
932.0222784399396
 20
1168.299646288249
 30
0.0
  0
SEQEND
  5
124
  8
0
  0
POLYLINE
  5
125
  8
0
 66
     1
 10
0.0
 20
0.0
 30
0.0
 70
     1
  0
VERTEX
  5
126
  8
0
 10
1979.030891096793
 20
1272.731971698128
 30
0.0
 42
1.000000018054024
  0
VERTEX
  5
127
  8
0
 10
1983.273531858611
 20
1276.97461231055
 30
0.0
  0
VERTEX
  5
128
  8
0
 10
1983.273531858611
 20
1280.489330936311
 30
0.0
 42
0.9999999999999464
  0
VERTEX
  5
129
  8
0
 10
1979.030891169592
 20
1284.731971621532
 30
0.0
  0
VERTEX
  5
12A
  8
0
 10
1897.698999316147
 20
1284.731971621532
 30
0.0
  0
VERTEX
  5
12B
  8
0
 10
1897.698999316147
 20
1344.731971621531
 30
0.0
  0
VERTEX
  5
12C
  8
0
 10
1979.030891173391
 20
1344.731971621531
 30
0.0
 42
0.9999999999999999
  0
VERTEX
  5
12D
  8
0
 10
1983.273531858611
 20
1348.974612310549
 30
0.0
  0
VERTEX
  5
12E
  8
0
 10
1983.273531858611
 20
1352.489330934412
 30
0.0
 42
1.000000000000107
  0
VERTEX
  5
12F
  8
0
 10
1979.030891171491
 20
1356.73197162153
 30
0.0
  0
VERTEX
  5
130
  8
0
 10
1897.698999316148
 20
1356.731971621531
 30
0.0
  0
VERTEX
  5
131
  8
0
 10
1897.698999316148
 20
1416.73197162153
 30
0.0
  0
VERTEX
  5
132
  8
0
 10
1939.04109445902
 20
1416.731971621531
 30
0.0
 42
1.000000000219676
  0
VERTEX
  5
133
  8
0
 10
1943.283735026393
 20
1420.974612428397
 30
0.0
  0
VERTEX
  5
134
  8
0
 10
1943.28373502469
 20
1428.73197162153
 30
0.0
  0
VERTEX
  5
135
  8
0
 10
2023.284089236713
 20
1428.73197162153
 30
0.0
  0
VERTEX
  5
136
  8
0
 10
2023.28408923686
 20
1420.974612306162
 30
0.0
 42
0.9999999994136445
  0
VERTEX
  5
137
  8
0
 10
2027.526729926468
 20
1416.73197162153
 30
0.0
  0
VERTEX
  5
138
  8
0
 10
2068.868824950526
 20
1416.73197162153
 30
0.0
  0
VERTEX
  5
139
  8
0
 10
2068.868824950525
 20
785.2782169477018
 30
0.0
  0
VERTEX
  5
13A
  8
0
 10
2027.526729853436
 20
785.2782169477024
 30
0.0
 42
0.9999999819462985
  0
VERTEX
  5
13B
  8
0
 10
2023.284089239348
 20
781.0355761875514
 30
0.0
  0
VERTEX
  5
13C
  8
0
 10
2023.284089239348
 20
773.278216871106
 30
0.0
  0
VERTEX
  5
13D
  8
0
 10
1943.248025559232
 20
773.2782169477023
 30
0.0
  0
VERTEX
  5
13E
  8
0
 10
1943.248025559232
 20
781.0355762605827
 30
0.0
 42
1.000000000000134
  0
VERTEX
  5
13F
  8
0
 10
1939.005384872112
 20
785.278216947702
 30
0.0
  0
VERTEX
  5
140
  8
0
 10
1897.698999316146
 20
785.278216947702
 30
0.0
  0
VERTEX
  5
141
  8
0
 10
1897.698999316147
 20
840.731971698131
 30
0.0
  0
VERTEX
  5
142
  8
0
 10
1979.030891096794
 20
840.7319716981311
 30
0.0
 42
1.000000018053648
  0
VERTEX
  5
143
  8
0
 10
1983.273531858611
 20
844.9746123105538
 30
0.0
  0
VERTEX
  5
144
  8
0
 10
1983.273531858611
 20
848.4893309363147
 30
0.0
 42
1.000000000000027
  0
VERTEX
  5
145
  8
0
 10
1979.030891169592
 20
852.7319716215358
 30
0.0
  0
VERTEX
  5
146
  8
0
 10
1897.698999316146
 20
852.7319716215354
 30
0.0
  0
VERTEX
  5
147
  8
0
 10
1897.698999316147
 20
912.7319716981306
 30
0.0
  0
VERTEX
  5
148
  8
0
 10
1979.030891096794
 20
912.7319716981302
 30
0.0
 42
1.000000018053756
  0
VERTEX
  5
149
  8
0
 10
1983.273531858611
 20
916.974612310553
 30
0.0
  0
VERTEX
  5
14A
  8
0
 10
1983.273531858611
 20
920.489330936314
 30
0.0
 42
1.000000000000027
  0
VERTEX
  5
14B
  8
0
 10
1979.030891169592
 20
924.7319716215351
 30
0.0
  0
VERTEX
  5
14C
  8
0
 10
1897.698999316146
 20
924.731971621535
 30
0.0
  0
VERTEX
  5
14D
  8
0
 10
1897.698999316147
 20
984.7319716981301
 30
0.0
  0
VERTEX
  5
14E
  8
0
 10
1979.030891096794
 20
984.7319716981303
 30
0.0
 42
1.000000018053863
  0
VERTEX
  5
14F
  8
0
 10
1983.273531858611
 20
988.974612310552
 30
0.0
  0
VERTEX
  5
150
  8
0
 10
1983.273531858611
 20
992.4893309363138
 30
0.0
 42
0.9999999999999732
  0
VERTEX
  5
151
  8
0
 10
1979.030891169592
 20
996.7319716215346
 30
0.0
  0
VERTEX
  5
152
  8
0
 10
1897.698999316146
 20
996.7319716215343
 30
0.0
  0
VERTEX
  5
153
  8
0
 10
1897.698999316147
 20
1056.731971698129
 30
0.0
  0
VERTEX
  5
154
  8
0
 10
1979.030891096793
 20
1056.731971698129
 30
0.0
 42
1.000000018053756
  0
VERTEX
  5
155
  8
0
 10
1983.27353185861
 20
1060.974612310551
 30
0.0
  0
VERTEX
  5
156
  8
0
 10
1983.273531858611
 20
1064.489330936312
 30
0.0
 42
1.000000000000107
  0
VERTEX
  5
157
  8
0
 10
1979.030891169592
 20
1068.731971621533
 30
0.0
  0
VERTEX
  5
158
  8
0
 10
1897.698999316147
 20
1068.731971621533
 30
0.0
  0
VERTEX
  5
159
  8
0
 10
1897.698999316147
 20
1128.731971698129
 30
0.0
  0
VERTEX
  5
15A
  8
0
 10
1979.030891096794
 20
1128.731971698129
 30
0.0
 42
1.00000001805397
  0
VERTEX
  5
15B
  8
0
 10
1983.273531858611
 20
1132.974612310551
 30
0.0
  0
VERTEX
  5
15C
  8
0
 10
1983.273531858611
 20
1136.489330936312
 30
0.0
 42
0.9999999999999999
  0
VERTEX
  5
15D
  8
0
 10
1979.030891169593
 20
1140.731971621533
 30
0.0
  0
VERTEX
  5
15E
  8
0
 10
1897.698999316147
 20
1140.731971621533
 30
0.0
  0
VERTEX
  5
15F
  8
0
 10
1897.698999316147
 20
1200.731971698129
 30
0.0
  0
VERTEX
  5
160
  8
0
 10
1979.030891096793
 20
1200.731971698128
 30
0.0
 42
1.000000018053863
  0
VERTEX
  5
161
  8
0
 10
1983.273531858611
 20
1204.97461231055
 30
0.0
  0
VERTEX
  5
162
  8
0
 10
1983.27353185861
 20
1208.489330936311
 30
0.0
 42
1.000000000000054
  0
VERTEX
  5
163
  8
0
 10
1979.030891169593
 20
1212.731971621532
 30
0.0
  0
VERTEX
  5
164
  8
0
 10
1897.698999316147
 20
1212.731971621532
 30
0.0
  0
VERTEX
  5
165
  8
0
 10
1897.698999316147
 20
1272.731971698129
 30
0.0
  0
SEQEND
  5
166
  8
0
  0
POLYLINE
  5
167
  8
0
 66
     1
 10
0.0
 20
0.0
 30
0.0
 70
     1
  0
VERTEX
  5
168
  8
0
 10
1190.231813251285
 20
776.5483666305149
 30
0.0
  0
VERTEX
  5
169
  8
0
 10
1190.231813251285
 20
832.0021213809439
 30
0.0
  0
VERTEX
  5
16A
  8
0
 10
1271.563705031933
 20
832.0021213809439
 30
0.0
 42
1.000000018053863
  0
VERTEX
  5
16B
  8
0
 10
1275.806345793749
 20
836.244761993366
 30
0.0
  0
VERTEX
  5
16C
  8
0
 10
1275.80634579375
 20
839.759480619127
 30
0.0
 42
0.9999999999998929
  0
VERTEX
  5
16D
  8
0
 10
1271.563705104732
 20
844.002121304348
 30
0.0
  0
VERTEX
  5
16E
  8
0
 10
1190.231813251285
 20
844.0021213043481
 30
0.0
  0
VERTEX
  5
16F
  8
0
 10
1190.231813251285
 20
904.0021213809434
 30
0.0
  0
VERTEX
  5
170
  8
0
 10
1271.563705031933
 20
904.0021213809431
 30
0.0
 42
1.000000018053756
  0
VERTEX
  5
171
  8
0
 10
1275.80634579375
 20
908.2447619933658
 30
0.0
  0
VERTEX
  5
172
  8
0
 10
1275.80634579375
 20
911.7594806191267
 30
0.0
 42
0.9999999999999999
  0
VERTEX
  5
173
  8
0
 10
1271.563705104732
 20
916.0021213043477
 30
0.0
  0
VERTEX
  5
174
  8
0
 10
1190.231813251285
 20
916.0021213043478
 30
0.0
  0
VERTEX
  5
175
  8
0
 10
1190.231813251285
 20
976.002121380943
 30
0.0
  0
VERTEX
  5
176
  8
0
 10
1271.563705031933
 20
976.0021213809425
 30
0.0
 42
1.000000018053863
  0
VERTEX
  5
177
  8
0
 10
1275.80634579375
 20
980.2447619933649
 30
0.0
  0
VERTEX
  5
178
  8
0
 10
1275.80634579375
 20
983.7594806191265
 30
0.0
 42
1.000000000000054
  0
VERTEX
  5
179
  8
0
 10
1271.563705104732
 20
988.0021213043472
 30
0.0
  0
VERTEX
  5
17A
  8
0
 10
1190.231813251285
 20
988.0021213043472
 30
0.0
  0
VERTEX
  5
17B
  8
0
 10
1190.231813251285
 20
1048.002121380942
 30
0.0
  0
VERTEX
  5
17C
  8
0
 10
1271.563705031933
 20
1048.002121380942
 30
0.0
 42
1.00000001805397
  0
VERTEX
  5
17D
  8
0
 10
1275.80634579375
 20
1052.244761993364
 30
0.0
  0
VERTEX
  5
17E
  8
0
 10
1275.80634579375
 20
1055.759480619125
 30
0.0
 42
1.000000000000161
  0
VERTEX
  5
17F
  8
0
 10
1271.563705104732
 20
1060.002121304346
 30
0.0
  0
VERTEX
  5
180
  8
0
 10
1190.231813251285
 20
1060.002121304346
 30
0.0
  0
VERTEX
  5
181
  8
0
 10
1190.231813251285
 20
1120.002121380942
 30
0.0
  0
VERTEX
  5
182
  8
0
 10
1271.563705031932
 20
1120.002121380942
 30
0.0
 42
1.000000018054077
  0
VERTEX
  5
183
  8
0
 10
1275.80634579375
 20
1124.244761993364
 30
0.0
  0
VERTEX
  5
184
  8
0
 10
1275.80634579375
 20
1127.759480619125
 30
0.0
 42
1.000000000000054
  0
VERTEX
  5
185
  8
0
 10
1271.563705104732
 20
1132.002121304346
 30
0.0
  0
VERTEX
  5
186
  8
0
 10
1190.231813251285
 20
1132.002121304346
 30
0.0
  0
VERTEX
  5
187
  8
0
 10
1190.231813251286
 20
1192.002121380942
 30
0.0
  0
VERTEX
  5
188
  8
0
 10
1271.563705031933
 20
1192.002121380942
 30
0.0
 42
1.000000018053916
  0
VERTEX
  5
189
  8
0
 10
1275.80634579375
 20
1196.244761993363
 30
0.0
  0
VERTEX
  5
18A
  8
0
 10
1275.80634579375
 20
1199.759480619124
 30
0.0
 42
1.000000000000107
  0
VERTEX
  5
18B
  8
0
 10
1271.563705104732
 20
1204.002121304346
 30
0.0
  0
VERTEX
  5
18C
  8
0
 10
1190.231813251285
 20
1204.002121304345
 30
0.0
  0
VERTEX
  5
18D
  8
0
 10
1190.231813251286
 20
1264.002121380941
 30
0.0
  0
VERTEX
  5
18E
  8
0
 10
1271.563705031933
 20
1264.002121380942
 30
0.0
 42
1.00000001805397
  0
VERTEX
  5
18F
  8
0
 10
1275.80634579375
 20
1268.244761993363
 30
0.0
  0
VERTEX
  5
190
  8
0
 10
1275.80634579375
 20
1271.759480619124
 30
0.0
 42
0.9999999999999999
  0
VERTEX
  5
191
  8
0
 10
1271.563705104732
 20
1276.002121304344
 30
0.0
  0
VERTEX
  5
192
  8
0
 10
1190.231813251285
 20
1276.002121304344
 30
0.0
  0
VERTEX
  5
193
  8
0
 10
1190.231813251286
 20
1336.002121304344
 30
0.0
  0
VERTEX
  5
194
  8
0
 10
1271.56370510853
 20
1336.002121304344
 30
0.0
 42
0.9999999999997319
  0
VERTEX
  5
195
  8
0
 10
1275.80634579375
 20
1340.244761993362
 30
0.0
  0
VERTEX
  5
196
  8
0
 10
1275.806345793751
 20
1343.759480617224
 30
0.0
 42
1.000000000000107
  0
VERTEX
  5
197
  8
0
 10
1271.563705106631
 20
1348.002121304344
 30
0.0
  0
VERTEX
  5
198
  8
0
 10
1190.231813251286
 20
1348.002121304344
 30
0.0
  0
VERTEX
  5
199
  8
0
 10
1190.231813251287
 20
1408.002121304344
 30
0.0
  0
VERTEX
  5
19A
  8
0
 10
1231.573908394158
 20
1408.002121304343
 30
0.0
 42
1.000000000219676
  0
VERTEX
  5
19B
  8
0
 10
1235.816548961532
 20
1412.244762111209
 30
0.0
  0
VERTEX
  5
19C
  8
0
 10
1235.816548959829
 20
1420.002121304343
 30
0.0
  0
VERTEX
  5
19D
  8
0
 10
1315.816903171852
 20
1420.002121304343
 30
0.0
  0
VERTEX
  5
19E
  8
0
 10
1315.816903171999
 20
1412.244761988975
 30
0.0
 42
0.9999999994134837
  0
VERTEX
  5
19F
  8
0
 10
1320.059543861607
 20
1408.002121304344
 30
0.0
  0
VERTEX
  5
1A0
  8
0
 10
1361.401638885665
 20
1408.002121304343
 30
0.0
  0
VERTEX
  5
1A1
  8
0
 10
1361.401638885663
 20
776.5483666305145
 30
0.0
  0
VERTEX
  5
1A2
  8
0
 10
1320.059543788575
 20
776.5483666305142
 30
0.0
 42
0.9999999819461375
  0
VERTEX
  5
1A3
  8
0
 10
1315.816903174487
 20
772.305725870364
 30
0.0
  0
VERTEX
  5
1A4
  8
0
 10
1315.816903174486
 20
764.5483665539186
 30
0.0
  0
VERTEX
  5
1A5
  8
0
 10
1235.78083949437
 20
764.5483666305147
 30
0.0
  0
VERTEX
  5
1A6
  8
0
 10
1235.78083949437
 20
772.3057259433954
 30
0.0
 42
1.000000000000188
  0
VERTEX
  5
1A7
  8
0
 10
1231.538198807251
 20
776.5483666305144
 30
0.0
  0
SEQEND
  5
1A8
  8
0
  0
POLYLINE
  5
1A9
  8
0
 66
     1
 10
0.0
 20
0.0
 30
0.0
 70
     1
  0
VERTEX
  5
1AA
  8
0
 10
2305.36863112739
 20
925.4214675764761
 30
0.0
  0
VERTEX
  5
1AB
  8
0
 10
2224.036739346745
 20
925.4214675764769
 30
0.0
 42
1.00000001805397
  0
VERTEX
  5
1AC
  8
0
 10
2219.794098584927
 20
921.1788269640551
 30
0.0
  0
VERTEX
  5
1AD
  8
0
 10
2219.794098584927
 20
917.664108338294
 30
0.0
 42
1.000000000000188
  0
VERTEX
  5
1AE
  8
0
 10
2224.036739273945
 20
913.4214676530737
 30
0.0
  0
VERTEX
  5
1AF
  8
0
 10
2305.36863112739
 20
913.4214676530733
 30
0.0
  0
VERTEX
  5
1B0
  8
0
 10
2305.36863112739
 20
853.4214676530735
 30
0.0
  0
VERTEX
  5
1B1
  8
0
 10
2224.036739270147
 20
853.4214676530744
 30
0.0
 42
0.9999999999999464
  0
VERTEX
  5
1B2
  8
0
 10
2219.794098584926
 20
849.1788269640555
 30
0.0
  0
VERTEX
  5
1B3
  8
0
 10
2219.794098584926
 20
841.4214676530744
 30
0.0
  0
VERTEX
  5
1B4
  8
0
 10
2134.198805493011
 20
841.4214676530744
 30
0.0
  0
VERTEX
  5
1B5
  8
0
 10
2134.198805493012
 20
1412.875222326902
 30
0.0
  0
VERTEX
  5
1B6
  8
0
 10
2175.540900590101
 20
1412.875222326902
 30
0.0
 42
0.9999999819464055
  0
VERTEX
  5
1B7
  8
0
 10
2179.78354120419
 20
1417.117863087053
 30
0.0
  0
VERTEX
  5
1B8
  8
0
 10
2179.78354120419
 20
1424.875222403498
 30
0.0
  0
VERTEX
  5
1B9
  8
0
 10
2259.819604884306
 20
1424.875222326902
 30
0.0
  0
VERTEX
  5
1BA
  8
0
 10
2259.819604884306
 20
1417.117863014021
 30
0.0
 42
1.000000000000322
  0
VERTEX
  5
1BB
  8
0
 10
2264.062245571425
 20
1412.875222326902
 30
0.0
  0
VERTEX
  5
1BC
  8
0
 10
2305.368631127391
 20
1412.875222326902
 30
0.0
  0
VERTEX
  5
1BD
  8
0
 10
2305.36863112739
 20
1357.421467576473
 30
0.0
  0
VERTEX
  5
1BE
  8
0
 10
2224.036739346743
 20
1357.421467576474
 30
0.0
 42
1.000000018053702
  0
VERTEX
  5
1BF
  8
0
 10
2219.794098584926
 20
1353.17882696405
 30
0.0
  0
VERTEX
  5
1C0
  8
0
 10
2219.794098584927
 20
1349.664108338289
 30
0.0
 42
0.9999999999999999
  0
VERTEX
  5
1C1
  8
0
 10
2224.036739273945
 20
1345.421467653068
 30
0.0
  0
VERTEX
  5
1C2
  8
0
 10
2305.368631127391
 20
1345.421467653068
 30
0.0
  0
VERTEX
  5
1C3
  8
0
 10
2305.36863112739
 20
1285.421467576474
 30
0.0
  0
VERTEX
  5
1C4
  8
0
 10
2224.036739346742
 20
1285.421467576473
 30
0.0
 42
1.000000018053595
  0
VERTEX
  5
1C5
  8
0
 10
2219.794098584927
 20
1281.178826964052
 30
0.0
  0
VERTEX
  5
1C6
  8
0
 10
2219.794098584927
 20
1277.66410833829
 30
0.0
 42
1.000000000000214
  0
VERTEX
  5
1C7
  8
0
 10
2224.036739273945
 20
1273.421467653069
 30
0.0
  0
VERTEX
  5
1C8
  8
0
 10
2305.368631127391
 20
1273.421467653069
 30
0.0
  0
VERTEX
  5
1C9
  8
0
 10
2305.36863112739
 20
1213.421467576474
 30
0.0
  0
VERTEX
  5
1CA
  8
0
 10
2224.036739346743
 20
1213.421467576474
 30
0.0
 42
1.000000018053595
  0
VERTEX
  5
1CB
  8
0
 10
2219.794098584927
 20
1209.178826964052
 30
0.0
  0
VERTEX
  5
1CC
  8
0
 10
2219.794098584927
 20
1205.664108338291
 30
0.0
 42
1.000000000000214
  0
VERTEX
  5
1CD
  8
0
 10
2224.036739273945
 20
1201.42146765307
 30
0.0
  0
VERTEX
  5
1CE
  8
0
 10
2305.368631127391
 20
1201.42146765307
 30
0.0
  0
VERTEX
  5
1CF
  8
0
 10
2305.36863112739
 20
1141.421467576475
 30
0.0
  0
VERTEX
  5
1D0
  8
0
 10
2224.036739346743
 20
1141.421467576475
 30
0.0
 42
1.000000018053702
  0
VERTEX
  5
1D1
  8
0
 10
2219.794098584927
 20
1137.178826964053
 30
0.0
  0
VERTEX
  5
1D2
  8
0
 10
2219.794098584927
 20
1133.664108338292
 30
0.0
 42
0.9999999999999999
  0
VERTEX
  5
1D3
  8
0
 10
2224.036739273945
 20
1129.421467653071
 30
0.0
  0
VERTEX
  5
1D4
  8
0
 10
2305.36863112739
 20
1129.421467653071
 30
0.0
  0
VERTEX
  5
1D5
  8
0
 10
2305.36863112739
 20
1069.421467576475
 30
0.0
  0
VERTEX
  5
1D6
  8
0
 10
2224.036739346744
 20
1069.421467576476
 30
0.0
 42
1.000000018053916
  0
VERTEX
  5
1D7
  8
0
 10
2219.794098584926
 20
1065.178826964054
 30
0.0
  0
VERTEX
  5
1D8
  8
0
 10
2219.794098584926
 20
1061.664108338293
 30
0.0
 42
1.000000000000054
  0
VERTEX
  5
1D9
  8
0
 10
2224.036739273944
 20
1057.421467653072
 30
0.0
  0
VERTEX
  5
1DA
  8
0
 10
2305.36863112739
 20
1057.421467653072
 30
0.0
  0
VERTEX
  5
1DB
  8
0
 10
2305.36863112739
 20
997.4214675764756
 30
0.0
  0
VERTEX
  5
1DC
  8
0
 10
2224.036739346744
 20
997.4214675764757
 30
0.0
 42
1.000000018054024
  0
VERTEX
  5
1DD
  8
0
 10
2219.794098584926
 20
993.1788269640542
 30
0.0
  0
VERTEX
  5
1DE
  8
0
 10
2219.794098584926
 20
989.6641083382932
 30
0.0
 42
1.000000000000214
  0
VERTEX
  5
1DF
  8
0
 10
2224.036739273945
 20
985.4214676530725
 30
0.0
  0
VERTEX
  5
1E0
  8
0
 10
2305.36863112739
 20
985.4214676530721
 30
0.0
  0
SEQEND
  5
1E1
  8
0
  0
POLYLINE
  5
1E2
  8
0
 66
     1
 10
0.0
 20
0.0
 30
0.0
 70
     1
  0
VERTEX
  5
1E3
  8
0
 10
890.7796376989648
 20
1422.220064663809
 30
0.0
  0
VERTEX
  5
1E4
  8
0
 10
828.0950935253015
 20
1422.220064656716
 30
0.0
 42
0.999999999999866
  0
VERTEX
  5
1E5
  8
0
 10
823.8524527738324
 20
1417.977424033947
 30
0.0
  0
VERTEX
  5
1E6
  8
0
 10
823.8524528055597
 20
1414.462705340454
 30
0.0
 42
0.9999999999999999
  0
VERTEX
  5
1E7
  8
0
 10
828.0950934928785
 20
1410.220064653534
 30
0.0
  0
VERTEX
  5
1E8
  8
0
 10
890.7796377430798
 20
1410.220064656716
 30
0.0
 42
1.000000000000054
  0
VERTEX
  5
1E9
  8
0
 10
895.022278449879
 20
1414.462705324155
 30
0.0
  0
VERTEX
  5
1EA
  8
0
 10
895.0222784399394
 20
1417.977424030545
 30
0.0
 42
1.000000012904696
  0
SEQEND
  5
1EB
  8
0
  0
POLYLINE
  5
1EC
  8
0
 66
     1
 10
0.0
 20
0.0
 30
0.0
 70
     1
  0
VERTEX
  5
1ED
  8
0
 10
932.0222784399394
 20
974.9663129549156
 30
0.0
 42
0.7957202198782956
  0
VERTEX
  5
1EE
  8
0
 10
928.9222784399383
 20
979.9235081423396
 30
0.0
 42
0.7957202198785358
  0
VERTEX
  5
1EF
  8
0
 10
925.8222784399392
 20
974.9663129549134
 30
0.0
  0
VERTEX
  5
1F0
  8
0
 10
925.8222784399392
 20
967.2515943291544
 30
0.0
 42
0.7957202198786217
  0
VERTEX
  5
1F1
  8
0
 10
928.9222784399383
 20
962.2943991417279
 30
0.0
 42
0.7957202198782551
  0
VERTEX
  5
1F2
  8
0
 10
932.022278439939
 20
967.2515943291525
 30
0.0
  0
SEQEND
  5
1F3
  8
0
  0
POLYLINE
  5
1F4
  8
0
 66
     1
 10
0.0
 20
0.0
 30
0.0
 70
     1
  0
VERTEX
  5
1F5
  8
0
 10
925.8222784399393
 20
902.8071498847098
 30
0.0
  0
VERTEX
  5
1F6
  8
0
 10
925.822278439939
 20
910.5218685104691
 30
0.0
 42
-0.795720219878571
  0
VERTEX
  5
1F7
  8
0
 10
928.9222784399382
 20
915.4790636978956
 30
0.0
 42
-0.7957202198782976
  0
VERTEX
  5
1F8
  8
0
 10
932.0222784399393
 20
910.5218685104712
 30
0.0
  0
VERTEX
  5
1F9
  8
0
 10
932.0222784399394
 20
902.8071498847078
 30
0.0
 42
-0.7957202198782717
  0
VERTEX
  5
1FA
  8
0
 10
928.9222784399385
 20
897.8499546972836
 30
0.0
 42
-0.7957202198786996
  0
SEQEND
  5
1FB
  8
0
  0
POLYLINE
  5
1FC
  8
0
 66
     1
 10
0.0
 20
0.0
 30
0.0
 70
     1
  0
VERTEX
  5
1FD
  8
0
 10
925.8222784399395
 20
838.3627054402657
 30
0.0
 42
0.7957202198788138
  0
VERTEX
  5
1FE
  8
0
 10
928.9222784399383
 20
833.405510252839
 30
0.0
 42
0.7957202198783777
  0
VERTEX
  5
1FF
  8
0
 10
932.0222784399391
 20
838.3627054402637
 30
0.0
  0
VERTEX
  5
200
  8
0
 10
932.0222784399394
 20
846.0774240660269
 30
0.0
 42
0.7957202198782815
  0
VERTEX
  5
201
  8
0
 10
928.9222784399382
 20
851.034619253451
 30
0.0
 42
0.7957202198786045
  0
VERTEX
  5
202
  8
0
 10
925.8222784399389
 20
846.077424066025
 30
0.0
  0
SEQEND
  5
203
  8
0
  0
POLYLINE
  5
204
  8
0
 66
     1
 10
0.0
 20
0.0
 30
0.0
 70
     1
  0
VERTEX
  5
205
  8
0
 10
701.1720866015386
 20
616.5429805911668
 30
0.0
 42
-0.9999999999999732
  0
VERTEX
  5
206
  8
0
 10
696.9294459144251
 20
620.7856212782915
 30
0.0
  0
VERTEX
  5
207
  8
0
 10
696.9294459144253
 20
702.7128062255476
 30
0.0
  0
VERTEX
  5
208
  8
0
 10
111.9294463484686
 20
702.7128062255485
 30
0.0
  0
VERTEX
  5
209
  8
0
 10
111.9294463484689
 20
656.9554470328327
 30
0.0
 42
-1.000000027079783
  0
VERTEX
  5
20A
  8
0
 10
107.686805781514
 20
652.7128062255485
 30
0.0
  0
VERTEX
  5
20B
  8
0
 10
99.92944510059507
 20
652.7128062255485
 30
0.0
  0
VERTEX
  5
20C
  8
0
 10
99.92944510059493
 20
581.5429805911692
 30
0.0
  0
VERTEX
  5
20D
  8
0
 10
107.6868056613457
 20
581.542980591169
 30
0.0
 42
-1.000000000000151
  0
VERTEX
  5
20E
  8
0
 10
111.9294463484684
 20
577.3003399040533
 30
0.0
  0
VERTEX
  5
20F
  8
0
 10
111.9294463484683
 20
531.5429805911692
 30
0.0
  0
VERTEX
  5
210
  8
0
 10
729.9294440697413
 20
531.5429805911681
 30
0.0
  0
VERTEX
  5
211
  8
0
 10
729.9294440697417
 20
702.7128062255476
 30
0.0
  0
VERTEX
  5
212
  8
0
 10
708.9294459144253
 20
702.7128062255476
 30
0.0
  0
VERTEX
  5
213
  8
0
 10
708.9294459144253
 20
620.7856212782857
 30
0.0
 42
-0.9999999999988208
  0
VERTEX
  5
214
  8
0
 10
704.6868052273045
 20
616.5429805911676
 30
0.0
  0
SEQEND
  5
215
  8
0
  0
POLYLINE
  5
216
  8
0
 66
     1
 10
0.0
 20
0.0
 30
0.0
 70
     1
  0
VERTEX
  5
217
  8
0
 10
698.1661636765753
 20
378.3035270754807
 30
0.0
 42
-1.000000000000161
  0
VERTEX
  5
218
  8
0
 10
693.9235229894517
 20
382.5461677625956
 30
0.0
  0
VERTEX
  5
219
  8
0
 10
693.9235229894537
 20
464.4733527098572
 30
0.0
  0
VERTEX
  5
21A
  8
0
 10
108.9235211064738
 20
464.4733527098604
 30
0.0
  0
VERTEX
  5
21B
  8
0
 10
108.9235211000741
 20
418.7159934416781
 30
0.0
 42
-1.000000010536712
  0
VERTEX
  5
21C
  8
0
 10
104.6808804576529
 20
414.4733527098606
 30
0.0
  0
VERTEX
  5
21D
  8
0
 10
96.92352298945474
 20
414.4733527098606
 30
0.0
  0
VERTEX
  5
21E
  8
0
 10
96.92352298945468
 20
343.303527075481
 30
0.0
  0
VERTEX
  5
21F
  8
0
 10
104.6808804193602
 20
343.303527075481
 30
0.0
 42
-1.000000000000211
  0
VERTEX
  5
220
  8
0
 10
108.9235211064736
 20
339.0608863883563
 30
0.0
  0
VERTEX
  5
221
  8
0
 10
108.9235211064734
 20
293.3035270754815
 30
0.0
  0
VERTEX
  5
222
  8
0
 10
726.9235229894516
 20
293.3035270754813
 30
0.0
  0
VERTEX
  5
223
  8
0
 10
726.9235229894517
 20
464.4733527098599
 30
0.0
  0
VERTEX
  5
224
  8
0
 10
705.9235229894534
 20
464.473352709857
 30
0.0
  0
VERTEX
  5
225
  8
0
 10
705.9235229894517
 20
382.5461677625999
 30
0.0
 42
-1.000000000001099
  0
VERTEX
  5
226
  8
0
 10
701.6808823023327
 20
378.3035270754806
 30
0.0
  0
SEQEND
  5
227
  8
0
  0
POLYLINE
  5
228
  8
0
 66
     1
 10
0.0
 20
0.0
 30
0.0
 70
     1
  0
VERTEX
  5
229
  8
0
 10
925.8222784399394
 20
1361.63297962158
 30
0.0
 42
-0.7957202198787023
  0
VERTEX
  5
22A
  8
0
 10
928.922278439938
 20
1366.590174809006
 30
0.0
 42
-0.7957202198783023
  0
VERTEX
  5
22B
  8
0
 10
932.0222784399393
 20
1361.632979621581
 30
0.0
  0
VERTEX
  5
22C
  8
0
 10
932.0222784399392
 20
1353.918260995818
 30
0.0
 42
-0.7957202198782726
  0
VERTEX
  5
22D
  8
0
 10
928.9222784399385
 20
1348.961065808393
 30
0.0
 42
-0.7957202198786933
  0
VERTEX
  5
22E
  8
0
 10
925.8222784399396
 20
1353.91826099582
 30
0.0
  0
SEQEND
  5
22F
  8
0
  0
POLYLINE
  5
230
  8
0
 66
     1
 10
0.0
 20
0.0
 30
0.0
 70
     1
  0
VERTEX
  5
231
  8
0
 10
928.9222784399383
 20
1284.51662136395
 30
0.0
 42
-0.7957202198787264
  0
VERTEX
  5
232
  8
0
 10
925.8222784399393
 20
1289.473816551376
 30
0.0
  0
VERTEX
  5
233
  8
0
 10
925.8222784399397
 20
1297.188535177135
 30
0.0
 42
-0.7957202198786865
  0
VERTEX
  5
234
  8
0
 10
928.922278439938
 20
1302.145730364562
 30
0.0
 42
-0.7957202198783023
  0
VERTEX
  5
235
  8
0
 10
932.0222784399393
 20
1297.188535177137
 30
0.0
  0
VERTEX
  5
236
  8
0
 10
932.0222784399392
 20
1289.473816551374
 30
0.0
 42
-0.7957202198782662
  0
SEQEND
  5
237
  8
0
  0
LINE
  5
238
  8
0
 10
1142.994783041504
 20
1356.999144459533
 30
0.0
 11
1129.994783041504
 21
1356.999144459533
 31
0.0
  0
POLYLINE
  5
239
  8
0
 66
     1
 10
0.0
 20
0.0
 30
0.0
  0
VERTEX
  5
23A
  8
0
 10
1129.994783041499
 20
1424.543588942276
 30
0.0
  0
VERTEX
  5
23B
  8
0
 10
1129.994783041499
 20
1425.300948216854
 30
0.0
 42
0.7957202198793487
  0
VERTEX
  5
23C
  8
0
 10
1126.894783041502
 20
1430.258143404283
 30
0.0
 42
0.7957202198776603
  0
VERTEX
  5
23D
  8
0
 10
1123.794783041499
 20
1425.300948216861
 30
0.0
  0
VERTEX
  5
23E
  8
0
 10
1123.794783041499
 20
1417.586229591092
 30
0.0
 42
0.7957202198776128
  0
VERTEX
  5
23F
  8
0
 10
1126.894783041503
 20
1412.62903440367
 30
0.0
 42
0.7957202198791684
  0
VERTEX
  5
240
  8
0
 10
1129.994783041499
 20
1417.5862295911
 30
0.0
  0
VERTEX
  5
241
  8
0
 10
1129.994783041499
 20
1418.343588942276
 30
0.0
  0
SEQEND
  5
242
  8
0
  0
LINE
  5
243
  8
0
 10
1129.994783041504
 20
845.3009482168593
 30
0.0
 11
1129.994783041504
 21
837.5862295910961
 31
0.0
  0
LINE
  5
244
  8
0
 10
1129.994783041504
 20
1103.078725994637
 30
0.0
 11
1129.994783041504
 21
1095.364007368873
 31
0.0
  0
POLYLINE
  5
245
  8
0
 66
     1
 10
0.0
 20
0.0
 30
0.0
  0
VERTEX
  5
246
  8
0
 10
1129.994783041499
 20
1231.210255608943
 30
0.0
  0
VERTEX
  5
247
  8
0
 10
1129.994783041499
 20
1231.967614883522
 30
0.0
 42
0.7957202198792273
  0
VERTEX
  5
248
  8
0
 10
1126.894783041502
 20
1236.92481007095
 30
0.0
 42
0.7957202198776242
  0
VERTEX
  5
249
  8
0
 10
1123.794783041499
 20
1231.967614883529
 30
0.0
  0
VERTEX
  5
24A
  8
0
 10
1123.794783041499
 20
1224.25289625776
 30
0.0
 42
0.7957202198778862
  0
VERTEX
  5
24B
  8
0
 10
1126.894783041502
 20
1219.295701070339
 30
0.0
 42
0.795720219879291
  0
VERTEX
  5
24C
  8
0
 10
1129.994783041499
 20
1224.252896257767
 30
0.0
  0
VERTEX
  5
24D
  8
0
 10
1129.994783041499
 20
1225.010255608943
 30
0.0
  0
SEQEND
  5
24E
  8
0
  0
POLYLINE
  5
24F
  8
0
 66
     1
 10
0.0
 20
0.0
 30
0.0
  0
VERTEX
  5
250
  8
0
 10
1129.994783041499
 20
908.9880333867218
 30
0.0
  0
VERTEX
  5
251
  8
0
 10
1129.994783041498
 20
909.745392661301
 30
0.0
 42
0.7957202198792569
  0
VERTEX
  5
252
  8
0
 10
1126.894783041502
 20
914.7025878487295
 30
0.0
 42
0.7957202198777266
  0
VERTEX
  5
253
  8
0
 10
1123.794783041499
 20
909.7453926613083
 30
0.0
  0
VERTEX
  5
254
  8
0
 10
1123.794783041498
 20
902.0306740355404
 30
0.0
 42
0.7957202198779213
  0
VERTEX
  5
255
  8
0
 10
1126.894783041502
 20
897.0734788481183
 30
0.0
 42
0.7957202198792814
  0
VERTEX
  5
256
  8
0
 10
1129.994783041498
 20
902.0306740355469
 30
0.0
  0
VERTEX
  5
257
  8
0
 10
1129.994783041499
 20
902.7880333867217
 30
0.0
  0
SEQEND
  5
258
  8
0
  0
POLYLINE
  5
259
  8
0
 66
     1
 10
0.0
 20
0.0
 30
0.0
  0
VERTEX
  5
25A
  8
0
 10
1129.994783041499
 20
1360.099144497831
 30
0.0
  0
VERTEX
  5
25B
  8
0
 10
1129.994783041499
 20
1360.856503772409
 30
0.0
 42
0.7957202198791792
  0
VERTEX
  5
25C
  8
0
 10
1126.894783041503
 20
1365.813698959838
 30
0.0
 42
0.7957202198777088
  0
VERTEX
  5
25D
  8
0
 10
1123.794783041499
 20
1360.856503772417
 30
0.0
  0
VERTEX
  5
25E
  8
0
 10
1123.794783041499
 20
1353.141785146648
 30
0.0
 42
0.7957202198776916
  0
VERTEX
  5
25F
  8
0
 10
1126.894783041503
 20
1348.184589959227
 30
0.0
 42
0.7957202198789168
  0
VERTEX
  5
260
  8
0
 10
1129.994783041499
 20
1353.141785146655
 30
0.0
  0
VERTEX
  5
261
  8
0
 10
1129.994783041499
 20
1353.899144497831
 30
0.0
  0
SEQEND
  5
262
  8
0
  0
POLYLINE
  5
263
  8
0
 66
     1
 10
0.0
 20
0.0
 30
0.0
  0
VERTEX
  5
264
  8
0
 10
1129.994783041499
 20
1037.87692227561
 30
0.0
  0
VERTEX
  5
265
  8
0
 10
1129.994783041499
 20
1038.634281550189
 30
0.0
 42
0.7957202198791737
  0
VERTEX
  5
266
  8
0
 10
1126.894783041502
 20
1043.591476737618
 30
0.0
 42
0.7957202198777334
  0
VERTEX
  5
267
  8
0
 10
1123.794783041499
 20
1038.634281550196
 30
0.0
  0
VERTEX
  5
268
  8
0
 10
1123.794783041499
 20
1030.919562924428
 30
0.0
 42
0.7957202198776403
  0
VERTEX
  5
269
  8
0
 10
1126.894783041502
 20
1025.962367737006
 30
0.0
 42
0.7957202198791709
  0
VERTEX
  5
26A
  8
0
 10
1129.994783041499
 20
1030.919562924435
 30
0.0
  0
VERTEX
  5
26B
  8
0
 10
1129.994783041499
 20
1031.67692227561
 30
0.0
  0
SEQEND
  5
26C
  8
0
  0
LINE
  5
26D
  8
0
 10
1129.994783041504
 20
909.7453926613036
 30
0.0
 11
1129.994783041504
 21
902.0306740355402
 31
0.0
  0
LINE
  5
26E
  8
0
 10
1129.994783041504
 20
974.189837105748
 30
0.0
 11
1129.994783041504
 21
966.475118479985
 31
0.0
  0
LINE
  5
26F
  8
0
 10
1129.994783041504
 20
1038.634281550192
 30
0.0
 11
1129.994783041504
 21
1030.919562924429
 31
0.0
  0
LINE
  5
270
  8
0
 10
1129.994783041504
 20
1231.967614883525
 30
0.0
 11
1129.994783041504
 21
1224.252896257762
 31
0.0
  0
POLYLINE
  5
271
  8
0
 66
     1
 10
0.0
 20
0.0
 30
0.0
  0
VERTEX
  5
272
  8
0
 10
1129.994783041499
 20
1295.654700053388
 30
0.0
  0
VERTEX
  5
273
  8
0
 10
1129.994783041499
 20
1296.412059327966
 30
0.0
 42
0.7957202198794341
  0
VERTEX
  5
274
  8
0
 10
1126.894783041502
 20
1301.369254515394
 30
0.0
 42
0.7957202198777161
  0
VERTEX
  5
275
  8
0
 10
1123.794783041499
 20
1296.412059327973
 30
0.0
  0
VERTEX
  5
276
  8
0
 10
1123.794783041499
 20
1288.697340702204
 30
0.0
 42
0.7957202198776916
  0
VERTEX
  5
277
  8
0
 10
1126.894783041503
 20
1283.740145514783
 30
0.0
 42
0.7957202198792613
  0
VERTEX
  5
278
  8
0
 10
1129.994783041499
 20
1288.697340702211
 30
0.0
  0
VERTEX
  5
279
  8
0
 10
1129.994783041499
 20
1289.454700053388
 30
0.0
  0
SEQEND
  5
27A
  8
0
  0
POLYLINE
  5
27B
  8
0
 66
     1
 10
0.0
 20
0.0
 30
0.0
  0
VERTEX
  5
27C
  8
0
 10
1129.994783041499
 20
844.5435889422774
 30
0.0
  0
VERTEX
  5
27D
  8
0
 10
1129.994783041499
 20
845.3009482168571
 30
0.0
 42
0.7957202198792557
  0
VERTEX
  5
27E
  8
0
 10
1126.894783041502
 20
850.258143404286
 30
0.0
 42
0.7957202198779335
  0
VERTEX
  5
27F
  8
0
 10
1123.794783041499
 20
845.3009482168642
 30
0.0
  0
VERTEX
  5
280
  8
0
 10
1123.794783041499
 20
837.5862295910956
 30
0.0
 42
0.7957202198778456
  0
VERTEX
  5
281
  8
0
 10
1126.894783041502
 20
832.6290344036743
 30
0.0
 42
0.7957202198792546
  0
VERTEX
  5
282
  8
0
 10
1129.994783041499
 20
837.5862295911027
 30
0.0
  0
VERTEX
  5
283
  8
0
 10
1129.994783041499
 20
838.3435889422772
 30
0.0
  0
SEQEND
  5
284
  8
0
  0
LINE
  5
285
  8
0
 10
1129.994783041504
 20
1425.300948216858
 30
0.0
 11
1129.994783041504
 21
1417.586229591095
 31
0.0
  0
LINE
  5
286
  8
0
 10
1129.994783041504
 20
1296.41205932797
 30
0.0
 11
1129.994783041504
 21
1288.697340702206
 31
0.0
  0
LINE
  5
287
  8
0
 10
1129.994783041504
 20
1167.523170439081
 30
0.0
 11
1129.994783041504
 21
1159.808451813318
 31
0.0
  0
LINE
  5
288
  8
0
 10
1129.994783041504
 20
1360.856503772414
 30
0.0
 11
1129.994783041504
 21
1353.141785146651
 31
0.0
  0
POLYLINE
  5
289
  8
0
 66
     1
 10
0.0
 20
0.0
 30
0.0
  0
VERTEX
  5
28A
  8
0
 10
1129.994783041499
 20
1102.321366720054
 30
0.0
  0
VERTEX
  5
28B
  8
0
 10
1129.994783041499
 20
1103.078725994634
 30
0.0
 42
0.7957202198792307
  0
VERTEX
  5
28C
  8
0
 10
1126.894783041502
 20
1108.035921182062
 30
0.0
 42
0.7957202198777454
  0
VERTEX
  5
28D
  8
0
 10
1123.794783041499
 20
1103.078725994641
 30
0.0
  0
VERTEX
  5
28E
  8
0
 10
1123.794783041499
 20
1095.364007368872
 30
0.0
 42
0.7957202198776916
  0
VERTEX
  5
28F
  8
0
 10
1126.894783041502
 20
1090.406812181451
 30
0.0
 42
0.7957202198792075
  0
VERTEX
  5
290
  8
0
 10
1129.994783041499
 20
1095.36400736888
 30
0.0
  0
VERTEX
  5
291
  8
0
 10
1129.994783041499
 20
1096.121366720055
 30
0.0
  0
SEQEND
  5
292
  8
0
  0
POLYLINE
  5
293
  8
0
 66
     1
 10
0.0
 20
0.0
 30
0.0
  0
VERTEX
  5
294
  8
0
 10
1129.994783041499
 20
973.4324778311661
 30
0.0
  0
VERTEX
  5
295
  8
0
 10
1129.994783041499
 20
974.1898371057453
 30
0.0
 42
0.7957202198792261
  0
VERTEX
  5
296
  8
0
 10
1126.894783041502
 20
979.1470322931738
 30
0.0
 42
0.7957202198778004
  0
VERTEX
  5
297
  8
0
 10
1123.794783041498
 20
974.1898371057523
 30
0.0
  0
VERTEX
  5
298
  8
0
 10
1123.794783041498
 20
966.4751184799838
 30
0.0
 42
0.7957202198778414
  0
VERTEX
  5
299
  8
0
 10
1126.894783041502
 20
961.5179232925619
 30
0.0
 42
0.7957202198792168
  0
VERTEX
  5
29A
  8
0
 10
1129.994783041499
 20
966.4751184799908
 30
0.0
  0
VERTEX
  5
29B
  8
0
 10
1129.994783041499
 20
967.2324778311661
 30
0.0
  0
SEQEND
  5
29C
  8
0
  0
POLYLINE
  5
29D
  8
0
 66
     1
 10
0.0
 20
0.0
 30
0.0
  0
VERTEX
  5
29E
  8
0
 10
1129.994783041499
 20
1166.765811164499
 30
0.0
  0
VERTEX
  5
29F
  8
0
 10
1129.994783041499
 20
1167.523170439077
 30
0.0
 42
0.7957202198792752
  0
VERTEX
  5
2A0
  8
0
 10
1126.894783041502
 20
1172.480365626507
 30
0.0
 42
0.7957202198777411
  0
VERTEX
  5
2A1
  8
0
 10
1123.794783041499
 20
1167.523170439085
 30
0.0
  0
VERTEX
  5
2A2
  8
0
 10
1123.794783041499
 20
1159.808451813316
 30
0.0
 42
0.7957202198777998
  0
VERTEX
  5
2A3
  8
0
 10
1126.894783041502
 20
1154.851256625895
 30
0.0
 42
0.7957202198793166
  0
VERTEX
  5
2A4
  8
0
 10
1129.994783041499
 20
1159.808451813323
 30
0.0
  0
VERTEX
  5
2A5
  8
0
 10
1129.994783041499
 20
1160.565811164499
 30
0.0
  0
SEQEND
  5
2A6
  8
0
  0
POLYLINE
  5
2A7
  8
0
 66
     1
 10
0.0
 20
0.0
 30
0.0
 70
     1
  0
VERTEX
  5
2A8
  8
0
 10
611.2857772780719
 20
577.1046507527246
 30
0.0
 42
-1.002980216658173
  0
VERTEX
  5
2A9
  8
0
 10
607.0368475191484
 20
581.340955405961
 30
0.0
  0
VERTEX
  5
2AA
  8
0
 10
607.0368475191485
 20
652.8560376361693
 30
0.0
 42
-0.9970286386436088
  0
VERTEX
  5
2AB
  8
0
 10
611.2731521723792
 20
657.1049673950982
 30
0.0
  0
VERTEX
  5
2AC
  8
0
 10
614.7879177602401
 20
657.1154265958996
 30
0.0
 42
-1.00298021789984
  0
VERTEX
  5
2AD
  8
0
 10
619.0368475191486
 20
652.8791219426795
 30
0.0
  0
VERTEX
  5
2AE
  8
0
 10
619.0368475191484
 20
581.3640397124524
 30
0.0
 42
-0.997028638641498
  0
VERTEX
  5
2AF
  8
0
 10
614.8005428659159
 20
577.1151099535256
 30
0.0
  0
SEQEND
  5
2B0
  8
0
  0
POLYLINE
  5
2B1
  8
0
 66
     1
 10
0.0
 20
0.0
 30
0.0
 70
     1
  0
VERTEX
  5
2B2
  8
0
 10
451.2857772780723
 20
577.1046507527249
 30
0.0
 42
-1.002980216658119
  0
VERTEX
  5
2B3
  8
0
 10
447.036847519149
 20
581.3409554059608
 30
0.0
  0
VERTEX
  5
2B4
  8
0
 10
447.0368475191491
 20
652.85603763617
 30
0.0
 42
-0.9970286386435819
  0
VERTEX
  5
2B5
  8
0
 10
451.2731521723799
 20
657.1049673950984
 30
0.0
  0
VERTEX
  5
2B6
  8
0
 10
454.7879177602405
 20
657.1154265958997
 30
0.0
 42
-1.00298021790027
  0
VERTEX
  5
2B7
  8
0
 10
459.036847519149
 20
652.8791219426795
 30
0.0
  0
VERTEX
  5
2B8
  8
0
 10
459.0368475191491
 20
581.3640397124532
 30
0.0
 42
-0.9970286386415519
  0
VERTEX
  5
2B9
  8
0
 10
454.8005428659168
 20
577.1151099535255
 30
0.0
  0
SEQEND
  5
2BA
  8
0
  0
POLYLINE
  5
2BB
  8
0
 66
     1
 10
0.0
 20
0.0
 30
0.0
 70
     1
  0
VERTEX
  5
2BC
  8
0
 10
456.0309264388594
 20
343.1245861967658
 30
0.0
 42
-0.9970286386437556
  0
VERTEX
  5
2BD
  8
0
 10
451.7946217856278
 20
338.8756564378384
 30
0.0
  0
VERTEX
  5
2BE
  8
0
 10
448.2798561977919
 20
338.8651972370372
 30
0.0
 42
-1.002980216657972
  0
VERTEX
  5
2BF
  8
0
 10
444.0309264388597
 20
343.1015018902644
 30
0.0
  0
VERTEX
  5
2C0
  8
0
 10
444.0309264388596
 20
414.6165841204829
 30
0.0
 42
-0.9970286386414312
  0
VERTEX
  5
2C1
  8
0
 10
448.2672310920909
 20
418.8655138794107
 30
0.0
  0
VERTEX
  5
2C2
  8
0
 10
451.7819966799366
 20
418.8759730802119
 30
0.0
 42
-1.002980216657891
  0
VERTEX
  5
2C3
  8
0
 10
456.0309264388596
 20
414.6396684269753
 30
0.0
  0
SEQEND
  5
2C4
  8
0
  0
POLYLINE
  5
2C5
  8
0
 66
     1
 10
0.0
 20
0.0
 30
0.0
 70
     1
  0
VERTEX
  5
2C6
  8
0
 10
608.2798561977912
 20
338.8651972370376
 30
0.0
  0
VERTEX
  5
2C7
  8
0
 10
611.7946217856266
 20
338.8756564378387
 30
0.0
 42
0.9970286386437514
  0
VERTEX
  5
2C8
  8
0
 10
616.0309264388588
 20
343.1245861967658
 30
0.0
  0
VERTEX
  5
2C9
  8
0
 10
616.0309264388588
 20
414.6396684269755
 30
0.0
 42
1.002980216657833
  0
VERTEX
  5
2CA
  8
0
 10
611.7819966799358
 20
418.8759730802118
 30
0.0
  0
VERTEX
  5
2CB
  8
0
 10
608.2672310920898
 20
418.8655138794111
 30
0.0
 42
0.9970286386414535
  0
VERTEX
  5
2CC
  8
0
 10
604.030926438859
 20
414.6165841204825
 30
0.0
  0
VERTEX
  5
2CD
  8
0
 10
604.0309264388587
 20
343.1015018902646
 30
0.0
 42
1.002980216658169
  0
SEQEND
  5
2CE
  8
0
  0
POLYLINE
  5
2CF
  8
0
 66
     1
 10
0.0
 20
0.0
 30
0.0
 70
     1
  0
VERTEX
  5
2D0
  8
0
 10
528.2798561977916
 20
338.8651972370376
 30
0.0
  0
VERTEX
  5
2D1
  8
0
 10
531.7946217856272
 20
338.8756564378383
 30
0.0
 42
0.9970286386437514
  0
VERTEX
  5
2D2
  8
0
 10
536.0309264388592
 20
343.1245861967658
 30
0.0
  0
VERTEX
  5
2D3
  8
0
 10
536.0309264388591
 20
414.6396684269755
 30
0.0
 42
1.002980216657913
  0
VERTEX
  5
2D4
  8
0
 10
531.7819966799364
 20
418.875973080212
 30
0.0
  0
VERTEX
  5
2D5
  8
0
 10
528.2672310920906
 20
418.8655138794111
 30
0.0
 42
0.997028638641427
  0
VERTEX
  5
2D6
  8
0
 10
524.0309264388591
 20
414.616584120483
 30
0.0
  0
VERTEX
  5
2D7
  8
0
 10
524.0309264388593
 20
343.1015018902644
 30
0.0
 42
1.002980216658021
  0
SEQEND
  5
2D8
  8
0
  0
POLYLINE
  5
2D9
  8
0
 66
     1
 10
0.0
 20
0.0
 30
0.0
 70
     1
  0
VERTEX
  5
2DA
  8
0
 10
926.3142485405929
 20
325.8174898068391
 30
0.0
  0
VERTEX
  5
2DB
  8
0
 10
926.3142485405913
 20
329.3322085358801
 30
0.0
 42
0.999938523266517
  0
VERTEX
  5
2DC
  8
0
 10
922.0717382793522
 20
333.5749796288346
 30
0.0
  0
VERTEX
  5
2DD
  8
0
 10
840.6992824505785
 20
333.5799822954734
 30
0.0
  0
VERTEX
  5
2DE
  8
0
 10
840.7034629970171
 20
401.5799820903705
 30
0.0
  0
VERTEX
  5
2DF
  8
0
 10
922.0714774476095
 20
401.5749796967814
 30
0.0
 42
1.000061480513207
  0
VERTEX
  5
2E0
  8
0
 10
926.314248540561
 20
405.8174899580237
 30
0.0
  0
VERTEX
  5
2E1
  8
0
 10
926.3142485405599
 20
409.3322086870646
 30
0.0
 42
0.9999385232664633
  0
VERTEX
  5
2E2
  8
0
 10
922.0717382793206
 20
413.5749797800195
 30
0.0
  0
VERTEX
  5
2E3
  8
0
 10
840.7042007405121
 20
413.5799821442886
 30
0.0
  0
VERTEX
  5
2E4
  8
0
 10
840.7083812869504
 20
481.5799819391855
 30
0.0
  0
VERTEX
  5
2E5
  8
0
 10
922.0714774475779
 20
481.5749798479663
 30
0.0
 42
1.000061480514466
  0
VERTEX
  5
2E6
  8
0
 10
926.3142485405294
 20
485.8174901092087
 30
0.0
  0
VERTEX
  5
2E7
  8
0
 10
926.3142485405283
 20
489.332208838249
 30
0.0
 42
0.9999385232664366
  0
VERTEX
  5
2E8
  8
0
 10
922.0717382792891
 20
493.574979931204
 30
0.0
  0
VERTEX
  5
2E9
  8
0
 10
840.7091190304452
 20
493.5799819931035
 30
0.0
  0
VERTEX
  5
2EA
  8
0
 10
840.7132995768839
 20
561.5799817880004
 30
0.0
  0
VERTEX
  5
2EB
  8
0
 10
922.0714774475463
 20
561.574979999151
 30
0.0
 42
1.000061480513287
  0
VERTEX
  5
2EC
  8
0
 10
926.3142485405008
 20
565.8174902603904
 30
0.0
  0
VERTEX
  5
2ED
  8
0
 10
926.3142485404967
 20
569.3322089894336
 30
0.0
 42
0.9999385232664768
  0
VERTEX
  5
2EE
  8
0
 10
922.0717382792576
 20
573.5749800823891
 30
0.0
  0
VERTEX
  5
2EF
  8
0
 10
840.7140373203786
 20
573.5799818419184
 30
0.0
  0
VERTEX
  5
2F0
  8
0
 10
840.7182178668171
 20
641.5799816368153
 30
0.0
  0
VERTEX
  5
2F1
  8
0
 10
922.0714774475143
 20
641.5749801503358
 30
0.0
 42
1.000061480514064
  0
VERTEX
  5
2F2
  8
0
 10
926.3142485404666
 20
645.817490411578
 30
0.0
  0
VERTEX
  5
2F3
  8
0
 10
926.3142485404649
 20
649.3322091406188
 30
0.0
 42
0.9999385232663964
  0
VERTEX
  5
2F4
  8
0
 10
922.071738279226
 20
653.5749802335737
 30
0.0
  0
VERTEX
  5
2F5
  8
0
 10
840.7189556103117
 20
653.5799816907336
 30
0.0
  0
VERTEX
  5
2F6
  8
0
 10
840.7237443400893
 20
731.4725798685952
 30
0.0
  0
VERTEX
  5
2F7
  8
0
 10
1011.893569650991
 20
731.4620565832167
 30
0.0
  0
VERTEX
  5
2F8
  8
0
 10
1011.864189471546
 20
253.5694591612798
 30
0.0
  0
VERTEX
  5
2F9
  8
0
 10
840.6943641606454
 20
253.5799824466587
 30
0.0
  0
VERTEX
  5
2FA
  8
0
 10
840.698544707084
 20
321.5799822415554
 30
0.0
  0
VERTEX
  5
2FB
  8
0
 10
922.0714774476409
 20
321.5749795455966
 30
0.0
 42
1.000061480513207
  0
SEQEND
  5
2FC
  8
0
  0
POLYLINE
  5
2FD
  8
0
 66
     1
 10
0.0
 20
0.0
 30
0.0
 70
     1
  0
VERTEX
  5
2FE
  8
0
 10
1137.579921016543
 20
574.151777777276
 30
0.0
  0
VERTEX
  5
2FF
  8
0
 10
1056.222219903913
 20
574.151777777276
 30
0.0
  0
VERTEX
  5
300
  8
0
 10
1056.222219903913
 20
642.15177770068
 30
0.0
  0
VERTEX
  5
301
  8
0
 10
1137.575479638353
 20
642.1517777006802
 30
0.0
 42
1.000061480514163
  0
VERTEX
  5
302
  8
0
 10
1141.817989899593
 20
646.3945487936338
 30
0.0
  0
VERTEX
  5
303
  8
0
 10
1141.81777381952
 20
649.9092675160331
 30
0.0
 42
0.9999385232654229
  0
VERTEX
  5
304
  8
0
 10
1137.575002726569
 20
654.1517777772759
 30
0.0
  0
VERTEX
  5
305
  8
0
 10
1056.222219903913
 20
654.1517777772758
 30
0.0
  0
VERTEX
  5
306
  8
0
 10
1056.222219903913
 20
732.0443761023398
 30
0.0
  0
VERTEX
  5
307
  8
0
 10
1227.392045538293
 20
732.0443761023394
 30
0.0
  0
VERTEX
  5
308
  8
0
 10
1227.392045538292
 20
254.1517777772774
 30
0.0
  0
VERTEX
  5
309
  8
0
 10
1056.222219903913
 20
254.1517777772774
 30
0.0
  0
VERTEX
  5
30A
  8
0
 10
1056.222219903913
 20
322.1517777006814
 30
0.0
  0
VERTEX
  5
30B
  8
0
 10
1137.59515279825
 20
322.1517777006813
 30
0.0
 42
1.000061480513975
  0
VERTEX
  5
30C
  8
0
 10
1141.837663059489
 20
326.3945487936356
 30
0.0
  0
VERTEX
  5
30D
  8
0
 10
1141.837446979416
 20
329.9092675160342
 30
0.0
 42
0.9999385232664411
  0
VERTEX
  5
30E
  8
0
 10
1137.594675886465
 20
334.1517777772769
 30
0.0
  0
VERTEX
  5
30F
  8
0
 10
1056.222219903913
 20
334.1517777772769
 30
0.0
  0
VERTEX
  5
310
  8
0
 10
1056.222219903913
 20
402.1517777006811
 30
0.0
  0
VERTEX
  5
311
  8
0
 10
1137.590234508276
 20
402.1517777006812
 30
0.0
 42
1.000061480514002
  0
VERTEX
  5
312
  8
0
 10
1141.832744769515
 20
406.3945487936354
 30
0.0
  0
VERTEX
  5
313
  8
0
 10
1141.832528689442
 20
409.9092675160339
 30
0.0
 42
0.9999385232655033
  0
VERTEX
  5
314
  8
0
 10
1137.589757596491
 20
414.1517777772769
 30
0.0
  0
VERTEX
  5
315
  8
0
 10
1056.222219903913
 20
414.1517777772769
 30
0.0
  0
VERTEX
  5
316
  8
0
 10
1056.222219903913
 20
482.1517777006807
 30
0.0
  0
VERTEX
  5
317
  8
0
 10
1137.585316218301
 20
482.1517777006808
 30
0.0
 42
1.000061480514056
  0
VERTEX
  5
318
  8
0
 10
1141.827826479541
 20
486.3945487936349
 30
0.0
  0
VERTEX
  5
319
  8
0
 10
1141.827610399468
 20
489.9092675160335
 30
0.0
 42
0.9999385232654631
  0
VERTEX
  5
31A
  8
0
 10
1137.584839306517
 20
494.1517777772765
 30
0.0
  0
VERTEX
  5
31B
  8
0
 10
1056.222219903913
 20
494.1517777772765
 30
0.0
  0
VERTEX
  5
31C
  8
0
 10
1056.222219903913
 20
562.1517777006807
 30
0.0
  0
VERTEX
  5
31D
  8
0
 10
1137.580397928327
 20
562.1517777006807
 30
0.0
 42
1.000061480514484
  0
VERTEX
  5
31E
  8
0
 10
1141.82290818957
 20
566.3945487936319
 30
0.0
  0
VERTEX
  5
31F
  8
0
 10
1141.822692109494
 20
569.9092675160325
 30
0.0
 42
0.9999385232655033
  0
SEQEND
  5
320
  8
0
  0
POLYLINE
  5
321
  8
0
 66
     1
 10
0.0
 20
0.0
 30
0.0
 70
     1
  0
VERTEX
  5
322
  8
0
 10
294.7879177602416
 20
657.1154265958994
 30
0.0
  0
VERTEX
  5
323
  8
0
 10
291.2731521723807
 20
657.1049673950982
 30
0.0
 42
0.9970286386434571
  0
VERTEX
  5
324
  8
0
 10
287.0368475191494
 20
652.8560376361708
 30
0.0
  0
VERTEX
  5
325
  8
0
 10
287.0368475191493
 20
581.3409554059604
 30
0.0
 42
1.002980216658021
  0
VERTEX
  5
326
  8
0
 10
291.2857772780731
 20
577.1046507527249
 30
0.0
  0
VERTEX
  5
327
  8
0
 10
294.8005428659172
 20
577.1151099535257
 30
0.0
 42
0.9970286386416138
  0
VERTEX
  5
328
  8
0
 10
299.0368475191492
 20
581.3640397124531
 30
0.0
  0
VERTEX
  5
329
  8
0
 10
299.0368475191493
 20
652.8791219426791
 30
0.0
 42
1.002980217900241
  0
SEQEND
  5
32A
  8
0
  0
POLYLINE
  5
32B
  8
0
 66
     1
 10
0.0
 20
0.0
 30
0.0
 70
     1
  0
VERTEX
  5
32C
  8
0
 10
310.8842262168279
 20
978.2535339296583
 30
0.0
 42
-0.9999385232655792
  0
VERTEX
  5
32D
  8
0
 10
315.1269973097765
 20
974.0110236684127
 30
0.0
  0
VERTEX
  5
32E
  8
0
 10
315.1272133898541
 20
970.4963049460098
 30
0.0
 42
-1.000061480513207
  0
VERTEX
  5
32F
  8
0
 10
310.8847031286098
 20
966.25353385306
 30
0.0
  0
VERTEX
  5
330
  8
0
 10
229.5166885242474
 20
966.2535338530602
 30
0.0
  0
VERTEX
  5
331
  8
0
 10
229.5166885242474
 20
898.2535339296558
 30
0.0
  0
VERTEX
  5
332
  8
0
 10
310.8891445067979
 20
898.2535339296546
 30
0.0
 42
-0.9999385232664633
  0
VERTEX
  5
333
  8
0
 10
315.1319155997505
 20
894.0110236684129
 30
0.0
  0
VERTEX
  5
334
  8
0
 10
315.1321316798243
 20
890.4963049460134
 30
0.0
 42
-1.000061480514091
  0
VERTEX
  5
335
  8
0
 10
310.8896214185838
 20
886.2535338530599
 30
0.0
  0
VERTEX
  5
336
  8
0
 10
229.5166885242473
 20
886.2535338530602
 30
0.0
  0
VERTEX
  5
337
  8
0
 10
229.5166885242473
 20
818.253533929656
 30
0.0
  0
VERTEX
  5
338
  8
0
 10
400.6865141586268
 20
818.253533929656
 30
0.0
  0
VERTEX
  5
339
  8
0
 10
400.6865141586276
 20
1296.146132254719
 30
0.0
  0
VERTEX
  5
33A
  8
0
 10
229.5166885242478
 20
1296.146132254719
 30
0.0
  0
VERTEX
  5
33B
  8
0
 10
229.5166885242477
 20
1218.253533929656
 30
0.0
  0
VERTEX
  5
33C
  8
0
 10
310.8694713469057
 20
1218.253533929658
 30
0.0
 42
-0.9999385232655792
  0
VERTEX
  5
33D
  8
0
 10
315.1122424398542
 20
1214.011023668413
 30
0.0
  0
VERTEX
  5
33E
  8
0
 10
315.1124585199281
 20
1210.496304946013
 30
0.0
 42
-1.000061480514038
  0
VERTEX
  5
33F
  8
0
 10
310.8699482586873
 20
1206.25353385306
 30
0.0
  0
VERTEX
  5
340
  8
0
 10
229.5166885242477
 20
1206.25353385306
 30
0.0
  0
VERTEX
  5
341
  8
0
 10
229.5166885242477
 20
1138.253533929656
 30
0.0
  0
VERTEX
  5
342
  8
0
 10
310.8743896368741
 20
1138.253533929652
 30
0.0
 42
-0.9999385232669324
  0
VERTEX
  5
343
  8
0
 10
315.1171607298284
 20
1134.011023668412
 30
0.0
  0
VERTEX
  5
344
  8
0
 10
315.1173768099022
 20
1130.496304946013
 30
0.0
 42
-1.000061480514091
  0
VERTEX
  5
345
  8
0
 10
310.8748665486615
 20
1126.25353385306
 30
0.0
  0
VERTEX
  5
346
  8
0
 10
229.5166885242476
 20
1126.25353385306
 30
0.0
  0
VERTEX
  5
347
  8
0
 10
229.5166885242476
 20
1058.253533929656
 30
0.0
  0
VERTEX
  5
348
  8
0
 10
310.8793079268505
 20
1058.253533929654
 30
0.0
 42
-0.9999385232664633
  0
VERTEX
  5
349
  8
0
 10
315.1220790198024
 20
1054.011023668412
 30
0.0
  0
VERTEX
  5
34A
  8
0
 10
315.1222950998765
 20
1050.496304946013
 30
0.0
 42
-1.000061480514064
  0
VERTEX
  5
34B
  8
0
 10
310.8797848386357
 20
1046.25353385306
 30
0.0
  0
VERTEX
  5
34C
  8
0
 10
229.5166885242475
 20
1046.25353385306
 30
0.0
  0
VERTEX
  5
34D
  8
0
 10
229.5166885242474
 20
978.2535339296558
 30
0.0
  0
SEQEND
  5
34E
  8
0
  0
POLYLINE
  5
34F
  8
0
 66
     1
 10
0.0
 20
0.0
 30
0.0
 70
     1
  0
VERTEX
  5
350
  8
0
 10
109.1492029069199
 20
772.1327017727451
 30
0.0
  0
VERTEX
  5
351
  8
0
 10
88.14920385786559
 20
772.132701705724
 30
0.0
  0
VERTEX
  5
352
  8
0
 10
88.14920385786655
 20
1427.586456523174
 30
0.0
  0
VERTEX
  5
353
  8
0
 10
718.1492026980261
 20
1427.586456523173
 30
0.0
  0
VERTEX
  5
354
  8
0
 10
718.14920248913
 20
772.1327017727442
 30
0.0
  0
VERTEX
  5
355
  8
0
 10
599.0418012940697
 20
772.1327017727447
 30
0.0
  0
VERTEX
  5
356
  8
0
 10
599.0417976445528
 20
1343.890057419922
 30
0.0
 42
1.000000864107073
  0
VERTEX
  5
357
  8
0
 10
594.7991606231427
 20
1348.132701772744
 30
0.0
  0
VERTEX
  5
358
  8
0
 10
215.2844419973825
 20
1348.132701772744
 30
0.0
 42
0.9999991359578233
  0
VERTEX
  5
359
  8
0
 10
211.0417976443682
 20
1343.890064751526
 30
0.0
  0
VERTEX
  5
35A
  8
0
 10
211.0418012940703
 20
772.1327017727456
 30
0.0
  0
SEQEND
  5
35B
  8
0
  0
POLYLINE
  5
35C
  8
0
 66
     1
 10
0.0
 20
0.0
 30
0.0
 70
     1
  0
VERTEX
  5
35D
  8
0
 10
1685.637467545389
 20
333.7925481002062
 30
0.0
  0
VERTEX
  5
35E
  8
0
 10
1685.637467545389
 20
401.7925480236104
 30
0.0
  0
VERTEX
  5
35F
  8
0
 10
1767.005482149752
 20
401.7925480236104
 30
0.0
 42
1.000061480514056
  0
VERTEX
  5
360
  8
0
 10
1771.247992410992
 20
406.0353191165643
 30
0.0
  0
VERTEX
  5
361
  8
0
 10
1771.247776330918
 20
409.5500378389634
 30
0.0
 42
0.9999385232664009
  0
VERTEX
  5
362
  8
0
 10
1767.005005237967
 20
413.7925481002054
 30
0.0
  0
VERTEX
  5
363
  8
0
 10
1685.637467545389
 20
413.7925481002062
 30
0.0
  0
VERTEX
  5
364
  8
0
 10
1685.637467545389
 20
481.7925480236102
 30
0.0
  0
VERTEX
  5
365
  8
0
 10
1767.000563859777
 20
481.7925480236096
 30
0.0
 42
1.000061480513975
  0
VERTEX
  5
366
  8
0
 10
1771.243074121018
 20
486.0353191165645
 30
0.0
  0
VERTEX
  5
367
  8
0
 10
1771.242858040944
 20
489.5500378389626
 30
0.0
 42
0.9999385232664142
  0
VERTEX
  5
368
  8
0
 10
1767.000086947993
 20
493.7925481002054
 30
0.0
  0
VERTEX
  5
369
  8
0
 10
1685.637467545389
 20
493.7925481002055
 30
0.0
  0
VERTEX
  5
36A
  8
0
 10
1685.637467545389
 20
561.7925480236097
 30
0.0
  0
VERTEX
  5
36B
  8
0
 10
1766.995645569803
 20
561.7925480236098
 30
0.0
 42
1.000061480515449
  0
VERTEX
  5
36C
  8
0
 10
1771.238155831044
 20
566.0353191165633
 30
0.0
  0
VERTEX
  5
36D
  8
0
 10
1771.23793975097
 20
569.5500378389623
 30
0.0
 42
0.9999385232664677
  0
VERTEX
  5
36E
  8
0
 10
1766.995168658019
 20
573.7925481002054
 30
0.0
  0
VERTEX
  5
36F
  8
0
 10
1685.637467545389
 20
573.7925481002055
 30
0.0
  0
VERTEX
  5
370
  8
0
 10
1685.637467545389
 20
641.7925480236097
 30
0.0
  0
VERTEX
  5
371
  8
0
 10
1766.990727279829
 20
641.7925480236091
 30
0.0
 42
1.000061480515288
  0
VERTEX
  5
372
  8
0
 10
1771.23323754107
 20
646.0353191165636
 30
0.0
  0
VERTEX
  5
373
  8
0
 10
1771.233021460996
 20
649.5500378389621
 30
0.0
 42
0.9999385232663607
  0
VERTEX
  5
374
  8
0
 10
1766.990250368045
 20
653.7925481002053
 30
0.0
  0
VERTEX
  5
375
  8
0
 10
1685.637467545389
 20
653.7925481002055
 30
0.0
  0
VERTEX
  5
376
  8
0
 10
1685.637467545389
 20
731.6851464252693
 30
0.0
  0
VERTEX
  5
377
  8
0
 10
1856.807293179769
 20
731.6851464252691
 30
0.0
  0
VERTEX
  5
378
  8
0
 10
1856.807293179769
 20
253.7925481002062
 30
0.0
  0
VERTEX
  5
379
  8
0
 10
1685.637467545389
 20
253.7925481002064
 30
0.0
  0
VERTEX
  5
37A
  8
0
 10
1685.637467545389
 20
321.7925480236104
 30
0.0
  0
VERTEX
  5
37B
  8
0
 10
1767.010400439725
 20
321.7925480236104
 30
0.0
 42
1.000061480515395
  0
VERTEX
  5
37C
  8
0
 10
1771.252910700965
 20
326.0353191165646
 30
0.0
  0
VERTEX
  5
37D
  8
0
 10
1771.252694620892
 20
329.550037838963
 30
0.0
 42
0.9999385232664946
  0
VERTEX
  5
37E
  8
0
 10
1767.009923527942
 20
333.7925481002062
 30
0.0
  0
SEQEND
  5
37F
  8
0
  0
POLYLINE
  5
380
  8
0
 66
     1
 10
0.0
 20
0.0
 30
0.0
 70
     1
  0
VERTEX
  5
381
  8
0
 10
1563.763694054841
 20
334.1316463949015
 30
0.0
  0
VERTEX
  5
382
  8
0
 10
1482.391238072289
 20
334.1316463949017
 30
0.0
  0
VERTEX
  5
383
  8
0
 10
1482.391238072289
 20
402.1316463183057
 30
0.0
  0
VERTEX
  5
384
  8
0
 10
1563.759252676652
 20
402.1316463183057
 30
0.0
 42
1.000061480514056
  0
VERTEX
  5
385
  8
0
 10
1568.001762937892
 20
406.3744174112596
 30
0.0
  0
VERTEX
  5
386
  8
0
 10
1568.001546857819
 20
409.8891361336584
 30
0.0
 42
0.9999385232655836
  0
VERTEX
  5
387
  8
0
 10
1563.758775764867
 20
414.1316463949012
 30
0.0
  0
VERTEX
  5
388
  8
0
 10
1482.391238072289
 20
414.1316463949015
 30
0.0
  0
VERTEX
  5
389
  8
0
 10
1482.39123807229
 20
482.1316463183057
 30
0.0
  0
VERTEX
  5
38A
  8
0
 10
1563.754334386678
 20
482.1316463183053
 30
0.0
 42
1.000061480514002
  0
VERTEX
  5
38B
  8
0
 10
1567.996844647918
 20
486.3744174112597
 30
0.0
  0
VERTEX
  5
38C
  8
0
 10
1567.996628567845
 20
489.8891361336578
 30
0.0
 42
0.9999385232664275
  0
VERTEX
  5
38D
  8
0
 10
1563.753857474893
 20
494.1316463949009
 30
0.0
  0
VERTEX
  5
38E
  8
0
 10
1482.39123807229
 20
494.1316463949013
 30
0.0
  0
VERTEX
  5
38F
  8
0
 10
1482.39123807229
 20
562.1316463183055
 30
0.0
  0
VERTEX
  5
390
  8
0
 10
1563.749416096704
 20
562.131646318305
 30
0.0
 42
1.000061480514538
  0
VERTEX
  5
391
  8
0
 10
1567.991926357945
 20
566.3744174112583
 30
0.0
  0
VERTEX
  5
392
  8
0
 10
1567.991710277871
 20
569.8891361336576
 30
0.0
 42
0.9999385232663607
  0
VERTEX
  5
393
  8
0
 10
1563.748939184919
 20
574.1316463949007
 30
0.0
  0
VERTEX
  5
394
  8
0
 10
1482.39123807229
 20
574.131646394901
 30
0.0
  0
VERTEX
  5
395
  8
0
 10
1482.39123807229
 20
642.131646318305
 30
0.0
  0
VERTEX
  5
396
  8
0
 10
1563.744497806729
 20
642.1316463183047
 30
0.0
 42
1.000061480514431
  0
VERTEX
  5
397
  8
0
 10
1567.98700806797
 20
646.3744174112585
 30
0.0
  0
VERTEX
  5
398
  8
0
 10
1567.986791987896
 20
649.8891361336575
 30
0.0
 42
0.9999385232655836
  0
VERTEX
  5
399
  8
0
 10
1563.744020894946
 20
654.1316463949008
 30
0.0
  0
VERTEX
  5
39A
  8
0
 10
1482.39123807229
 20
654.1316463949008
 30
0.0
  0
VERTEX
  5
39B
  8
0
 10
1482.39123807229
 20
732.0242447199646
 30
0.0
  0
VERTEX
  5
39C
  8
0
 10
1653.56106370667
 20
732.0242447199641
 30
0.0
  0
VERTEX
  5
39D
  8
0
 10
1653.561063706668
 20
254.1316463949015
 30
0.0
  0
VERTEX
  5
39E
  8
0
 10
1482.391238072289
 20
254.1316463949022
 30
0.0
  0
VERTEX
  5
39F
  8
0
 10
1482.391238072289
 20
322.1316463183059
 30
0.0
  0
VERTEX
  5
3A0
  8
0
 10
1563.764170966625
 20
322.1316463183057
 30
0.0
 42
1.000061480515395
  0
VERTEX
  5
3A1
  8
0
 10
1568.006681227866
 20
326.3744174112599
 30
0.0
  0
VERTEX
  5
3A2
  8
0
 10
1568.006465147792
 20
329.8891361336587
 30
0.0
 42
0.9999385232663205
  0
SEQEND
  5
3A3
  8
0
  0
POLYLINE
  5
3A4
  8
0
 66
     1
 10
0.0
 20
0.0
 30
0.0
 70
     1
  0
VERTEX
  5
3A5
  8
0
 10
497.0264076809327
 20
1054.216838278053
 30
0.0
 42
-0.999938523266986
  0
VERTEX
  5
3A6
  8
0
 10
501.2691787738867
 20
1049.974328016813
 30
0.0
  0
VERTEX
  5
3A7
  8
0
 10
501.2693948539592
 20
1046.459609294416
 30
0.0
 42
-1.00006148051452
  0
VERTEX
  5
3A8
  8
0
 10
497.0268845927199
 20
1042.21683820146
 30
0.0
  0
VERTEX
  5
3A9
  8
0
 10
415.6637882783318
 20
1042.21683820146
 30
0.0
  0
VERTEX
  5
3AA
  8
0
 10
415.6637882783318
 20
974.2168382780562
 30
0.0
  0
VERTEX
  5
3AB
  8
0
 10
497.0313259709122
 20
974.2168382780588
 30
0.0
 42
-0.9999385232656329
  0
VERTEX
  5
3AC
  8
0
 10
501.2740970638608
 20
969.9743280168135
 30
0.0
  0
VERTEX
  5
3AD
  8
0
 10
501.2743131439346
 20
966.4596092944142
 30
0.0
 42
-1.000061480514091
  0
VERTEX
  5
3AE
  8
0
 10
497.0318028826942
 20
962.2168382014604
 30
0.0
  0
VERTEX
  5
3AF
  8
0
 10
415.6637882783318
 20
962.2168382014604
 30
0.0
  0
VERTEX
  5
3B0
  8
0
 10
415.6637882783317
 20
894.2168382780562
 30
0.0
  0
VERTEX
  5
3B1
  8
0
 10
497.0362442608861
 20
894.2168382780588
 30
0.0
 42
-0.9999385232656061
  0
VERTEX
  5
3B2
  8
0
 10
501.279015353835
 20
889.9743280168135
 30
0.0
  0
VERTEX
  5
3B3
  8
0
 10
501.2792314339088
 20
886.4596092944141
 30
0.0
 42
-1.000061480514091
  0
VERTEX
  5
3B4
  8
0
 10
497.0367211726683
 20
882.2168382014606
 30
0.0
  0
VERTEX
  5
3B5
  8
0
 10
415.6637882783318
 20
882.2168382014606
 30
0.0
  0
VERTEX
  5
3B6
  8
0
 10
415.6637882783317
 20
814.2168382780562
 30
0.0
  0
VERTEX
  5
3B7
  8
0
 10
586.8336139127114
 20
814.2168382780565
 30
0.0
  0
VERTEX
  5
3B8
  8
0
 10
586.8336139127118
 20
1292.10943660312
 30
0.0
  0
VERTEX
  5
3B9
  8
0
 10
415.6637882783319
 20
1292.10943660312
 30
0.0
  0
VERTEX
  5
3BA
  8
0
 10
415.6637882783319
 20
1214.216838278056
 30
0.0
  0
VERTEX
  5
3BB
  8
0
 10
497.0165711009899
 20
1214.216838278058
 30
0.0
 42
-0.9999385232656194
  0
VERTEX
  5
3BC
  8
0
 10
501.2593421939384
 20
1209.974328016813
 30
0.0
  0
VERTEX
  5
3BD
  8
0
 10
501.2595582740126
 20
1206.459609294413
 30
0.0
 42
-1.000061480514011
  0
VERTEX
  5
3BE
  8
0
 10
497.0170480127715
 20
1202.21683820146
 30
0.0
  0
VERTEX
  5
3BF
  8
0
 10
415.6637882783318
 20
1202.21683820146
 30
0.0
  0
VERTEX
  5
3C0
  8
0
 10
415.6637882783319
 20
1134.216838278056
 30
0.0
  0
VERTEX
  5
3C1
  8
0
 10
497.0214893909604
 20
1134.216838278055
 30
0.0
 42
-0.9999385232663294
  0
VERTEX
  5
3C2
  8
0
 10
501.2642604839127
 20
1129.974328016813
 30
0.0
  0
VERTEX
  5
3C3
  8
0
 10
501.264476563987
 20
1126.459609294414
 30
0.0
 42
-1.000061480514038
  0
VERTEX
  5
3C4
  8
0
 10
497.0219663027459
 20
1122.21683820146
 30
0.0
  0
VERTEX
  5
3C5
  8
0
 10
415.6637882783318
 20
1122.21683820146
 30
0.0
  0
VERTEX
  5
3C6
  8
0
 10
415.6637882783318
 20
1054.216838278056
 30
0.0
  0
SEQEND
  5
3C7
  8
0
  0
POLYLINE
  5
3C8
  8
0
 66
     1
 10
0.0
 20
0.0
 30
0.0
 70
     1
  0
VERTEX
  5
3C9
  8
0
 10
1259.647232592263
 20
641.40834650082
 30
0.0
  0
VERTEX
  5
3CA
  8
0
 10
1341.000492328597
 20
641.4083464242239
 30
0.0
 42
1.000061480514109
  0
VERTEX
  5
3CB
  8
0
 10
1345.243002587942
 20
645.6511175190722
 30
0.0
  0
VERTEX
  5
3CC
  8
0
 10
1345.242786507874
 20
649.1658361648858
 30
0.0
 42
0.9999385052114378
  0
VERTEX
  5
3CD
  8
0
 10
1341.000015489619
 20
653.4083465008198
 30
0.0
  0
VERTEX
  5
3CE
  8
0
 10
1259.647232592263
 20
653.4083465008198
 30
0.0
  0
VERTEX
  5
3CF
  8
0
 10
1259.647232592263
 20
731.3009448258831
 30
0.0
  0
VERTEX
  5
3D0
  8
0
 10
1430.817058226643
 20
731.3009448258836
 30
0.0
  0
VERTEX
  5
3D1
  8
0
 10
1430.817058226642
 20
253.4083465008218
 30
0.0
  0
VERTEX
  5
3D2
  8
0
 10
1259.647232592263
 20
253.4083465008218
 30
0.0
  0
VERTEX
  5
3D3
  8
0
 10
1259.647232592263
 20
321.4083465008214
 30
0.0
  0
VERTEX
  5
3D4
  8
0
 10
1341.020165488494
 20
321.4083464242254
 30
0.0
 42
1.000061480514029
  0
VERTEX
  5
3D5
  8
0
 10
1345.262675747839
 20
325.6511175190745
 30
0.0
  0
VERTEX
  5
3D6
  8
0
 10
1345.262459667771
 20
329.1658361648874
 30
0.0
 42
0.999938505211719
  0
VERTEX
  5
3D7
  8
0
 10
1341.019688649515
 20
333.4083465008217
 30
0.0
  0
VERTEX
  5
3D8
  8
0
 10
1259.647232592263
 20
333.4083465008214
 30
0.0
  0
VERTEX
  5
3D9
  8
0
 10
1259.647232592263
 20
401.4083465008212
 30
0.0
  0
VERTEX
  5
3DA
  8
0
 10
1341.01524719852
 20
401.4083464242256
 30
0.0
 42
1.000061480513198
  0
VERTEX
  5
3DB
  8
0
 10
1345.257757457864
 20
405.6511175190739
 30
0.0
  0
VERTEX
  5
3DC
  8
0
 10
1345.257541377796
 20
409.1658361648873
 30
0.0
 42
0.9999385052100711
  0
VERTEX
  5
3DD
  8
0
 10
1341.014770359542
 20
413.4083465008212
 30
0.0
  0
VERTEX
  5
3DE
  8
0
 10
1259.647232592263
 20
413.4083465008212
 30
0.0
  0
VERTEX
  5
3DF
  8
0
 10
1259.647232592263
 20
481.4083465008209
 30
0.0
  0
VERTEX
  5
3E0
  8
0
 10
1341.010328908545
 20
481.4083464242247
 30
0.0
 42
1.000061480513198
  0
VERTEX
  5
3E1
  8
0
 10
1345.25283916789
 20
485.6511175190734
 30
0.0
  0
VERTEX
  5
3E2
  8
0
 10
1345.252623087822
 20
489.1658361648866
 30
0.0
 42
0.9999385052119868
  0
VERTEX
  5
3E3
  8
0
 10
1341.009852069567
 20
493.4083465008204
 30
0.0
  0
VERTEX
  5
3E4
  8
0
 10
1259.647232592263
 20
493.4083465008205
 30
0.0
  0
VERTEX
  5
3E5
  8
0
 10
1259.647232592263
 20
561.4083465008207
 30
0.0
  0
VERTEX
  5
3E6
  8
0
 10
1341.005410618571
 20
561.4083464242246
 30
0.0
 42
1.000061480513198
  0
VERTEX
  5
3E7
  8
0
 10
1345.247920877917
 20
565.6511175190728
 30
0.0
  0
VERTEX
  5
3E8
  8
0
 10
1345.247704797848
 20
569.1658361648862
 30
0.0
 42
0.999938505210634
  0
VERTEX
  5
3E9
  8
0
 10
1341.004933779593
 20
573.4083465008201
 30
0.0
  0
VERTEX
  5
3EA
  8
0
 10
1259.647232592263
 20
573.4083465008202
 30
0.0
  0
SEQEND
  5
3EB
  8
0
  0
POLYLINE
  5
3EC
  8
0
 66
     1
 10
0.0
 20
0.0
 30
0.0
 70
     1
  0
VERTEX
  5
3ED
  8
0
 10
823.852452805895
 20
774.5236654881684
 30
0.0
 42
-0.9999991207056286
  0
VERTEX
  5
3EE
  8
0
 10
828.0950897620085
 20
778.7663099062869
 30
0.0
  0
VERTEX
  5
3EF
  8
0
 10
890.7796414773893
 20
778.7663099065447
 30
0.0
 42
-0.9999991221588413
  0
VERTEX
  5
3F0
  8
0
 10
895.0222784399393
 20
774.5236654948627
 30
0.0
  0
VERTEX
  5
3F1
  8
0
 10
895.0222784398441
 20
771.0089467985089
 30
0.0
 42
-1.000000894721703
  0
VERTEX
  5
3F2
  8
0
 10
890.7796339578335
 20
766.7663099062871
 30
0.0
  0
VERTEX
  5
3F3
  8
0
 10
828.0950972590272
 20
766.7663099059738
 30
0.0
 42
-1.000000887526905
  0
VERTEX
  5
3F4
  8
0
 10
823.8524528055594
 20
771.0089468267379
 30
0.0
  0
SEQEND
  5
3F5
  8
0
  0
POLYLINE
  5
3F6
  8
0
 66
     1
 10
0.0
 20
0.0
 30
0.0
 70
     1
  0
VERTEX
  5
3F7
  8
0
 10
945.0222784399392
 20
752.2200647333132
 30
0.0
  0
VERTEX
  5
3F8
  8
0
 10
773.8524528055593
 20
752.2200647333132
 30
0.0
  0
VERTEX
  5
3F9
  8
0
 10
773.8524528055598
 20
1439.559238701211
 30
0.0
  0
VERTEX
  5
3FA
  8
0
 10
945.0222784399392
 20
1439.559238701211
 30
0.0
  0
SEQEND
  5
3FB
  8
0
  0
POLYLINE
  5
3FC
  8
0
 66
     1
 10
0.0
 20
0.0
 30
0.0
 70
     1
  0
VERTEX
  5
3FD
  8
0
 10
291.7819966799382
 20
418.8759730802118
 30
0.0
 42
-1.002980216657999
  0
VERTEX
  5
3FE
  8
0
 10
296.0309264388604
 20
414.6396684269747
 30
0.0
  0
VERTEX
  5
3FF
  8
0
 10
296.0309264388604
 20
343.1245861967664
 30
0.0
 42
-0.9970286386438091
  0
VERTEX
  5
400
  8
0
 10
291.7946217856291
 20
338.8756564378385
 30
0.0
  0
VERTEX
  5
401
  8
0
 10
288.2798561977934
 20
338.8651972370372
 30
0.0
 42
-1.002980216657904
  0
VERTEX
  5
402
  8
0
 10
284.0309264388605
 20
343.1015018902639
 30
0.0
  0
VERTEX
  5
403
  8
0
 10
284.0309264388605
 20
414.6165841204831
 30
0.0
 42
-0.997028638641311
  0
VERTEX
  5
404
  8
0
 10
288.2672310920923
 20
418.8655138794104
 30
0.0
  0
SEQEND
  5
405
  8
0
  0
POLYLINE
  5
406
  8
0
 66
     1
 10
0.0
 20
0.0
 30
0.0
 70
     1
  0
VERTEX
  5
407
  8
0
 10
364.0309264388599
 20
414.6165841204828
 30
0.0
 42
-0.9970286386413378
  0
VERTEX
  5
408
  8
0
 10
368.2672310920916
 20
418.8655138794105
 30
0.0
  0
VERTEX
  5
409
  8
0
 10
371.7819966799375
 20
418.8759730802117
 30
0.0
 42
-1.002980216657972
  0
VERTEX
  5
40A
  8
0
 10
376.0309264388601
 20
414.6396684269745
 30
0.0
  0
VERTEX
  5
40B
  8
0
 10
376.0309264388598
 20
343.1245861967659
 30
0.0
 42
-0.9970286386437823
  0
VERTEX
  5
40C
  8
0
 10
371.7946217856282
 20
338.8756564378381
 30
0.0
  0
VERTEX
  5
40D
  8
0
 10
368.2798561977929
 20
338.8651972370376
 30
0.0
 42
-1.002980216658012
  0
VERTEX
  5
40E
  8
0
 10
364.03092643886
 20
343.101501890264
 30
0.0
  0
SEQEND
  5
40F
  8
0
  0
POLYLINE
  5
410
  8
0
 66
     1
 10
0.0
 20
0.0
 30
0.0
 70
     1
  0
VERTEX
  5
411
  8
0
 10
371.2857772780727
 20
577.1046507527249
 30
0.0
  0
VERTEX
  5
412
  8
0
 10
374.8005428659172
 20
577.1151099535258
 30
0.0
 42
0.9970286386416138
  0
VERTEX
  5
413
  8
0
 10
379.036847519149
 20
581.3640397124533
 30
0.0
  0
VERTEX
  5
414
  8
0
 10
379.036847519149
 20
652.8791219426791
 30
0.0
 42
1.002980217900268
  0
VERTEX
  5
415
  8
0
 10
374.7879177602413
 20
657.1154265958994
 30
0.0
  0
VERTEX
  5
416
  8
0
 10
371.2731521723805
 20
657.1049673950984
 30
0.0
 42
0.9970286386434704
  0
VERTEX
  5
417
  8
0
 10
367.0368475191491
 20
652.8560376361702
 30
0.0
  0
VERTEX
  5
418
  8
0
 10
367.0368475191491
 20
581.3409554059608
 30
0.0
 42
1.002980216658101
  0
SEQEND
  5
419
  8
0
  0
POLYLINE
  5
41A
  8
0
 66
     1
 10
0.0
 20
0.0
 30
0.0
 70
     1
  0
VERTEX
  5
41B
  8
0
 10
2070.815094693444
 20
253.5297543586858
 30
0.0
  0
VERTEX
  5
41C
  8
0
 10
1899.645269059064
 20
253.5297543586858
 30
0.0
  0
VERTEX
  5
41D
  8
0
 10
1899.645269059065
 20
321.5297542820897
 30
0.0
  0
VERTEX
  5
41E
  8
0
 10
1981.018201953401
 20
321.5297542820897
 30
0.0
 42
1.000061480515395
  0
VERTEX
  5
41F
  8
0
 10
1985.260712214641
 20
325.7725253750439
 30
0.0
  0
VERTEX
  5
420
  8
0
 10
1985.260496134568
 20
329.2872440974429
 30
0.0
 42
0.9999385232664677
  0
VERTEX
  5
421
  8
0
 10
1981.017725041616
 20
333.5297543586855
 30
0.0
  0
VERTEX
  5
422
  8
0
 10
1899.645269059064
 20
333.5297543586855
 30
0.0
  0
VERTEX
  5
423
  8
0
 10
1899.645269059064
 20
401.5297542820895
 30
0.0
  0
VERTEX
  5
424
  8
0
 10
1981.013283663427
 20
401.5297542820895
 30
0.0
 42
1.000061480515395
  0
VERTEX
  5
425
  8
0
 10
1985.255793924667
 20
405.7725253750436
 30
0.0
  0
VERTEX
  5
426
  8
0
 10
1985.255577844594
 20
409.2872440974429
 30
0.0
 42
0.9999385232656909
  0
VERTEX
  5
427
  8
0
 10
1981.012806751642
 20
413.5297543586852
 30
0.0
  0
VERTEX
  5
428
  8
0
 10
1899.645269059064
 20
413.5297543586853
 30
0.0
  0
VERTEX
  5
429
  8
0
 10
1899.645269059065
 20
481.5297542820895
 30
0.0
  0
VERTEX
  5
42A
  8
0
 10
1981.008365373453
 20
481.5297542820895
 30
0.0
 42
1.000061480515395
  0
VERTEX
  5
42B
  8
0
 10
1985.250875634693
 20
485.7725253750436
 30
0.0
  0
VERTEX
  5
42C
  8
0
 10
1985.25065955462
 20
489.2872440974425
 30
0.0
 42
0.9999385232664275
  0
VERTEX
  5
42D
  8
0
 10
1981.007888461668
 20
493.5297543586852
 30
0.0
  0
VERTEX
  5
42E
  8
0
 10
1899.645269059064
 20
493.5297543586853
 30
0.0
  0
VERTEX
  5
42F
  8
0
 10
1899.645269059065
 20
561.5297542820895
 30
0.0
  0
VERTEX
  5
430
  8
0
 10
1981.003447083479
 20
561.5297542820897
 30
0.0
 42
1.000061480515449
  0
VERTEX
  5
431
  8
0
 10
1985.245957344719
 20
565.7725253750433
 30
0.0
  0
VERTEX
  5
432
  8
0
 10
1985.245741264645
 20
569.2872440974415
 30
0.0
 42
0.9999385232664946
  0
VERTEX
  5
433
  8
0
 10
1981.002970171694
 20
573.5297543586853
 30
0.0
  0
VERTEX
  5
434
  8
0
 10
1899.645269059064
 20
573.5297543586853
 30
0.0
  0
VERTEX
  5
435
  8
0
 10
1899.645269059065
 20
641.5297542820895
 30
0.0
  0
VERTEX
  5
436
  8
0
 10
1980.998528793504
 20
641.5297542820891
 30
0.0
 42
1.000061480515288
  0
VERTEX
  5
437
  8
0
 10
1985.241039054744
 20
645.7725253750432
 30
0.0
  0
VERTEX
  5
438
  8
0
 10
1985.240822974671
 20
649.287244097442
 30
0.0
 42
0.9999385232663873
  0
VERTEX
  5
439
  8
0
 10
1980.99805188172
 20
653.529754358685
 30
0.0
  0
VERTEX
  5
43A
  8
0
 10
1899.645269059064
 20
653.5297543586851
 30
0.0
  0
VERTEX
  5
43B
  8
0
 10
1899.645269059065
 20
731.4223526837486
 30
0.0
  0
VERTEX
  5
43C
  8
0
 10
2070.815094693445
 20
731.4223526837486
 30
0.0
  0
SEQEND
  5
43D
  8
0
  0
POLYLINE
  5
43E
  8
0
 66
     1
 10
0.0
 20
0.0
 30
0.0
 70
     1
  0
VERTEX
  5
43F
  8
0
 10
932.0222784399396
 20
1425.320064753144
 30
0.0
  0
VERTEX
  5
440
  8
0
 10
932.0222784399396
 20
1426.077424066026
 30
0.0
 42
0.7957202198782093
  0
VERTEX
  5
441
  8
0
 10
928.9222784399384
 20
1431.03461925345
 30
0.0
 42
0.7957202198786776
  0
VERTEX
  5
442
  8
0
 10
925.8222784399395
 20
1426.077424066024
 30
0.0
  0
VERTEX
  5
443
  8
0
 10
925.8222784399396
 20
1418.362705440265
 30
0.0
 42
0.7957202198786613
  0
VERTEX
  5
444
  8
0
 10
928.9222784399385
 20
1413.405510252838
 30
0.0
 42
0.7957202198782437
  0
VERTEX
  5
445
  8
0
 10
932.0222784399396
 20
1418.362705440263
 30
0.0
  0
SEQEND
  5
446
  8
0
  0
LINE
  5
447
  8
0
 10
945.0222784399394
 20
1422.220064753144
 30
0.0
 11
932.0222784399393
 21
1422.220064753144
 31
0.0
  0
LINE
  5
448
  8
0
 10
945.0222784399393
 20
1357.7756203087
 30
0.0
 11
932.0222784399393
 21
1357.7756203087
 31
0.0
  0
LINE
  5
449
  8
0
 10
945.0222784399393
 20
1293.331175864255
 30
0.0
 11
932.0222784399393
 21
1293.331175864255
 31
0.0
  0
LINE
  5
44A
  8
0
 10
945.0222784399393
 20
1228.886731419811
 30
0.0
 11
932.0222784399393
 21
1228.886731419811
 31
0.0
  0
LINE
  5
44B
  8
0
 10
945.0222784399392
 20
1164.442286975367
 30
0.0
 11
932.0222784399393
 21
1164.442286975366
 31
0.0
  0
LINE
  5
44C
  8
0
 10
945.0222784399392
 20
1099.997842530922
 30
0.0
 11
932.0222784399392
 21
1099.997842530922
 31
0.0
  0
LINE
  5
44D
  8
0
 10
945.0222784399392
 20
1035.553398086478
 30
0.0
 11
932.0222784399391
 21
1035.553398086478
 31
0.0
  0
LINE
  5
44E
  8
0
 10
945.0222784399391
 20
971.1089536420334
 30
0.0
 11
932.0222784399391
 21
971.1089536420332
 31
0.0
  0
LINE
  5
44F
  8
0
 10
945.0222784399391
 20
906.6645091975888
 30
0.0
 11
932.0222784399391
 21
906.6645091975886
 31
0.0
  0
LINE
  5
450
  8
0
 10
945.0222784399391
 20
842.2200647531445
 30
0.0
 11
932.0222784399391
 21
842.2200647531442
 31
0.0
  0
LINE
  5
451
  8
0
 10
1142.994783041504
 20
1421.443588903977
 30
0.0
 11
1129.994783041504
 21
1421.443588903977
 31
0.0
  0
LINE
  5
452
  8
0
 10
1142.994783041504
 20
1292.554700015088
 30
0.0
 11
1129.994783041504
 21
1292.554700015088
 31
0.0
  0
LINE
  5
453
  8
0
 10
1142.994783041504
 20
1228.110255570643
 30
0.0
 11
1129.994783041504
 21
1228.110255570643
 31
0.0
  0
LINE
  5
454
  8
0
 10
1142.994783041504
 20
1163.665811126199
 30
0.0
 11
1129.994783041504
 21
1163.665811126199
 31
0.0
  0
LINE
  5
455
  8
0
 10
1142.994783041504
 20
1099.221366681755
 30
0.0
 11
1129.994783041504
 21
1099.221366681755
 31
0.0
  0
LINE
  5
456
  8
0
 10
1142.994783041504
 20
905.8880333484212
 30
0.0
 11
1129.994783041504
 21
905.8880333484212
 31
0.0
  0
LINE
  5
457
  8
0
 10
1142.994783041504
 20
841.4435889039769
 30
0.0
 11
1129.994783041504
 21
841.4435889039767
 31
0.0
  0
LINE
  5
458
  8
0
 10
1142.994783041504
 20
970.3324777928658
 30
0.0
 11
1129.994783041504
 21
970.3324777928656
 31
0.0
  0
LINE
  5
459
  8
0
 10
1142.994783041504
 20
1034.77692223731
 30
0.0
 11
1129.994783041504
 21
1034.77692223731
 31
0.0
  0
ENDSEC
  0
EOF
