  0
SECTION
  2
HEADER
  9
$ACADVER
  1
AC1009
  9
$DWGCODEPAGE
  3
ansi_1252
  9
$INSBASE
 10
0.0
 20
0.0
 30
0.0
  9
$EXTMIN
 10
-0.0000000000000009
 20
0.0
 30
0.0
  9
$EXTMAX
 10
103.75
 20
65.0
 30
0.0
  9
$LIMMIN
 10
0.0
 20
0.0
  9
$LIMMAX
 10
12.0
 20
9.0
  9
$ORTHOMODE
 70
     0
  9
$REGENMODE
 70
     1
  9
$FILLMODE
 70
     1
  9
$QTEXTMODE
 70
     0
  9
$MIRRTEXT
 70
     1
  9
$DRAGMODE
 70
     2
  9
$LTSCALE
 40
1.0
  9
$OSMODE
 70
    37
  9
$ATTMODE
 70
     1
  9
$TEXTSIZE
 40
0.2
  9
$TRACEWID
 40
0.05
  9
$TEXTSTYLE
  7
STANDARD
  9
$CLAYER
  8
STANDARD
  9
$CELTYPE
  6
BYLAYER
  9
$CECOLOR
 62
   256
  9
$DIMSCALE
 40
1.0
  9
$DIMASZ
 40
0.18
  9
$DIMEXO
 40
0.0625
  9
$DIMDLI
 40
0.38
  9
$DIMRND
 40
0.0
  9
$DIMDLE
 40
0.0
  9
$DIMEXE
 40
0.18
  9
$DIMTP
 40
0.0
  9
$DIMTM
 40
0.0
  9
$DIMTXT
 40
0.18
  9
$DIMCEN
 40
0.09
  9
$DIMTSZ
 40
0.0
  9
$DIMTOL
 70
     0
  9
$DIMLIM
 70
     0
  9
$DIMTIH
 70
     1
  9
$DIMTOH
 70
     1
  9
$DIMSE1
 70
     0
  9
$DIMSE2
 70
     0
  9
$DIMTAD
 70
     0
  9
$DIMZIN
 70
     0
  9
$DIMBLK
  1

  9
$DIMASO
 70
     1
  9
$DIMSHO
 70
     1
  9
$DIMPOST
  1

  9
$DIMAPOST
  1

  9
$DIMALT
 70
     0
  9
$DIMALTD
 70
     2
  9
$DIMALTF
 40
25.4
  9
$DIMLFAC
 40
1.0
  9
$DIMTOFL
 70
     0
  9
$DIMTVP
 40
0.0
  9
$DIMTIX
 70
     0
  9
$DIMSOXD
 70
     0
  9
$DIMSAH
 70
     0
  9
$DIMBLK1
  1

  9
$DIMBLK2
  1

  9
$DIMSTYLE
  2
STANDARD
  9
$DIMCLRD
 70
     0
  9
$DIMCLRE
 70
     0
  9
$DIMCLRT
 70
     0
  9
$DIMTFAC
 40
1.0
  9
$DIMGAP
 40
0.09
  9
$LUNITS
 70
     2
  9
$LUPREC
 70
     3
  9
$SKETCHINC
 40
0.1
  9
$FILLETRAD
 40
0.5
  9
$AUNITS
 70
     0
  9
$AUPREC
 70
     0
  9
$MENU
  1
.
  9
$ELEVATION
 40
0.0
  9
$PELEVATION
 40
0.0
  9
$THICKNESS
 40
0.0
  9
$LIMCHECK
 70
     0
  9
$CHAMFERA
 40
0.0
  9
$CHAMFERB
 40
0.0
  9
$SKPOLY
 70
     0
  9
$TDCREATE
 40
2458065.779615683
  9
$TDUPDATE
 40
2458065.779615695
  9
$TDINDWG
 40
0.0000000116
  9
$TDUSRTIMER
 40
0.0000000116
  9
$USRTIMER
 70
     1
  9
$ANGBASE
 50
0.0
  9
$ANGDIR
 70
     0
  9
$PDMODE
 70
     0
  9
$PDSIZE
 40
0.0
  9
$PLINEWID
 40
0.0
  9
$COORDS
 70
     1
  9
$SPLFRAME
 70
     0
  9
$SPLINETYPE
 70
     6
  9
$SPLINESEGS
 70
     8
  9
$ATTDIA
 70
     0
  9
$ATTREQ
 70
     1
  9
$HANDLING
 70
     1
  9
$HANDSEED
  5
126
  9
$SURFTAB1
 70
     6
  9
$SURFTAB2
 70
     6
  9
$SURFTYPE
 70
     6
  9
$SURFU
 70
     6
  9
$SURFV
 70
     6
  9
$UCSNAME
  2

  9
$UCSORG
 10
0.0
 20
0.0
 30
0.0
  9
$UCSXDIR
 10
1.0
 20
0.0
 30
0.0
  9
$UCSYDIR
 10
0.0
 20
1.0
 30
0.0
  9
$PUCSNAME
  2

  9
$PUCSORG
 10
0.0
 20
0.0
 30
0.0
  9
$PUCSXDIR
 10
1.0
 20
0.0
 30
0.0
  9
$PUCSYDIR
 10
0.0
 20
1.0
 30
0.0
  9
$USERI1
 70
     0
  9
$USERI2
 70
     0
  9
$USERI3
 70
     0
  9
$USERI4
 70
     0
  9
$USERI5
 70
     0
  9
$USERR1
 40
0.0
  9
$USERR2
 40
0.0
  9
$USERR3
 40
0.0
  9
$USERR4
 40
0.0
  9
$USERR5
 40
0.0
  9
$WORLDVIEW
 70
     1
  9
$SHADEDGE
 70
     3
  9
$SHADEDIF
 70
    70
  9
$TILEMODE
 70
     1
  9
$MAXACTVP
 70
    64
  9
$PLIMCHECK
 70
     0
  9
$PEXTMIN
 10
1.000000000000000E+20
 20
1.000000000000000E+20
 30
1.000000000000000E+20
  9
$PEXTMAX
 10
-1.000000000000000E+20
 20
-1.000000000000000E+20
 30
-1.000000000000000E+20
  9
$PLIMMIN
 10
0.0
 20
0.0
  9
$PLIMMAX
 10
12.0
 20
9.0
  9
$UNITMODE
 70
     0
  9
$VISRETAIN
 70
     1
  9
$PLINEGEN
 70
     0
  9
$PSLTSCALE
 70
     1
  0
ENDSEC
  0
SECTION
  2
TABLES
  0
TABLE
  2
VPORT
 70
     1
  0
VPORT
  2
*ACTIVE
 70
     0
 10
0.0
 20
0.0
 11
1.0
 21
1.0
 12
51.875
 22
32.5
 13
0.0
 23
0.0
 14
0.5
 24
0.5
 15
0.5
 25
0.5
 16
0.0
 26
0.0
 36
1.0
 17
0.0
 27
0.0
 37
0.0
 40
66.3
 41
1.596153846153846
 42
50.0
 43
0.0
 44
0.0
 50
0.0
 51
0.0
 71
     0
 72
   100
 73
     1
 74
     3
 75
     0
 76
     0
 77
     0
 78
     0
  0
ENDTAB
  0
TABLE
  2
LTYPE
 70
     1
  0
LTYPE
  2
CONTINUOUS
 70
     0
  3
Solid line
 72
    65
 73
     0
 40
0.0
  0
ENDTAB
  0
TABLE
  2
LAYER
 70
     2
  0
LAYER
  2
0
 70
     0
 62
     7
  6
CONTINUOUS
  0
LAYER
  2
STANDARD
 70
     0
 62
     7
  6
CONTINUOUS
  0
ENDTAB
  0
TABLE
  2
STYLE
 70
     1
  0
STYLE
  2
STANDARD
 70
     0
 40
0.0
 41
1.0
 50
0.0
 71
     0
 42
0.2
  3
txt
  4

  0
ENDTAB
  0
TABLE
  2
VIEW
 70
     0
  0
ENDTAB
  0
TABLE
  2
UCS
 70
     0
  0
ENDTAB
  0
TABLE
  2
APPID
 70
     1
  0
APPID
  2
ACAD
 70
     0
  0
ENDTAB
  0
TABLE
  2
DIMSTYLE
 70
     1
  0
DIMSTYLE
  2
STANDARD
 70
     0
  3

  4

  5

  6

  7

 40
1.0
 41
0.18
 42
0.0625
 43
0.38
 44
0.18
 45
0.0
 46
0.0
 47
0.0
 48
0.0
140
0.18
141
0.09
142
0.0
143
25.4
144
1.0
145
0.0
146
1.0
147
0.09
 71
     0
 72
     0
 73
     1
 74
     1
 75
     0
 76
     0
 77
     0
 78
     0
170
     0
171
     2
172
     0
173
     0
174
     0
175
     0
176
     0
177
     0
178
     0
  0
ENDTAB
  0
ENDSEC
  0
SECTION
  2
BLOCKS
  0
BLOCK
  8
0
  2
$MODEL_SPACE
 70
     0
 10
0.0
 20
0.0
 30
0.0
  3
$MODEL_SPACE
  1

  0
ENDBLK
  5
21
  8
0
  0
BLOCK
 67
     1
  8
0
  2
$PAPER_SPACE
 70
     0
 10
0.0
 20
0.0
 30
0.0
  3
$PAPER_SPACE
  1

  0
ENDBLK
  5
1D
 67
     1
  8
0
  0
ENDSEC
  0
SECTION
  2
ENTITIES
  0
LINE
  5
6F
  8
STANDARD
 10
82.25
 20
28.25
 30
0.0
 11
79.25
 21
28.25
 31
0.0
  0
LINE
  5
70
  8
STANDARD
 10
79.25
 20
28.25
 30
0.0
 11
79.25
 21
28.25472542808634
 31
0.0
  0
LINE
  5
71
  8
STANDARD
 10
79.25
 20
28.25472542808634
 30
0.0
 11
79.25
 21
56.50472542808634
 31
0.0
  0
LINE
  5
72
  8
STANDARD
 10
79.25
 20
56.50472542808634
 30
0.0
 11
69.75
 21
56.50472542808634
 31
0.0
  0
LINE
  5
73
  8
STANDARD
 10
69.75
 20
56.50472542808634
 30
0.0
 11
69.75
 21
65.0
 31
0.0
  0
LINE
  5
74
  8
STANDARD
 10
69.75
 20
65.0
 30
0.0
 11
60.75
 21
65.0
 31
0.0
  0
LINE
  5
75
  8
STANDARD
 10
60.75
 20
65.0
 30
0.0
 11
60.75
 21
56.50472542808634
 31
0.0
  0
LINE
  5
76
  8
STANDARD
 10
60.75
 20
56.50472542808634
 30
0.0
 11
60.75
 21
48.5
 31
0.0
  0
LINE
  5
77
  8
STANDARD
 10
60.75
 20
48.5
 30
0.0
 11
70.75
 21
48.5
 31
0.0
  0
LINE
  5
78
  8
STANDARD
 10
70.75
 20
48.5
 30
0.0
 11
70.75
 21
45.5
 31
0.0
  0
LINE
  5
79
  8
STANDARD
 10
70.75
 20
45.5
 30
0.0
 11
70.76282508380366
 21
44.18321080186014
 31
0.0
  0
LINE
  5
7A
  8
STANDARD
 10
70.76282508380366
 20
44.18321080186014
 30
0.0
 11
70.77351688386727
 21
42.8676625017988
 31
0.0
  0
LINE
  5
7B
  8
STANDARD
 10
70.77351688386727
 20
42.8676625017988
 30
0.0
 11
70.7799421164508
 21
41.55459599789454
 31
0.0
  0
LINE
  5
7C
  8
STANDARD
 10
70.7799421164508
 20
41.55459599789454
 30
0.0
 11
70.7799674978142
 21
40.24525218822589
 31
0.0
  0
LINE
  5
7D
  8
STANDARD
 10
70.7799674978142
 20
40.24525218822589
 30
0.0
 11
70.77145974421745
 21
38.94087197087138
 31
0.0
  0
LINE
  5
7E
  8
STANDARD
 10
70.77145974421745
 20
38.94087197087138
 30
0.0
 11
70.75228557192048
 21
37.64269624390954
 31
0.0
  0
LINE
  5
7F
  8
STANDARD
 10
70.75228557192048
 20
37.64269624390954
 30
0.0
 11
70.72031169718325
 21
36.35196590541892
 31
0.0
  0
LINE
  5
80
  8
STANDARD
 10
70.72031169718325
 20
36.35196590541892
 30
0.0
 11
70.67340483626572
 21
35.06992185347805
 31
0.0
  0
LINE
  5
81
  8
STANDARD
 10
70.67340483626572
 20
35.06992185347805
 30
0.0
 11
70.60943170542788
 21
33.79780498616547
 31
0.0
  0
LINE
  5
82
  8
STANDARD
 10
70.60943170542788
 20
33.79780498616547
 30
0.0
 11
70.52625902092963
 21
32.5368562015597
 31
0.0
  0
LINE
  5
83
  8
STANDARD
 10
70.52625902092963
 20
32.5368562015597
 30
0.0
 11
70.42175349903097
 21
31.28831639773929
 31
0.0
  0
LINE
  5
84
  8
STANDARD
 10
70.42175349903097
 20
31.28831639773929
 30
0.0
 11
70.29378185599187
 21
30.05342647278277
 31
0.0
  0
LINE
  5
85
  8
STANDARD
 10
70.29378185599187
 20
30.05342647278277
 30
0.0
 11
70.14021080807225
 21
28.83342732476869
 31
0.0
  0
LINE
  5
86
  8
STANDARD
 10
70.14021080807225
 20
28.83342732476869
 30
0.0
 11
69.9589070715321
 21
27.62955985177556
 31
0.0
  0
LINE
  5
87
  8
STANDARD
 10
69.9589070715321
 20
27.62955985177556
 30
0.0
 11
69.74773736263134
 21
26.44306495188193
 31
0.0
  0
LINE
  5
88
  8
STANDARD
 10
69.74773736263134
 20
26.44306495188193
 30
0.0
 11
69.50456839762995
 21
25.27518352316633
 31
0.0
  0
LINE
  5
89
  8
STANDARD
 10
69.50456839762995
 20
25.27518352316633
 30
0.0
 11
69.2272668927879
 21
24.12715646370731
 31
0.0
  0
LINE
  5
8A
  8
STANDARD
 10
69.2272668927879
 20
24.12715646370731
 30
0.0
 11
68.91369956436512
 21
23.00022467158339
 31
0.0
  0
LINE
  5
8B
  8
STANDARD
 10
68.91369956436512
 20
23.00022467158339
 30
0.0
 11
68.5617331286216
 21
21.89562904487311
 31
0.0
  0
LINE
  5
8C
  8
STANDARD
 10
68.5617331286216
 20
21.89562904487311
 30
0.0
 11
68.16923430181726
 21
20.81461048165501
 31
0.0
  0
LINE
  5
8D
  8
STANDARD
 10
68.16923430181726
 20
20.81461048165501
 30
0.0
 11
67.7340698002121
 21
19.75840988000762
 31
0.0
  0
LINE
  5
8E
  8
STANDARD
 10
67.7340698002121
 20
19.75840988000762
 30
0.0
 11
67.25410634006604
 21
18.72826813800948
 31
0.0
  0
LINE
  5
8F
  8
STANDARD
 10
67.25410634006604
 20
18.72826813800948
 30
0.0
 11
66.72721063763909
 21
17.72542615373912
 31
0.0
  0
LINE
  5
90
  8
STANDARD
 10
66.72721063763909
 20
17.72542615373912
 30
0.0
 11
66.15124940919114
 21
16.75112482527508
 31
0.0
  0
LINE
  5
91
  8
STANDARD
 10
66.15124940919114
 20
16.75112482527508
 30
0.0
 11
65.5240893709822
 21
15.8066050506959
 31
0.0
  0
LINE
  5
92
  8
STANDARD
 10
65.5240893709822
 20
15.8066050506959
 30
0.0
 11
64.8435972392722
 21
14.8931077280801
 31
0.0
  0
LINE
  5
93
  8
STANDARD
 10
64.8435972392722
 20
14.8931077280801
 30
0.0
 11
64.10763973032113
 21
14.01187375550623
 31
0.0
  0
LINE
  5
94
  8
STANDARD
 10
64.10763973032113
 20
14.01187375550623
 30
0.0
 11
63.31437182248816
 21
13.16397635345871
 31
0.0
  0
LINE
  5
95
  8
STANDARD
 10
63.31437182248816
 20
13.16397635345871
 30
0.0
 11
62.46909290810255
 21
12.34633294757796
 31
0.0
  0
LINE
  5
96
  8
STANDARD
 10
62.46909290810255
 20
12.34633294757796
 30
0.0
 11
61.58454481551429
 21
11.55153181385385
 31
0.0
  0
LINE
  5
97
  8
STANDARD
 10
61.58454481551429
 20
11.55153181385385
 30
0.0
 11
60.67381727079093
 21
10.77195886156749
 31
0.0
  0
LINE
  5
98
  8
STANDARD
 10
60.67381727079093
 20
10.77195886156749
 30
0.0
 11
59.75
 21
10.0
 31
0.0
  0
ARC
  5
99
  8
STANDARD
 10
59.75
 20
7.999999999999999
 30
0.0
 40
2.000000000000001
 50
90.0
 51
180.0
  0
LINE
  5
9A
  8
STANDARD
 10
57.75
 20
7.999999999999998
 30
0.0
 11
57.75
 21
0.0
 31
0.0
  0
LINE
  5
9B
  8
STANDARD
 10
57.75
 20
0.0
 30
0.0
 11
79.25
 21
0.0
 31
0.0
  0
LINE
  5
9C
  8
STANDARD
 10
79.25
 20
0.0
 30
0.0
 11
103.75
 21
0.0
 31
0.0
  0
LINE
  5
9D
  8
STANDARD
 10
103.75
 20
0.0
 30
0.0
 11
103.75
 21
7.999999999999999
 31
0.0
  0
ARC
  5
9E
  8
STANDARD
 10
101.75
 20
7.999999999999999
 30
0.0
 40
2.000000000000001
 50
0.0
 51
90.0
  0
LINE
  5
9F
  8
STANDARD
 10
101.75
 20
10.0
 30
0.0
 11
100.8261827292091
 21
10.77195886156748
 31
0.0
  0
LINE
  5
A0
  8
STANDARD
 10
100.8261827292091
 20
10.77195886156748
 30
0.0
 11
99.91545518448571
 21
11.55153181385384
 31
0.0
  0
LINE
  5
A1
  8
STANDARD
 10
99.91545518448571
 20
11.55153181385384
 30
0.0
 11
99.03090709189745
 21
12.34633294757796
 31
0.0
  0
LINE
  5
A2
  8
STANDARD
 10
99.03090709189745
 20
12.34633294757796
 30
0.0
 11
98.18562817751186
 21
13.16397635345871
 31
0.0
  0
LINE
  5
A3
  8
STANDARD
 10
98.18562817751186
 20
13.16397635345871
 30
0.0
 11
97.39236026967889
 21
14.01187375550623
 31
0.0
  0
LINE
  5
A4
  8
STANDARD
 10
97.39236026967889
 20
14.01187375550623
 30
0.0
 11
96.6564027607278
 21
14.89310772808009
 31
0.0
  0
LINE
  5
A5
  8
STANDARD
 10
96.6564027607278
 20
14.89310772808009
 30
0.0
 11
95.9759106290178
 21
15.80660505069589
 31
0.0
  0
LINE
  5
A6
  8
STANDARD
 10
95.9759106290178
 20
15.80660505069589
 30
0.0
 11
95.34875059080888
 21
16.75112482527507
 31
0.0
  0
LINE
  5
A7
  8
STANDARD
 10
95.34875059080888
 20
16.75112482527507
 30
0.0
 11
94.77278936236091
 21
17.72542615373911
 31
0.0
  0
LINE
  5
A8
  8
STANDARD
 10
94.77278936236091
 20
17.72542615373911
 30
0.0
 11
94.24589365993397
 21
18.72826813800947
 31
0.0
  0
LINE
  5
A9
  8
STANDARD
 10
94.24589365993397
 20
18.72826813800947
 30
0.0
 11
93.7659301997879
 21
19.75840988000762
 31
0.0
  0
LINE
  5
AA
  8
STANDARD
 10
93.7659301997879
 20
19.75840988000762
 30
0.0
 11
93.33076569818274
 21
20.81461048165501
 31
0.0
  0
LINE
  5
AB
  8
STANDARD
 10
93.33076569818274
 20
20.81461048165501
 30
0.0
 11
92.93826687137842
 21
21.8956290448731
 31
0.0
  0
LINE
  5
AC
  8
STANDARD
 10
92.93826687137842
 20
21.8956290448731
 30
0.0
 11
92.58630043563488
 21
23.00022467158338
 31
0.0
  0
LINE
  5
AD
  8
STANDARD
 10
92.58630043563488
 20
23.00022467158338
 30
0.0
 11
92.27273310721212
 21
24.1271564637073
 31
0.0
  0
LINE
  5
AE
  8
STANDARD
 10
92.27273310721212
 20
24.1271564637073
 30
0.0
 11
91.99543160237006
 21
25.27518352316633
 31
0.0
  0
LINE
  5
AF
  8
STANDARD
 10
91.99543160237006
 20
25.27518352316633
 30
0.0
 11
91.75226263736869
 21
26.44306495188192
 31
0.0
  0
LINE
  5
B0
  8
STANDARD
 10
91.75226263736869
 20
26.44306495188192
 30
0.0
 11
91.54109292846792
 21
27.62955985177555
 31
0.0
  0
LINE
  5
B1
  8
STANDARD
 10
91.54109292846792
 20
27.62955985177555
 30
0.0
 11
91.35978919192776
 21
28.83342732476867
 31
0.0
  0
LINE
  5
B2
  8
STANDARD
 10
91.35978919192776
 20
28.83342732476867
 30
0.0
 11
91.20621814400816
 21
30.05342647278277
 31
0.0
  0
LINE
  5
B3
  8
STANDARD
 10
91.20621814400816
 20
30.05342647278277
 30
0.0
 11
91.078246500969
 21
31.28831639773928
 31
0.0
  0
LINE
  5
B4
  8
STANDARD
 10
91.078246500969
 20
31.28831639773928
 30
0.0
 11
90.97374097907037
 21
32.53685620155969
 31
0.0
  0
LINE
  5
B5
  8
STANDARD
 10
90.97374097907037
 20
32.53685620155969
 30
0.0
 11
90.89056829457215
 21
33.79780498616546
 31
0.0
  0
LINE
  5
B6
  8
STANDARD
 10
90.89056829457215
 20
33.79780498616546
 30
0.0
 11
90.82659516373425
 21
35.06992185347804
 31
0.0
  0
LINE
  5
B7
  8
STANDARD
 10
90.82659516373425
 20
35.06992185347804
 30
0.0
 11
90.77968830281677
 21
36.35196590541892
 31
0.0
  0
LINE
  5
B8
  8
STANDARD
 10
90.77968830281677
 20
36.35196590541892
 30
0.0
 11
90.74771442807952
 21
37.64269624390953
 31
0.0
  0
LINE
  5
B9
  8
STANDARD
 10
90.74771442807952
 20
37.64269624390953
 30
0.0
 11
90.72854025578255
 21
38.94087197087136
 31
0.0
  0
LINE
  5
BA
  8
STANDARD
 10
90.72854025578255
 20
38.94087197087136
 30
0.0
 11
90.7200325021858
 21
40.24525218822588
 31
0.0
  0
LINE
  5
BB
  8
STANDARD
 10
90.7200325021858
 20
40.24525218822588
 30
0.0
 11
90.7200578835492
 21
41.55459599789454
 31
0.0
  0
LINE
  5
BC
  8
STANDARD
 10
90.7200578835492
 20
41.55459599789454
 30
0.0
 11
90.72648311613271
 21
42.8676625017988
 31
0.0
  0
LINE
  5
BD
  8
STANDARD
 10
90.72648311613271
 20
42.8676625017988
 30
0.0
 11
90.73717491619634
 21
44.18321080186013
 31
0.0
  0
LINE
  5
BE
  8
STANDARD
 10
90.73717491619634
 20
44.18321080186013
 30
0.0
 11
90.75
 21
45.5
 31
0.0
  0
LINE
  5
BF
  8
STANDARD
 10
90.75
 20
45.5
 30
0.0
 11
90.75
 21
48.33796156046606
 31
0.0
  0
LINE
  5
C0
  8
STANDARD
 10
90.75
 20
48.33796156046606
 30
0.0
 11
90.75
 21
48.5
 31
0.0
  0
LINE
  5
C1
  8
STANDARD
 10
90.75
 20
48.5
 30
0.0
 11
100.75
 21
48.5
 31
0.0
  0
LINE
  5
C2
  8
STANDARD
 10
100.75
 20
48.5
 30
0.0
 11
100.75
 21
56.50472542808634
 31
0.0
  0
LINE
  5
C3
  8
STANDARD
 10
100.75
 20
56.50472542808634
 30
0.0
 11
100.75
 21
65.0
 31
0.0
  0
LINE
  5
C4
  8
STANDARD
 10
100.75
 20
65.0
 30
0.0
 11
91.75
 21
65.0
 31
0.0
  0
LINE
  5
C5
  8
STANDARD
 10
91.75
 20
65.0
 30
0.0
 11
91.75
 21
56.50472542808634
 31
0.0
  0
LINE
  5
C6
  8
STANDARD
 10
91.75
 20
56.50472542808634
 30
0.0
 11
82.25
 21
56.50472542808634
 31
0.0
  0
LINE
  5
C7
  8
STANDARD
 10
82.25
 20
56.50472542808634
 30
0.0
 11
82.25
 21
28.25472542808634
 31
0.0
  0
LINE
  5
C8
  8
STANDARD
 10
46.0
 20
0.0
 30
0.0
 11
24.5
 21
0.0
 31
0.0
  0
LINE
  5
C9
  8
STANDARD
 10
24.5
 20
0.0
 30
0.0
 11
24.5
 21
28.25
 31
0.0
  0
LINE
  5
CA
  8
STANDARD
 10
24.5
 20
28.25
 30
0.0
 11
21.5
 21
28.25
 31
0.0
  0
LINE
  5
CB
  8
STANDARD
 10
21.5
 20
28.25
 30
0.0
 11
21.5
 21
0.0
 31
0.0
  0
LINE
  5
CC
  8
STANDARD
 10
21.5
 20
0.0
 30
0.0
 11
0.0
 21
0.0
 31
0.0
  0
LINE
  5
CD
  8
STANDARD
 10
0.0
 20
0.0
 30
0.0
 11
-0.0000000000000009
 21
7.999999999999999
 31
0.0
  0
ARC
  5
CE
  8
STANDARD
 10
2.0
 20
7.999999999999999
 30
0.0
 40
2.000000000000001
 50
90.00000000000001
 51
180.0
  0
LINE
  5
CF
  8
STANDARD
 10
2.0
 20
10.0
 30
0.0
 11
2.923817270790923
 21
10.77195886156749
 31
0.0
  0
LINE
  5
D0
  8
STANDARD
 10
2.923817270790923
 20
10.77195886156749
 30
0.0
 11
3.834544815514291
 21
11.55153181385385
 31
0.0
  0
LINE
  5
D1
  8
STANDARD
 10
3.834544815514291
 20
11.55153181385385
 30
0.0
 11
4.719092908102551
 21
12.34633294757796
 31
0.0
  0
LINE
  5
D2
  8
STANDARD
 10
4.719092908102551
 20
12.34633294757796
 30
0.0
 11
5.564371822488145
 21
13.16397635345871
 31
0.0
  0
LINE
  5
D3
  8
STANDARD
 10
5.564371822488145
 20
13.16397635345871
 30
0.0
 11
6.357639730321112
 21
14.01187375550623
 31
0.0
  0
LINE
  5
D4
  8
STANDARD
 10
6.357639730321112
 20
14.01187375550623
 30
0.0
 11
7.093597239272199
 21
14.8931077280801
 31
0.0
  0
LINE
  5
D5
  8
STANDARD
 10
7.093597239272199
 20
14.8931077280801
 30
0.0
 11
7.774089370982198
 21
15.8066050506959
 31
0.0
  0
LINE
  5
D6
  8
STANDARD
 10
7.774089370982198
 20
15.8066050506959
 30
0.0
 11
8.401249409191141
 21
16.75112482527508
 31
0.0
  0
LINE
  5
D7
  8
STANDARD
 10
8.401249409191141
 20
16.75112482527508
 30
0.0
 11
8.977210637639082
 21
17.72542615373912
 31
0.0
  0
LINE
  5
D8
  8
STANDARD
 10
8.977210637639082
 20
17.72542615373912
 30
0.0
 11
9.504106340066054
 21
18.72826813800948
 31
0.0
  0
LINE
  5
D9
  8
STANDARD
 10
9.504106340066054
 20
18.72826813800948
 30
0.0
 11
9.984069800212099
 21
19.75840988000762
 31
0.0
  0
LINE
  5
DA
  8
STANDARD
 10
9.984069800212099
 20
19.75840988000762
 30
0.0
 11
10.41923430181726
 21
20.81461048165501
 31
0.0
  0
LINE
  5
DB
  8
STANDARD
 10
10.41923430181726
 20
20.81461048165501
 30
0.0
 11
10.81173312862159
 21
21.89562904487311
 31
0.0
  0
LINE
  5
DC
  8
STANDARD
 10
10.81173312862159
 20
21.89562904487311
 30
0.0
 11
11.16369956436512
 21
23.00022467158339
 31
0.0
  0
LINE
  5
DD
  8
STANDARD
 10
11.16369956436512
 20
23.00022467158339
 30
0.0
 11
11.47726689278789
 21
24.12715646370731
 31
0.0
  0
LINE
  5
DE
  8
STANDARD
 10
11.47726689278789
 20
24.12715646370731
 30
0.0
 11
11.75456839762994
 21
25.27518352316633
 31
0.0
  0
LINE
  5
DF
  8
STANDARD
 10
11.75456839762994
 20
25.27518352316633
 30
0.0
 11
11.99773736263133
 21
26.44306495188193
 31
0.0
  0
LINE
  5
E0
  8
STANDARD
 10
11.99773736263133
 20
26.44306495188193
 30
0.0
 11
12.20890707153209
 21
27.62955985177556
 31
0.0
  0
LINE
  5
E1
  8
STANDARD
 10
12.20890707153209
 20
27.62955985177556
 30
0.0
 11
12.39021080807225
 21
28.83342732476869
 31
0.0
  0
LINE
  5
E2
  8
STANDARD
 10
12.39021080807225
 20
28.83342732476869
 30
0.0
 11
12.54378185599187
 21
30.05342647278277
 31
0.0
  0
LINE
  5
E3
  8
STANDARD
 10
12.54378185599187
 20
30.05342647278277
 30
0.0
 11
12.67175349903098
 21
31.28831639773929
 31
0.0
  0
LINE
  5
E4
  8
STANDARD
 10
12.67175349903098
 20
31.28831639773929
 30
0.0
 11
12.77625902092964
 21
32.5368562015597
 31
0.0
  0
LINE
  5
E5
  8
STANDARD
 10
12.77625902092964
 20
32.5368562015597
 30
0.0
 11
12.85943170542787
 21
33.79780498616547
 31
0.0
  0
LINE
  5
E6
  8
STANDARD
 10
12.85943170542787
 20
33.79780498616547
 30
0.0
 11
12.92340483626572
 21
35.06992185347805
 31
0.0
  0
LINE
  5
E7
  8
STANDARD
 10
12.92340483626572
 20
35.06992185347805
 30
0.0
 11
12.97031169718325
 21
36.35196590541892
 31
0.0
  0
LINE
  5
E8
  8
STANDARD
 10
12.97031169718325
 20
36.35196590541892
 30
0.0
 11
13.00228557192047
 21
37.64269624390954
 31
0.0
  0
LINE
  5
E9
  8
STANDARD
 10
13.00228557192047
 20
37.64269624390954
 30
0.0
 11
13.02145974421745
 21
38.94087197087138
 31
0.0
  0
LINE
  5
EA
  8
STANDARD
 10
13.02145974421745
 20
38.94087197087138
 30
0.0
 11
13.02996749781421
 21
40.24525218822589
 31
0.0
  0
LINE
  5
EB
  8
STANDARD
 10
13.02996749781421
 20
40.24525218822589
 30
0.0
 11
13.0299421164508
 21
41.55459599789454
 31
0.0
  0
LINE
  5
EC
  8
STANDARD
 10
13.0299421164508
 20
41.55459599789454
 30
0.0
 11
13.02351688386727
 21
42.8676625017988
 31
0.0
  0
LINE
  5
ED
  8
STANDARD
 10
13.02351688386727
 20
42.8676625017988
 30
0.0
 11
13.01282508380366
 21
44.18321080186014
 31
0.0
  0
LINE
  5
EE
  8
STANDARD
 10
13.01282508380366
 20
44.18321080186014
 30
0.0
 11
13.0
 21
45.5
 31
0.0
  0
LINE
  5
EF
  8
STANDARD
 10
13.0
 20
45.5
 30
0.0
 11
13.0
 21
48.5
 31
0.0
  0
LINE
  5
F0
  8
STANDARD
 10
13.0
 20
48.5
 30
0.0
 11
3.0
 21
48.5
 31
0.0
  0
LINE
  5
F1
  8
STANDARD
 10
3.0
 20
48.5
 30
0.0
 11
3.0
 21
56.50472542808634
 31
0.0
  0
LINE
  5
F2
  8
STANDARD
 10
3.0
 20
56.50472542808634
 30
0.0
 11
3.0
 21
65.0
 31
0.0
  0
LINE
  5
F3
  8
STANDARD
 10
3.0
 20
65.0
 30
0.0
 11
12.0
 21
65.0
 31
0.0
  0
LINE
  5
F4
  8
STANDARD
 10
12.0
 20
65.0
 30
0.0
 11
12.0
 21
56.50472542808634
 31
0.0
  0
LINE
  5
F5
  8
STANDARD
 10
12.0
 20
56.50472542808634
 30
0.0
 11
34.0
 21
56.50472542808634
 31
0.0
  0
LINE
  5
F6
  8
STANDARD
 10
34.0
 20
56.50472542808634
 30
0.0
 11
34.0
 21
65.0
 31
0.0
  0
LINE
  5
F7
  8
STANDARD
 10
34.0
 20
65.0
 30
0.0
 11
43.0
 21
65.0
 31
0.0
  0
LINE
  5
F8
  8
STANDARD
 10
43.0
 20
65.0
 30
0.0
 11
43.0
 21
56.50472542808634
 31
0.0
  0
LINE
  5
F9
  8
STANDARD
 10
43.0
 20
56.50472542808634
 30
0.0
 11
43.0
 21
48.5
 31
0.0
  0
LINE
  5
FA
  8
STANDARD
 10
43.0
 20
48.5
 30
0.0
 11
33.0
 21
48.5
 31
0.0
  0
LINE
  5
FB
  8
STANDARD
 10
33.0
 20
48.5
 30
0.0
 11
33.0
 21
48.33796156046606
 31
0.0
  0
LINE
  5
FC
  8
STANDARD
 10
33.0
 20
48.33796156046606
 30
0.0
 11
33.0
 21
45.5
 31
0.0
  0
LINE
  5
FD
  8
STANDARD
 10
33.0
 20
45.5
 30
0.0
 11
32.98717491619634
 21
44.18321080186013
 31
0.0
  0
LINE
  5
FE
  8
STANDARD
 10
32.98717491619634
 20
44.18321080186013
 30
0.0
 11
32.97648311613273
 21
42.8676625017988
 31
0.0
  0
LINE
  5
FF
  8
STANDARD
 10
32.97648311613273
 20
42.8676625017988
 30
0.0
 11
32.9700578835492
 21
41.55459599789454
 31
0.0
  0
LINE
  5
100
  8
STANDARD
 10
32.9700578835492
 20
41.55459599789454
 30
0.0
 11
32.9700325021858
 21
40.24525218822588
 31
0.0
  0
LINE
  5
101
  8
STANDARD
 10
32.9700325021858
 20
40.24525218822588
 30
0.0
 11
32.97854025578256
 21
38.94087197087136
 31
0.0
  0
LINE
  5
102
  8
STANDARD
 10
32.97854025578256
 20
38.94087197087136
 30
0.0
 11
32.99771442807953
 21
37.64269624390953
 31
0.0
  0
LINE
  5
103
  8
STANDARD
 10
32.99771442807953
 20
37.64269624390953
 30
0.0
 11
33.02968830281677
 21
36.35196590541892
 31
0.0
  0
LINE
  5
104
  8
STANDARD
 10
33.02968830281677
 20
36.35196590541892
 30
0.0
 11
33.07659516373427
 21
35.06992185347804
 31
0.0
  0
LINE
  5
105
  8
STANDARD
 10
33.07659516373427
 20
35.06992185347804
 30
0.0
 11
33.14056829457214
 21
33.79780498616546
 31
0.0
  0
LINE
  5
106
  8
STANDARD
 10
33.14056829457214
 20
33.79780498616546
 30
0.0
 11
33.22374097907036
 21
32.53685620155969
 31
0.0
  0
LINE
  5
107
  8
STANDARD
 10
33.22374097907036
 20
32.53685620155969
 30
0.0
 11
33.32824650096902
 21
31.28831639773928
 31
0.0
  0
LINE
  5
108
  8
STANDARD
 10
33.32824650096902
 20
31.28831639773928
 30
0.0
 11
33.45621814400814
 21
30.05342647278277
 31
0.0
  0
LINE
  5
109
  8
STANDARD
 10
33.45621814400814
 20
30.05342647278277
 30
0.0
 11
33.60978919192775
 21
28.83342732476867
 31
0.0
  0
LINE
  5
10A
  8
STANDARD
 10
33.60978919192775
 20
28.83342732476867
 30
0.0
 11
33.79109292846793
 21
27.62955985177555
 31
0.0
  0
LINE
  5
10B
  8
STANDARD
 10
33.79109292846793
 20
27.62955985177555
 30
0.0
 11
34.00226263736868
 21
26.44306495188192
 31
0.0
  0
LINE
  5
10C
  8
STANDARD
 10
34.00226263736868
 20
26.44306495188192
 30
0.0
 11
34.24543160237006
 21
25.27518352316633
 31
0.0
  0
LINE
  5
10D
  8
STANDARD
 10
34.24543160237006
 20
25.27518352316633
 30
0.0
 11
34.52273310721212
 21
24.1271564637073
 31
0.0
  0
LINE
  5
10E
  8
STANDARD
 10
34.52273310721212
 20
24.1271564637073
 30
0.0
 11
34.83630043563489
 21
23.00022467158338
 31
0.0
  0
LINE
  5
10F
  8
STANDARD
 10
34.83630043563489
 20
23.00022467158338
 30
0.0
 11
35.18826687137842
 21
21.8956290448731
 31
0.0
  0
LINE
  5
110
  8
STANDARD
 10
35.18826687137842
 20
21.8956290448731
 30
0.0
 11
35.58076569818274
 21
20.81461048165501
 31
0.0
  0
LINE
  5
111
  8
STANDARD
 10
35.58076569818274
 20
20.81461048165501
 30
0.0
 11
36.01593019978791
 21
19.75840988000762
 31
0.0
  0
LINE
  5
112
  8
STANDARD
 10
36.01593019978791
 20
19.75840988000762
 30
0.0
 11
36.49589365993396
 21
18.72826813800947
 31
0.0
  0
LINE
  5
113
  8
STANDARD
 10
36.49589365993396
 20
18.72826813800947
 30
0.0
 11
37.02278936236092
 21
17.72542615373911
 31
0.0
  0
LINE
  5
114
  8
STANDARD
 10
37.02278936236092
 20
17.72542615373911
 30
0.0
 11
37.59875059080887
 21
16.75112482527507
 31
0.0
  0
LINE
  5
115
  8
STANDARD
 10
37.59875059080887
 20
16.75112482527507
 30
0.0
 11
38.22591062901781
 21
15.80660505069589
 31
0.0
  0
LINE
  5
116
  8
STANDARD
 10
38.22591062901781
 20
15.80660505069589
 30
0.0
 11
38.9064027607278
 21
14.89310772808009
 31
0.0
  0
LINE
  5
117
  8
STANDARD
 10
38.9064027607278
 20
14.89310772808009
 30
0.0
 11
39.6423602696789
 21
14.01187375550623
 31
0.0
  0
LINE
  5
118
  8
STANDARD
 10
39.6423602696789
 20
14.01187375550623
 30
0.0
 11
40.43562817751187
 21
13.16397635345871
 31
0.0
  0
LINE
  5
119
  8
STANDARD
 10
40.43562817751187
 20
13.16397635345871
 30
0.0
 11
41.28090709189745
 21
12.34633294757796
 31
0.0
  0
LINE
  5
11A
  8
STANDARD
 10
41.28090709189745
 20
12.34633294757796
 30
0.0
 11
42.1654551844857
 21
11.55153181385384
 31
0.0
  0
LINE
  5
11B
  8
STANDARD
 10
42.1654551844857
 20
11.55153181385384
 30
0.0
 11
43.07618272920907
 21
10.77195886156748
 31
0.0
  0
LINE
  5
11C
  8
STANDARD
 10
43.07618272920907
 20
10.77195886156748
 30
0.0
 11
44.0
 21
10.0
 31
0.0
  0
ARC
  5
11D
  8
STANDARD
 10
44.0
 20
7.999999999999999
 30
0.0
 40
2.000000000000001
 50
0.0
 51
90.0
  0
LINE
  5
11E
  8
STANDARD
 10
46.0
 20
7.999999999999999
 30
0.0
 11
46.0
 21
0.0
 31
0.0
  0
ENDSEC
  0
EOF
