  0
SECTION
  2
HEADER
  9
$ACADVER
  1
AC1009
  9
$DWGCODEPAGE
  3
ansi_1252
  9
$INSBASE
 10
0.0
 20
0.0
 30
0.0
  9
$EXTMIN
 10
-0.0000000000000009
 20
0.0
 30
0.0
  9
$EXTMAX
 10
108.5
 20
115.0
 30
0.0
  9
$LIMMIN
 10
0.0
 20
0.0
  9
$LIMMAX
 10
12.0
 20
9.0
  9
$ORTHOMODE
 70
     0
  9
$REGENMODE
 70
     1
  9
$FILLMODE
 70
     1
  9
$QTEXTMODE
 70
     0
  9
$MIRRTEXT
 70
     1
  9
$DRAGMODE
 70
     2
  9
$LTSCALE
 40
1.0
  9
$OSMODE
 70
    37
  9
$ATTMODE
 70
     1
  9
$TEXTSIZE
 40
0.2
  9
$TRACEWID
 40
0.05
  9
$TEXTSTYLE
  7
STANDARD
  9
$CLAYER
  8
STANDARD
  9
$CELTYPE
  6
BYLAYER
  9
$CECOLOR
 62
   256
  9
$DIMSCALE
 40
1.0
  9
$DIMASZ
 40
0.18
  9
$DIMEXO
 40
0.0625
  9
$DIMDLI
 40
0.38
  9
$DIMRND
 40
0.0
  9
$DIMDLE
 40
0.0
  9
$DIMEXE
 40
0.18
  9
$DIMTP
 40
0.0
  9
$DIMTM
 40
0.0
  9
$DIMTXT
 40
0.18
  9
$DIMCEN
 40
0.09
  9
$DIMTSZ
 40
0.0
  9
$DIMTOL
 70
     0
  9
$DIMLIM
 70
     0
  9
$DIMTIH
 70
     1
  9
$DIMTOH
 70
     1
  9
$DIMSE1
 70
     0
  9
$DIMSE2
 70
     0
  9
$DIMTAD
 70
     0
  9
$DIMZIN
 70
     0
  9
$DIMBLK
  1

  9
$DIMASO
 70
     1
  9
$DIMSHO
 70
     1
  9
$DIMPOST
  1

  9
$DIMAPOST
  1

  9
$DIMALT
 70
     0
  9
$DIMALTD
 70
     2
  9
$DIMALTF
 40
25.4
  9
$DIMLFAC
 40
1.0
  9
$DIMTOFL
 70
     0
  9
$DIMTVP
 40
0.0
  9
$DIMTIX
 70
     0
  9
$DIMSOXD
 70
     0
  9
$DIMSAH
 70
     0
  9
$DIMBLK1
  1

  9
$DIMBLK2
  1

  9
$DIMSTYLE
  2
STANDARD
  9
$DIMCLRD
 70
     0
  9
$DIMCLRE
 70
     0
  9
$DIMCLRT
 70
     0
  9
$DIMTFAC
 40
1.0
  9
$DIMGAP
 40
0.09
  9
$LUNITS
 70
     2
  9
$LUPREC
 70
     3
  9
$SKETCHINC
 40
0.1
  9
$FILLETRAD
 40
0.5
  9
$AUNITS
 70
     0
  9
$AUPREC
 70
     0
  9
$MENU
  1
.
  9
$ELEVATION
 40
0.0
  9
$PELEVATION
 40
0.0
  9
$THICKNESS
 40
0.0
  9
$LIMCHECK
 70
     0
  9
$CHAMFERA
 40
0.0
  9
$CHAMFERB
 40
0.0
  9
$SKPOLY
 70
     0
  9
$TDCREATE
 40
2458065.779794201
  9
$TDUPDATE
 40
2458065.779794201
  9
$TDINDWG
 40
0.0000000116
  9
$TDUSRTIMER
 40
0.0000000116
  9
$USRTIMER
 70
     1
  9
$ANGBASE
 50
0.0
  9
$ANGDIR
 70
     0
  9
$PDMODE
 70
     0
  9
$PDSIZE
 40
0.0
  9
$PLINEWID
 40
0.0
  9
$COORDS
 70
     1
  9
$SPLFRAME
 70
     0
  9
$SPLINETYPE
 70
     6
  9
$SPLINESEGS
 70
     8
  9
$ATTDIA
 70
     0
  9
$ATTREQ
 70
     1
  9
$HANDLING
 70
     1
  9
$HANDSEED
  5
23F
  9
$SURFTAB1
 70
     6
  9
$SURFTAB2
 70
     6
  9
$SURFTYPE
 70
     6
  9
$SURFU
 70
     6
  9
$SURFV
 70
     6
  9
$UCSNAME
  2

  9
$UCSORG
 10
0.0
 20
0.0
 30
0.0
  9
$UCSXDIR
 10
1.0
 20
0.0
 30
0.0
  9
$UCSYDIR
 10
0.0
 20
1.0
 30
0.0
  9
$PUCSNAME
  2

  9
$PUCSORG
 10
0.0
 20
0.0
 30
0.0
  9
$PUCSXDIR
 10
1.0
 20
0.0
 30
0.0
  9
$PUCSYDIR
 10
0.0
 20
1.0
 30
0.0
  9
$USERI1
 70
     0
  9
$USERI2
 70
     0
  9
$USERI3
 70
     0
  9
$USERI4
 70
     0
  9
$USERI5
 70
     0
  9
$USERR1
 40
0.0
  9
$USERR2
 40
0.0
  9
$USERR3
 40
0.0
  9
$USERR4
 40
0.0
  9
$USERR5
 40
0.0
  9
$WORLDVIEW
 70
     1
  9
$SHADEDGE
 70
     3
  9
$SHADEDIF
 70
    70
  9
$TILEMODE
 70
     1
  9
$MAXACTVP
 70
    64
  9
$PLIMCHECK
 70
     0
  9
$PEXTMIN
 10
1.000000000000000E+20
 20
1.000000000000000E+20
 30
1.000000000000000E+20
  9
$PEXTMAX
 10
-1.000000000000000E+20
 20
-1.000000000000000E+20
 30
-1.000000000000000E+20
  9
$PLIMMIN
 10
0.0
 20
0.0
  9
$PLIMMAX
 10
12.0
 20
9.0
  9
$UNITMODE
 70
     0
  9
$VISRETAIN
 70
     1
  9
$PLINEGEN
 70
     0
  9
$PSLTSCALE
 70
     1
  0
ENDSEC
  0
SECTION
  2
TABLES
  0
TABLE
  2
VPORT
 70
     1
  0
VPORT
  2
*ACTIVE
 70
     0
 10
0.0
 20
0.0
 11
1.0
 21
1.0
 12
54.25
 22
57.5
 13
0.0
 23
0.0
 14
0.5
 24
0.5
 15
0.5
 25
0.5
 16
0.0
 26
0.0
 36
1.0
 17
0.0
 27
0.0
 37
0.0
 40
117.3
 41
0.9434782608695652
 42
50.0
 43
0.0
 44
0.0
 50
0.0
 51
0.0
 71
     0
 72
   100
 73
     1
 74
     3
 75
     0
 76
     0
 77
     0
 78
     0
  0
ENDTAB
  0
TABLE
  2
LTYPE
 70
     1
  0
LTYPE
  2
CONTINUOUS
 70
     0
  3
Solid line
 72
    65
 73
     0
 40
0.0
  0
ENDTAB
  0
TABLE
  2
LAYER
 70
     2
  0
LAYER
  2
0
 70
     0
 62
     7
  6
CONTINUOUS
  0
LAYER
  2
STANDARD
 70
     0
 62
     7
  6
CONTINUOUS
  0
ENDTAB
  0
TABLE
  2
STYLE
 70
     1
  0
STYLE
  2
STANDARD
 70
     0
 40
0.0
 41
1.0
 50
0.0
 71
     0
 42
0.2
  3
txt
  4

  0
ENDTAB
  0
TABLE
  2
VIEW
 70
     0
  0
ENDTAB
  0
TABLE
  2
UCS
 70
     0
  0
ENDTAB
  0
TABLE
  2
APPID
 70
     1
  0
APPID
  2
ACAD
 70
     0
  0
ENDTAB
  0
TABLE
  2
DIMSTYLE
 70
     1
  0
DIMSTYLE
  2
STANDARD
 70
     0
  3

  4

  5

  6

  7

 40
1.0
 41
0.18
 42
0.0625
 43
0.38
 44
0.18
 45
0.0
 46
0.0
 47
0.0
 48
0.0
140
0.18
141
0.09
142
0.0
143
25.4
144
1.0
145
0.0
146
1.0
147
0.09
 71
     0
 72
     0
 73
     1
 74
     1
 75
     0
 76
     0
 77
     0
 78
     0
170
     0
171
     2
172
     0
173
     0
174
     0
175
     0
176
     0
177
     0
178
     0
  0
ENDTAB
  0
ENDSEC
  0
SECTION
  2
BLOCKS
  0
BLOCK
  8
0
  2
$MODEL_SPACE
 70
     0
 10
0.0
 20
0.0
 30
0.0
  3
$MODEL_SPACE
  1

  0
ENDBLK
  5
21
  8
0
  0
BLOCK
 67
     1
  8
0
  2
$PAPER_SPACE
 70
     0
 10
0.0
 20
0.0
 30
0.0
  3
$PAPER_SPACE
  1

  0
ENDBLK
  5
1D
 67
     1
  8
0
  0
ENDSEC
  0
SECTION
  2
ENTITIES
  0
LINE
  5
6F
  8
STANDARD
 10
25.0
 20
115.0
 30
0.0
 11
25.0
 21
105.0
 31
0.0
  0
LINE
  5
70
  8
STANDARD
 10
25.0
 20
105.0
 30
0.0
 11
30.5
 21
105.0
 31
0.0
  0
LINE
  5
71
  8
STANDARD
 10
30.5
 20
105.0
 30
0.0
 11
30.5
 21
101.5
 31
0.0
  0
LINE
  5
72
  8
STANDARD
 10
30.5
 20
101.5
 30
0.0
 11
25.0
 21
101.5
 31
0.0
  0
LINE
  5
73
  8
STANDARD
 10
25.0
 20
101.5
 30
0.0
 11
25.0
 21
93.5
 31
0.0
  0
LINE
  5
74
  8
STANDARD
 10
25.0
 20
93.5
 30
0.0
 11
28.0
 21
93.5
 31
0.0
  0
LINE
  5
75
  8
STANDARD
 10
28.0
 20
93.5
 30
0.0
 11
29.02427125788284
 21
93.27202882090799
 31
0.0
  0
LINE
  5
76
  8
STANDARD
 10
29.02427125788284
 20
93.27202882090799
 30
0.0
 11
30.03843383701205
 21
93.0400593777222
 31
0.0
  0
LINE
  5
77
  8
STANDARD
 10
30.03843383701205
 20
93.0400593777222
 30
0.0
 11
31.03237905863406
 21
92.80009340634886
 31
0.0
  0
LINE
  5
78
  8
STANDARD
 10
31.03237905863406
 20
92.80009340634886
 30
0.0
 11
31.99599824399525
 21
92.54813264269414
 31
0.0
  0
LINE
  5
79
  8
STANDARD
 10
31.99599824399525
 20
92.54813264269414
 30
0.0
 11
32.91918271434201
 21
92.28017882266428
 31
0.0
  0
LINE
  5
7A
  8
STANDARD
 10
32.91918271434201
 20
92.28017882266428
 30
0.0
 11
33.79182379092075
 21
91.99223368216553
 31
0.0
  0
LINE
  5
7B
  8
STANDARD
 10
33.79182379092075
 20
91.99223368216553
 30
0.0
 11
34.60381279497786
 21
91.68029895710404
 31
0.0
  0
LINE
  5
7C
  8
STANDARD
 10
34.60381279497786
 20
91.68029895710404
 30
0.0
 11
35.34504104775974
 21
91.34037638338607
 31
0.0
  0
LINE
  5
7D
  8
STANDARD
 10
35.34504104775974
 20
91.34037638338607
 30
0.0
 11
36.00539987051275
 21
90.9684676969178
 31
0.0
  0
LINE
  5
7E
  8
STANDARD
 10
36.00539987051275
 20
90.9684676969178
 30
0.0
 11
36.57478058448331
 21
90.56057463360544
 31
0.0
  0
LINE
  5
7F
  8
STANDARD
 10
36.57478058448331
 20
90.56057463360544
 30
0.0
 11
37.04307451091783
 21
90.11269892935528
 31
0.0
  0
LINE
  5
80
  8
STANDARD
 10
37.04307451091783
 20
90.11269892935528
 30
0.0
 11
37.4001729710627
 21
89.62084232007346
 31
0.0
  0
LINE
  5
81
  8
STANDARD
 10
37.4001729710627
 20
89.62084232007346
 30
0.0
 11
37.63684668819273
 21
89.08132394814396
 31
0.0
  0
LINE
  5
82
  8
STANDARD
 10
37.63684668819273
 20
89.08132394814396
 30
0.0
 11
37.75521945374037
 21
88.49456066923672
 31
0.0
  0
LINE
  5
83
  8
STANDARD
 10
37.75521945374037
 20
88.49456066923672
 30
0.0
 11
37.76531454748321
 21
87.86382053641557
 31
0.0
  0
LINE
  5
84
  8
STANDARD
 10
37.76531454748321
 20
87.86382053641557
 30
0.0
 11
37.67731532595776
 21
87.19242937995952
 31
0.0
  0
LINE
  5
85
  8
STANDARD
 10
37.67731532595776
 20
87.19242937995952
 30
0.0
 11
37.50140514570055
 21
86.48371303014761
 31
0.0
  0
LINE
  5
86
  8
STANDARD
 10
37.50140514570055
 20
86.48371303014761
 30
0.0
 11
37.24776736324807
 21
85.74099731725883
 31
0.0
  0
LINE
  5
87
  8
STANDARD
 10
37.24776736324807
 20
85.74099731725883
 30
0.0
 11
36.92658533513689
 21
84.96760807157224
 31
0.0
  0
LINE
  5
88
  8
STANDARD
 10
36.92658533513689
 20
84.96760807157224
 30
0.0
 11
36.5480424179035
 21
84.16687112336686
 31
0.0
  0
LINE
  5
89
  8
STANDARD
 10
36.5480424179035
 20
84.16687112336686
 30
0.0
 11
36.12232196808441
 21
83.34211230292166
 31
0.0
  0
LINE
  5
8A
  8
STANDARD
 10
36.12232196808441
 20
83.34211230292166
 30
0.0
 11
35.65960734221617
 21
82.49665744051572
 31
0.0
  0
LINE
  5
8B
  8
STANDARD
 10
35.65960734221617
 20
82.49665744051572
 30
0.0
 11
35.17008189683526
 21
81.63383236642805
 31
0.0
  0
LINE
  5
8C
  8
STANDARD
 10
35.17008189683526
 20
81.63383236642805
 30
0.0
 11
34.66392898847823
 21
80.75696291093762
 31
0.0
  0
LINE
  5
8D
  8
STANDARD
 10
34.66392898847823
 20
80.75696291093762
 30
0.0
 11
34.15133197368159
 21
79.8693749043235
 31
0.0
  0
LINE
  5
8E
  8
STANDARD
 10
34.15133197368159
 20
79.8693749043235
 30
0.0
 11
33.64247420898186
 21
78.9743941768647
 31
0.0
  0
LINE
  5
8F
  8
STANDARD
 10
33.64247420898186
 20
78.9743941768647
 30
0.0
 11
33.14753905091553
 21
78.07534655884022
 31
0.0
  0
LINE
  5
90
  8
STANDARD
 10
33.14753905091553
 20
78.07534655884022
 30
0.0
 11
32.67670985601917
 21
77.17555788052913
 31
0.0
  0
LINE
  5
91
  8
STANDARD
 10
32.67670985601917
 20
77.17555788052913
 30
0.0
 11
32.24016998082927
 21
76.27835397221041
 31
0.0
  0
LINE
  5
92
  8
STANDARD
 10
32.24016998082927
 20
76.27835397221041
 30
0.0
 11
31.84810278188235
 21
75.38706066416306
 31
0.0
  0
LINE
  5
93
  8
STANDARD
 10
31.84810278188235
 20
75.38706066416306
 30
0.0
 11
31.51069161571493
 21
74.50500378666617
 31
0.0
  0
LINE
  5
94
  8
STANDARD
 10
31.51069161571493
 20
74.50500378666617
 30
0.0
 11
31.23811983886353
 21
73.63550916999868
 31
0.0
  0
LINE
  5
95
  8
STANDARD
 10
31.23811983886353
 20
73.63550916999868
 30
0.0
 11
31.04057080786468
 21
72.78190264443967
 31
0.0
  0
LINE
  5
96
  8
STANDARD
 10
31.04057080786468
 20
72.78190264443967
 30
0.0
 11
30.92822787925488
 21
71.94751004026817
 31
0.0
  0
LINE
  5
97
  8
STANDARD
 10
30.92822787925488
 20
71.94751004026817
 30
0.0
 11
30.91127440957067
 21
71.13565718776316
 31
0.0
  0
LINE
  5
98
  8
STANDARD
 10
30.91127440957067
 20
71.13565718776316
 30
0.0
 11
30.99989375534855
 21
70.34966991720366
 31
0.0
  0
LINE
  5
99
  8
STANDARD
 10
30.99989375534855
 20
70.34966991720366
 30
0.0
 11
31.20426927312505
 21
69.59287405886869
 31
0.0
  0
LINE
  5
9A
  8
STANDARD
 10
31.20426927312505
 20
69.59287405886869
 30
0.0
 11
31.53457565559168
 21
68.86859309037114
 31
0.0
  0
LINE
  5
9B
  8
STANDARD
 10
31.53457565559168
 20
68.86859309037114
 30
0.0
 11
31.98491538580349
 21
68.17578608254668
 31
0.0
  0
LINE
  5
9C
  8
STANDARD
 10
31.98491538580349
 20
68.17578608254668
 30
0.0
 11
32.5
 21
67.5
 31
0.0
  0
LINE
  5
9D
  8
STANDARD
 10
32.5
 20
67.5
 30
0.0
 11
32.5
 21
62.0
 31
0.0
  0
LINE
  5
9E
  8
STANDARD
 10
32.5
 20
62.0
 30
0.0
 11
37.5
 21
61.99999999999999
 31
0.0
  0
ARC
  5
9F
  8
STANDARD
 10
37.5
 20
59.99999999999999
 30
0.0
 40
2.0
 50
0.0
 51
90.0
  0
LINE
  5
A0
  8
STANDARD
 10
39.5
 20
59.99999999999999
 30
0.0
 11
39.5
 21
58.0
 31
0.0
  0
LINE
  5
A1
  8
STANDARD
 10
39.5
 20
58.0
 30
0.0
 11
40.5
 21
57.99999999999999
 31
0.0
  0
ARC
  5
A2
  8
STANDARD
 10
40.5
 20
55.99999999999999
 30
0.0
 40
2.0
 50
0.0
 51
90.0
  0
LINE
  5
A3
  8
STANDARD
 10
42.5
 20
55.99999999999999
 30
0.0
 11
42.5
 21
53.5
 31
0.0
  0
LINE
  5
A4
  8
STANDARD
 10
42.5
 20
53.5
 30
0.0
 11
32.5
 21
53.5
 31
0.0
  0
LINE
  5
A5
  8
STANDARD
 10
32.5
 20
53.5
 30
0.0
 11
32.49964495736874
 21
44.34528852150414
 31
0.0
  0
LINE
  5
A6
  8
STANDARD
 10
32.49964495736874
 20
44.34528852150414
 30
0.0
 11
32.50134256643996
 21
43.6824961507485
 31
0.0
  0
LINE
  5
A7
  8
STANDARD
 10
32.50134256643996
 20
43.6824961507485
 30
0.0
 11
32.50197318937849
 21
43.01985861220843
 31
0.0
  0
LINE
  5
A8
  8
STANDARD
 10
32.50197318937849
 20
43.01985861220843
 30
0.0
 11
32.501003333118
 21
42.3574533219918
 31
0.0
  0
LINE
  5
A9
  8
STANDARD
 10
32.501003333118
 20
42.3574533219918
 30
0.0
 11
32.49789950459213
 21
41.69535769620635
 31
0.0
  0
LINE
  5
AA
  8
STANDARD
 10
32.49789950459213
 20
41.69535769620635
 30
0.0
 11
32.49227346681968
 21
41.03362807259647
 31
0.0
  0
LINE
  5
AB
  8
STANDARD
 10
32.49227346681968
 20
41.03362807259647
 30
0.0
 11
32.48454225959217
 21
40.37220393379185
 31
0.0
  0
LINE
  5
AC
  8
STANDARD
 10
32.48454225959217
 20
40.37220393379185
 30
0.0
 11
32.4754004017657
 21
39.71098449695195
 31
0.0
  0
LINE
  5
AD
  8
STANDARD
 10
32.4754004017657
 20
39.71098449695195
 30
0.0
 11
32.46554267057925
 21
39.04986894174181
 31
0.0
  0
LINE
  5
AE
  8
STANDARD
 10
32.46554267057925
 20
39.04986894174181
 30
0.0
 11
32.45566384327183
 21
38.38875644782652
 31
0.0
  0
LINE
  5
AF
  8
STANDARD
 10
32.45566384327183
 20
38.38875644782652
 30
0.0
 11
32.44645869708246
 21
37.72754619487115
 31
0.0
  0
LINE
  5
B0
  8
STANDARD
 10
32.44645869708246
 20
37.72754619487115
 30
0.0
 11
32.43862200925011
 21
37.06613736254076
 31
0.0
  0
LINE
  5
B1
  8
STANDARD
 10
32.43862200925011
 20
37.06613736254076
 30
0.0
 11
32.43284855701382
 21
36.40442913050042
 31
0.0
  0
LINE
  5
B2
  8
STANDARD
 10
32.43284855701382
 20
36.40442913050042
 30
0.0
 11
32.42983311761255
 21
35.7423206784152
 31
0.0
  0
LINE
  5
B3
  8
STANDARD
 10
32.42983311761255
 20
35.7423206784152
 30
0.0
 11
32.43027046828535
 21
35.07971118595017
 31
0.0
  0
LINE
  5
B4
  8
STANDARD
 10
32.43027046828535
 20
35.07971118595017
 30
0.0
 11
32.43485538627119
 21
34.41649983277039
 31
0.0
  0
LINE
  5
B5
  8
STANDARD
 10
32.43485538627119
 20
34.41649983277039
 30
0.0
 11
32.44428264880907
 21
33.75258579854093
 31
0.0
  0
LINE
  5
B6
  8
STANDARD
 10
32.44428264880907
 20
33.75258579854093
 30
0.0
 11
32.45924703313801
 21
33.08786826292687
 31
0.0
  0
LINE
  5
B7
  8
STANDARD
 10
32.45924703313801
 20
33.08786826292687
 30
0.0
 11
32.48044331649701
 21
32.42224640559326
 31
0.0
  0
LINE
  5
B8
  8
STANDARD
 10
32.48044331649701
 20
32.42224640559326
 30
0.0
 11
32.50856751353153
 21
31.75562431331003
 31
0.0
  0
LINE
  5
B9
  8
STANDARD
 10
32.50856751353153
 20
31.75562431331003
 30
0.0
 11
32.54437486315771
 21
31.08814093480347
 31
0.0
  0
LINE
  5
BA
  8
STANDARD
 10
32.54437486315771
 20
31.08814093480347
 30
0.0
 11
32.58870467208165
 21
30.42026860113472
 31
0.0
  0
LINE
  5
BB
  8
STANDARD
 10
32.58870467208165
 20
30.42026860113472
 30
0.0
 11
32.64240264503408
 21
29.75250501560779
 31
0.0
  0
LINE
  5
BC
  8
STANDARD
 10
32.64240264503408
 20
29.75250501560779
 30
0.0
 11
32.70631448674575
 21
29.08534788152667
 31
0.0
  0
LINE
  5
BD
  8
STANDARD
 10
32.70631448674575
 20
29.08534788152667
 30
0.0
 11
32.78128590194736
 21
28.41929490219534
 31
0.0
  0
LINE
  5
BE
  8
STANDARD
 10
32.78128590194736
 20
28.41929490219534
 30
0.0
 11
32.86816259536965
 21
27.75484378091781
 31
0.0
  0
LINE
  5
BF
  8
STANDARD
 10
32.86816259536965
 20
27.75484378091781
 30
0.0
 11
32.96779027174333
 21
27.09249222099804
 31
0.0
  0
LINE
  5
C0
  8
STANDARD
 10
32.96779027174333
 20
27.09249222099804
 30
0.0
 11
33.08101463579914
 21
26.43273792574004
 31
0.0
  0
LINE
  5
C1
  8
STANDARD
 10
33.08101463579914
 20
26.43273792574004
 30
0.0
 11
33.20868139226781
 21
25.77607859844779
 31
0.0
  0
LINE
  5
C2
  8
STANDARD
 10
33.20868139226781
 20
25.77607859844779
 30
0.0
 11
33.35163624588005
 21
25.12301194242529
 31
0.0
  0
LINE
  5
C3
  8
STANDARD
 10
33.35163624588005
 20
25.12301194242529
 30
0.0
 11
33.5107249013666
 21
24.47403566097652
 31
0.0
  0
LINE
  5
C4
  8
STANDARD
 10
33.5107249013666
 20
24.47403566097652
 30
0.0
 11
33.68679306345817
 21
23.82964745740546
 31
0.0
  0
LINE
  5
C5
  8
STANDARD
 10
33.68679306345817
 20
23.82964745740546
 30
0.0
 11
33.8806864368855
 21
23.19034503501612
 31
0.0
  0
LINE
  5
C6
  8
STANDARD
 10
33.8806864368855
 20
23.19034503501612
 30
0.0
 11
34.09325072637931
 21
22.55662609711247
 31
0.0
  0
LINE
  5
C7
  8
STANDARD
 10
34.09325072637931
 20
22.55662609711247
 30
0.0
 11
34.32533163667033
 21
21.92898834699851
 31
0.0
  0
LINE
  5
C8
  8
STANDARD
 10
34.32533163667033
 20
21.92898834699851
 30
0.0
 11
34.57777487248928
 21
21.30792948797822
 31
0.0
  0
LINE
  5
C9
  8
STANDARD
 10
34.57777487248928
 20
21.30792948797822
 30
0.0
 11
34.85142613856689
 21
20.6939472233556
 31
0.0
  0
LINE
  5
CA
  8
STANDARD
 10
34.85142613856689
 20
20.6939472233556
 30
0.0
 11
35.14713113963388
 21
20.08753925643465
 31
0.0
  0
LINE
  5
CB
  8
STANDARD
 10
35.14713113963388
 20
20.08753925643465
 30
0.0
 11
35.46573558042099
 21
19.48920329051932
 31
0.0
  0
LINE
  5
CC
  8
STANDARD
 10
35.46573558042099
 20
19.48920329051932
 30
0.0
 11
35.80808516565892
 21
18.89943702891363
 31
0.0
  0
LINE
  5
CD
  8
STANDARD
 10
35.80808516565892
 20
18.89943702891363
 30
0.0
 11
36.17502560007843
 21
18.31873817492156
 31
0.0
  0
LINE
  5
CE
  8
STANDARD
 10
36.17502560007843
 20
18.31873817492156
 30
0.0
 11
36.56740258841022
 21
17.7476044318471
 31
0.0
  0
LINE
  5
CF
  8
STANDARD
 10
36.56740258841022
 20
17.7476044318471
 30
0.0
 11
36.98606183538503
 21
17.18653350299425
 31
0.0
  0
LINE
  5
D0
  8
STANDARD
 10
36.98606183538503
 20
17.18653350299425
 30
0.0
 11
37.43184904573357
 21
16.63602309166697
 31
0.0
  0
LINE
  5
D1
  8
STANDARD
 10
37.43184904573357
 20
16.63602309166697
 30
0.0
 11
37.90560992418658
 21
16.09657090116928
 31
0.0
  0
LINE
  5
D2
  8
STANDARD
 10
37.90560992418658
 20
16.09657090116928
 30
0.0
 11
38.40819017547477
 21
15.56867463480516
 31
0.0
  0
LINE
  5
D3
  8
STANDARD
 10
38.40819017547477
 20
15.56867463480516
 30
0.0
 11
38.9404355043289
 21
15.05283199587859
 31
0.0
  0
LINE
  5
D4
  8
STANDARD
 10
38.9404355043289
 20
15.05283199587859
 30
0.0
 11
39.49659891273359
 21
14.54826433006479
 31
0.0
  0
LINE
  5
D5
  8
STANDARD
 10
39.49659891273359
 20
14.54826433006479
 30
0.0
 11
40.03485914441805
 21
14.04720894985858
 31
0.0
  0
LINE
  5
D6
  8
STANDARD
 10
40.03485914441805
 20
14.04720894985858
 30
0.0
 11
40.50111877618209
 21
13.53952648251419
 31
0.0
  0
LINE
  5
D7
  8
STANDARD
 10
40.50111877618209
 20
13.53952648251419
 30
0.0
 11
40.84127014277709
 21
13.01507557240911
 31
0.0
  0
LINE
  5
D8
  8
STANDARD
 10
40.84127014277709
 20
13.01507557240911
 30
0.0
 11
41.00121042327164
 21
12.46371569807674
 31
0.0
  0
LINE
  5
D9
  8
STANDARD
 10
41.00121042327164
 20
12.46371569807674
 30
0.0
 11
40.94908391763499
 21
11.87913712907612
 31
0.0
  0
LINE
  5
DA
  8
STANDARD
 10
40.94908391763499
 20
11.87913712907612
 30
0.0
 11
40.72653800939249
 21
11.26768682677387
 31
0.0
  0
LINE
  5
DB
  8
STANDARD
 10
40.72653800939249
 20
11.26768682677387
 30
0.0
 11
40.39037916607947
 21
10.63832203560388
 31
0.0
  0
LINE
  5
DC
  8
STANDARD
 10
40.39037916607947
 20
10.63832203560388
 30
0.0
 11
39.99741385523117
 21
10.0
 31
0.0
  0
LINE
  5
DD
  8
STANDARD
 10
39.99741385523117
 20
10.0
 30
0.0
 11
40.0
 21
10.0
 31
0.0
  0
LINE
  5
DE
  8
STANDARD
 10
40.0
 20
10.0
 30
0.0
 11
44.0
 21
10.0
 31
0.0
  0
ARC
  5
DF
  8
STANDARD
 10
44.0
 20
7.999999999999999
 30
0.0
 40
2.000000000000001
 50
0.0
 51
90.0
  0
LINE
  5
E0
  8
STANDARD
 10
46.0
 20
7.999999999999999
 30
0.0
 11
46.0
 21
0.0
 31
0.0
  0
LINE
  5
E1
  8
STANDARD
 10
46.0
 20
0.0
 30
0.0
 11
24.5
 21
0.0
 31
0.0
  0
LINE
  5
E2
  8
STANDARD
 10
24.5
 20
0.0
 30
0.0
 11
24.5
 21
46.0
 31
0.0
  0
LINE
  5
E3
  8
STANDARD
 10
24.5
 20
46.0
 30
0.0
 11
21.5
 21
46.0
 31
0.0
  0
LINE
  5
E4
  8
STANDARD
 10
21.5
 20
46.0
 30
0.0
 11
21.5
 21
0.0
 31
0.0
  0
LINE
  5
E5
  8
STANDARD
 10
21.5
 20
0.0
 30
0.0
 11
0.0
 21
0.0
 31
0.0
  0
LINE
  5
E6
  8
STANDARD
 10
0.0
 20
0.0
 30
0.0
 11
-0.0000000000000009
 21
7.999999999999999
 31
0.0
  0
ARC
  5
E7
  8
STANDARD
 10
2.0
 20
7.999999999999999
 30
0.0
 40
2.000000000000001
 50
90.0
 51
180.0
  0
LINE
  5
E8
  8
STANDARD
 10
2.0
 20
10.0
 30
0.0
 11
6.0
 21
10.0
 31
0.0
  0
LINE
  5
E9
  8
STANDARD
 10
6.0
 20
10.0
 30
0.0
 11
5.6070346891517
 21
10.63832203560388
 31
0.0
  0
LINE
  5
EA
  8
STANDARD
 10
5.6070346891517
 20
10.63832203560388
 30
0.0
 11
5.27087584583867
 21
11.26768682677387
 31
0.0
  0
LINE
  5
EB
  8
STANDARD
 10
5.27087584583867
 20
11.26768682677387
 30
0.0
 11
5.048329937596187
 21
11.87913712907612
 31
0.0
  0
LINE
  5
EC
  8
STANDARD
 10
5.048329937596187
 20
11.87913712907612
 30
0.0
 11
4.99620343195952
 21
12.46371569807674
 31
0.0
  0
LINE
  5
ED
  8
STANDARD
 10
4.99620343195952
 20
12.46371569807674
 30
0.0
 11
5.156143712454076
 21
13.01507557240911
 31
0.0
  0
LINE
  5
EE
  8
STANDARD
 10
5.156143712454076
 20
13.01507557240911
 30
0.0
 11
5.496295079049076
 21
13.53952648251419
 31
0.0
  0
LINE
  5
EF
  8
STANDARD
 10
5.496295079049076
 20
13.53952648251419
 30
0.0
 11
5.962554710813125
 21
14.04720894985858
 31
0.0
  0
LINE
  5
F0
  8
STANDARD
 10
5.962554710813125
 20
14.04720894985858
 30
0.0
 11
6.500814942497586
 21
14.54826433006479
 31
0.0
  0
LINE
  5
F1
  8
STANDARD
 10
6.500814942497586
 20
14.54826433006479
 30
0.0
 11
7.056978350902268
 21
15.05283199587859
 31
0.0
  0
LINE
  5
F2
  8
STANDARD
 10
7.056978350902268
 20
15.05283199587859
 30
0.0
 11
7.589223679756387
 21
15.56867463480516
 31
0.0
  0
LINE
  5
F3
  8
STANDARD
 10
7.589223679756387
 20
15.56867463480516
 30
0.0
 11
8.091803931044586
 21
16.09657090116928
 31
0.0
  0
LINE
  5
F4
  8
STANDARD
 10
8.091803931044586
 20
16.09657090116928
 30
0.0
 11
8.565564809497598
 21
16.63602309166697
 31
0.0
  0
LINE
  5
F5
  8
STANDARD
 10
8.565564809497598
 20
16.63602309166697
 30
0.0
 11
9.011352019846145
 21
17.18653350299425
 31
0.0
  0
LINE
  5
F6
  8
STANDARD
 10
9.011352019846145
 20
17.18653350299425
 30
0.0
 11
9.430011266820948
 21
17.7476044318471
 31
0.0
  0
LINE
  5
F7
  8
STANDARD
 10
9.430011266820948
 20
17.7476044318471
 30
0.0
 11
9.82238825515274
 21
18.31873817492156
 31
0.0
  0
LINE
  5
F8
  8
STANDARD
 10
9.82238825515274
 20
18.31873817492156
 30
0.0
 11
10.18932868957224
 21
18.89943702891363
 31
0.0
  0
LINE
  5
F9
  8
STANDARD
 10
10.18932868957224
 20
18.89943702891363
 30
0.0
 11
10.53167827481018
 21
19.48920329051932
 31
0.0
  0
LINE
  5
FA
  8
STANDARD
 10
10.53167827481018
 20
19.48920329051932
 30
0.0
 11
10.85028271559729
 21
20.08753925643465
 31
0.0
  0
LINE
  5
FB
  8
STANDARD
 10
10.85028271559729
 20
20.08753925643465
 30
0.0
 11
11.14598771666428
 21
20.6939472233556
 31
0.0
  0
LINE
  5
FC
  8
STANDARD
 10
11.14598771666428
 20
20.6939472233556
 30
0.0
 11
11.41963898274189
 21
21.30792948797822
 31
0.0
  0
LINE
  5
FD
  8
STANDARD
 10
11.41963898274189
 20
21.30792948797822
 30
0.0
 11
11.67208221856084
 21
21.92898834699851
 31
0.0
  0
LINE
  5
FE
  8
STANDARD
 10
11.67208221856084
 20
21.92898834699851
 30
0.0
 11
11.90416312885186
 21
22.55662609711247
 31
0.0
  0
LINE
  5
FF
  8
STANDARD
 10
11.90416312885186
 20
22.55662609711247
 30
0.0
 11
12.11672741834567
 21
23.19034503501612
 31
0.0
  0
LINE
  5
100
  8
STANDARD
 10
12.11672741834567
 20
23.19034503501612
 30
0.0
 11
12.310620791773
 21
23.82964745740546
 31
0.0
  0
LINE
  5
101
  8
STANDARD
 10
12.310620791773
 20
23.82964745740546
 30
0.0
 11
12.48668895386458
 21
24.47403566097652
 31
0.0
  0
LINE
  5
102
  8
STANDARD
 10
12.48668895386458
 20
24.47403566097652
 30
0.0
 11
12.64577760935112
 21
25.12301194242529
 31
0.0
  0
LINE
  5
103
  8
STANDARD
 10
12.64577760935112
 20
25.12301194242529
 30
0.0
 11
12.78873246296336
 21
25.77607859844779
 31
0.0
  0
LINE
  5
104
  8
STANDARD
 10
12.78873246296336
 20
25.77607859844779
 30
0.0
 11
12.91639921943203
 21
26.43273792574004
 31
0.0
  0
LINE
  5
105
  8
STANDARD
 10
12.91639921943203
 20
26.43273792574004
 30
0.0
 11
13.02962358348784
 21
27.09249222099804
 31
0.0
  0
LINE
  5
106
  8
STANDARD
 10
13.02962358348784
 20
27.09249222099804
 30
0.0
 11
13.12925125986153
 21
27.75484378091781
 31
0.0
  0
LINE
  5
107
  8
STANDARD
 10
13.12925125986153
 20
27.75484378091781
 30
0.0
 11
13.21612795328381
 21
28.41929490219534
 31
0.0
  0
LINE
  5
108
  8
STANDARD
 10
13.21612795328381
 20
28.41929490219534
 30
0.0
 11
13.29109936848543
 21
29.08534788152667
 31
0.0
  0
LINE
  5
109
  8
STANDARD
 10
13.29109936848543
 20
29.08534788152667
 30
0.0
 11
13.35501121019709
 21
29.75250501560779
 31
0.0
  0
LINE
  5
10A
  8
STANDARD
 10
13.35501121019709
 20
29.75250501560779
 30
0.0
 11
13.40870918314953
 21
30.42026860113472
 31
0.0
  0
LINE
  5
10B
  8
STANDARD
 10
13.40870918314953
 20
30.42026860113472
 30
0.0
 11
13.45303899207348
 21
31.08814093480347
 31
0.0
  0
LINE
  5
10C
  8
STANDARD
 10
13.45303899207348
 20
31.08814093480347
 30
0.0
 11
13.48884634169965
 21
31.75562431331003
 31
0.0
  0
LINE
  5
10D
  8
STANDARD
 10
13.48884634169965
 20
31.75562431331003
 30
0.0
 11
13.51697053873417
 21
32.42224640559326
 31
0.0
  0
LINE
  5
10E
  8
STANDARD
 10
13.51697053873417
 20
32.42224640559326
 30
0.0
 11
13.53816682209316
 21
33.08786826292687
 31
0.0
  0
LINE
  5
10F
  8
STANDARD
 10
13.53816682209316
 20
33.08786826292687
 30
0.0
 11
13.5531312064221
 21
33.75258579854093
 31
0.0
  0
LINE
  5
110
  8
STANDARD
 10
13.5531312064221
 20
33.75258579854093
 30
0.0
 11
13.56255846895999
 21
34.41649983277039
 31
0.0
  0
LINE
  5
111
  8
STANDARD
 10
13.56255846895999
 20
34.41649983277039
 30
0.0
 11
13.56714338694583
 21
35.07971118595017
 31
0.0
  0
LINE
  5
112
  8
STANDARD
 10
13.56714338694583
 20
35.07971118595017
 30
0.0
 11
13.56758073761861
 21
35.7423206784152
 31
0.0
  0
LINE
  5
113
  8
STANDARD
 10
13.56758073761861
 20
35.7423206784152
 30
0.0
 11
13.56456529821736
 21
36.40442913050042
 31
0.0
  0
LINE
  5
114
  8
STANDARD
 10
13.56456529821736
 20
36.40442913050042
 30
0.0
 11
13.55879184598106
 21
37.06613736254076
 31
0.0
  0
LINE
  5
115
  8
STANDARD
 10
13.55879184598106
 20
37.06613736254076
 30
0.0
 11
13.55095515814872
 21
37.72754619487115
 31
0.0
  0
LINE
  5
116
  8
STANDARD
 10
13.55095515814872
 20
37.72754619487115
 30
0.0
 11
13.54175001195934
 21
38.38875644782652
 31
0.0
  0
LINE
  5
117
  8
STANDARD
 10
13.54175001195934
 20
38.38875644782652
 30
0.0
 11
13.53187118465192
 21
39.04986894174181
 31
0.0
  0
LINE
  5
118
  8
STANDARD
 10
13.53187118465192
 20
39.04986894174181
 30
0.0
 11
13.52201345346548
 21
39.71098449695195
 31
0.0
  0
LINE
  5
119
  8
STANDARD
 10
13.52201345346548
 20
39.71098449695195
 30
0.0
 11
13.512871595639
 21
40.37220393379185
 31
0.0
  0
LINE
  5
11A
  8
STANDARD
 10
13.512871595639
 20
40.37220393379185
 30
0.0
 11
13.50514038841149
 21
41.03362807259647
 31
0.0
  0
LINE
  5
11B
  8
STANDARD
 10
13.50514038841149
 20
41.03362807259647
 30
0.0
 11
13.49951435063904
 21
41.69535769620635
 31
0.0
  0
LINE
  5
11C
  8
STANDARD
 10
13.49951435063904
 20
41.69535769620635
 30
0.0
 11
13.49641052211318
 21
42.3574533219918
 31
0.0
  0
LINE
  5
11D
  8
STANDARD
 10
13.49641052211318
 20
42.3574533219918
 30
0.0
 11
13.49544066585268
 21
43.01985861220843
 31
0.0
  0
LINE
  5
11E
  8
STANDARD
 10
13.49544066585268
 20
43.01985861220843
 30
0.0
 11
13.49607128879122
 21
43.6824961507485
 31
0.0
  0
LINE
  5
11F
  8
STANDARD
 10
13.49607128879122
 20
43.6824961507485
 30
0.0
 11
13.49776889786244
 21
44.34528852150414
 31
0.0
  0
LINE
  5
120
  8
STANDARD
 10
13.49776889786244
 20
44.34528852150414
 30
0.0
 11
13.5
 21
45.00815830836756
 31
0.0
  0
LINE
  5
121
  8
STANDARD
 10
13.5
 20
45.00815830836756
 30
0.0
 11
13.5
 21
53.5
 31
0.0
  0
LINE
  5
122
  8
STANDARD
 10
13.5
 20
53.5
 30
0.0
 11
3.5
 21
53.50000000000001
 31
0.0
  0
LINE
  5
123
  8
STANDARD
 10
3.5
 20
53.50000000000001
 30
0.0
 11
3.499999999999999
 21
56.00000000000001
 31
0.0
  0
ARC
  5
124
  8
STANDARD
 10
5.499999999999998
 20
56.00000000000001
 30
0.0
 40
2.0
 50
89.99999999999994
 51
180.0
  0
LINE
  5
125
  8
STANDARD
 10
5.5
 20
58.00000000000001
 30
0.0
 11
6.499999999999998
 21
58.00000000000001
 31
0.0
  0
LINE
  5
126
  8
STANDARD
 10
6.499999999999998
 20
58.00000000000001
 30
0.0
 11
6.5
 21
59.99999999999999
 31
0.0
  0
ARC
  5
127
  8
STANDARD
 10
8.5
 20
59.99999999999999
 30
0.0
 40
2.0
 50
90.0
 51
180.0
  0
LINE
  5
128
  8
STANDARD
 10
8.5
 20
61.99999999999999
 30
0.0
 11
13.5
 21
62.0
 31
0.0
  0
LINE
  5
129
  8
STANDARD
 10
13.5
 20
62.0
 30
0.0
 11
13.5
 21
67.5
 31
0.0
  0
LINE
  5
12A
  8
STANDARD
 10
13.5
 20
67.5
 30
0.0
 11
14.01508461419651
 21
68.17578608254668
 31
0.0
  0
LINE
  5
12B
  8
STANDARD
 10
14.01508461419651
 20
68.17578608254668
 30
0.0
 11
14.46542434440832
 21
68.86859309037114
 31
0.0
  0
LINE
  5
12C
  8
STANDARD
 10
14.46542434440832
 20
68.86859309037114
 30
0.0
 11
14.79573072687496
 21
69.59287405886869
 31
0.0
  0
LINE
  5
12D
  8
STANDARD
 10
14.79573072687496
 20
69.59287405886869
 30
0.0
 11
15.00010624465146
 21
70.34966991720366
 31
0.0
  0
LINE
  5
12E
  8
STANDARD
 10
15.00010624465146
 20
70.34966991720366
 30
0.0
 11
15.08872559042935
 21
71.13565718776316
 31
0.0
  0
LINE
  5
12F
  8
STANDARD
 10
15.08872559042935
 20
71.13565718776316
 30
0.0
 11
15.07177212074513
 21
71.94751004026817
 31
0.0
  0
LINE
  5
130
  8
STANDARD
 10
15.07177212074513
 20
71.94751004026817
 30
0.0
 11
14.95942919213534
 21
72.78190264443967
 31
0.0
  0
LINE
  5
131
  8
STANDARD
 10
14.95942919213534
 20
72.78190264443967
 30
0.0
 11
14.76188016113648
 21
73.63550916999868
 31
0.0
  0
LINE
  5
132
  8
STANDARD
 10
14.76188016113648
 20
73.63550916999868
 30
0.0
 11
14.48930838428509
 21
74.50500378666617
 31
0.0
  0
LINE
  5
133
  8
STANDARD
 10
14.48930838428509
 20
74.50500378666617
 30
0.0
 11
14.15189721811767
 21
75.38706066416306
 31
0.0
  0
LINE
  5
134
  8
STANDARD
 10
14.15189721811767
 20
75.38706066416306
 30
0.0
 11
13.75983001917076
 21
76.27835397221041
 31
0.0
  0
LINE
  5
135
  8
STANDARD
 10
13.75983001917076
 20
76.27835397221041
 30
0.0
 11
13.32329014398085
 21
77.17555788052913
 31
0.0
  0
LINE
  5
136
  8
STANDARD
 10
13.32329014398085
 20
77.17555788052913
 30
0.0
 11
12.85246094908449
 21
78.07534655884022
 31
0.0
  0
LINE
  5
137
  8
STANDARD
 10
12.85246094908449
 20
78.07534655884022
 30
0.0
 11
12.35752579101817
 21
78.9743941768647
 31
0.0
  0
LINE
  5
138
  8
STANDARD
 10
12.35752579101817
 20
78.9743941768647
 30
0.0
 11
11.84866802631843
 21
79.8693749043235
 31
0.0
  0
LINE
  5
139
  8
STANDARD
 10
11.84866802631843
 20
79.8693749043235
 30
0.0
 11
11.33607101152179
 21
80.75696291093762
 31
0.0
  0
LINE
  5
13A
  8
STANDARD
 10
11.33607101152179
 20
80.75696291093762
 30
0.0
 11
10.82991810316475
 21
81.63383236642805
 31
0.0
  0
LINE
  5
13B
  8
STANDARD
 10
10.82991810316475
 20
81.63383236642805
 30
0.0
 11
10.34039265778385
 21
82.49665744051572
 31
0.0
  0
LINE
  5
13C
  8
STANDARD
 10
10.34039265778385
 20
82.49665744051572
 30
0.0
 11
9.877678031915597
 21
83.34211230292166
 31
0.0
  0
LINE
  5
13D
  8
STANDARD
 10
9.877678031915597
 20
83.34211230292166
 30
0.0
 11
9.451957582096512
 21
84.16687112336686
 31
0.0
  0
LINE
  5
13E
  8
STANDARD
 10
9.451957582096512
 20
84.16687112336686
 30
0.0
 11
9.073414664863119
 21
84.96760807157224
 31
0.0
  0
LINE
  5
13F
  8
STANDARD
 10
9.073414664863119
 20
84.96760807157224
 30
0.0
 11
8.75223263675193
 21
85.74099731725883
 31
0.0
  0
LINE
  5
140
  8
STANDARD
 10
8.75223263675193
 20
85.74099731725883
 30
0.0
 11
8.49859485429947
 21
86.48371303014761
 31
0.0
  0
LINE
  5
141
  8
STANDARD
 10
8.49859485429947
 20
86.48371303014761
 30
0.0
 11
8.322684674042252
 21
87.19242937995952
 31
0.0
  0
LINE
  5
142
  8
STANDARD
 10
8.322684674042252
 20
87.19242937995952
 30
0.0
 11
8.234685452516802
 21
87.86382053641557
 31
0.0
  0
LINE
  5
143
  8
STANDARD
 10
8.234685452516802
 20
87.86382053641557
 30
0.0
 11
8.244780546259634
 21
88.49456066923672
 31
0.0
  0
LINE
  5
144
  8
STANDARD
 10
8.244780546259634
 20
88.49456066923672
 30
0.0
 11
8.363153311807265
 21
89.08132394814396
 31
0.0
  0
LINE
  5
145
  8
STANDARD
 10
8.363153311807265
 20
89.08132394814396
 30
0.0
 11
8.599827028937307
 21
89.62084232007346
 31
0.0
  0
LINE
  5
146
  8
STANDARD
 10
8.599827028937307
 20
89.62084232007346
 30
0.0
 11
8.956925489082161
 21
90.11269892935528
 31
0.0
  0
LINE
  5
147
  8
STANDARD
 10
8.956925489082161
 20
90.11269892935528
 30
0.0
 11
9.425219415516676
 21
90.56057463360544
 31
0.0
  0
LINE
  5
148
  8
STANDARD
 10
9.425219415516676
 20
90.56057463360544
 30
0.0
 11
9.994600129487253
 21
90.9684676969178
 31
0.0
  0
LINE
  5
149
  8
STANDARD
 10
9.994600129487253
 20
90.9684676969178
 30
0.0
 11
10.65495895224027
 21
91.34037638338607
 31
0.0
  0
LINE
  5
14A
  8
STANDARD
 10
10.65495895224027
 20
91.34037638338607
 30
0.0
 11
11.39618720502214
 21
91.68029895710404
 31
0.0
  0
LINE
  5
14B
  8
STANDARD
 10
11.39618720502214
 20
91.68029895710404
 30
0.0
 11
12.20817620907924
 21
91.99223368216553
 31
0.0
  0
LINE
  5
14C
  8
STANDARD
 10
12.20817620907924
 20
91.99223368216553
 30
0.0
 11
13.08081728565798
 21
92.28017882266428
 31
0.0
  0
LINE
  5
14D
  8
STANDARD
 10
13.08081728565798
 20
92.28017882266428
 30
0.0
 11
14.00400175600475
 21
92.54813264269414
 31
0.0
  0
LINE
  5
14E
  8
STANDARD
 10
14.00400175600475
 20
92.54813264269414
 30
0.0
 11
14.96762094136594
 21
92.80009340634886
 31
0.0
  0
LINE
  5
14F
  8
STANDARD
 10
14.96762094136594
 20
92.80009340634886
 30
0.0
 11
15.96156616298794
 21
93.0400593777222
 31
0.0
  0
LINE
  5
150
  8
STANDARD
 10
15.96156616298794
 20
93.0400593777222
 30
0.0
 11
16.97572874211716
 21
93.27202882090799
 31
0.0
  0
LINE
  5
151
  8
STANDARD
 10
16.97572874211716
 20
93.27202882090799
 30
0.0
 11
18.0
 21
93.5
 31
0.0
  0
LINE
  5
152
  8
STANDARD
 10
18.0
 20
93.5
 30
0.0
 11
21.0
 21
93.5
 31
0.0
  0
LINE
  5
153
  8
STANDARD
 10
21.0
 20
93.5
 30
0.0
 11
21.0
 21
101.5
 31
0.0
  0
LINE
  5
154
  8
STANDARD
 10
21.0
 20
101.5
 30
0.0
 11
15.5
 21
101.5
 31
0.0
  0
LINE
  5
155
  8
STANDARD
 10
15.5
 20
101.5
 30
0.0
 11
15.5
 21
105.0
 31
0.0
  0
LINE
  5
156
  8
STANDARD
 10
15.5
 20
105.0
 30
0.0
 11
21.0
 21
105.0
 31
0.0
  0
LINE
  5
157
  8
STANDARD
 10
21.0
 20
105.0
 30
0.0
 11
21.0
 21
115.0
 31
0.0
  0
LINE
  5
158
  8
STANDARD
 10
21.0
 20
115.0
 30
0.0
 11
24.99353461632636
 21
115.0
 31
0.0
  0
LINE
  5
159
  8
STANDARD
 10
84.0
 20
0.0
 30
0.0
 11
62.5
 21
0.0
 31
0.0
  0
LINE
  5
15A
  8
STANDARD
 10
62.5
 20
0.0
 30
0.0
 11
62.5
 21
7.999999999999999
 31
0.0
  0
ARC
  5
15B
  8
STANDARD
 10
64.5
 20
7.999999999999999
 30
0.0
 40
2.000000000000001
 50
90.0
 51
180.0
  0
LINE
  5
15C
  8
STANDARD
 10
64.5
 20
10.0
 30
0.0
 11
68.5
 21
10.0
 31
0.0
  0
LINE
  5
15D
  8
STANDARD
 10
68.5
 20
10.0
 30
0.0
 11
68.1070346891517
 21
10.63832203560388
 31
0.0
  0
LINE
  5
15E
  8
STANDARD
 10
68.1070346891517
 20
10.63832203560388
 30
0.0
 11
67.77087584583867
 21
11.26768682677387
 31
0.0
  0
LINE
  5
15F
  8
STANDARD
 10
67.77087584583867
 20
11.26768682677387
 30
0.0
 11
67.5483299375962
 21
11.87913712907612
 31
0.0
  0
LINE
  5
160
  8
STANDARD
 10
67.5483299375962
 20
11.87913712907612
 30
0.0
 11
67.49620343195951
 21
12.46371569807674
 31
0.0
  0
LINE
  5
161
  8
STANDARD
 10
67.49620343195951
 20
12.46371569807674
 30
0.0
 11
67.65614371245408
 21
13.01507557240911
 31
0.0
  0
LINE
  5
162
  8
STANDARD
 10
67.65614371245408
 20
13.01507557240911
 30
0.0
 11
67.99629507904908
 21
13.53952648251419
 31
0.0
  0
LINE
  5
163
  8
STANDARD
 10
67.99629507904908
 20
13.53952648251419
 30
0.0
 11
68.46255471081312
 21
14.04720894985858
 31
0.0
  0
LINE
  5
164
  8
STANDARD
 10
68.46255471081312
 20
14.04720894985858
 30
0.0
 11
69.00081494249758
 21
14.54826433006479
 31
0.0
  0
LINE
  5
165
  8
STANDARD
 10
69.00081494249758
 20
14.54826433006479
 30
0.0
 11
69.55697835090227
 21
15.05283199587859
 31
0.0
  0
LINE
  5
166
  8
STANDARD
 10
69.55697835090227
 20
15.05283199587859
 30
0.0
 11
70.08922367975639
 21
15.56867463480516
 31
0.0
  0
LINE
  5
167
  8
STANDARD
 10
70.08922367975639
 20
15.56867463480516
 30
0.0
 11
70.59180393104458
 21
16.09657090116928
 31
0.0
  0
LINE
  5
168
  8
STANDARD
 10
70.59180393104458
 20
16.09657090116928
 30
0.0
 11
71.0655648094976
 21
16.63602309166697
 31
0.0
  0
LINE
  5
169
  8
STANDARD
 10
71.0655648094976
 20
16.63602309166697
 30
0.0
 11
71.51135201984614
 21
17.18653350299425
 31
0.0
  0
LINE
  5
16A
  8
STANDARD
 10
71.51135201984614
 20
17.18653350299425
 30
0.0
 11
71.93001126682094
 21
17.7476044318471
 31
0.0
  0
LINE
  5
16B
  8
STANDARD
 10
71.93001126682094
 20
17.7476044318471
 30
0.0
 11
72.32238825515275
 21
18.31873817492156
 31
0.0
  0
LINE
  5
16C
  8
STANDARD
 10
72.32238825515275
 20
18.31873817492156
 30
0.0
 11
72.68932868957224
 21
18.89943702891363
 31
0.0
  0
LINE
  5
16D
  8
STANDARD
 10
72.68932868957224
 20
18.89943702891363
 30
0.0
 11
73.03167827481018
 21
19.48920329051932
 31
0.0
  0
LINE
  5
16E
  8
STANDARD
 10
73.03167827481018
 20
19.48920329051932
 30
0.0
 11
73.35028271559729
 21
20.08753925643465
 31
0.0
  0
LINE
  5
16F
  8
STANDARD
 10
73.35028271559729
 20
20.08753925643465
 30
0.0
 11
73.64598771666428
 21
20.6939472233556
 31
0.0
  0
LINE
  5
170
  8
STANDARD
 10
73.64598771666428
 20
20.6939472233556
 30
0.0
 11
73.91963898274189
 21
21.30792948797822
 31
0.0
  0
LINE
  5
171
  8
STANDARD
 10
73.91963898274189
 20
21.30792948797822
 30
0.0
 11
74.17208221856085
 21
21.92898834699851
 31
0.0
  0
LINE
  5
172
  8
STANDARD
 10
74.17208221856085
 20
21.92898834699851
 30
0.0
 11
74.40416312885186
 21
22.55662609711247
 31
0.0
  0
LINE
  5
173
  8
STANDARD
 10
74.40416312885186
 20
22.55662609711247
 30
0.0
 11
74.61672741834568
 21
23.19034503501612
 31
0.0
  0
LINE
  5
174
  8
STANDARD
 10
74.61672741834568
 20
23.19034503501612
 30
0.0
 11
74.810620791773
 21
23.82964745740546
 31
0.0
  0
LINE
  5
175
  8
STANDARD
 10
74.810620791773
 20
23.82964745740546
 30
0.0
 11
74.98668895386459
 21
24.47403566097652
 31
0.0
  0
LINE
  5
176
  8
STANDARD
 10
74.98668895386459
 20
24.47403566097652
 30
0.0
 11
75.14577760935111
 21
25.12301194242529
 31
0.0
  0
LINE
  5
177
  8
STANDARD
 10
75.14577760935111
 20
25.12301194242529
 30
0.0
 11
75.28873246296337
 21
25.77607859844779
 31
0.0
  0
LINE
  5
178
  8
STANDARD
 10
75.28873246296337
 20
25.77607859844779
 30
0.0
 11
75.41639921943204
 21
26.43273792574004
 31
0.0
  0
LINE
  5
179
  8
STANDARD
 10
75.41639921943204
 20
26.43273792574004
 30
0.0
 11
75.52962358348785
 21
27.09249222099804
 31
0.0
  0
LINE
  5
17A
  8
STANDARD
 10
75.52962358348785
 20
27.09249222099804
 30
0.0
 11
75.62925125986153
 21
27.75484378091781
 31
0.0
  0
LINE
  5
17B
  8
STANDARD
 10
75.62925125986153
 20
27.75484378091781
 30
0.0
 11
75.7161279532838
 21
28.41929490219534
 31
0.0
  0
LINE
  5
17C
  8
STANDARD
 10
75.7161279532838
 20
28.41929490219534
 30
0.0
 11
75.79109936848543
 21
29.08534788152667
 31
0.0
  0
LINE
  5
17D
  8
STANDARD
 10
75.79109936848543
 20
29.08534788152667
 30
0.0
 11
75.85501121019709
 21
29.75250501560779
 31
0.0
  0
LINE
  5
17E
  8
STANDARD
 10
75.85501121019709
 20
29.75250501560779
 30
0.0
 11
75.90870918314953
 21
30.42026860113472
 31
0.0
  0
LINE
  5
17F
  8
STANDARD
 10
75.90870918314953
 20
30.42026860113472
 30
0.0
 11
75.95303899207349
 21
31.08814093480347
 31
0.0
  0
LINE
  5
180
  8
STANDARD
 10
75.95303899207349
 20
31.08814093480347
 30
0.0
 11
75.98884634169966
 21
31.75562431331003
 31
0.0
  0
LINE
  5
181
  8
STANDARD
 10
75.98884634169966
 20
31.75562431331003
 30
0.0
 11
76.01697053873417
 21
32.42224640559326
 31
0.0
  0
LINE
  5
182
  8
STANDARD
 10
76.01697053873417
 20
32.42224640559326
 30
0.0
 11
76.03816682209316
 21
33.08786826292687
 31
0.0
  0
LINE
  5
183
  8
STANDARD
 10
76.03816682209316
 20
33.08786826292687
 30
0.0
 11
76.0531312064221
 21
33.75258579854093
 31
0.0
  0
LINE
  5
184
  8
STANDARD
 10
76.0531312064221
 20
33.75258579854093
 30
0.0
 11
76.06255846895999
 21
34.41649983277039
 31
0.0
  0
LINE
  5
185
  8
STANDARD
 10
76.06255846895999
 20
34.41649983277039
 30
0.0
 11
76.06714338694583
 21
35.07971118595017
 31
0.0
  0
LINE
  5
186
  8
STANDARD
 10
76.06714338694583
 20
35.07971118595017
 30
0.0
 11
76.06758073761861
 21
35.7423206784152
 31
0.0
  0
LINE
  5
187
  8
STANDARD
 10
76.06758073761861
 20
35.7423206784152
 30
0.0
 11
76.06456529821736
 21
36.40442913050042
 31
0.0
  0
LINE
  5
188
  8
STANDARD
 10
76.06456529821736
 20
36.40442913050042
 30
0.0
 11
76.05879184598106
 21
37.06613736254076
 31
0.0
  0
LINE
  5
189
  8
STANDARD
 10
76.05879184598106
 20
37.06613736254076
 30
0.0
 11
76.05095515814872
 21
37.72754619487115
 31
0.0
  0
LINE
  5
18A
  8
STANDARD
 10
76.05095515814872
 20
37.72754619487115
 30
0.0
 11
76.04175001195934
 21
38.38875644782652
 31
0.0
  0
LINE
  5
18B
  8
STANDARD
 10
76.04175001195934
 20
38.38875644782652
 30
0.0
 11
76.03187118465192
 21
39.04986894174181
 31
0.0
  0
LINE
  5
18C
  8
STANDARD
 10
76.03187118465192
 20
39.04986894174181
 30
0.0
 11
76.02201345346548
 21
39.71098449695195
 31
0.0
  0
LINE
  5
18D
  8
STANDARD
 10
76.02201345346548
 20
39.71098449695195
 30
0.0
 11
76.012871595639
 21
40.37220393379185
 31
0.0
  0
LINE
  5
18E
  8
STANDARD
 10
76.012871595639
 20
40.37220393379185
 30
0.0
 11
76.00514038841149
 21
41.03362807259647
 31
0.0
  0
LINE
  5
18F
  8
STANDARD
 10
76.00514038841149
 20
41.03362807259647
 30
0.0
 11
75.99951435063903
 21
41.69535769620635
 31
0.0
  0
LINE
  5
190
  8
STANDARD
 10
75.99951435063903
 20
41.69535769620635
 30
0.0
 11
75.99641052211318
 21
42.3574533219918
 31
0.0
  0
LINE
  5
191
  8
STANDARD
 10
75.99641052211318
 20
42.3574533219918
 30
0.0
 11
75.99544066585268
 21
43.01985861220843
 31
0.0
  0
LINE
  5
192
  8
STANDARD
 10
75.99544066585268
 20
43.01985861220843
 30
0.0
 11
75.99607128879123
 21
43.6824961507485
 31
0.0
  0
LINE
  5
193
  8
STANDARD
 10
75.99607128879123
 20
43.6824961507485
 30
0.0
 11
75.99776889786244
 21
44.34528852150414
 31
0.0
  0
LINE
  5
194
  8
STANDARD
 10
75.99776889786244
 20
44.34528852150414
 30
0.0
 11
76.0
 21
45.00815830836756
 31
0.0
  0
LINE
  5
195
  8
STANDARD
 10
76.0
 20
45.00815830836756
 30
0.0
 11
76.0
 21
53.5
 31
0.0
  0
LINE
  5
196
  8
STANDARD
 10
76.0
 20
53.5
 30
0.0
 11
66.0
 21
53.50000000000001
 31
0.0
  0
LINE
  5
197
  8
STANDARD
 10
66.0
 20
53.50000000000001
 30
0.0
 11
66.0
 21
56.00000000000001
 31
0.0
  0
ARC
  5
198
  8
STANDARD
 10
68.0
 20
56.00000000000001
 30
0.0
 40
1.999999999999999
 50
90.0
 51
180.0
  0
LINE
  5
199
  8
STANDARD
 10
68.0
 20
58.00000000000001
 30
0.0
 11
69.0
 21
58.00000000000001
 31
0.0
  0
LINE
  5
19A
  8
STANDARD
 10
69.0
 20
58.00000000000001
 30
0.0
 11
69.0
 21
59.99999999999999
 31
0.0
  0
ARC
  5
19B
  8
STANDARD
 10
71.0
 20
59.99999999999999
 30
0.0
 40
2.0
 50
90.0
 51
180.0
  0
LINE
  5
19C
  8
STANDARD
 10
71.0
 20
61.99999999999999
 30
0.0
 11
76.0
 21
62.0
 31
0.0
  0
LINE
  5
19D
  8
STANDARD
 10
76.0
 20
62.0
 30
0.0
 11
76.0
 21
67.5
 31
0.0
  0
LINE
  5
19E
  8
STANDARD
 10
76.0
 20
67.5
 30
0.0
 11
76.51508461419652
 21
68.17578608254668
 31
0.0
  0
LINE
  5
19F
  8
STANDARD
 10
76.51508461419652
 20
68.17578608254668
 30
0.0
 11
76.96542434440832
 21
68.86859309037114
 31
0.0
  0
LINE
  5
1A0
  8
STANDARD
 10
76.96542434440832
 20
68.86859309037114
 30
0.0
 11
77.29573072687496
 21
69.59287405886869
 31
0.0
  0
LINE
  5
1A1
  8
STANDARD
 10
77.29573072687496
 20
69.59287405886869
 30
0.0
 11
77.50010624465146
 21
70.34966991720366
 31
0.0
  0
LINE
  5
1A2
  8
STANDARD
 10
77.50010624465146
 20
70.34966991720366
 30
0.0
 11
77.58872559042936
 21
71.13565718776316
 31
0.0
  0
LINE
  5
1A3
  8
STANDARD
 10
77.58872559042936
 20
71.13565718776316
 30
0.0
 11
77.57177212074515
 21
71.94751004026817
 31
0.0
  0
LINE
  5
1A4
  8
STANDARD
 10
77.57177212074515
 20
71.94751004026817
 30
0.0
 11
77.45942919213533
 21
72.78190264443967
 31
0.0
  0
LINE
  5
1A5
  8
STANDARD
 10
77.45942919213533
 20
72.78190264443967
 30
0.0
 11
77.26188016113649
 21
73.63550916999868
 31
0.0
  0
LINE
  5
1A6
  8
STANDARD
 10
77.26188016113649
 20
73.63550916999868
 30
0.0
 11
76.98930838428512
 21
74.50500378666617
 31
0.0
  0
LINE
  5
1A7
  8
STANDARD
 10
76.98930838428512
 20
74.50500378666617
 30
0.0
 11
76.6518972181177
 21
75.38706066416306
 31
0.0
  0
LINE
  5
1A8
  8
STANDARD
 10
76.6518972181177
 20
75.38706066416306
 30
0.0
 11
76.25983001917079
 21
76.27835397221041
 31
0.0
  0
LINE
  5
1A9
  8
STANDARD
 10
76.25983001917079
 20
76.27835397221041
 30
0.0
 11
75.82329014398087
 21
77.17555788052913
 31
0.0
  0
LINE
  5
1AA
  8
STANDARD
 10
75.82329014398087
 20
77.17555788052913
 30
0.0
 11
75.3524609490845
 21
78.07534655884022
 31
0.0
  0
LINE
  5
1AB
  8
STANDARD
 10
75.3524609490845
 20
78.07534655884022
 30
0.0
 11
74.8575257910182
 21
78.9743941768647
 31
0.0
  0
LINE
  5
1AC
  8
STANDARD
 10
74.8575257910182
 20
78.9743941768647
 30
0.0
 11
74.34866802631845
 21
79.8693749043235
 31
0.0
  0
LINE
  5
1AD
  8
STANDARD
 10
74.34866802631845
 20
79.8693749043235
 30
0.0
 11
73.83607101152181
 21
80.75696291093762
 31
0.0
  0
LINE
  5
1AE
  8
STANDARD
 10
73.83607101152181
 20
80.75696291093762
 30
0.0
 11
73.32991810316477
 21
81.63383236642805
 31
0.0
  0
LINE
  5
1AF
  8
STANDARD
 10
73.32991810316477
 20
81.63383236642805
 30
0.0
 11
72.84039265778387
 21
82.49665744051572
 31
0.0
  0
LINE
  5
1B0
  8
STANDARD
 10
72.84039265778387
 20
82.49665744051572
 30
0.0
 11
72.37767803191561
 21
83.34211230292166
 31
0.0
  0
LINE
  5
1B1
  8
STANDARD
 10
72.37767803191561
 20
83.34211230292166
 30
0.0
 11
71.95195758209653
 21
84.16687112336686
 31
0.0
  0
LINE
  5
1B2
  8
STANDARD
 10
71.95195758209653
 20
84.16687112336686
 30
0.0
 11
71.57341466486312
 21
84.96760807157224
 31
0.0
  0
LINE
  5
1B3
  8
STANDARD
 10
71.57341466486312
 20
84.96760807157224
 30
0.0
 11
71.25223263675193
 21
85.74099731725883
 31
0.0
  0
LINE
  5
1B4
  8
STANDARD
 10
71.25223263675193
 20
85.74099731725883
 30
0.0
 11
70.99859485429948
 21
86.48371303014761
 31
0.0
  0
LINE
  5
1B5
  8
STANDARD
 10
70.99859485429948
 20
86.48371303014761
 30
0.0
 11
70.82268467404226
 21
87.19242937995952
 31
0.0
  0
LINE
  5
1B6
  8
STANDARD
 10
70.82268467404226
 20
87.19242937995952
 30
0.0
 11
70.73468545251681
 21
87.86382053641557
 31
0.0
  0
LINE
  5
1B7
  8
STANDARD
 10
70.73468545251681
 20
87.86382053641557
 30
0.0
 11
70.74478054625965
 21
88.49456066923672
 31
0.0
  0
LINE
  5
1B8
  8
STANDARD
 10
70.74478054625965
 20
88.49456066923672
 30
0.0
 11
70.86315331180727
 21
89.08132394814396
 31
0.0
  0
LINE
  5
1B9
  8
STANDARD
 10
70.86315331180727
 20
89.08132394814396
 30
0.0
 11
71.09982702893731
 21
89.62084232007346
 31
0.0
  0
LINE
  5
1BA
  8
STANDARD
 10
71.09982702893731
 20
89.62084232007346
 30
0.0
 11
71.45692548908215
 21
90.11269892935528
 31
0.0
  0
LINE
  5
1BB
  8
STANDARD
 10
71.45692548908215
 20
90.11269892935528
 30
0.0
 11
71.92521941551668
 21
90.56057463360544
 31
0.0
  0
LINE
  5
1BC
  8
STANDARD
 10
71.92521941551668
 20
90.56057463360544
 30
0.0
 11
72.49460012948725
 21
90.9684676969178
 31
0.0
  0
LINE
  5
1BD
  8
STANDARD
 10
72.49460012948725
 20
90.9684676969178
 30
0.0
 11
73.15495895224028
 21
91.34037638338607
 31
0.0
  0
LINE
  5
1BE
  8
STANDARD
 10
73.15495895224028
 20
91.34037638338607
 30
0.0
 11
73.89618720502213
 21
91.68029895710404
 31
0.0
  0
LINE
  5
1BF
  8
STANDARD
 10
73.89618720502213
 20
91.68029895710404
 30
0.0
 11
74.70817620907924
 21
91.99223368216553
 31
0.0
  0
LINE
  5
1C0
  8
STANDARD
 10
74.70817620907924
 20
91.99223368216553
 30
0.0
 11
75.58081728565797
 21
92.28017882266428
 31
0.0
  0
LINE
  5
1C1
  8
STANDARD
 10
75.58081728565797
 20
92.28017882266428
 30
0.0
 11
76.50400175600473
 21
92.54813264269414
 31
0.0
  0
LINE
  5
1C2
  8
STANDARD
 10
76.50400175600473
 20
92.54813264269414
 30
0.0
 11
77.46762094136594
 21
92.80009340634886
 31
0.0
  0
LINE
  5
1C3
  8
STANDARD
 10
77.46762094136594
 20
92.80009340634886
 30
0.0
 11
78.46156616298794
 21
93.0400593777222
 31
0.0
  0
LINE
  5
1C4
  8
STANDARD
 10
78.46156616298794
 20
93.0400593777222
 30
0.0
 11
79.47572874211716
 21
93.27202882090799
 31
0.0
  0
LINE
  5
1C5
  8
STANDARD
 10
79.47572874211716
 20
93.27202882090799
 30
0.0
 11
80.5
 21
93.5
 31
0.0
  0
LINE
  5
1C6
  8
STANDARD
 10
80.5
 20
93.5
 30
0.0
 11
84.0
 21
93.5
 31
0.0
  0
LINE
  5
1C7
  8
STANDARD
 10
84.0
 20
93.5
 30
0.0
 11
84.0
 21
46.0
 31
0.0
  0
LINE
  5
1C8
  8
STANDARD
 10
84.0
 20
46.0
 30
0.0
 11
87.0
 21
46.0
 31
0.0
  0
LINE
  5
1C9
  8
STANDARD
 10
87.0
 20
46.0
 30
0.0
 11
87.0
 21
93.5
 31
0.0
  0
LINE
  5
1CA
  8
STANDARD
 10
87.0
 20
93.5
 30
0.0
 11
90.5
 21
93.5
 31
0.0
  0
LINE
  5
1CB
  8
STANDARD
 10
90.5
 20
93.5
 30
0.0
 11
91.52427125788283
 21
93.27202882090799
 31
0.0
  0
LINE
  5
1CC
  8
STANDARD
 10
91.52427125788283
 20
93.27202882090799
 30
0.0
 11
92.53843383701204
 21
93.0400593777222
 31
0.0
  0
LINE
  5
1CD
  8
STANDARD
 10
92.53843383701204
 20
93.0400593777222
 30
0.0
 11
93.53237905863404
 21
92.80009340634886
 31
0.0
  0
LINE
  5
1CE
  8
STANDARD
 10
93.53237905863404
 20
92.80009340634886
 30
0.0
 11
94.49599824399523
 21
92.54813264269414
 31
0.0
  0
LINE
  5
1CF
  8
STANDARD
 10
94.49599824399523
 20
92.54813264269414
 30
0.0
 11
95.419182714342
 21
92.28017882266428
 31
0.0
  0
LINE
  5
1D0
  8
STANDARD
 10
95.419182714342
 20
92.28017882266428
 30
0.0
 11
96.29182379092074
 21
91.99223368216553
 31
0.0
  0
LINE
  5
1D1
  8
STANDARD
 10
96.29182379092074
 20
91.99223368216553
 30
0.0
 11
97.10381279497786
 21
91.68029895710404
 31
0.0
  0
LINE
  5
1D2
  8
STANDARD
 10
97.10381279497786
 20
91.68029895710404
 30
0.0
 11
97.84504104775974
 21
91.34037638338607
 31
0.0
  0
LINE
  5
1D3
  8
STANDARD
 10
97.84504104775974
 20
91.34037638338607
 30
0.0
 11
98.50539987051275
 21
90.9684676969178
 31
0.0
  0
LINE
  5
1D4
  8
STANDARD
 10
98.50539987051275
 20
90.9684676969178
 30
0.0
 11
99.0747805844833
 21
90.56057463360544
 31
0.0
  0
LINE
  5
1D5
  8
STANDARD
 10
99.0747805844833
 20
90.56057463360544
 30
0.0
 11
99.54307451091783
 21
90.11269892935528
 31
0.0
  0
LINE
  5
1D6
  8
STANDARD
 10
99.54307451091783
 20
90.11269892935528
 30
0.0
 11
99.90017297106272
 21
89.62084232007346
 31
0.0
  0
LINE
  5
1D7
  8
STANDARD
 10
99.90017297106272
 20
89.62084232007346
 30
0.0
 11
100.1368466881927
 21
89.08132394814396
 31
0.0
  0
LINE
  5
1D8
  8
STANDARD
 10
100.1368466881927
 20
89.08132394814396
 30
0.0
 11
100.2552194537404
 21
88.49456066923672
 31
0.0
  0
LINE
  5
1D9
  8
STANDARD
 10
100.2552194537404
 20
88.49456066923672
 30
0.0
 11
100.2653145474832
 21
87.86382053641557
 31
0.0
  0
LINE
  5
1DA
  8
STANDARD
 10
100.2653145474832
 20
87.86382053641557
 30
0.0
 11
100.1773153259578
 21
87.19242937995952
 31
0.0
  0
LINE
  5
1DB
  8
STANDARD
 10
100.1773153259578
 20
87.19242937995952
 30
0.0
 11
100.0014051457006
 21
86.48371303014761
 31
0.0
  0
LINE
  5
1DC
  8
STANDARD
 10
100.0014051457006
 20
86.48371303014761
 30
0.0
 11
99.74776736324807
 21
85.74099731725883
 31
0.0
  0
LINE
  5
1DD
  8
STANDARD
 10
99.74776736324807
 20
85.74099731725883
 30
0.0
 11
99.4265853351369
 21
84.96760807157224
 31
0.0
  0
LINE
  5
1DE
  8
STANDARD
 10
99.4265853351369
 20
84.96760807157224
 30
0.0
 11
99.04804241790353
 21
84.16687112336686
 31
0.0
  0
LINE
  5
1DF
  8
STANDARD
 10
99.04804241790353
 20
84.16687112336686
 30
0.0
 11
98.62232196808444
 21
83.34211230292166
 31
0.0
  0
LINE
  5
1E0
  8
STANDARD
 10
98.62232196808444
 20
83.34211230292166
 30
0.0
 11
98.15960734221619
 21
82.49665744051572
 31
0.0
  0
LINE
  5
1E1
  8
STANDARD
 10
98.15960734221619
 20
82.49665744051572
 30
0.0
 11
97.67008189683531
 21
81.63383236642805
 31
0.0
  0
LINE
  5
1E2
  8
STANDARD
 10
97.67008189683531
 20
81.63383236642805
 30
0.0
 11
97.16392898847826
 21
80.75696291093762
 31
0.0
  0
LINE
  5
1E3
  8
STANDARD
 10
97.16392898847826
 20
80.75696291093762
 30
0.0
 11
96.65133197368162
 21
79.8693749043235
 31
0.0
  0
LINE
  5
1E4
  8
STANDARD
 10
96.65133197368162
 20
79.8693749043235
 30
0.0
 11
96.1424742089819
 21
78.9743941768647
 31
0.0
  0
LINE
  5
1E5
  8
STANDARD
 10
96.1424742089819
 20
78.9743941768647
 30
0.0
 11
95.64753905091557
 21
78.07534655884022
 31
0.0
  0
LINE
  5
1E6
  8
STANDARD
 10
95.64753905091557
 20
78.07534655884022
 30
0.0
 11
95.17670985601919
 21
77.17555788052913
 31
0.0
  0
LINE
  5
1E7
  8
STANDARD
 10
95.17670985601919
 20
77.17555788052913
 30
0.0
 11
94.74016998082932
 21
76.27835397221041
 31
0.0
  0
LINE
  5
1E8
  8
STANDARD
 10
94.74016998082932
 20
76.27835397221041
 30
0.0
 11
94.34810278188239
 21
75.38706066416306
 31
0.0
  0
LINE
  5
1E9
  8
STANDARD
 10
94.34810278188239
 20
75.38706066416306
 30
0.0
 11
94.01069161571496
 21
74.50500378666617
 31
0.0
  0
LINE
  5
1EA
  8
STANDARD
 10
94.01069161571496
 20
74.50500378666617
 30
0.0
 11
93.73811983886355
 21
73.63550916999868
 31
0.0
  0
LINE
  5
1EB
  8
STANDARD
 10
93.73811983886355
 20
73.63550916999868
 30
0.0
 11
93.54057080786471
 21
72.78190264443967
 31
0.0
  0
LINE
  5
1EC
  8
STANDARD
 10
93.54057080786471
 20
72.78190264443967
 30
0.0
 11
93.4282278792549
 21
71.94751004026817
 31
0.0
  0
LINE
  5
1ED
  8
STANDARD
 10
93.4282278792549
 20
71.94751004026817
 30
0.0
 11
93.41127440957071
 21
71.13565718776316
 31
0.0
  0
LINE
  5
1EE
  8
STANDARD
 10
93.41127440957071
 20
71.13565718776316
 30
0.0
 11
93.49989375534857
 21
70.34966991720366
 31
0.0
  0
LINE
  5
1EF
  8
STANDARD
 10
93.49989375534857
 20
70.34966991720366
 30
0.0
 11
93.70426927312506
 21
69.59287405886869
 31
0.0
  0
LINE
  5
1F0
  8
STANDARD
 10
93.70426927312506
 20
69.59287405886869
 30
0.0
 11
94.03457565559168
 21
68.86859309037114
 31
0.0
  0
LINE
  5
1F1
  8
STANDARD
 10
94.03457565559168
 20
68.86859309037114
 30
0.0
 11
94.4849153858035
 21
68.17578608254668
 31
0.0
  0
LINE
  5
1F2
  8
STANDARD
 10
94.4849153858035
 20
68.17578608254668
 30
0.0
 11
95.0
 21
67.5
 31
0.0
  0
LINE
  5
1F3
  8
STANDARD
 10
95.0
 20
67.5
 30
0.0
 11
95.0
 21
62.0
 31
0.0
  0
LINE
  5
1F4
  8
STANDARD
 10
95.0
 20
62.0
 30
0.0
 11
100.0
 21
61.99999999999999
 31
0.0
  0
ARC
  5
1F5
  8
STANDARD
 10
100.0
 20
59.99999999999999
 30
0.0
 40
2.0
 50
0.0
 51
90.0
  0
LINE
  5
1F6
  8
STANDARD
 10
102.0
 20
59.99999999999999
 30
0.0
 11
102.0
 21
58.0
 31
0.0
  0
LINE
  5
1F7
  8
STANDARD
 10
102.0
 20
58.0
 30
0.0
 11
103.0
 21
57.99999999999999
 31
0.0
  0
ARC
  5
1F8
  8
STANDARD
 10
103.0
 20
55.99999999999999
 30
0.0
 40
2.0
 50
0.0
 51
90.0
  0
LINE
  5
1F9
  8
STANDARD
 10
105.0
 20
55.99999999999999
 30
0.0
 11
105.0
 21
53.5
 31
0.0
  0
LINE
  5
1FA
  8
STANDARD
 10
105.0
 20
53.5
 30
0.0
 11
95.0
 21
53.5
 31
0.0
  0
LINE
  5
1FB
  8
STANDARD
 10
95.0
 20
53.5
 30
0.0
 11
94.99964495736873
 21
44.34528852150414
 31
0.0
  0
LINE
  5
1FC
  8
STANDARD
 10
94.99964495736873
 20
44.34528852150414
 30
0.0
 11
95.00134256643996
 21
43.6824961507485
 31
0.0
  0
LINE
  5
1FD
  8
STANDARD
 10
95.00134256643996
 20
43.6824961507485
 30
0.0
 11
95.00197318937849
 21
43.01985861220843
 31
0.0
  0
LINE
  5
1FE
  8
STANDARD
 10
95.00197318937849
 20
43.01985861220843
 30
0.0
 11
95.001003333118
 21
42.3574533219918
 31
0.0
  0
LINE
  5
1FF
  8
STANDARD
 10
95.001003333118
 20
42.3574533219918
 30
0.0
 11
94.99789950459213
 21
41.69535769620635
 31
0.0
  0
LINE
  5
200
  8
STANDARD
 10
94.99789950459213
 20
41.69535769620635
 30
0.0
 11
94.99227346681968
 21
41.03362807259647
 31
0.0
  0
LINE
  5
201
  8
STANDARD
 10
94.99227346681968
 20
41.03362807259647
 30
0.0
 11
94.98454225959216
 21
40.37220393379185
 31
0.0
  0
LINE
  5
202
  8
STANDARD
 10
94.98454225959216
 20
40.37220393379185
 30
0.0
 11
94.9754004017657
 21
39.71098449695195
 31
0.0
  0
LINE
  5
203
  8
STANDARD
 10
94.9754004017657
 20
39.71098449695195
 30
0.0
 11
94.96554267057925
 21
39.04986894174181
 31
0.0
  0
LINE
  5
204
  8
STANDARD
 10
94.96554267057925
 20
39.04986894174181
 30
0.0
 11
94.95566384327182
 21
38.38875644782652
 31
0.0
  0
LINE
  5
205
  8
STANDARD
 10
94.95566384327182
 20
38.38875644782652
 30
0.0
 11
94.94645869708246
 21
37.72754619487115
 31
0.0
  0
LINE
  5
206
  8
STANDARD
 10
94.94645869708246
 20
37.72754619487115
 30
0.0
 11
94.93862200925011
 21
37.06613736254076
 31
0.0
  0
LINE
  5
207
  8
STANDARD
 10
94.93862200925011
 20
37.06613736254076
 30
0.0
 11
94.93284855701381
 21
36.40442913050042
 31
0.0
  0
LINE
  5
208
  8
STANDARD
 10
94.93284855701381
 20
36.40442913050042
 30
0.0
 11
94.92983311761256
 21
35.7423206784152
 31
0.0
  0
LINE
  5
209
  8
STANDARD
 10
94.92983311761256
 20
35.7423206784152
 30
0.0
 11
94.93027046828536
 21
35.07971118595017
 31
0.0
  0
LINE
  5
20A
  8
STANDARD
 10
94.93027046828536
 20
35.07971118595017
 30
0.0
 11
94.93485538627118
 21
34.41649983277039
 31
0.0
  0
LINE
  5
20B
  8
STANDARD
 10
94.93485538627118
 20
34.41649983277039
 30
0.0
 11
94.94428264880906
 21
33.75258579854093
 31
0.0
  0
LINE
  5
20C
  8
STANDARD
 10
94.94428264880906
 20
33.75258579854093
 30
0.0
 11
94.95924703313801
 21
33.08786826292687
 31
0.0
  0
LINE
  5
20D
  8
STANDARD
 10
94.95924703313801
 20
33.08786826292687
 30
0.0
 11
94.980443316497
 21
32.42224640559326
 31
0.0
  0
LINE
  5
20E
  8
STANDARD
 10
94.980443316497
 20
32.42224640559326
 30
0.0
 11
95.00856751353153
 21
31.75562431331003
 31
0.0
  0
LINE
  5
20F
  8
STANDARD
 10
95.00856751353153
 20
31.75562431331003
 30
0.0
 11
95.04437486315771
 21
31.08814093480347
 31
0.0
  0
LINE
  5
210
  8
STANDARD
 10
95.04437486315771
 20
31.08814093480347
 30
0.0
 11
95.08870467208165
 21
30.42026860113472
 31
0.0
  0
LINE
  5
211
  8
STANDARD
 10
95.08870467208165
 20
30.42026860113472
 30
0.0
 11
95.14240264503408
 21
29.75250501560779
 31
0.0
  0
LINE
  5
212
  8
STANDARD
 10
95.14240264503408
 20
29.75250501560779
 30
0.0
 11
95.20631448674575
 21
29.08534788152667
 31
0.0
  0
LINE
  5
213
  8
STANDARD
 10
95.20631448674575
 20
29.08534788152667
 30
0.0
 11
95.28128590194737
 21
28.41929490219534
 31
0.0
  0
LINE
  5
214
  8
STANDARD
 10
95.28128590194737
 20
28.41929490219534
 30
0.0
 11
95.36816259536965
 21
27.75484378091781
 31
0.0
  0
LINE
  5
215
  8
STANDARD
 10
95.36816259536965
 20
27.75484378091781
 30
0.0
 11
95.46779027174333
 21
27.09249222099804
 31
0.0
  0
LINE
  5
216
  8
STANDARD
 10
95.46779027174333
 20
27.09249222099804
 30
0.0
 11
95.58101463579914
 21
26.43273792574004
 31
0.0
  0
LINE
  5
217
  8
STANDARD
 10
95.58101463579914
 20
26.43273792574004
 30
0.0
 11
95.7086813922678
 21
25.77607859844779
 31
0.0
  0
LINE
  5
218
  8
STANDARD
 10
95.7086813922678
 20
25.77607859844779
 30
0.0
 11
95.85163624588006
 21
25.12301194242529
 31
0.0
  0
LINE
  5
219
  8
STANDARD
 10
95.85163624588006
 20
25.12301194242529
 30
0.0
 11
96.0107249013666
 21
24.47403566097652
 31
0.0
  0
LINE
  5
21A
  8
STANDARD
 10
96.0107249013666
 20
24.47403566097652
 30
0.0
 11
96.18679306345817
 21
23.82964745740546
 31
0.0
  0
LINE
  5
21B
  8
STANDARD
 10
96.18679306345817
 20
23.82964745740546
 30
0.0
 11
96.3806864368855
 21
23.19034503501612
 31
0.0
  0
LINE
  5
21C
  8
STANDARD
 10
96.3806864368855
 20
23.19034503501612
 30
0.0
 11
96.59325072637931
 21
22.55662609711247
 31
0.0
  0
LINE
  5
21D
  8
STANDARD
 10
96.59325072637931
 20
22.55662609711247
 30
0.0
 11
96.82533163667033
 21
21.92898834699851
 31
0.0
  0
LINE
  5
21E
  8
STANDARD
 10
96.82533163667033
 20
21.92898834699851
 30
0.0
 11
97.07777487248927
 21
21.30792948797822
 31
0.0
  0
LINE
  5
21F
  8
STANDARD
 10
97.07777487248927
 20
21.30792948797822
 30
0.0
 11
97.3514261385669
 21
20.6939472233556
 31
0.0
  0
LINE
  5
220
  8
STANDARD
 10
97.3514261385669
 20
20.6939472233556
 30
0.0
 11
97.64713113963387
 21
20.08753925643465
 31
0.0
  0
LINE
  5
221
  8
STANDARD
 10
97.64713113963387
 20
20.08753925643465
 30
0.0
 11
97.96573558042098
 21
19.48920329051932
 31
0.0
  0
LINE
  5
222
  8
STANDARD
 10
97.96573558042098
 20
19.48920329051932
 30
0.0
 11
98.30808516565892
 21
18.89943702891363
 31
0.0
  0
LINE
  5
223
  8
STANDARD
 10
98.30808516565892
 20
18.89943702891363
 30
0.0
 11
98.67502560007843
 21
18.31873817492156
 31
0.0
  0
LINE
  5
224
  8
STANDARD
 10
98.67502560007843
 20
18.31873817492156
 30
0.0
 11
99.06740258841022
 21
17.7476044318471
 31
0.0
  0
LINE
  5
225
  8
STANDARD
 10
99.06740258841022
 20
17.7476044318471
 30
0.0
 11
99.48606183538503
 21
17.18653350299425
 31
0.0
  0
LINE
  5
226
  8
STANDARD
 10
99.48606183538503
 20
17.18653350299425
 30
0.0
 11
99.93184904573357
 21
16.63602309166697
 31
0.0
  0
LINE
  5
227
  8
STANDARD
 10
99.93184904573357
 20
16.63602309166697
 30
0.0
 11
100.4056099241866
 21
16.09657090116928
 31
0.0
  0
LINE
  5
228
  8
STANDARD
 10
100.4056099241866
 20
16.09657090116928
 30
0.0
 11
100.9081901754748
 21
15.56867463480516
 31
0.0
  0
LINE
  5
229
  8
STANDARD
 10
100.9081901754748
 20
15.56867463480516
 30
0.0
 11
101.4404355043289
 21
15.05283199587859
 31
0.0
  0
LINE
  5
22A
  8
STANDARD
 10
101.4404355043289
 20
15.05283199587859
 30
0.0
 11
101.9965989127336
 21
14.54826433006479
 31
0.0
  0
LINE
  5
22B
  8
STANDARD
 10
101.9965989127336
 20
14.54826433006479
 30
0.0
 11
102.534859144418
 21
14.04720894985858
 31
0.0
  0
LINE
  5
22C
  8
STANDARD
 10
102.534859144418
 20
14.04720894985858
 30
0.0
 11
103.0011187761821
 21
13.53952648251419
 31
0.0
  0
LINE
  5
22D
  8
STANDARD
 10
103.0011187761821
 20
13.53952648251419
 30
0.0
 11
103.3412701427771
 21
13.01507557240911
 31
0.0
  0
LINE
  5
22E
  8
STANDARD
 10
103.3412701427771
 20
13.01507557240911
 30
0.0
 11
103.5012104232716
 21
12.46371569807674
 31
0.0
  0
LINE
  5
22F
  8
STANDARD
 10
103.5012104232716
 20
12.46371569807674
 30
0.0
 11
103.449083917635
 21
11.87913712907612
 31
0.0
  0
LINE
  5
230
  8
STANDARD
 10
103.449083917635
 20
11.87913712907612
 30
0.0
 11
103.2265380093925
 21
11.26768682677387
 31
0.0
  0
LINE
  5
231
  8
STANDARD
 10
103.2265380093925
 20
11.26768682677387
 30
0.0
 11
102.8903791660795
 21
10.63832203560388
 31
0.0
  0
LINE
  5
232
  8
STANDARD
 10
102.8903791660795
 20
10.63832203560388
 30
0.0
 11
102.4974138552312
 21
10.0
 31
0.0
  0
LINE
  5
233
  8
STANDARD
 10
102.4974138552312
 20
10.0
 30
0.0
 11
102.5
 21
10.0
 31
0.0
  0
LINE
  5
234
  8
STANDARD
 10
102.5
 20
10.0
 30
0.0
 11
106.5
 21
10.0
 31
0.0
  0
ARC
  5
235
  8
STANDARD
 10
106.5
 20
7.999999999999999
 30
0.0
 40
2.000000000000001
 50
0.0
 51
90.0
  0
LINE
  5
236
  8
STANDARD
 10
108.5
 20
7.999999999999999
 30
0.0
 11
108.5
 21
0.0
 31
0.0
  0
LINE
  5
237
  8
STANDARD
 10
108.5
 20
0.0
 30
0.0
 11
83.99574610212015
 21
0.0000000000000004
 31
0.0
  0
ENDSEC
  0
EOF
