  0
SECTION
  2
HEADER
  9
$ACADVER
  1
AC1009
  9
$DWGCODEPAGE
  3
ansi_1252
  9
$INSBASE
 10
0.0
 20
0.0
 30
0.0
  9
$EXTMIN
 10
-0.0000000000000568
 20
0.0
 30
0.0
  9
$EXTMAX
 10
451.3585182837843
 20
450.0
 30
0.0
  9
$LIMMIN
 10
0.0
 20
0.0
  9
$LIMMAX
 10
12.0
 20
9.0
  9
$ORTHOMODE
 70
     0
  9
$REGENMODE
 70
     1
  9
$FILLMODE
 70
     1
  9
$QTEXTMODE
 70
     0
  9
$MIRRTEXT
 70
     1
  9
$DRAGMODE
 70
     2
  9
$LTSCALE
 40
1.0
  9
$OSMODE
 70
    37
  9
$ATTMODE
 70
     1
  9
$TEXTSIZE
 40
0.2
  9
$TRACEWID
 40
0.05
  9
$TEXTSTYLE
  7
STANDARD
  9
$CLAYER
  8
DEFAULT
  9
$CELTYPE
  6
BYLAYER
  9
$CECOLOR
 62
   256
  9
$DIMSCALE
 40
1.0
  9
$DIMASZ
 40
0.18
  9
$DIMEXO
 40
0.0625
  9
$DIMDLI
 40
0.38
  9
$DIMRND
 40
0.0
  9
$DIMDLE
 40
0.0
  9
$DIMEXE
 40
0.18
  9
$DIMTP
 40
0.0
  9
$DIMTM
 40
0.0
  9
$DIMTXT
 40
0.18
  9
$DIMCEN
 40
0.09
  9
$DIMTSZ
 40
0.0
  9
$DIMTOL
 70
     0
  9
$DIMLIM
 70
     0
  9
$DIMTIH
 70
     1
  9
$DIMTOH
 70
     1
  9
$DIMSE1
 70
     0
  9
$DIMSE2
 70
     0
  9
$DIMTAD
 70
     0
  9
$DIMZIN
 70
     0
  9
$DIMBLK
  1

  9
$DIMASO
 70
     1
  9
$DIMSHO
 70
     1
  9
$DIMPOST
  1

  9
$DIMAPOST
  1

  9
$DIMALT
 70
     0
  9
$DIMALTD
 70
     2
  9
$DIMALTF
 40
25.4
  9
$DIMLFAC
 40
1.0
  9
$DIMTOFL
 70
     0
  9
$DIMTVP
 40
0.0
  9
$DIMTIX
 70
     0
  9
$DIMSOXD
 70
     0
  9
$DIMSAH
 70
     0
  9
$DIMBLK1
  1

  9
$DIMBLK2
  1

  9
$DIMSTYLE
  2
STANDARD
  9
$DIMCLRD
 70
     0
  9
$DIMCLRE
 70
     0
  9
$DIMCLRT
 70
     0
  9
$DIMTFAC
 40
1.0
  9
$DIMGAP
 40
0.09
  9
$LUNITS
 70
     2
  9
$LUPREC
 70
     3
  9
$SKETCHINC
 40
0.1
  9
$FILLETRAD
 40
0.5
  9
$AUNITS
 70
     0
  9
$AUPREC
 70
     0
  9
$MENU
  1
.
  9
$ELEVATION
 40
0.0
  9
$PELEVATION
 40
0.0
  9
$THICKNESS
 40
0.0
  9
$LIMCHECK
 70
     0
  9
$CHAMFERA
 40
0.0
  9
$CHAMFERB
 40
0.0
  9
$SKPOLY
 70
     0
  9
$TDCREATE
 40
2458065.638971586
  9
$TDUPDATE
 40
2458065.638992292
  9
$TDINDWG
 40
0.0000000116
  9
$TDUSRTIMER
 40
0.0000000116
  9
$USRTIMER
 70
     1
  9
$ANGBASE
 50
0.0
  9
$ANGDIR
 70
     0
  9
$PDMODE
 70
     0
  9
$PDSIZE
 40
0.0
  9
$PLINEWID
 40
0.0
  9
$COORDS
 70
     1
  9
$SPLFRAME
 70
     0
  9
$SPLINETYPE
 70
     6
  9
$SPLINESEGS
 70
     8
  9
$ATTDIA
 70
     0
  9
$ATTREQ
 70
     1
  9
$HANDLING
 70
     1
  9
$HANDSEED
  5
49B
  9
$SURFTAB1
 70
     6
  9
$SURFTAB2
 70
     6
  9
$SURFTYPE
 70
     6
  9
$SURFU
 70
     6
  9
$SURFV
 70
     6
  9
$UCSNAME
  2

  9
$UCSORG
 10
0.0
 20
0.0
 30
0.0
  9
$UCSXDIR
 10
1.0
 20
0.0
 30
0.0
  9
$UCSYDIR
 10
0.0
 20
1.0
 30
0.0
  9
$PUCSNAME
  2

  9
$PUCSORG
 10
0.0
 20
0.0
 30
0.0
  9
$PUCSXDIR
 10
1.0
 20
0.0
 30
0.0
  9
$PUCSYDIR
 10
0.0
 20
1.0
 30
0.0
  9
$USERI1
 70
     0
  9
$USERI2
 70
     0
  9
$USERI3
 70
     0
  9
$USERI4
 70
     0
  9
$USERI5
 70
     0
  9
$USERR1
 40
0.0
  9
$USERR2
 40
0.0
  9
$USERR3
 40
0.0
  9
$USERR4
 40
0.0
  9
$USERR5
 40
0.0
  9
$WORLDVIEW
 70
     1
  9
$SHADEDGE
 70
     3
  9
$SHADEDIF
 70
    70
  9
$TILEMODE
 70
     1
  9
$MAXACTVP
 70
    64
  9
$PLIMCHECK
 70
     0
  9
$PEXTMIN
 10
1.000000000000000E+20
 20
1.000000000000000E+20
 30
1.000000000000000E+20
  9
$PEXTMAX
 10
-1.000000000000000E+20
 20
-1.000000000000000E+20
 30
-1.000000000000000E+20
  9
$PLIMMIN
 10
0.0
 20
0.0
  9
$PLIMMAX
 10
12.0
 20
9.0
  9
$UNITMODE
 70
     0
  9
$VISRETAIN
 70
     1
  9
$PLINEGEN
 70
     0
  9
$PSLTSCALE
 70
     1
  0
ENDSEC
  0
SECTION
  2
TABLES
  0
TABLE
  2
VPORT
 70
     1
  0
VPORT
  2
*ACTIVE
 70
     0
 10
0.0
 20
0.0
 11
1.0
 21
1.0
 12
225.0
 22
225.0
 13
0.0
 23
0.0
 14
0.5
 24
0.5
 15
0.5
 25
0.5
 16
0.0
 26
0.0
 36
1.0
 17
0.0
 27
0.0
 37
0.0
 40
459.0
 41
1.0
 42
50.0
 43
0.0
 44
0.0
 50
0.0
 51
0.0
 71
     0
 72
   100
 73
     1
 74
     3
 75
     0
 76
     0
 77
     0
 78
     0
  0
ENDTAB
  0
TABLE
  2
LTYPE
 70
     1
  0
LTYPE
  2
CONTINUOUS
 70
     0
  3
Solid line
 72
    65
 73
     0
 40
0.0
  0
ENDTAB
  0
TABLE
  2
LAYER
 70
     3
  0
LAYER
  2
0
 70
     0
 62
     7
  6
CONTINUOUS
  0
LAYER
  2
STANDARD
 70
     0
 62
     7
  6
CONTINUOUS
  0
LAYER
  2
DEFAULT
 70
     0
 62
     7
  6
CONTINUOUS
  0
ENDTAB
  0
TABLE
  2
STYLE
 70
     1
  0
STYLE
  2
STANDARD
 70
     0
 40
0.0
 41
1.0
 50
0.0
 71
     0
 42
0.2
  3
txt
  4

  0
ENDTAB
  0
TABLE
  2
VIEW
 70
     0
  0
ENDTAB
  0
TABLE
  2
UCS
 70
     0
  0
ENDTAB
  0
TABLE
  2
APPID
 70
     1
  0
APPID
  2
ACAD
 70
     0
  0
ENDTAB
  0
TABLE
  2
DIMSTYLE
 70
     1
  0
DIMSTYLE
  2
STANDARD
 70
     0
  3

  4

  5

  6

  7

 40
1.0
 41
0.18
 42
0.0625
 43
0.38
 44
0.18
 45
0.0
 46
0.0
 47
0.0
 48
0.0
140
0.18
141
0.09
142
0.0
143
25.4
144
1.0
145
0.0
146
1.0
147
0.09
 71
     0
 72
     0
 73
     1
 74
     1
 75
     0
 76
     0
 77
     0
 78
     0
170
     0
171
     2
172
     0
173
     0
174
     0
175
     0
176
     0
177
     0
178
     0
  0
ENDTAB
  0
ENDSEC
  0
SECTION
  2
BLOCKS
  0
BLOCK
  8
0
  2
$MODEL_SPACE
 70
     0
 10
0.0
 20
0.0
 30
0.0
  3
$MODEL_SPACE
  1

  0
ENDBLK
  5
21
  8
0
  0
BLOCK
 67
     1
  8
0
  2
$PAPER_SPACE
 70
     0
 10
0.0
 20
0.0
 30
0.0
  3
$PAPER_SPACE
  1

  0
ENDBLK
  5
1D
 67
     1
  8
0
  0
BLOCK
  8
0
  2
_U0
 70
     0
 10
0.0
 20
0.0
 30
0.0
  3
_U0
  1

  0
LINE
  5
B5
  8
DEFAULT
 10
50.0
 20
50.0
 30
0.0
 11
100.0
 21
50.0
 31
0.0
  0
LINE
  5
B6
  8
DEFAULT
 10
100.0
 20
50.0
 30
0.0
 11
50.0
 21
100.0
 31
0.0
  0
LINE
  5
B7
  8
DEFAULT
 10
50.0
 20
100.0
 30
0.0
 11
50.0
 21
50.0
 31
0.0
  0
LINE
  5
B8
  8
DEFAULT
 10
75.0
 20
50.0
 30
0.0
 11
75.0
 21
75.0
 31
0.0
  0
LINE
  5
B9
  8
DEFAULT
 10
75.0
 20
75.0
 30
0.0
 11
50.0
 21
75.0
 31
0.0
  0
LINE
  5
BA
  8
DEFAULT
 10
100.0
 20
50.0
 30
0.0
 11
100.0
 21
100.0
 31
0.0
  0
LINE
  5
BB
  8
DEFAULT
 10
100.0
 20
100.0
 30
0.0
 11
50.0
 21
100.0
 31
0.0
  0
LINE
  5
BC
  8
DEFAULT
 10
50.0
 20
100.0
 30
0.0
 11
100.0
 21
50.0
 31
0.0
  0
LINE
  5
BD
  8
DEFAULT
 10
100.0
 20
75.0
 30
0.0
 11
75.00000000000001
 21
100.0
 31
0.0
  0
LINE
  5
BE
  8
DEFAULT
 10
100.0
 20
100.0
 30
0.0
 11
75.0
 21
75.0
 31
0.0
  0
ENDBLK
  5
C0
  8
0
  0
BLOCK
  8
0
  2
_U1
 70
     0
 10
0.0
 20
0.0
 30
0.0
  3
_U1
  1

  0
LINE
  5
C2
  8
DEFAULT
 10
100.0
 20
100.0
 30
0.0
 11
150.0
 21
100.0
 31
0.0
  0
LINE
  5
C3
  8
DEFAULT
 10
150.0
 20
100.0
 30
0.0
 11
100.0
 21
150.0
 31
0.0
  0
LINE
  5
C4
  8
DEFAULT
 10
100.0
 20
150.0
 30
0.0
 11
100.0
 21
100.0
 31
0.0
  0
LINE
  5
C5
  8
DEFAULT
 10
125.0
 20
100.0
 30
0.0
 11
125.0
 21
125.0
 31
0.0
  0
LINE
  5
C6
  8
DEFAULT
 10
125.0
 20
125.0
 30
0.0
 11
100.0
 21
125.0
 31
0.0
  0
LINE
  5
C7
  8
DEFAULT
 10
150.0
 20
100.0
 30
0.0
 11
150.0
 21
150.0
 31
0.0
  0
LINE
  5
C8
  8
DEFAULT
 10
150.0
 20
150.0
 30
0.0
 11
100.0
 21
150.0
 31
0.0
  0
LINE
  5
C9
  8
DEFAULT
 10
100.0
 20
150.0
 30
0.0
 11
150.0
 21
100.0
 31
0.0
  0
LINE
  5
CA
  8
DEFAULT
 10
150.0
 20
125.0
 30
0.0
 11
125.0
 21
150.0
 31
0.0
  0
LINE
  5
CB
  8
DEFAULT
 10
150.0
 20
150.0
 30
0.0
 11
125.0
 21
125.0
 31
0.0
  0
ENDBLK
  5
CD
  8
0
  0
BLOCK
  8
0
  2
_U2
 70
     0
 10
0.0
 20
0.0
 30
0.0
  3
_U2
  1

  0
LINE
  5
CF
  8
DEFAULT
 10
150.0
 20
50.0
 30
0.0
 11
200.0
 21
50.0
 31
0.0
  0
LINE
  5
D0
  8
DEFAULT
 10
200.0
 20
50.0
 30
0.0
 11
150.0
 21
100.0
 31
0.0
  0
LINE
  5
D1
  8
DEFAULT
 10
150.0
 20
100.0
 30
0.0
 11
150.0
 21
50.0
 31
0.0
  0
LINE
  5
D2
  8
DEFAULT
 10
175.0
 20
50.0
 30
0.0
 11
175.0
 21
75.0
 31
0.0
  0
LINE
  5
D3
  8
DEFAULT
 10
175.0
 20
75.0
 30
0.0
 11
150.0
 21
75.0
 31
0.0
  0
LINE
  5
D4
  8
DEFAULT
 10
200.0
 20
50.0
 30
0.0
 11
200.0
 21
100.0
 31
0.0
  0
LINE
  5
D5
  8
DEFAULT
 10
200.0
 20
100.0
 30
0.0
 11
150.0
 21
100.0
 31
0.0
  0
LINE
  5
D6
  8
DEFAULT
 10
150.0
 20
100.0
 30
0.0
 11
200.0
 21
50.0
 31
0.0
  0
LINE
  5
D7
  8
DEFAULT
 10
200.0
 20
74.99999999999997
 30
0.0
 11
175.0
 21
99.99999999999997
 31
0.0
  0
LINE
  5
D8
  8
DEFAULT
 10
200.0
 20
99.99999999999997
 30
0.0
 11
175.0
 21
74.99999999999999
 31
0.0
  0
ENDBLK
  5
DA
  8
0
  0
BLOCK
  8
0
  2
_U3
 70
     0
 10
0.0
 20
0.0
 30
0.0
  3
_U3
  1

  0
LINE
  5
DC
  8
DEFAULT
 10
200.0
 20
100.0
 30
0.0
 11
250.0
 21
100.0
 31
0.0
  0
LINE
  5
DD
  8
DEFAULT
 10
250.0
 20
100.0
 30
0.0
 11
200.0
 21
150.0
 31
0.0
  0
LINE
  5
DE
  8
DEFAULT
 10
200.0
 20
150.0
 30
0.0
 11
200.0
 21
100.0
 31
0.0
  0
LINE
  5
DF
  8
DEFAULT
 10
225.0
 20
100.0
 30
0.0
 11
225.0
 21
125.0
 31
0.0
  0
LINE
  5
E0
  8
DEFAULT
 10
225.0
 20
125.0
 30
0.0
 11
200.0
 21
125.0
 31
0.0
  0
LINE
  5
E1
  8
DEFAULT
 10
250.0
 20
100.0
 30
0.0
 11
250.0
 21
150.0
 31
0.0
  0
LINE
  5
E2
  8
DEFAULT
 10
250.0
 20
150.0
 30
0.0
 11
200.0
 21
150.0
 31
0.0
  0
LINE
  5
E3
  8
DEFAULT
 10
200.0
 20
150.0
 30
0.0
 11
250.0
 21
100.0
 31
0.0
  0
LINE
  5
E4
  8
DEFAULT
 10
250.0
 20
125.0
 30
0.0
 11
225.0
 21
150.0
 31
0.0
  0
LINE
  5
E5
  8
DEFAULT
 10
250.0
 20
150.0
 30
0.0
 11
225.0
 21
125.0
 31
0.0
  0
ENDBLK
  5
E7
  8
0
  0
BLOCK
  8
0
  2
_U4
 70
     0
 10
0.0
 20
0.0
 30
0.0
  3
_U4
  1

  0
LINE
  5
E9
  8
DEFAULT
 10
250.0
 20
49.99999999999997
 30
0.0
 11
300.0
 21
49.99999999999997
 31
0.0
  0
LINE
  5
EA
  8
DEFAULT
 10
300.0
 20
49.99999999999997
 30
0.0
 11
250.0
 21
100.0
 31
0.0
  0
LINE
  5
EB
  8
DEFAULT
 10
250.0
 20
100.0
 30
0.0
 11
250.0
 21
49.99999999999997
 31
0.0
  0
LINE
  5
EC
  8
DEFAULT
 10
275.0
 20
49.99999999999997
 30
0.0
 11
275.0
 21
74.99999999999999
 31
0.0
  0
LINE
  5
ED
  8
DEFAULT
 10
275.0
 20
74.99999999999999
 30
0.0
 11
250.0
 21
74.99999999999999
 31
0.0
  0
LINE
  5
EE
  8
DEFAULT
 10
300.0
 20
49.99999999999997
 30
0.0
 11
300.0
 21
100.0
 31
0.0
  0
LINE
  5
EF
  8
DEFAULT
 10
300.0
 20
100.0
 30
0.0
 11
250.0
 21
100.0
 31
0.0
  0
LINE
  5
F0
  8
DEFAULT
 10
250.0
 20
100.0
 30
0.0
 11
300.0
 21
49.99999999999997
 31
0.0
  0
LINE
  5
F1
  8
DEFAULT
 10
300.0
 20
74.99999999999997
 30
0.0
 11
275.0
 21
100.0
 31
0.0
  0
LINE
  5
F2
  8
DEFAULT
 10
300.0000000000001
 20
100.0
 30
0.0
 11
275.0
 21
75.0
 31
0.0
  0
ENDBLK
  5
F4
  8
0
  0
BLOCK
  8
0
  2
_U5
 70
     0
 10
0.0
 20
0.0
 30
0.0
  3
_U5
  1

  0
LINE
  5
F6
  8
DEFAULT
 10
300.0000000000001
 20
100.0
 30
0.0
 11
350.0
 21
100.0
 31
0.0
  0
LINE
  5
F7
  8
DEFAULT
 10
350.0
 20
100.0
 30
0.0
 11
300.0000000000001
 21
150.0
 31
0.0
  0
LINE
  5
F8
  8
DEFAULT
 10
300.0000000000001
 20
150.0
 30
0.0
 11
300.0000000000001
 21
100.0
 31
0.0
  0
LINE
  5
F9
  8
DEFAULT
 10
325.0000000000001
 20
100.0
 30
0.0
 11
325.0000000000001
 21
125.0
 31
0.0
  0
LINE
  5
FA
  8
DEFAULT
 10
325.0000000000001
 20
125.0
 30
0.0
 11
300.0000000000001
 21
125.0
 31
0.0
  0
LINE
  5
FB
  8
DEFAULT
 10
350.0
 20
100.0
 30
0.0
 11
350.0
 21
150.0
 31
0.0
  0
LINE
  5
FC
  8
DEFAULT
 10
350.0
 20
150.0
 30
0.0
 11
300.0000000000001
 21
150.0
 31
0.0
  0
LINE
  5
FD
  8
DEFAULT
 10
300.0000000000001
 20
150.0
 30
0.0
 11
350.0
 21
100.0
 31
0.0
  0
LINE
  5
FE
  8
DEFAULT
 10
350.0
 20
125.0
 30
0.0
 11
325.0000000000001
 21
150.0
 31
0.0
  0
LINE
  5
FF
  8
DEFAULT
 10
350.0
 20
149.9999999999999
 30
0.0
 11
325.0000000000001
 21
125.0
 31
0.0
  0
ENDBLK
  5
101
  8
0
  0
BLOCK
  8
0
  2
_U6
 70
     0
 10
0.0
 20
0.0
 30
0.0
  3
_U6
  1

  0
LINE
  5
103
  8
DEFAULT
 10
350.0
 20
50.0
 30
0.0
 11
400.0
 21
50.0
 31
0.0
  0
LINE
  5
104
  8
DEFAULT
 10
400.0
 20
50.0
 30
0.0
 11
350.0
 21
100.0
 31
0.0
  0
LINE
  5
105
  8
DEFAULT
 10
350.0
 20
100.0
 30
0.0
 11
350.0
 21
50.0
 31
0.0
  0
LINE
  5
106
  8
DEFAULT
 10
375.0
 20
50.0
 30
0.0
 11
375.0
 21
75.0
 31
0.0
  0
LINE
  5
107
  8
DEFAULT
 10
375.0
 20
75.0
 30
0.0
 11
350.0
 21
75.0
 31
0.0
  0
LINE
  5
108
  8
DEFAULT
 10
400.0
 20
50.0
 30
0.0
 11
400.0
 21
100.0
 31
0.0
  0
LINE
  5
109
  8
DEFAULT
 10
400.0
 20
100.0
 30
0.0
 11
350.0
 21
100.0
 31
0.0
  0
LINE
  5
10A
  8
DEFAULT
 10
350.0
 20
100.0
 30
0.0
 11
400.0
 21
50.0
 31
0.0
  0
LINE
  5
10B
  8
DEFAULT
 10
400.0
 20
75.0
 30
0.0
 11
375.0
 21
100.0
 31
0.0
  0
LINE
  5
10C
  8
DEFAULT
 10
400.0
 20
99.99999999999996
 30
0.0
 11
375.0
 21
74.99999999999997
 31
0.0
  0
ENDBLK
  5
10E
  8
0
  0
BLOCK
  8
0
  2
_U7
 70
     0
 10
0.0
 20
0.0
 30
0.0
  3
_U7
  1

  0
LINE
  5
110
  8
DEFAULT
 10
400.0
 20
100.0
 30
0.0
 11
450.0
 21
100.0
 31
0.0
  0
LINE
  5
111
  8
DEFAULT
 10
450.0
 20
100.0
 30
0.0
 11
400.0
 21
150.0
 31
0.0
  0
LINE
  5
112
  8
DEFAULT
 10
400.0
 20
150.0
 30
0.0
 11
400.0
 21
100.0
 31
0.0
  0
LINE
  5
113
  8
DEFAULT
 10
425.0
 20
100.0
 30
0.0
 11
425.0
 21
125.0
 31
0.0
  0
LINE
  5
114
  8
DEFAULT
 10
425.0
 20
125.0
 30
0.0
 11
400.0
 21
125.0
 31
0.0
  0
LINE
  5
115
  8
DEFAULT
 10
450.0
 20
100.0
 30
0.0
 11
450.0
 21
150.0
 31
0.0
  0
LINE
  5
116
  8
DEFAULT
 10
450.0
 20
150.0
 30
0.0
 11
400.0
 21
150.0
 31
0.0
  0
LINE
  5
117
  8
DEFAULT
 10
400.0
 20
150.0
 30
0.0
 11
450.0
 21
100.0
 31
0.0
  0
LINE
  5
118
  8
DEFAULT
 10
450.0
 20
125.0
 30
0.0
 11
425.0
 21
150.0
 31
0.0
  0
LINE
  5
119
  8
DEFAULT
 10
450.0
 20
150.0
 30
0.0
 11
425.0
 21
125.0
 31
0.0
  0
ENDBLK
  5
11B
  8
0
  0
BLOCK
  8
0
  2
_U8
 70
     0
 10
0.0
 20
0.0
 30
0.0
  3
_U8
  1

  0
LINE
  5
11D
  8
DEFAULT
 10
50.0
 20
150.0
 30
0.0
 11
100.0
 21
150.0
 31
0.0
  0
LINE
  5
11E
  8
DEFAULT
 10
100.0
 20
150.0
 30
0.0
 11
50.0
 21
200.0
 31
0.0
  0
LINE
  5
11F
  8
DEFAULT
 10
50.0
 20
200.0
 30
0.0
 11
50.0
 21
150.0
 31
0.0
  0
LINE
  5
120
  8
DEFAULT
 10
75.0
 20
150.0
 30
0.0
 11
75.0
 21
175.0
 31
0.0
  0
LINE
  5
121
  8
DEFAULT
 10
75.0
 20
175.0
 30
0.0
 11
50.0
 21
175.0
 31
0.0
  0
LINE
  5
122
  8
DEFAULT
 10
100.0
 20
150.0
 30
0.0
 11
100.0
 21
200.0
 31
0.0
  0
LINE
  5
123
  8
DEFAULT
 10
100.0
 20
200.0
 30
0.0
 11
50.0
 21
200.0
 31
0.0
  0
LINE
  5
124
  8
DEFAULT
 10
50.0
 20
200.0
 30
0.0
 11
100.0
 21
150.0
 31
0.0
  0
LINE
  5
125
  8
DEFAULT
 10
100.0
 20
175.0
 30
0.0
 11
75.00000000000001
 21
200.0
 31
0.0
  0
LINE
  5
126
  8
DEFAULT
 10
100.0
 20
200.0
 30
0.0
 11
75.00000000000001
 21
175.0
 31
0.0
  0
ENDBLK
  5
128
  8
0
  0
BLOCK
  8
0
  2
_U9
 70
     0
 10
0.0
 20
0.0
 30
0.0
  3
_U9
  1

  0
LINE
  5
12A
  8
DEFAULT
 10
150.0
 20
150.0
 30
0.0
 11
200.0
 21
150.0
 31
0.0
  0
LINE
  5
12B
  8
DEFAULT
 10
200.0
 20
150.0
 30
0.0
 11
150.0
 21
200.0
 31
0.0
  0
LINE
  5
12C
  8
DEFAULT
 10
150.0
 20
200.0
 30
0.0
 11
150.0
 21
150.0
 31
0.0
  0
LINE
  5
12D
  8
DEFAULT
 10
175.0
 20
150.0
 30
0.0
 11
175.0
 21
175.0
 31
0.0
  0
LINE
  5
12E
  8
DEFAULT
 10
175.0
 20
175.0
 30
0.0
 11
150.0
 21
175.0
 31
0.0
  0
LINE
  5
12F
  8
DEFAULT
 10
200.0
 20
150.0
 30
0.0
 11
200.0
 21
200.0
 31
0.0
  0
LINE
  5
130
  8
DEFAULT
 10
200.0
 20
200.0
 30
0.0
 11
150.0
 21
200.0
 31
0.0
  0
LINE
  5
131
  8
DEFAULT
 10
150.0
 20
200.0
 30
0.0
 11
200.0
 21
150.0
 31
0.0
  0
LINE
  5
132
  8
DEFAULT
 10
200.0
 20
175.0
 30
0.0
 11
175.0
 21
200.0
 31
0.0
  0
LINE
  5
133
  8
DEFAULT
 10
200.0
 20
200.0
 30
0.0
 11
175.0
 21
175.0
 31
0.0
  0
ENDBLK
  5
135
  8
0
  0
BLOCK
  8
0
  2
_U10
 70
     0
 10
0.0
 20
0.0
 30
0.0
  3
_U10
  1

  0
LINE
  5
137
  8
DEFAULT
 10
250.0
 20
150.0
 30
0.0
 11
300.0000000000001
 21
150.0
 31
0.0
  0
LINE
  5
138
  8
DEFAULT
 10
300.0000000000001
 20
150.0
 30
0.0
 11
250.0
 21
200.0
 31
0.0
  0
LINE
  5
139
  8
DEFAULT
 10
250.0
 20
200.0
 30
0.0
 11
250.0
 21
150.0
 31
0.0
  0
LINE
  5
13A
  8
DEFAULT
 10
275.0000000000001
 20
150.0
 30
0.0
 11
275.0000000000001
 21
175.0
 31
0.0
  0
LINE
  5
13B
  8
DEFAULT
 10
275.0000000000001
 20
175.0
 30
0.0
 11
250.0
 21
175.0
 31
0.0
  0
LINE
  5
13C
  8
DEFAULT
 10
300.0000000000001
 20
150.0
 30
0.0
 11
300.0000000000001
 21
200.0
 31
0.0
  0
LINE
  5
13D
  8
DEFAULT
 10
300.0000000000001
 20
200.0
 30
0.0
 11
250.0
 21
200.0
 31
0.0
  0
LINE
  5
13E
  8
DEFAULT
 10
250.0
 20
200.0
 30
0.0
 11
300.0000000000001
 21
150.0
 31
0.0
  0
LINE
  5
13F
  8
DEFAULT
 10
300.0000000000001
 20
175.0
 30
0.0
 11
275.0000000000001
 21
200.0
 31
0.0
  0
LINE
  5
140
  8
DEFAULT
 10
300.0000000000001
 20
200.0
 30
0.0
 11
275.0000000000001
 21
175.0
 31
0.0
  0
ENDBLK
  5
142
  8
0
  0
BLOCK
  8
0
  2
_U11
 70
     0
 10
0.0
 20
0.0
 30
0.0
  3
_U11
  1

  0
LINE
  5
144
  8
DEFAULT
 10
350.0
 20
150.0
 30
0.0
 11
400.0
 21
150.0
 31
0.0
  0
LINE
  5
145
  8
DEFAULT
 10
400.0
 20
150.0
 30
0.0
 11
350.0
 21
200.0
 31
0.0
  0
LINE
  5
146
  8
DEFAULT
 10
350.0
 20
200.0
 30
0.0
 11
350.0
 21
150.0
 31
0.0
  0
LINE
  5
147
  8
DEFAULT
 10
375.0
 20
150.0
 30
0.0
 11
375.0
 21
175.0
 31
0.0
  0
LINE
  5
148
  8
DEFAULT
 10
375.0
 20
175.0
 30
0.0
 11
350.0
 21
175.0
 31
0.0
  0
LINE
  5
149
  8
DEFAULT
 10
400.0
 20
150.0
 30
0.0
 11
400.0
 21
200.0
 31
0.0
  0
LINE
  5
14A
  8
DEFAULT
 10
400.0
 20
200.0
 30
0.0
 11
350.0
 21
200.0
 31
0.0
  0
LINE
  5
14B
  8
DEFAULT
 10
350.0
 20
200.0
 30
0.0
 11
400.0
 21
150.0
 31
0.0
  0
LINE
  5
14C
  8
DEFAULT
 10
400.0
 20
174.9999999999999
 30
0.0
 11
375.0000000000001
 21
199.9999999999999
 31
0.0
  0
LINE
  5
14D
  8
DEFAULT
 10
399.9999999999999
 20
199.9999999999999
 30
0.0
 11
375.0
 21
175.0
 31
0.0
  0
ENDBLK
  5
14F
  8
0
  0
BLOCK
  8
0
  2
_U12
 70
     0
 10
0.0
 20
0.0
 30
0.0
  3
_U12
  1

  0
LINE
  5
151
  8
DEFAULT
 10
100.0
 20
200.0
 30
0.0
 11
150.0
 21
200.0
 31
0.0
  0
LINE
  5
152
  8
DEFAULT
 10
150.0
 20
200.0
 30
0.0
 11
100.0
 21
250.0
 31
0.0
  0
LINE
  5
153
  8
DEFAULT
 10
100.0
 20
250.0
 30
0.0
 11
100.0
 21
200.0
 31
0.0
  0
LINE
  5
154
  8
DEFAULT
 10
125.0
 20
200.0
 30
0.0
 11
125.0
 21
225.0
 31
0.0
  0
LINE
  5
155
  8
DEFAULT
 10
125.0
 20
225.0
 30
0.0
 11
100.0
 21
225.0
 31
0.0
  0
LINE
  5
156
  8
DEFAULT
 10
150.0
 20
200.0
 30
0.0
 11
150.0
 21
250.0
 31
0.0
  0
LINE
  5
157
  8
DEFAULT
 10
150.0
 20
250.0
 30
0.0
 11
100.0
 21
250.0
 31
0.0
  0
LINE
  5
158
  8
DEFAULT
 10
100.0
 20
250.0
 30
0.0
 11
150.0
 21
200.0
 31
0.0
  0
LINE
  5
159
  8
DEFAULT
 10
150.0
 20
225.0
 30
0.0
 11
125.0
 21
250.0
 31
0.0
  0
LINE
  5
15A
  8
DEFAULT
 10
150.0
 20
250.0
 30
0.0
 11
125.0
 21
225.0
 31
0.0
  0
ENDBLK
  5
15C
  8
0
  0
BLOCK
  8
0
  2
_U13
 70
     0
 10
0.0
 20
0.0
 30
0.0
  3
_U13
  1

  0
LINE
  5
15E
  8
DEFAULT
 10
200.0
 20
200.0
 30
0.0
 11
250.0
 21
200.0
 31
0.0
  0
LINE
  5
15F
  8
DEFAULT
 10
250.0
 20
200.0
 30
0.0
 11
200.0
 21
250.0
 31
0.0
  0
LINE
  5
160
  8
DEFAULT
 10
200.0
 20
250.0
 30
0.0
 11
200.0
 21
200.0
 31
0.0
  0
LINE
  5
161
  8
DEFAULT
 10
225.0
 20
200.0
 30
0.0
 11
225.0
 21
225.0
 31
0.0
  0
LINE
  5
162
  8
DEFAULT
 10
225.0
 20
225.0
 30
0.0
 11
200.0
 21
225.0
 31
0.0
  0
LINE
  5
163
  8
DEFAULT
 10
250.0
 20
200.0
 30
0.0
 11
250.0
 21
250.0
 31
0.0
  0
LINE
  5
164
  8
DEFAULT
 10
250.0
 20
250.0
 30
0.0
 11
200.0
 21
250.0
 31
0.0
  0
LINE
  5
165
  8
DEFAULT
 10
200.0
 20
250.0
 30
0.0
 11
250.0
 21
200.0
 31
0.0
  0
LINE
  5
166
  8
DEFAULT
 10
250.0
 20
225.0
 30
0.0
 11
225.0
 21
250.0
 31
0.0
  0
LINE
  5
167
  8
DEFAULT
 10
250.0
 20
250.0
 30
0.0
 11
225.0
 21
225.0
 31
0.0
  0
ENDBLK
  5
169
  8
0
  0
BLOCK
  8
0
  2
_U14
 70
     0
 10
0.0
 20
0.0
 30
0.0
  3
_U14
  1

  0
LINE
  5
16B
  8
DEFAULT
 10
300.0
 20
200.0
 30
0.0
 11
350.0
 21
200.0
 31
0.0
  0
LINE
  5
16C
  8
DEFAULT
 10
350.0
 20
200.0
 30
0.0
 11
300.0
 21
250.0
 31
0.0
  0
LINE
  5
16D
  8
DEFAULT
 10
300.0
 20
250.0
 30
0.0
 11
300.0
 21
200.0
 31
0.0
  0
LINE
  5
16E
  8
DEFAULT
 10
325.0
 20
200.0
 30
0.0
 11
325.0
 21
225.0
 31
0.0
  0
LINE
  5
16F
  8
DEFAULT
 10
325.0
 20
225.0
 30
0.0
 11
300.0
 21
225.0
 31
0.0
  0
LINE
  5
170
  8
DEFAULT
 10
350.0
 20
200.0
 30
0.0
 11
350.0
 21
250.0
 31
0.0
  0
LINE
  5
171
  8
DEFAULT
 10
350.0
 20
250.0
 30
0.0
 11
300.0
 21
250.0
 31
0.0
  0
LINE
  5
172
  8
DEFAULT
 10
300.0
 20
250.0
 30
0.0
 11
350.0
 21
200.0
 31
0.0
  0
LINE
  5
173
  8
DEFAULT
 10
350.0
 20
225.0
 30
0.0
 11
325.0
 21
250.0
 31
0.0
  0
LINE
  5
174
  8
DEFAULT
 10
350.0
 20
250.0
 30
0.0
 11
325.0
 21
225.0
 31
0.0
  0
ENDBLK
  5
176
  8
0
  0
BLOCK
  8
0
  2
_U15
 70
     0
 10
0.0
 20
0.0
 30
0.0
  3
_U15
  1

  0
LINE
  5
178
  8
DEFAULT
 10
400.0
 20
200.0
 30
0.0
 11
450.0
 21
200.0
 31
0.0
  0
LINE
  5
179
  8
DEFAULT
 10
450.0
 20
200.0
 30
0.0
 11
400.0
 21
250.0
 31
0.0
  0
LINE
  5
17A
  8
DEFAULT
 10
400.0
 20
250.0
 30
0.0
 11
400.0
 21
200.0
 31
0.0
  0
LINE
  5
17B
  8
DEFAULT
 10
425.0
 20
200.0
 30
0.0
 11
425.0
 21
225.0
 31
0.0
  0
LINE
  5
17C
  8
DEFAULT
 10
425.0
 20
225.0
 30
0.0
 11
400.0
 21
225.0
 31
0.0
  0
LINE
  5
17D
  8
DEFAULT
 10
450.0
 20
200.0
 30
0.0
 11
450.0
 21
250.0
 31
0.0
  0
LINE
  5
17E
  8
DEFAULT
 10
450.0
 20
250.0
 30
0.0
 11
400.0
 21
250.0
 31
0.0
  0
LINE
  5
17F
  8
DEFAULT
 10
400.0
 20
250.0
 30
0.0
 11
450.0
 21
200.0
 31
0.0
  0
LINE
  5
180
  8
DEFAULT
 10
450.0
 20
225.0
 30
0.0
 11
425.0
 21
250.0
 31
0.0
  0
LINE
  5
181
  8
DEFAULT
 10
449.9999999999999
 20
249.9999999999999
 30
0.0
 11
425.0
 21
225.0
 31
0.0
  0
ENDBLK
  5
183
  8
0
  0
BLOCK
  8
0
  2
_U16
 70
     0
 10
0.0
 20
0.0
 30
0.0
  3
_U16
  1

  0
LINE
  5
185
  8
DEFAULT
 10
50.0
 20
250.0
 30
0.0
 11
100.0
 21
250.0
 31
0.0
  0
LINE
  5
186
  8
DEFAULT
 10
100.0
 20
250.0
 30
0.0
 11
50.0
 21
300.0000000000001
 31
0.0
  0
LINE
  5
187
  8
DEFAULT
 10
50.0
 20
300.0000000000001
 30
0.0
 11
50.0
 21
250.0
 31
0.0
  0
LINE
  5
188
  8
DEFAULT
 10
75.0
 20
250.0
 30
0.0
 11
75.0
 21
275.0000000000001
 31
0.0
  0
LINE
  5
189
  8
DEFAULT
 10
75.0
 20
275.0000000000001
 30
0.0
 11
50.0
 21
275.0000000000001
 31
0.0
  0
LINE
  5
18A
  8
DEFAULT
 10
100.0
 20
250.0
 30
0.0
 11
100.0
 21
300.0000000000001
 31
0.0
  0
LINE
  5
18B
  8
DEFAULT
 10
100.0
 20
300.0000000000001
 30
0.0
 11
50.0
 21
300.0000000000001
 31
0.0
  0
LINE
  5
18C
  8
DEFAULT
 10
50.0
 20
300.0000000000001
 30
0.0
 11
100.0
 21
250.0
 31
0.0
  0
LINE
  5
18D
  8
DEFAULT
 10
100.0
 20
275.0000000000001
 30
0.0
 11
75.0
 21
300.0000000000001
 31
0.0
  0
LINE
  5
18E
  8
DEFAULT
 10
100.0
 20
300.0
 30
0.0
 11
75.0
 21
275.0000000000001
 31
0.0
  0
ENDBLK
  5
190
  8
0
  0
BLOCK
  8
0
  2
_U17
 70
     0
 10
0.0
 20
0.0
 30
0.0
  3
_U17
  1

  0
LINE
  5
192
  8
DEFAULT
 10
150.0
 20
250.0
 30
0.0
 11
200.0
 21
250.0
 31
0.0
  0
LINE
  5
193
  8
DEFAULT
 10
200.0
 20
250.0
 30
0.0
 11
150.0
 21
300.0000000000001
 31
0.0
  0
LINE
  5
194
  8
DEFAULT
 10
150.0
 20
300.0000000000001
 30
0.0
 11
150.0
 21
250.0
 31
0.0
  0
LINE
  5
195
  8
DEFAULT
 10
175.0
 20
250.0
 30
0.0
 11
175.0
 21
275.0000000000001
 31
0.0
  0
LINE
  5
196
  8
DEFAULT
 10
175.0
 20
275.0000000000001
 30
0.0
 11
150.0
 21
275.0000000000001
 31
0.0
  0
LINE
  5
197
  8
DEFAULT
 10
200.0
 20
250.0
 30
0.0
 11
200.0
 21
300.0000000000001
 31
0.0
  0
LINE
  5
198
  8
DEFAULT
 10
200.0
 20
300.0000000000001
 30
0.0
 11
150.0
 21
300.0000000000001
 31
0.0
  0
LINE
  5
199
  8
DEFAULT
 10
150.0
 20
300.0000000000001
 30
0.0
 11
200.0
 21
250.0
 31
0.0
  0
LINE
  5
19A
  8
DEFAULT
 10
200.0
 20
275.0000000000001
 30
0.0
 11
175.0
 21
300.0000000000001
 31
0.0
  0
LINE
  5
19B
  8
DEFAULT
 10
200.0
 20
300.0
 30
0.0
 11
175.0
 21
275.0000000000001
 31
0.0
  0
ENDBLK
  5
19D
  8
0
  0
BLOCK
  8
0
  2
_U18
 70
     0
 10
0.0
 20
0.0
 30
0.0
  3
_U18
  1

  0
LINE
  5
19F
  8
DEFAULT
 10
249.9999999999999
 20
250.0
 30
0.0
 11
300.0
 21
250.0
 31
0.0
  0
LINE
  5
1A0
  8
DEFAULT
 10
300.0
 20
250.0
 30
0.0
 11
249.9999999999999
 21
300.0
 31
0.0
  0
LINE
  5
1A1
  8
DEFAULT
 10
249.9999999999999
 20
300.0
 30
0.0
 11
249.9999999999999
 21
250.0
 31
0.0
  0
LINE
  5
1A2
  8
DEFAULT
 10
274.9999999999999
 20
250.0
 30
0.0
 11
274.9999999999999
 21
275.0
 31
0.0
  0
LINE
  5
1A3
  8
DEFAULT
 10
274.9999999999999
 20
275.0
 30
0.0
 11
249.9999999999999
 21
275.0
 31
0.0
  0
LINE
  5
1A4
  8
DEFAULT
 10
300.0
 20
250.0
 30
0.0
 11
300.0
 21
300.0
 31
0.0
  0
LINE
  5
1A5
  8
DEFAULT
 10
300.0
 20
300.0
 30
0.0
 11
249.9999999999999
 21
300.0
 31
0.0
  0
LINE
  5
1A6
  8
DEFAULT
 10
249.9999999999999
 20
300.0
 30
0.0
 11
300.0
 21
250.0
 31
0.0
  0
LINE
  5
1A7
  8
DEFAULT
 10
300.0
 20
275.0
 30
0.0
 11
274.9999999999999
 21
300.0
 31
0.0
  0
LINE
  5
1A8
  8
DEFAULT
 10
299.9999999999999
 20
300.0000000000001
 30
0.0
 11
274.9999999999999
 21
275.0
 31
0.0
  0
ENDBLK
  5
1AA
  8
0
  0
BLOCK
  8
0
  2
_U19
 70
     0
 10
0.0
 20
0.0
 30
0.0
  3
_U19
  1

  0
LINE
  5
1AC
  8
DEFAULT
 10
350.0
 20
250.0
 30
0.0
 11
400.0
 21
250.0
 31
0.0
  0
LINE
  5
1AD
  8
DEFAULT
 10
400.0
 20
250.0
 30
0.0
 11
350.0
 21
300.0000000000001
 31
0.0
  0
LINE
  5
1AE
  8
DEFAULT
 10
350.0
 20
300.0000000000001
 30
0.0
 11
350.0
 21
250.0
 31
0.0
  0
LINE
  5
1AF
  8
DEFAULT
 10
375.0
 20
250.0
 30
0.0
 11
375.0
 21
275.0000000000001
 31
0.0
  0
LINE
  5
1B0
  8
DEFAULT
 10
375.0
 20
275.0000000000001
 30
0.0
 11
350.0
 21
275.0000000000001
 31
0.0
  0
LINE
  5
1B1
  8
DEFAULT
 10
400.0
 20
250.0
 30
0.0
 11
400.0
 21
300.0000000000001
 31
0.0
  0
LINE
  5
1B2
  8
DEFAULT
 10
400.0
 20
300.0000000000001
 30
0.0
 11
350.0
 21
300.0000000000001
 31
0.0
  0
LINE
  5
1B3
  8
DEFAULT
 10
350.0
 20
300.0000000000001
 30
0.0
 11
400.0
 21
250.0
 31
0.0
  0
LINE
  5
1B4
  8
DEFAULT
 10
400.0000000000001
 20
275.0000000000001
 30
0.0
 11
375.0
 21
300.0000000000001
 31
0.0
  0
LINE
  5
1B5
  8
DEFAULT
 10
400.0
 20
300.0
 30
0.0
 11
375.0
 21
275.0000000000001
 31
0.0
  0
ENDBLK
  5
1B7
  8
0
  0
BLOCK
  8
0
  2
_U20
 70
     0
 10
0.0
 20
0.0
 30
0.0
  3
_U20
  1

  0
LINE
  5
1B9
  8
DEFAULT
 10
100.0
 20
300.0000000000001
 30
0.0
 11
150.0
 21
300.0000000000001
 31
0.0
  0
LINE
  5
1BA
  8
DEFAULT
 10
150.0
 20
300.0000000000001
 30
0.0
 11
100.0
 21
350.0
 31
0.0
  0
LINE
  5
1BB
  8
DEFAULT
 10
100.0
 20
350.0
 30
0.0
 11
100.0
 21
300.0000000000001
 31
0.0
  0
LINE
  5
1BC
  8
DEFAULT
 10
125.0
 20
300.0000000000001
 30
0.0
 11
125.0
 21
325.0000000000001
 31
0.0
  0
LINE
  5
1BD
  8
DEFAULT
 10
125.0
 20
325.0000000000001
 30
0.0
 11
100.0
 21
325.0000000000001
 31
0.0
  0
LINE
  5
1BE
  8
DEFAULT
 10
150.0
 20
300.0000000000001
 30
0.0
 11
150.0
 21
350.0
 31
0.0
  0
LINE
  5
1BF
  8
DEFAULT
 10
150.0
 20
350.0
 30
0.0
 11
100.0
 21
350.0
 31
0.0
  0
LINE
  5
1C0
  8
DEFAULT
 10
100.0
 20
350.0
 30
0.0
 11
150.0
 21
300.0000000000001
 31
0.0
  0
LINE
  5
1C1
  8
DEFAULT
 10
150.0
 20
325.0000000000001
 30
0.0
 11
125.0
 21
350.0
 31
0.0
  0
LINE
  5
1C2
  8
DEFAULT
 10
149.9999999999999
 20
350.0
 30
0.0
 11
125.0
 21
325.0000000000001
 31
0.0
  0
ENDBLK
  5
1C4
  8
0
  0
BLOCK
  8
0
  2
_U21
 70
     0
 10
0.0
 20
0.0
 30
0.0
  3
_U21
  1

  0
LINE
  5
1C6
  8
DEFAULT
 10
200.0
 20
300.0
 30
0.0
 11
249.9999999999999
 21
300.0
 31
0.0
  0
LINE
  5
1C7
  8
DEFAULT
 10
249.9999999999999
 20
300.0
 30
0.0
 11
200.0
 21
350.0
 31
0.0
  0
LINE
  5
1C8
  8
DEFAULT
 10
200.0
 20
350.0
 30
0.0
 11
200.0
 21
300.0
 31
0.0
  0
LINE
  5
1C9
  8
DEFAULT
 10
224.9999999999999
 20
300.0
 30
0.0
 11
224.9999999999999
 21
325.0
 31
0.0
  0
LINE
  5
1CA
  8
DEFAULT
 10
224.9999999999999
 20
325.0
 30
0.0
 11
200.0
 21
325.0
 31
0.0
  0
LINE
  5
1CB
  8
DEFAULT
 10
249.9999999999999
 20
300.0
 30
0.0
 11
249.9999999999999
 21
350.0
 31
0.0
  0
LINE
  5
1CC
  8
DEFAULT
 10
249.9999999999999
 20
350.0
 30
0.0
 11
200.0
 21
350.0
 31
0.0
  0
LINE
  5
1CD
  8
DEFAULT
 10
200.0
 20
350.0
 30
0.0
 11
249.9999999999999
 21
300.0
 31
0.0
  0
LINE
  5
1CE
  8
DEFAULT
 10
249.9999999999999
 20
325.0
 30
0.0
 11
224.9999999999999
 21
350.0
 31
0.0
  0
LINE
  5
1CF
  8
DEFAULT
 10
249.9999999999999
 20
349.9999999999999
 30
0.0
 11
225.0
 21
325.0000000000001
 31
0.0
  0
ENDBLK
  5
1D1
  8
0
  0
BLOCK
  8
0
  2
_U22
 70
     0
 10
0.0
 20
0.0
 30
0.0
  3
_U22
  1

  0
LINE
  5
1D3
  8
DEFAULT
 10
300.0
 20
300.0000000000001
 30
0.0
 11
350.0
 21
300.0000000000001
 31
0.0
  0
LINE
  5
1D4
  8
DEFAULT
 10
350.0
 20
300.0000000000001
 30
0.0
 11
300.0
 21
350.0
 31
0.0
  0
LINE
  5
1D5
  8
DEFAULT
 10
300.0
 20
350.0
 30
0.0
 11
300.0
 21
300.0000000000001
 31
0.0
  0
LINE
  5
1D6
  8
DEFAULT
 10
325.0
 20
300.0000000000001
 30
0.0
 11
325.0
 21
325.0000000000001
 31
0.0
  0
LINE
  5
1D7
  8
DEFAULT
 10
325.0
 20
325.0000000000001
 30
0.0
 11
300.0
 21
325.0000000000001
 31
0.0
  0
LINE
  5
1D8
  8
DEFAULT
 10
350.0
 20
300.0000000000001
 30
0.0
 11
350.0
 21
350.0
 31
0.0
  0
LINE
  5
1D9
  8
DEFAULT
 10
350.0
 20
350.0
 30
0.0
 11
300.0
 21
350.0
 31
0.0
  0
LINE
  5
1DA
  8
DEFAULT
 10
300.0
 20
350.0
 30
0.0
 11
350.0
 21
300.0000000000001
 31
0.0
  0
LINE
  5
1DB
  8
DEFAULT
 10
350.0
 20
325.0000000000001
 30
0.0
 11
324.9999999999999
 21
350.0
 31
0.0
  0
LINE
  5
1DC
  8
DEFAULT
 10
349.9999999999999
 20
350.0
 30
0.0
 11
325.0
 21
325.0000000000001
 31
0.0
  0
ENDBLK
  5
1DE
  8
0
  0
BLOCK
  8
0
  2
_U23
 70
     0
 10
0.0
 20
0.0
 30
0.0
  3
_U23
  1

  0
LINE
  5
1E0
  8
DEFAULT
 10
400.0
 20
300.0
 30
0.0
 11
449.9999999999999
 21
300.0
 31
0.0
  0
LINE
  5
1E1
  8
DEFAULT
 10
449.9999999999999
 20
300.0
 30
0.0
 11
400.0
 21
350.0
 31
0.0
  0
LINE
  5
1E2
  8
DEFAULT
 10
400.0
 20
350.0
 30
0.0
 11
400.0
 21
300.0
 31
0.0
  0
LINE
  5
1E3
  8
DEFAULT
 10
424.9999999999999
 20
300.0
 30
0.0
 11
424.9999999999999
 21
325.0
 31
0.0
  0
LINE
  5
1E4
  8
DEFAULT
 10
424.9999999999999
 20
325.0
 30
0.0
 11
400.0
 21
325.0
 31
0.0
  0
LINE
  5
1E5
  8
DEFAULT
 10
449.9999999999999
 20
300.0
 30
0.0
 11
449.9999999999999
 21
350.0
 31
0.0
  0
LINE
  5
1E6
  8
DEFAULT
 10
449.9999999999999
 20
350.0
 30
0.0
 11
400.0
 21
350.0
 31
0.0
  0
LINE
  5
1E7
  8
DEFAULT
 10
400.0
 20
350.0
 30
0.0
 11
449.9999999999999
 21
300.0
 31
0.0
  0
LINE
  5
1E8
  8
DEFAULT
 10
449.9999999999999
 20
325.0
 30
0.0
 11
424.9999999999999
 21
350.0000000000001
 31
0.0
  0
LINE
  5
1E9
  8
DEFAULT
 10
449.9999999999999
 20
349.9999999999999
 30
0.0
 11
424.9999999999999
 21
325.0000000000001
 31
0.0
  0
ENDBLK
  5
1EB
  8
0
  0
BLOCK
  8
0
  2
_U24
 70
     0
 10
0.0
 20
0.0
 30
0.0
  3
_U24
  1

  0
LINE
  5
1ED
  8
DEFAULT
 10
50.0
 20
350.0
 30
0.0
 11
100.0
 21
350.0
 31
0.0
  0
LINE
  5
1EE
  8
DEFAULT
 10
100.0
 20
350.0
 30
0.0
 11
50.0
 21
400.0
 31
0.0
  0
LINE
  5
1EF
  8
DEFAULT
 10
50.0
 20
400.0
 30
0.0
 11
50.0
 21
350.0
 31
0.0
  0
LINE
  5
1F0
  8
DEFAULT
 10
75.0
 20
350.0
 30
0.0
 11
75.0
 21
375.0
 31
0.0
  0
LINE
  5
1F1
  8
DEFAULT
 10
75.0
 20
375.0
 30
0.0
 11
50.0
 21
375.0
 31
0.0
  0
LINE
  5
1F2
  8
DEFAULT
 10
100.0
 20
350.0
 30
0.0
 11
100.0
 21
400.0
 31
0.0
  0
LINE
  5
1F3
  8
DEFAULT
 10
100.0
 20
400.0
 30
0.0
 11
50.0
 21
400.0
 31
0.0
  0
LINE
  5
1F4
  8
DEFAULT
 10
50.0
 20
400.0
 30
0.0
 11
100.0
 21
350.0
 31
0.0
  0
LINE
  5
1F5
  8
DEFAULT
 10
100.0
 20
374.9999999999999
 30
0.0
 11
75.00000000000004
 21
400.0
 31
0.0
  0
LINE
  5
1F6
  8
DEFAULT
 10
100.0
 20
400.0
 30
0.0
 11
75.00000000000003
 21
375.0
 31
0.0
  0
ENDBLK
  5
1F8
  8
0
  0
BLOCK
  8
0
  2
_U25
 70
     0
 10
0.0
 20
0.0
 30
0.0
  3
_U25
  1

  0
LINE
  5
1FA
  8
DEFAULT
 10
150.0
 20
350.0
 30
0.0
 11
200.0
 21
350.0
 31
0.0
  0
LINE
  5
1FB
  8
DEFAULT
 10
200.0
 20
350.0
 30
0.0
 11
150.0
 21
400.0
 31
0.0
  0
LINE
  5
1FC
  8
DEFAULT
 10
150.0
 20
400.0
 30
0.0
 11
150.0
 21
350.0
 31
0.0
  0
LINE
  5
1FD
  8
DEFAULT
 10
175.0
 20
350.0
 30
0.0
 11
175.0
 21
375.0
 31
0.0
  0
LINE
  5
1FE
  8
DEFAULT
 10
175.0
 20
375.0
 30
0.0
 11
150.0
 21
375.0
 31
0.0
  0
LINE
  5
1FF
  8
DEFAULT
 10
200.0
 20
350.0
 30
0.0
 11
200.0
 21
400.0
 31
0.0
  0
LINE
  5
200
  8
DEFAULT
 10
200.0
 20
400.0
 30
0.0
 11
150.0
 21
400.0
 31
0.0
  0
LINE
  5
201
  8
DEFAULT
 10
150.0
 20
400.0
 30
0.0
 11
200.0
 21
350.0
 31
0.0
  0
LINE
  5
202
  8
DEFAULT
 10
200.0
 20
375.0
 30
0.0
 11
175.0
 21
399.9999999999999
 31
0.0
  0
LINE
  5
203
  8
DEFAULT
 10
200.0
 20
399.9999999999999
 30
0.0
 11
175.0
 21
375.0
 31
0.0
  0
ENDBLK
  5
205
  8
0
  0
BLOCK
  8
0
  2
_U26
 70
     0
 10
0.0
 20
0.0
 30
0.0
  3
_U26
  1

  0
LINE
  5
207
  8
DEFAULT
 10
249.9999999999999
 20
350.0
 30
0.0
 11
300.0
 21
350.0
 31
0.0
  0
LINE
  5
208
  8
DEFAULT
 10
300.0
 20
350.0
 30
0.0
 11
249.9999999999999
 21
400.0
 31
0.0
  0
LINE
  5
209
  8
DEFAULT
 10
249.9999999999999
 20
400.0
 30
0.0
 11
249.9999999999999
 21
350.0
 31
0.0
  0
LINE
  5
20A
  8
DEFAULT
 10
274.9999999999999
 20
350.0
 30
0.0
 11
274.9999999999999
 21
375.0
 31
0.0
  0
LINE
  5
20B
  8
DEFAULT
 10
274.9999999999999
 20
375.0
 30
0.0
 11
249.9999999999999
 21
375.0
 31
0.0
  0
LINE
  5
20C
  8
DEFAULT
 10
300.0
 20
350.0
 30
0.0
 11
300.0
 21
400.0
 31
0.0
  0
LINE
  5
20D
  8
DEFAULT
 10
300.0
 20
400.0
 30
0.0
 11
249.9999999999999
 21
400.0
 31
0.0
  0
LINE
  5
20E
  8
DEFAULT
 10
249.9999999999999
 20
400.0
 30
0.0
 11
300.0
 21
350.0
 31
0.0
  0
LINE
  5
20F
  8
DEFAULT
 10
300.0
 20
375.0
 30
0.0
 11
274.9999999999999
 21
400.0000000000001
 31
0.0
  0
LINE
  5
210
  8
DEFAULT
 10
299.9999999999999
 20
400.0
 30
0.0
 11
274.9999999999999
 21
375.0
 31
0.0
  0
ENDBLK
  5
212
  8
0
  0
BLOCK
  8
0
  2
_U27
 70
     0
 10
0.0
 20
0.0
 30
0.0
  3
_U27
  1

  0
LINE
  5
214
  8
DEFAULT
 10
350.0
 20
350.0
 30
0.0
 11
400.0
 21
350.0
 31
0.0
  0
LINE
  5
215
  8
DEFAULT
 10
400.0
 20
350.0
 30
0.0
 11
350.0
 21
400.0
 31
0.0
  0
LINE
  5
216
  8
DEFAULT
 10
350.0
 20
400.0
 30
0.0
 11
350.0
 21
350.0
 31
0.0
  0
LINE
  5
217
  8
DEFAULT
 10
375.0
 20
350.0
 30
0.0
 11
375.0
 21
375.0
 31
0.0
  0
LINE
  5
218
  8
DEFAULT
 10
375.0
 20
375.0
 30
0.0
 11
350.0
 21
375.0
 31
0.0
  0
LINE
  5
219
  8
DEFAULT
 10
400.0
 20
350.0
 30
0.0
 11
400.0
 21
400.0
 31
0.0
  0
LINE
  5
21A
  8
DEFAULT
 10
400.0
 20
400.0
 30
0.0
 11
350.0
 21
400.0
 31
0.0
  0
LINE
  5
21B
  8
DEFAULT
 10
350.0
 20
400.0
 30
0.0
 11
400.0
 21
350.0
 31
0.0
  0
LINE
  5
21C
  8
DEFAULT
 10
400.0
 20
375.0
 30
0.0
 11
375.0000000000001
 21
399.9999999999999
 31
0.0
  0
LINE
  5
21D
  8
DEFAULT
 10
399.9999999999999
 20
399.9999999999999
 30
0.0
 11
375.0
 21
375.0
 31
0.0
  0
ENDBLK
  5
21F
  8
0
  0
BLOCK
  8
0
  2
_U28
 70
     0
 10
0.0
 20
0.0
 30
0.0
  3
_U28
  1

  0
LINE
  5
221
  8
DEFAULT
 10
100.0
 20
400.0
 30
0.0
 11
150.0
 21
400.0
 31
0.0
  0
LINE
  5
222
  8
DEFAULT
 10
150.0
 20
400.0
 30
0.0
 11
100.0
 21
450.0
 31
0.0
  0
LINE
  5
223
  8
DEFAULT
 10
100.0
 20
450.0
 30
0.0
 11
100.0
 21
400.0
 31
0.0
  0
LINE
  5
224
  8
DEFAULT
 10
125.0
 20
400.0
 30
0.0
 11
125.0
 21
425.0
 31
0.0
  0
LINE
  5
225
  8
DEFAULT
 10
125.0
 20
425.0
 30
0.0
 11
100.0
 21
425.0
 31
0.0
  0
LINE
  5
226
  8
DEFAULT
 10
150.0
 20
400.0
 30
0.0
 11
150.0
 21
450.0
 31
0.0
  0
LINE
  5
227
  8
DEFAULT
 10
150.0
 20
450.0
 30
0.0
 11
100.0
 21
450.0
 31
0.0
  0
LINE
  5
228
  8
DEFAULT
 10
100.0
 20
450.0
 30
0.0
 11
150.0
 21
400.0
 31
0.0
  0
LINE
  5
229
  8
DEFAULT
 10
150.0
 20
425.0
 30
0.0
 11
125.0
 21
450.0
 31
0.0
  0
LINE
  5
22A
  8
DEFAULT
 10
150.0
 20
450.0
 30
0.0
 11
125.0
 21
425.0
 31
0.0
  0
ENDBLK
  5
22C
  8
0
  0
BLOCK
  8
0
  2
_U29
 70
     0
 10
0.0
 20
0.0
 30
0.0
  3
_U29
  1

  0
LINE
  5
22E
  8
DEFAULT
 10
200.0
 20
400.0
 30
0.0
 11
249.9999999999999
 21
400.0
 31
0.0
  0
LINE
  5
22F
  8
DEFAULT
 10
249.9999999999999
 20
400.0
 30
0.0
 11
200.0
 21
450.0
 31
0.0
  0
LINE
  5
230
  8
DEFAULT
 10
200.0
 20
450.0
 30
0.0
 11
200.0
 21
400.0
 31
0.0
  0
LINE
  5
231
  8
DEFAULT
 10
224.9999999999999
 20
400.0
 30
0.0
 11
224.9999999999999
 21
425.0
 31
0.0
  0
LINE
  5
232
  8
DEFAULT
 10
224.9999999999999
 20
425.0
 30
0.0
 11
200.0
 21
425.0
 31
0.0
  0
LINE
  5
233
  8
DEFAULT
 10
249.9999999999999
 20
400.0
 30
0.0
 11
249.9999999999999
 21
450.0
 31
0.0
  0
LINE
  5
234
  8
DEFAULT
 10
249.9999999999999
 20
450.0
 30
0.0
 11
200.0
 21
450.0
 31
0.0
  0
LINE
  5
235
  8
DEFAULT
 10
200.0
 20
450.0
 30
0.0
 11
249.9999999999999
 21
400.0
 31
0.0
  0
LINE
  5
236
  8
DEFAULT
 10
249.9999999999999
 20
424.9999999999999
 30
0.0
 11
224.9999999999999
 21
450.0
 31
0.0
  0
LINE
  5
237
  8
DEFAULT
 10
249.9999999999999
 20
449.9999999999999
 30
0.0
 11
224.9999999999999
 21
425.0
 31
0.0
  0
ENDBLK
  5
239
  8
0
  0
BLOCK
  8
0
  2
_U30
 70
     0
 10
0.0
 20
0.0
 30
0.0
  3
_U30
  1

  0
LINE
  5
23B
  8
DEFAULT
 10
300.0
 20
400.0
 30
0.0
 11
350.0
 21
400.0
 31
0.0
  0
LINE
  5
23C
  8
DEFAULT
 10
350.0
 20
400.0
 30
0.0
 11
300.0
 21
450.0
 31
0.0
  0
LINE
  5
23D
  8
DEFAULT
 10
300.0
 20
450.0
 30
0.0
 11
300.0
 21
400.0
 31
0.0
  0
LINE
  5
23E
  8
DEFAULT
 10
325.0
 20
400.0
 30
0.0
 11
325.0
 21
425.0
 31
0.0
  0
LINE
  5
23F
  8
DEFAULT
 10
325.0
 20
425.0
 30
0.0
 11
300.0
 21
425.0
 31
0.0
  0
LINE
  5
240
  8
DEFAULT
 10
350.0
 20
400.0
 30
0.0
 11
350.0
 21
450.0
 31
0.0
  0
LINE
  5
241
  8
DEFAULT
 10
350.0
 20
450.0
 30
0.0
 11
300.0
 21
450.0
 31
0.0
  0
LINE
  5
242
  8
DEFAULT
 10
300.0
 20
450.0
 30
0.0
 11
350.0
 21
400.0
 31
0.0
  0
LINE
  5
243
  8
DEFAULT
 10
350.0
 20
425.0
 30
0.0
 11
325.0
 21
450.0
 31
0.0
  0
LINE
  5
244
  8
DEFAULT
 10
349.9999999999999
 20
449.9999999999999
 30
0.0
 11
325.0
 21
425.0
 31
0.0
  0
ENDBLK
  5
246
  8
0
  0
BLOCK
  8
0
  2
_U31
 70
     0
 10
0.0
 20
0.0
 30
0.0
  3
_U31
  1

  0
LINE
  5
248
  8
DEFAULT
 10
400.0
 20
400.0
 30
0.0
 11
449.9999999999999
 21
400.0
 31
0.0
  0
LINE
  5
249
  8
DEFAULT
 10
449.9999999999999
 20
400.0
 30
0.0
 11
400.0
 21
450.0
 31
0.0
  0
LINE
  5
24A
  8
DEFAULT
 10
400.0
 20
450.0
 30
0.0
 11
400.0
 21
400.0
 31
0.0
  0
LINE
  5
24B
  8
DEFAULT
 10
424.9999999999999
 20
400.0
 30
0.0
 11
424.9999999999999
 21
425.0
 31
0.0
  0
LINE
  5
24C
  8
DEFAULT
 10
424.9999999999999
 20
425.0
 30
0.0
 11
400.0
 21
425.0
 31
0.0
  0
LINE
  5
24D
  8
DEFAULT
 10
449.9999999999999
 20
400.0
 30
0.0
 11
449.9999999999999
 21
450.0
 31
0.0
  0
LINE
  5
24E
  8
DEFAULT
 10
449.9999999999999
 20
450.0
 30
0.0
 11
400.0
 21
450.0
 31
0.0
  0
LINE
  5
24F
  8
DEFAULT
 10
400.0
 20
450.0
 30
0.0
 11
449.9999999999999
 21
400.0
 31
0.0
  0
LINE
  5
250
  8
DEFAULT
 10
449.9999999999999
 20
424.9999999999999
 30
0.0
 11
424.9999999999999
 21
450.0
 31
0.0
  0
LINE
  5
251
  8
DEFAULT
 10
449.9999999999999
 20
449.9999999999999
 30
0.0
 11
424.9999999999999
 21
425.0
 31
0.0
  0
ENDBLK
  5
253
  8
0
  0
BLOCK
  8
0
  2
_U32
 70
     0
 10
0.0
 20
0.0
 30
0.0
  3
_U32
  1

  0
LINE
  5
255
  8
DEFAULT
 10
400.0
 20
400.0
 30
0.0
 11
449.9999999999999
 21
400.0
 31
0.0
  0
LINE
  5
256
  8
DEFAULT
 10
449.9999999999999
 20
400.0
 30
0.0
 11
400.0
 21
450.0
 31
0.0
  0
LINE
  5
257
  8
DEFAULT
 10
400.0
 20
450.0
 30
0.0
 11
400.0
 21
400.0
 31
0.0
  0
LINE
  5
258
  8
DEFAULT
 10
424.9999999999999
 20
400.0
 30
0.0
 11
424.9999999999999
 21
425.0
 31
0.0
  0
LINE
  5
259
  8
DEFAULT
 10
424.9999999999999
 20
425.0
 30
0.0
 11
400.0
 21
425.0
 31
0.0
  0
LINE
  5
25A
  8
DEFAULT
 10
449.9999999999999
 20
400.0
 30
0.0
 11
449.9999999999999
 21
450.0
 31
0.0
  0
LINE
  5
25B
  8
DEFAULT
 10
449.9999999999999
 20
450.0
 30
0.0
 11
400.0
 21
450.0
 31
0.0
  0
LINE
  5
25C
  8
DEFAULT
 10
400.0
 20
450.0
 30
0.0
 11
449.9999999999999
 21
400.0
 31
0.0
  0
LINE
  5
25D
  8
DEFAULT
 10
449.9999999999999
 20
424.9999999999999
 30
0.0
 11
424.9999999999999
 21
450.0
 31
0.0
  0
LINE
  5
25E
  8
DEFAULT
 10
449.9999999999999
 20
449.9999999999999
 30
0.0
 11
424.9999999999999
 21
425.0
 31
0.0
  0
ENDBLK
  5
260
  8
0
  0
BLOCK
  8
0
  2
_U33
 70
     0
 10
0.0
 20
0.0
 30
0.0
  3
_U33
  1

  0
LINE
  5
262
  8
DEFAULT
 10
300.0
 20
400.0
 30
0.0
 11
350.0
 21
400.0
 31
0.0
  0
LINE
  5
263
  8
DEFAULT
 10
350.0
 20
400.0
 30
0.0
 11
300.0
 21
450.0
 31
0.0
  0
LINE
  5
264
  8
DEFAULT
 10
300.0
 20
450.0
 30
0.0
 11
300.0
 21
400.0
 31
0.0
  0
LINE
  5
265
  8
DEFAULT
 10
325.0
 20
400.0
 30
0.0
 11
325.0
 21
425.0
 31
0.0
  0
LINE
  5
266
  8
DEFAULT
 10
325.0
 20
425.0
 30
0.0
 11
300.0
 21
425.0
 31
0.0
  0
LINE
  5
267
  8
DEFAULT
 10
350.0
 20
400.0
 30
0.0
 11
350.0
 21
450.0
 31
0.0
  0
LINE
  5
268
  8
DEFAULT
 10
350.0
 20
450.0
 30
0.0
 11
300.0
 21
450.0
 31
0.0
  0
LINE
  5
269
  8
DEFAULT
 10
300.0
 20
450.0
 30
0.0
 11
350.0
 21
400.0
 31
0.0
  0
LINE
  5
26A
  8
DEFAULT
 10
350.0
 20
425.0
 30
0.0
 11
325.0
 21
450.0
 31
0.0
  0
LINE
  5
26B
  8
DEFAULT
 10
349.9999999999999
 20
449.9999999999999
 30
0.0
 11
325.0
 21
425.0
 31
0.0
  0
ENDBLK
  5
26D
  8
0
  0
BLOCK
  8
0
  2
_U34
 70
     0
 10
0.0
 20
0.0
 30
0.0
  3
_U34
  1

  0
LINE
  5
26F
  8
DEFAULT
 10
200.0
 20
400.0
 30
0.0
 11
249.9999999999999
 21
400.0
 31
0.0
  0
LINE
  5
270
  8
DEFAULT
 10
249.9999999999999
 20
400.0
 30
0.0
 11
200.0
 21
450.0
 31
0.0
  0
LINE
  5
271
  8
DEFAULT
 10
200.0
 20
450.0
 30
0.0
 11
200.0
 21
400.0
 31
0.0
  0
LINE
  5
272
  8
DEFAULT
 10
224.9999999999999
 20
400.0
 30
0.0
 11
224.9999999999999
 21
425.0
 31
0.0
  0
LINE
  5
273
  8
DEFAULT
 10
224.9999999999999
 20
425.0
 30
0.0
 11
200.0
 21
425.0
 31
0.0
  0
LINE
  5
274
  8
DEFAULT
 10
249.9999999999999
 20
400.0
 30
0.0
 11
249.9999999999999
 21
450.0
 31
0.0
  0
LINE
  5
275
  8
DEFAULT
 10
249.9999999999999
 20
450.0
 30
0.0
 11
200.0
 21
450.0
 31
0.0
  0
LINE
  5
276
  8
DEFAULT
 10
200.0
 20
450.0
 30
0.0
 11
249.9999999999999
 21
400.0
 31
0.0
  0
LINE
  5
277
  8
DEFAULT
 10
249.9999999999999
 20
424.9999999999999
 30
0.0
 11
224.9999999999999
 21
450.0
 31
0.0
  0
LINE
  5
278
  8
DEFAULT
 10
249.9999999999999
 20
449.9999999999999
 30
0.0
 11
224.9999999999999
 21
425.0
 31
0.0
  0
ENDBLK
  5
27A
  8
0
  0
BLOCK
  8
0
  2
_U35
 70
     0
 10
0.0
 20
0.0
 30
0.0
  3
_U35
  1

  0
LINE
  5
27C
  8
DEFAULT
 10
100.0
 20
400.0
 30
0.0
 11
150.0
 21
400.0
 31
0.0
  0
LINE
  5
27D
  8
DEFAULT
 10
150.0
 20
400.0
 30
0.0
 11
100.0
 21
450.0
 31
0.0
  0
LINE
  5
27E
  8
DEFAULT
 10
100.0
 20
450.0
 30
0.0
 11
100.0
 21
400.0
 31
0.0
  0
LINE
  5
27F
  8
DEFAULT
 10
125.0
 20
400.0
 30
0.0
 11
125.0
 21
425.0
 31
0.0
  0
LINE
  5
280
  8
DEFAULT
 10
125.0
 20
425.0
 30
0.0
 11
100.0
 21
425.0
 31
0.0
  0
LINE
  5
281
  8
DEFAULT
 10
150.0
 20
400.0
 30
0.0
 11
150.0
 21
450.0
 31
0.0
  0
LINE
  5
282
  8
DEFAULT
 10
150.0
 20
450.0
 30
0.0
 11
100.0
 21
450.0
 31
0.0
  0
LINE
  5
283
  8
DEFAULT
 10
100.0
 20
450.0
 30
0.0
 11
150.0
 21
400.0
 31
0.0
  0
LINE
  5
284
  8
DEFAULT
 10
150.0
 20
425.0
 30
0.0
 11
125.0
 21
450.0
 31
0.0
  0
LINE
  5
285
  8
DEFAULT
 10
150.0
 20
450.0
 30
0.0
 11
125.0
 21
425.0
 31
0.0
  0
ENDBLK
  5
287
  8
0
  0
BLOCK
  8
0
  2
_U36
 70
     0
 10
0.0
 20
0.0
 30
0.0
  3
_U36
  1

  0
LINE
  5
289
  8
DEFAULT
 10
350.0
 20
350.0
 30
0.0
 11
400.0
 21
350.0
 31
0.0
  0
LINE
  5
28A
  8
DEFAULT
 10
400.0
 20
350.0
 30
0.0
 11
350.0
 21
400.0
 31
0.0
  0
LINE
  5
28B
  8
DEFAULT
 10
350.0
 20
400.0
 30
0.0
 11
350.0
 21
350.0
 31
0.0
  0
LINE
  5
28C
  8
DEFAULT
 10
375.0
 20
350.0
 30
0.0
 11
375.0
 21
375.0
 31
0.0
  0
LINE
  5
28D
  8
DEFAULT
 10
375.0
 20
375.0
 30
0.0
 11
350.0
 21
375.0
 31
0.0
  0
LINE
  5
28E
  8
DEFAULT
 10
400.0
 20
350.0
 30
0.0
 11
400.0
 21
400.0
 31
0.0
  0
LINE
  5
28F
  8
DEFAULT
 10
400.0
 20
400.0
 30
0.0
 11
350.0
 21
400.0
 31
0.0
  0
LINE
  5
290
  8
DEFAULT
 10
350.0
 20
400.0
 30
0.0
 11
400.0
 21
350.0
 31
0.0
  0
LINE
  5
291
  8
DEFAULT
 10
400.0
 20
375.0
 30
0.0
 11
375.0000000000001
 21
399.9999999999999
 31
0.0
  0
LINE
  5
292
  8
DEFAULT
 10
399.9999999999999
 20
399.9999999999999
 30
0.0
 11
375.0
 21
375.0
 31
0.0
  0
ENDBLK
  5
294
  8
0
  0
BLOCK
  8
0
  2
_U37
 70
     0
 10
0.0
 20
0.0
 30
0.0
  3
_U37
  1

  0
LINE
  5
296
  8
DEFAULT
 10
249.9999999999999
 20
350.0
 30
0.0
 11
300.0
 21
350.0
 31
0.0
  0
LINE
  5
297
  8
DEFAULT
 10
300.0
 20
350.0
 30
0.0
 11
249.9999999999999
 21
400.0
 31
0.0
  0
LINE
  5
298
  8
DEFAULT
 10
249.9999999999999
 20
400.0
 30
0.0
 11
249.9999999999999
 21
350.0
 31
0.0
  0
LINE
  5
299
  8
DEFAULT
 10
274.9999999999999
 20
350.0
 30
0.0
 11
274.9999999999999
 21
375.0
 31
0.0
  0
LINE
  5
29A
  8
DEFAULT
 10
274.9999999999999
 20
375.0
 30
0.0
 11
249.9999999999999
 21
375.0
 31
0.0
  0
LINE
  5
29B
  8
DEFAULT
 10
300.0
 20
350.0
 30
0.0
 11
300.0
 21
400.0
 31
0.0
  0
LINE
  5
29C
  8
DEFAULT
 10
300.0
 20
400.0
 30
0.0
 11
249.9999999999999
 21
400.0
 31
0.0
  0
LINE
  5
29D
  8
DEFAULT
 10
249.9999999999999
 20
400.0
 30
0.0
 11
300.0
 21
350.0
 31
0.0
  0
LINE
  5
29E
  8
DEFAULT
 10
300.0
 20
375.0
 30
0.0
 11
274.9999999999999
 21
400.0000000000001
 31
0.0
  0
LINE
  5
29F
  8
DEFAULT
 10
299.9999999999999
 20
400.0
 30
0.0
 11
274.9999999999999
 21
375.0
 31
0.0
  0
ENDBLK
  5
2A1
  8
0
  0
BLOCK
  8
0
  2
_U38
 70
     0
 10
0.0
 20
0.0
 30
0.0
  3
_U38
  1

  0
LINE
  5
2A3
  8
DEFAULT
 10
150.0
 20
350.0
 30
0.0
 11
200.0
 21
350.0
 31
0.0
  0
LINE
  5
2A4
  8
DEFAULT
 10
200.0
 20
350.0
 30
0.0
 11
150.0
 21
400.0
 31
0.0
  0
LINE
  5
2A5
  8
DEFAULT
 10
150.0
 20
400.0
 30
0.0
 11
150.0
 21
350.0
 31
0.0
  0
LINE
  5
2A6
  8
DEFAULT
 10
175.0
 20
350.0
 30
0.0
 11
175.0
 21
375.0
 31
0.0
  0
LINE
  5
2A7
  8
DEFAULT
 10
175.0
 20
375.0
 30
0.0
 11
150.0
 21
375.0
 31
0.0
  0
LINE
  5
2A8
  8
DEFAULT
 10
200.0
 20
350.0
 30
0.0
 11
200.0
 21
400.0
 31
0.0
  0
LINE
  5
2A9
  8
DEFAULT
 10
200.0
 20
400.0
 30
0.0
 11
150.0
 21
400.0
 31
0.0
  0
LINE
  5
2AA
  8
DEFAULT
 10
150.0
 20
400.0
 30
0.0
 11
200.0
 21
350.0
 31
0.0
  0
LINE
  5
2AB
  8
DEFAULT
 10
200.0
 20
375.0
 30
0.0
 11
175.0
 21
399.9999999999999
 31
0.0
  0
LINE
  5
2AC
  8
DEFAULT
 10
200.0
 20
399.9999999999999
 30
0.0
 11
175.0
 21
375.0
 31
0.0
  0
ENDBLK
  5
2AE
  8
0
  0
BLOCK
  8
0
  2
_U39
 70
     0
 10
0.0
 20
0.0
 30
0.0
  3
_U39
  1

  0
LINE
  5
2B0
  8
DEFAULT
 10
50.0
 20
350.0
 30
0.0
 11
100.0
 21
350.0
 31
0.0
  0
LINE
  5
2B1
  8
DEFAULT
 10
100.0
 20
350.0
 30
0.0
 11
50.0
 21
400.0
 31
0.0
  0
LINE
  5
2B2
  8
DEFAULT
 10
50.0
 20
400.0
 30
0.0
 11
50.0
 21
350.0
 31
0.0
  0
LINE
  5
2B3
  8
DEFAULT
 10
75.0
 20
350.0
 30
0.0
 11
75.0
 21
375.0
 31
0.0
  0
LINE
  5
2B4
  8
DEFAULT
 10
75.0
 20
375.0
 30
0.0
 11
50.0
 21
375.0
 31
0.0
  0
LINE
  5
2B5
  8
DEFAULT
 10
100.0
 20
350.0
 30
0.0
 11
100.0
 21
400.0
 31
0.0
  0
LINE
  5
2B6
  8
DEFAULT
 10
100.0
 20
400.0
 30
0.0
 11
50.0
 21
400.0
 31
0.0
  0
LINE
  5
2B7
  8
DEFAULT
 10
50.0
 20
400.0
 30
0.0
 11
100.0
 21
350.0
 31
0.0
  0
LINE
  5
2B8
  8
DEFAULT
 10
100.0
 20
374.9999999999999
 30
0.0
 11
75.00000000000004
 21
400.0
 31
0.0
  0
LINE
  5
2B9
  8
DEFAULT
 10
100.0
 20
400.0
 30
0.0
 11
75.00000000000003
 21
375.0
 31
0.0
  0
ENDBLK
  5
2BB
  8
0
  0
BLOCK
  8
0
  2
_U40
 70
     0
 10
0.0
 20
0.0
 30
0.0
  3
_U40
  1

  0
LINE
  5
2BD
  8
DEFAULT
 10
400.0
 20
300.0
 30
0.0
 11
449.9999999999999
 21
300.0
 31
0.0
  0
LINE
  5
2BE
  8
DEFAULT
 10
449.9999999999999
 20
300.0
 30
0.0
 11
400.0
 21
350.0
 31
0.0
  0
LINE
  5
2BF
  8
DEFAULT
 10
400.0
 20
350.0
 30
0.0
 11
400.0
 21
300.0
 31
0.0
  0
LINE
  5
2C0
  8
DEFAULT
 10
424.9999999999999
 20
300.0
 30
0.0
 11
424.9999999999999
 21
325.0
 31
0.0
  0
LINE
  5
2C1
  8
DEFAULT
 10
424.9999999999999
 20
325.0
 30
0.0
 11
400.0
 21
325.0
 31
0.0
  0
LINE
  5
2C2
  8
DEFAULT
 10
449.9999999999999
 20
300.0
 30
0.0
 11
449.9999999999999
 21
350.0
 31
0.0
  0
LINE
  5
2C3
  8
DEFAULT
 10
449.9999999999999
 20
350.0
 30
0.0
 11
400.0
 21
350.0
 31
0.0
  0
LINE
  5
2C4
  8
DEFAULT
 10
400.0
 20
350.0
 30
0.0
 11
449.9999999999999
 21
300.0
 31
0.0
  0
LINE
  5
2C5
  8
DEFAULT
 10
449.9999999999999
 20
325.0
 30
0.0
 11
424.9999999999999
 21
350.0000000000001
 31
0.0
  0
LINE
  5
2C6
  8
DEFAULT
 10
449.9999999999999
 20
349.9999999999999
 30
0.0
 11
424.9999999999999
 21
325.0000000000001
 31
0.0
  0
ENDBLK
  5
2C8
  8
0
  0
BLOCK
  8
0
  2
_U41
 70
     0
 10
0.0
 20
0.0
 30
0.0
  3
_U41
  1

  0
LINE
  5
2CA
  8
DEFAULT
 10
300.0
 20
300.0000000000001
 30
0.0
 11
350.0
 21
300.0000000000001
 31
0.0
  0
LINE
  5
2CB
  8
DEFAULT
 10
350.0
 20
300.0000000000001
 30
0.0
 11
300.0
 21
350.0
 31
0.0
  0
LINE
  5
2CC
  8
DEFAULT
 10
300.0
 20
350.0
 30
0.0
 11
300.0
 21
300.0000000000001
 31
0.0
  0
LINE
  5
2CD
  8
DEFAULT
 10
325.0
 20
300.0000000000001
 30
0.0
 11
325.0
 21
325.0000000000001
 31
0.0
  0
LINE
  5
2CE
  8
DEFAULT
 10
325.0
 20
325.0000000000001
 30
0.0
 11
300.0
 21
325.0000000000001
 31
0.0
  0
LINE
  5
2CF
  8
DEFAULT
 10
350.0
 20
300.0000000000001
 30
0.0
 11
350.0
 21
350.0
 31
0.0
  0
LINE
  5
2D0
  8
DEFAULT
 10
350.0
 20
350.0
 30
0.0
 11
300.0
 21
350.0
 31
0.0
  0
LINE
  5
2D1
  8
DEFAULT
 10
300.0
 20
350.0
 30
0.0
 11
350.0
 21
300.0000000000001
 31
0.0
  0
LINE
  5
2D2
  8
DEFAULT
 10
350.0
 20
325.0000000000001
 30
0.0
 11
324.9999999999999
 21
350.0
 31
0.0
  0
LINE
  5
2D3
  8
DEFAULT
 10
349.9999999999999
 20
350.0
 30
0.0
 11
325.0
 21
325.0000000000001
 31
0.0
  0
ENDBLK
  5
2D5
  8
0
  0
BLOCK
  8
0
  2
_U42
 70
     0
 10
0.0
 20
0.0
 30
0.0
  3
_U42
  1

  0
LINE
  5
2D7
  8
DEFAULT
 10
200.0
 20
300.0
 30
0.0
 11
249.9999999999999
 21
300.0
 31
0.0
  0
LINE
  5
2D8
  8
DEFAULT
 10
249.9999999999999
 20
300.0
 30
0.0
 11
200.0
 21
350.0
 31
0.0
  0
LINE
  5
2D9
  8
DEFAULT
 10
200.0
 20
350.0
 30
0.0
 11
200.0
 21
300.0
 31
0.0
  0
LINE
  5
2DA
  8
DEFAULT
 10
224.9999999999999
 20
300.0
 30
0.0
 11
224.9999999999999
 21
325.0
 31
0.0
  0
LINE
  5
2DB
  8
DEFAULT
 10
224.9999999999999
 20
325.0
 30
0.0
 11
200.0
 21
325.0
 31
0.0
  0
LINE
  5
2DC
  8
DEFAULT
 10
249.9999999999999
 20
300.0
 30
0.0
 11
249.9999999999999
 21
350.0
 31
0.0
  0
LINE
  5
2DD
  8
DEFAULT
 10
249.9999999999999
 20
350.0
 30
0.0
 11
200.0
 21
350.0
 31
0.0
  0
LINE
  5
2DE
  8
DEFAULT
 10
200.0
 20
350.0
 30
0.0
 11
249.9999999999999
 21
300.0
 31
0.0
  0
LINE
  5
2DF
  8
DEFAULT
 10
249.9999999999999
 20
325.0
 30
0.0
 11
224.9999999999999
 21
350.0
 31
0.0
  0
LINE
  5
2E0
  8
DEFAULT
 10
249.9999999999999
 20
349.9999999999999
 30
0.0
 11
225.0
 21
325.0000000000001
 31
0.0
  0
ENDBLK
  5
2E2
  8
0
  0
BLOCK
  8
0
  2
_U43
 70
     0
 10
0.0
 20
0.0
 30
0.0
  3
_U43
  1

  0
LINE
  5
2E4
  8
DEFAULT
 10
100.0
 20
300.0000000000001
 30
0.0
 11
150.0
 21
300.0000000000001
 31
0.0
  0
LINE
  5
2E5
  8
DEFAULT
 10
150.0
 20
300.0000000000001
 30
0.0
 11
100.0
 21
350.0
 31
0.0
  0
LINE
  5
2E6
  8
DEFAULT
 10
100.0
 20
350.0
 30
0.0
 11
100.0
 21
300.0000000000001
 31
0.0
  0
LINE
  5
2E7
  8
DEFAULT
 10
125.0
 20
300.0000000000001
 30
0.0
 11
125.0
 21
325.0000000000001
 31
0.0
  0
LINE
  5
2E8
  8
DEFAULT
 10
125.0
 20
325.0000000000001
 30
0.0
 11
100.0
 21
325.0000000000001
 31
0.0
  0
LINE
  5
2E9
  8
DEFAULT
 10
150.0
 20
300.0000000000001
 30
0.0
 11
150.0
 21
350.0
 31
0.0
  0
LINE
  5
2EA
  8
DEFAULT
 10
150.0
 20
350.0
 30
0.0
 11
100.0
 21
350.0
 31
0.0
  0
LINE
  5
2EB
  8
DEFAULT
 10
100.0
 20
350.0
 30
0.0
 11
150.0
 21
300.0000000000001
 31
0.0
  0
LINE
  5
2EC
  8
DEFAULT
 10
150.0
 20
325.0000000000001
 30
0.0
 11
125.0
 21
350.0
 31
0.0
  0
LINE
  5
2ED
  8
DEFAULT
 10
149.9999999999999
 20
350.0
 30
0.0
 11
125.0
 21
325.0000000000001
 31
0.0
  0
ENDBLK
  5
2EF
  8
0
  0
BLOCK
  8
0
  2
_U44
 70
     0
 10
0.0
 20
0.0
 30
0.0
  3
_U44
  1

  0
LINE
  5
2F1
  8
DEFAULT
 10
350.0
 20
250.0
 30
0.0
 11
400.0
 21
250.0
 31
0.0
  0
LINE
  5
2F2
  8
DEFAULT
 10
400.0
 20
250.0
 30
0.0
 11
350.0
 21
300.0000000000001
 31
0.0
  0
LINE
  5
2F3
  8
DEFAULT
 10
350.0
 20
300.0000000000001
 30
0.0
 11
350.0
 21
250.0
 31
0.0
  0
LINE
  5
2F4
  8
DEFAULT
 10
375.0
 20
250.0
 30
0.0
 11
375.0
 21
275.0000000000001
 31
0.0
  0
LINE
  5
2F5
  8
DEFAULT
 10
375.0
 20
275.0000000000001
 30
0.0
 11
350.0
 21
275.0000000000001
 31
0.0
  0
LINE
  5
2F6
  8
DEFAULT
 10
400.0
 20
250.0
 30
0.0
 11
400.0
 21
300.0000000000001
 31
0.0
  0
LINE
  5
2F7
  8
DEFAULT
 10
400.0
 20
300.0000000000001
 30
0.0
 11
350.0
 21
300.0000000000001
 31
0.0
  0
LINE
  5
2F8
  8
DEFAULT
 10
350.0
 20
300.0000000000001
 30
0.0
 11
400.0
 21
250.0
 31
0.0
  0
LINE
  5
2F9
  8
DEFAULT
 10
400.0000000000001
 20
275.0000000000001
 30
0.0
 11
375.0
 21
300.0000000000001
 31
0.0
  0
LINE
  5
2FA
  8
DEFAULT
 10
400.0
 20
300.0
 30
0.0
 11
375.0
 21
275.0000000000001
 31
0.0
  0
ENDBLK
  5
2FC
  8
0
  0
BLOCK
  8
0
  2
_U45
 70
     0
 10
0.0
 20
0.0
 30
0.0
  3
_U45
  1

  0
LINE
  5
2FE
  8
DEFAULT
 10
249.9999999999999
 20
250.0
 30
0.0
 11
300.0
 21
250.0
 31
0.0
  0
LINE
  5
2FF
  8
DEFAULT
 10
300.0
 20
250.0
 30
0.0
 11
249.9999999999999
 21
300.0
 31
0.0
  0
LINE
  5
300
  8
DEFAULT
 10
249.9999999999999
 20
300.0
 30
0.0
 11
249.9999999999999
 21
250.0
 31
0.0
  0
LINE
  5
301
  8
DEFAULT
 10
274.9999999999999
 20
250.0
 30
0.0
 11
274.9999999999999
 21
275.0
 31
0.0
  0
LINE
  5
302
  8
DEFAULT
 10
274.9999999999999
 20
275.0
 30
0.0
 11
249.9999999999999
 21
275.0
 31
0.0
  0
LINE
  5
303
  8
DEFAULT
 10
300.0
 20
250.0
 30
0.0
 11
300.0
 21
300.0
 31
0.0
  0
LINE
  5
304
  8
DEFAULT
 10
300.0
 20
300.0
 30
0.0
 11
249.9999999999999
 21
300.0
 31
0.0
  0
LINE
  5
305
  8
DEFAULT
 10
249.9999999999999
 20
300.0
 30
0.0
 11
300.0
 21
250.0
 31
0.0
  0
LINE
  5
306
  8
DEFAULT
 10
300.0
 20
275.0
 30
0.0
 11
274.9999999999999
 21
300.0
 31
0.0
  0
LINE
  5
307
  8
DEFAULT
 10
299.9999999999999
 20
300.0000000000001
 30
0.0
 11
274.9999999999999
 21
275.0
 31
0.0
  0
ENDBLK
  5
309
  8
0
  0
BLOCK
  8
0
  2
_U46
 70
     0
 10
0.0
 20
0.0
 30
0.0
  3
_U46
  1

  0
LINE
  5
30B
  8
DEFAULT
 10
150.0
 20
250.0
 30
0.0
 11
200.0
 21
250.0
 31
0.0
  0
LINE
  5
30C
  8
DEFAULT
 10
200.0
 20
250.0
 30
0.0
 11
150.0
 21
300.0000000000001
 31
0.0
  0
LINE
  5
30D
  8
DEFAULT
 10
150.0
 20
300.0000000000001
 30
0.0
 11
150.0
 21
250.0
 31
0.0
  0
LINE
  5
30E
  8
DEFAULT
 10
175.0
 20
250.0
 30
0.0
 11
175.0
 21
275.0000000000001
 31
0.0
  0
LINE
  5
30F
  8
DEFAULT
 10
175.0
 20
275.0000000000001
 30
0.0
 11
150.0
 21
275.0000000000001
 31
0.0
  0
LINE
  5
310
  8
DEFAULT
 10
200.0
 20
250.0
 30
0.0
 11
200.0
 21
300.0000000000001
 31
0.0
  0
LINE
  5
311
  8
DEFAULT
 10
200.0
 20
300.0000000000001
 30
0.0
 11
150.0
 21
300.0000000000001
 31
0.0
  0
LINE
  5
312
  8
DEFAULT
 10
150.0
 20
300.0000000000001
 30
0.0
 11
200.0
 21
250.0
 31
0.0
  0
LINE
  5
313
  8
DEFAULT
 10
200.0
 20
275.0000000000001
 30
0.0
 11
175.0
 21
300.0000000000001
 31
0.0
  0
LINE
  5
314
  8
DEFAULT
 10
200.0
 20
300.0
 30
0.0
 11
175.0
 21
275.0000000000001
 31
0.0
  0
ENDBLK
  5
316
  8
0
  0
BLOCK
  8
0
  2
_U47
 70
     0
 10
0.0
 20
0.0
 30
0.0
  3
_U47
  1

  0
LINE
  5
318
  8
DEFAULT
 10
50.0
 20
250.0
 30
0.0
 11
100.0
 21
250.0
 31
0.0
  0
LINE
  5
319
  8
DEFAULT
 10
100.0
 20
250.0
 30
0.0
 11
50.0
 21
300.0000000000001
 31
0.0
  0
LINE
  5
31A
  8
DEFAULT
 10
50.0
 20
300.0000000000001
 30
0.0
 11
50.0
 21
250.0
 31
0.0
  0
LINE
  5
31B
  8
DEFAULT
 10
75.0
 20
250.0
 30
0.0
 11
75.0
 21
275.0000000000001
 31
0.0
  0
LINE
  5
31C
  8
DEFAULT
 10
75.0
 20
275.0000000000001
 30
0.0
 11
50.0
 21
275.0000000000001
 31
0.0
  0
LINE
  5
31D
  8
DEFAULT
 10
100.0
 20
250.0
 30
0.0
 11
100.0
 21
300.0000000000001
 31
0.0
  0
LINE
  5
31E
  8
DEFAULT
 10
100.0
 20
300.0000000000001
 30
0.0
 11
50.0
 21
300.0000000000001
 31
0.0
  0
LINE
  5
31F
  8
DEFAULT
 10
50.0
 20
300.0000000000001
 30
0.0
 11
100.0
 21
250.0
 31
0.0
  0
LINE
  5
320
  8
DEFAULT
 10
100.0
 20
275.0000000000001
 30
0.0
 11
75.0
 21
300.0000000000001
 31
0.0
  0
LINE
  5
321
  8
DEFAULT
 10
100.0
 20
300.0
 30
0.0
 11
75.0
 21
275.0000000000001
 31
0.0
  0
ENDBLK
  5
323
  8
0
  0
BLOCK
  8
0
  2
_U48
 70
     0
 10
0.0
 20
0.0
 30
0.0
  3
_U48
  1

  0
LINE
  5
325
  8
DEFAULT
 10
400.0
 20
200.0
 30
0.0
 11
450.0
 21
200.0
 31
0.0
  0
LINE
  5
326
  8
DEFAULT
 10
450.0
 20
200.0
 30
0.0
 11
400.0
 21
250.0
 31
0.0
  0
LINE
  5
327
  8
DEFAULT
 10
400.0
 20
250.0
 30
0.0
 11
400.0
 21
200.0
 31
0.0
  0
LINE
  5
328
  8
DEFAULT
 10
425.0
 20
200.0
 30
0.0
 11
425.0
 21
225.0
 31
0.0
  0
LINE
  5
329
  8
DEFAULT
 10
425.0
 20
225.0
 30
0.0
 11
400.0
 21
225.0
 31
0.0
  0
LINE
  5
32A
  8
DEFAULT
 10
450.0
 20
200.0
 30
0.0
 11
450.0
 21
250.0
 31
0.0
  0
LINE
  5
32B
  8
DEFAULT
 10
450.0
 20
250.0
 30
0.0
 11
400.0
 21
250.0
 31
0.0
  0
LINE
  5
32C
  8
DEFAULT
 10
400.0
 20
250.0
 30
0.0
 11
450.0
 21
200.0
 31
0.0
  0
LINE
  5
32D
  8
DEFAULT
 10
450.0
 20
225.0
 30
0.0
 11
425.0
 21
250.0
 31
0.0
  0
LINE
  5
32E
  8
DEFAULT
 10
449.9999999999999
 20
249.9999999999999
 30
0.0
 11
425.0
 21
225.0
 31
0.0
  0
ENDBLK
  5
330
  8
0
  0
BLOCK
  8
0
  2
_U49
 70
     0
 10
0.0
 20
0.0
 30
0.0
  3
_U49
  1

  0
LINE
  5
332
  8
DEFAULT
 10
300.0
 20
200.0
 30
0.0
 11
350.0
 21
200.0
 31
0.0
  0
LINE
  5
333
  8
DEFAULT
 10
350.0
 20
200.0
 30
0.0
 11
300.0
 21
250.0
 31
0.0
  0
LINE
  5
334
  8
DEFAULT
 10
300.0
 20
250.0
 30
0.0
 11
300.0
 21
200.0
 31
0.0
  0
LINE
  5
335
  8
DEFAULT
 10
325.0
 20
200.0
 30
0.0
 11
325.0
 21
225.0
 31
0.0
  0
LINE
  5
336
  8
DEFAULT
 10
325.0
 20
225.0
 30
0.0
 11
300.0
 21
225.0
 31
0.0
  0
LINE
  5
337
  8
DEFAULT
 10
350.0
 20
200.0
 30
0.0
 11
350.0
 21
250.0
 31
0.0
  0
LINE
  5
338
  8
DEFAULT
 10
350.0
 20
250.0
 30
0.0
 11
300.0
 21
250.0
 31
0.0
  0
LINE
  5
339
  8
DEFAULT
 10
300.0
 20
250.0
 30
0.0
 11
350.0
 21
200.0
 31
0.0
  0
LINE
  5
33A
  8
DEFAULT
 10
350.0
 20
225.0
 30
0.0
 11
325.0
 21
250.0
 31
0.0
  0
LINE
  5
33B
  8
DEFAULT
 10
350.0
 20
250.0
 30
0.0
 11
325.0
 21
225.0
 31
0.0
  0
ENDBLK
  5
33D
  8
0
  0
BLOCK
  8
0
  2
_U50
 70
     0
 10
0.0
 20
0.0
 30
0.0
  3
_U50
  1

  0
LINE
  5
33F
  8
DEFAULT
 10
200.0
 20
200.0
 30
0.0
 11
250.0
 21
200.0
 31
0.0
  0
LINE
  5
340
  8
DEFAULT
 10
250.0
 20
200.0
 30
0.0
 11
200.0
 21
250.0
 31
0.0
  0
LINE
  5
341
  8
DEFAULT
 10
200.0
 20
250.0
 30
0.0
 11
200.0
 21
200.0
 31
0.0
  0
LINE
  5
342
  8
DEFAULT
 10
225.0
 20
200.0
 30
0.0
 11
225.0
 21
225.0
 31
0.0
  0
LINE
  5
343
  8
DEFAULT
 10
225.0
 20
225.0
 30
0.0
 11
200.0
 21
225.0
 31
0.0
  0
LINE
  5
344
  8
DEFAULT
 10
250.0
 20
200.0
 30
0.0
 11
250.0
 21
250.0
 31
0.0
  0
LINE
  5
345
  8
DEFAULT
 10
250.0
 20
250.0
 30
0.0
 11
200.0
 21
250.0
 31
0.0
  0
LINE
  5
346
  8
DEFAULT
 10
200.0
 20
250.0
 30
0.0
 11
250.0
 21
200.0
 31
0.0
  0
LINE
  5
347
  8
DEFAULT
 10
250.0
 20
225.0
 30
0.0
 11
225.0
 21
250.0
 31
0.0
  0
LINE
  5
348
  8
DEFAULT
 10
250.0
 20
250.0
 30
0.0
 11
225.0
 21
225.0
 31
0.0
  0
ENDBLK
  5
34A
  8
0
  0
BLOCK
  8
0
  2
_U51
 70
     0
 10
0.0
 20
0.0
 30
0.0
  3
_U51
  1

  0
LINE
  5
34C
  8
DEFAULT
 10
100.0
 20
200.0
 30
0.0
 11
150.0
 21
200.0
 31
0.0
  0
LINE
  5
34D
  8
DEFAULT
 10
150.0
 20
200.0
 30
0.0
 11
100.0
 21
250.0
 31
0.0
  0
LINE
  5
34E
  8
DEFAULT
 10
100.0
 20
250.0
 30
0.0
 11
100.0
 21
200.0
 31
0.0
  0
LINE
  5
34F
  8
DEFAULT
 10
125.0
 20
200.0
 30
0.0
 11
125.0
 21
225.0
 31
0.0
  0
LINE
  5
350
  8
DEFAULT
 10
125.0
 20
225.0
 30
0.0
 11
100.0
 21
225.0
 31
0.0
  0
LINE
  5
351
  8
DEFAULT
 10
150.0
 20
200.0
 30
0.0
 11
150.0
 21
250.0
 31
0.0
  0
LINE
  5
352
  8
DEFAULT
 10
150.0
 20
250.0
 30
0.0
 11
100.0
 21
250.0
 31
0.0
  0
LINE
  5
353
  8
DEFAULT
 10
100.0
 20
250.0
 30
0.0
 11
150.0
 21
200.0
 31
0.0
  0
LINE
  5
354
  8
DEFAULT
 10
150.0
 20
225.0
 30
0.0
 11
125.0
 21
250.0
 31
0.0
  0
LINE
  5
355
  8
DEFAULT
 10
150.0
 20
250.0
 30
0.0
 11
125.0
 21
225.0
 31
0.0
  0
ENDBLK
  5
357
  8
0
  0
BLOCK
  8
0
  2
_U52
 70
     0
 10
0.0
 20
0.0
 30
0.0
  3
_U52
  1

  0
LINE
  5
359
  8
DEFAULT
 10
350.0
 20
150.0
 30
0.0
 11
400.0
 21
150.0
 31
0.0
  0
LINE
  5
35A
  8
DEFAULT
 10
400.0
 20
150.0
 30
0.0
 11
350.0
 21
200.0
 31
0.0
  0
LINE
  5
35B
  8
DEFAULT
 10
350.0
 20
200.0
 30
0.0
 11
350.0
 21
150.0
 31
0.0
  0
LINE
  5
35C
  8
DEFAULT
 10
375.0
 20
150.0
 30
0.0
 11
375.0
 21
175.0
 31
0.0
  0
LINE
  5
35D
  8
DEFAULT
 10
375.0
 20
175.0
 30
0.0
 11
350.0
 21
175.0
 31
0.0
  0
LINE
  5
35E
  8
DEFAULT
 10
400.0
 20
150.0
 30
0.0
 11
400.0
 21
200.0
 31
0.0
  0
LINE
  5
35F
  8
DEFAULT
 10
400.0
 20
200.0
 30
0.0
 11
350.0
 21
200.0
 31
0.0
  0
LINE
  5
360
  8
DEFAULT
 10
350.0
 20
200.0
 30
0.0
 11
400.0
 21
150.0
 31
0.0
  0
LINE
  5
361
  8
DEFAULT
 10
400.0
 20
174.9999999999999
 30
0.0
 11
375.0000000000001
 21
199.9999999999999
 31
0.0
  0
LINE
  5
362
  8
DEFAULT
 10
399.9999999999999
 20
199.9999999999999
 30
0.0
 11
375.0
 21
175.0
 31
0.0
  0
ENDBLK
  5
364
  8
0
  0
BLOCK
  8
0
  2
_U53
 70
     0
 10
0.0
 20
0.0
 30
0.0
  3
_U53
  1

  0
LINE
  5
366
  8
DEFAULT
 10
250.0
 20
150.0
 30
0.0
 11
300.0000000000001
 21
150.0
 31
0.0
  0
LINE
  5
367
  8
DEFAULT
 10
300.0000000000001
 20
150.0
 30
0.0
 11
250.0
 21
200.0
 31
0.0
  0
LINE
  5
368
  8
DEFAULT
 10
250.0
 20
200.0
 30
0.0
 11
250.0
 21
150.0
 31
0.0
  0
LINE
  5
369
  8
DEFAULT
 10
275.0000000000001
 20
150.0
 30
0.0
 11
275.0000000000001
 21
175.0
 31
0.0
  0
LINE
  5
36A
  8
DEFAULT
 10
275.0000000000001
 20
175.0
 30
0.0
 11
250.0
 21
175.0
 31
0.0
  0
LINE
  5
36B
  8
DEFAULT
 10
300.0000000000001
 20
150.0
 30
0.0
 11
300.0000000000001
 21
200.0
 31
0.0
  0
LINE
  5
36C
  8
DEFAULT
 10
300.0000000000001
 20
200.0
 30
0.0
 11
250.0
 21
200.0
 31
0.0
  0
LINE
  5
36D
  8
DEFAULT
 10
250.0
 20
200.0
 30
0.0
 11
300.0000000000001
 21
150.0
 31
0.0
  0
LINE
  5
36E
  8
DEFAULT
 10
300.0000000000001
 20
175.0
 30
0.0
 11
275.0000000000001
 21
200.0
 31
0.0
  0
LINE
  5
36F
  8
DEFAULT
 10
300.0000000000001
 20
200.0
 30
0.0
 11
275.0000000000001
 21
175.0
 31
0.0
  0
ENDBLK
  5
371
  8
0
  0
BLOCK
  8
0
  2
_U54
 70
     0
 10
0.0
 20
0.0
 30
0.0
  3
_U54
  1

  0
LINE
  5
373
  8
DEFAULT
 10
150.0
 20
150.0
 30
0.0
 11
200.0
 21
150.0
 31
0.0
  0
LINE
  5
374
  8
DEFAULT
 10
200.0
 20
150.0
 30
0.0
 11
150.0
 21
200.0
 31
0.0
  0
LINE
  5
375
  8
DEFAULT
 10
150.0
 20
200.0
 30
0.0
 11
150.0
 21
150.0
 31
0.0
  0
LINE
  5
376
  8
DEFAULT
 10
175.0
 20
150.0
 30
0.0
 11
175.0
 21
175.0
 31
0.0
  0
LINE
  5
377
  8
DEFAULT
 10
175.0
 20
175.0
 30
0.0
 11
150.0
 21
175.0
 31
0.0
  0
LINE
  5
378
  8
DEFAULT
 10
200.0
 20
150.0
 30
0.0
 11
200.0
 21
200.0
 31
0.0
  0
LINE
  5
379
  8
DEFAULT
 10
200.0
 20
200.0
 30
0.0
 11
150.0
 21
200.0
 31
0.0
  0
LINE
  5
37A
  8
DEFAULT
 10
150.0
 20
200.0
 30
0.0
 11
200.0
 21
150.0
 31
0.0
  0
LINE
  5
37B
  8
DEFAULT
 10
200.0
 20
175.0
 30
0.0
 11
175.0
 21
200.0
 31
0.0
  0
LINE
  5
37C
  8
DEFAULT
 10
200.0
 20
200.0
 30
0.0
 11
175.0
 21
175.0
 31
0.0
  0
ENDBLK
  5
37E
  8
0
  0
BLOCK
  8
0
  2
_U55
 70
     0
 10
0.0
 20
0.0
 30
0.0
  3
_U55
  1

  0
LINE
  5
380
  8
DEFAULT
 10
50.0
 20
150.0
 30
0.0
 11
100.0
 21
150.0
 31
0.0
  0
LINE
  5
381
  8
DEFAULT
 10
100.0
 20
150.0
 30
0.0
 11
50.0
 21
200.0
 31
0.0
  0
LINE
  5
382
  8
DEFAULT
 10
50.0
 20
200.0
 30
0.0
 11
50.0
 21
150.0
 31
0.0
  0
LINE
  5
383
  8
DEFAULT
 10
75.0
 20
150.0
 30
0.0
 11
75.0
 21
175.0
 31
0.0
  0
LINE
  5
384
  8
DEFAULT
 10
75.0
 20
175.0
 30
0.0
 11
50.0
 21
175.0
 31
0.0
  0
LINE
  5
385
  8
DEFAULT
 10
100.0
 20
150.0
 30
0.0
 11
100.0
 21
200.0
 31
0.0
  0
LINE
  5
386
  8
DEFAULT
 10
100.0
 20
200.0
 30
0.0
 11
50.0
 21
200.0
 31
0.0
  0
LINE
  5
387
  8
DEFAULT
 10
50.0
 20
200.0
 30
0.0
 11
100.0
 21
150.0
 31
0.0
  0
LINE
  5
388
  8
DEFAULT
 10
100.0
 20
175.0
 30
0.0
 11
75.00000000000001
 21
200.0
 31
0.0
  0
LINE
  5
389
  8
DEFAULT
 10
100.0
 20
200.0
 30
0.0
 11
75.00000000000001
 21
175.0
 31
0.0
  0
ENDBLK
  5
38B
  8
0
  0
BLOCK
  8
0
  2
_U56
 70
     0
 10
0.0
 20
0.0
 30
0.0
  3
_U56
  1

  0
LINE
  5
38D
  8
DEFAULT
 10
400.0
 20
100.0
 30
0.0
 11
450.0
 21
100.0
 31
0.0
  0
LINE
  5
38E
  8
DEFAULT
 10
450.0
 20
100.0
 30
0.0
 11
400.0
 21
150.0
 31
0.0
  0
LINE
  5
38F
  8
DEFAULT
 10
400.0
 20
150.0
 30
0.0
 11
400.0
 21
100.0
 31
0.0
  0
LINE
  5
390
  8
DEFAULT
 10
425.0
 20
100.0
 30
0.0
 11
425.0
 21
125.0
 31
0.0
  0
LINE
  5
391
  8
DEFAULT
 10
425.0
 20
125.0
 30
0.0
 11
400.0
 21
125.0
 31
0.0
  0
LINE
  5
392
  8
DEFAULT
 10
450.0
 20
100.0
 30
0.0
 11
450.0
 21
150.0
 31
0.0
  0
LINE
  5
393
  8
DEFAULT
 10
450.0
 20
150.0
 30
0.0
 11
400.0
 21
150.0
 31
0.0
  0
LINE
  5
394
  8
DEFAULT
 10
400.0
 20
150.0
 30
0.0
 11
450.0
 21
100.0
 31
0.0
  0
LINE
  5
395
  8
DEFAULT
 10
450.0
 20
125.0
 30
0.0
 11
425.0
 21
150.0
 31
0.0
  0
LINE
  5
396
  8
DEFAULT
 10
450.0
 20
150.0
 30
0.0
 11
425.0
 21
125.0
 31
0.0
  0
ENDBLK
  5
398
  8
0
  0
BLOCK
  8
0
  2
_U57
 70
     0
 10
0.0
 20
0.0
 30
0.0
  3
_U57
  1

  0
LINE
  5
39A
  8
DEFAULT
 10
350.0
 20
50.0
 30
0.0
 11
400.0
 21
50.0
 31
0.0
  0
LINE
  5
39B
  8
DEFAULT
 10
400.0
 20
50.0
 30
0.0
 11
350.0
 21
100.0
 31
0.0
  0
LINE
  5
39C
  8
DEFAULT
 10
350.0
 20
100.0
 30
0.0
 11
350.0
 21
50.0
 31
0.0
  0
LINE
  5
39D
  8
DEFAULT
 10
375.0
 20
50.0
 30
0.0
 11
375.0
 21
75.0
 31
0.0
  0
LINE
  5
39E
  8
DEFAULT
 10
375.0
 20
75.0
 30
0.0
 11
350.0
 21
75.0
 31
0.0
  0
LINE
  5
39F
  8
DEFAULT
 10
400.0
 20
50.0
 30
0.0
 11
400.0
 21
100.0
 31
0.0
  0
LINE
  5
3A0
  8
DEFAULT
 10
400.0
 20
100.0
 30
0.0
 11
350.0
 21
100.0
 31
0.0
  0
LINE
  5
3A1
  8
DEFAULT
 10
350.0
 20
100.0
 30
0.0
 11
400.0
 21
50.0
 31
0.0
  0
LINE
  5
3A2
  8
DEFAULT
 10
400.0
 20
75.0
 30
0.0
 11
375.0
 21
100.0
 31
0.0
  0
LINE
  5
3A3
  8
DEFAULT
 10
400.0
 20
99.99999999999996
 30
0.0
 11
375.0
 21
74.99999999999997
 31
0.0
  0
ENDBLK
  5
3A5
  8
0
  0
BLOCK
  8
0
  2
_U58
 70
     0
 10
0.0
 20
0.0
 30
0.0
  3
_U58
  1

  0
LINE
  5
3A7
  8
DEFAULT
 10
300.0000000000001
 20
100.0
 30
0.0
 11
350.0
 21
100.0
 31
0.0
  0
LINE
  5
3A8
  8
DEFAULT
 10
350.0
 20
100.0
 30
0.0
 11
300.0000000000001
 21
150.0
 31
0.0
  0
LINE
  5
3A9
  8
DEFAULT
 10
300.0000000000001
 20
150.0
 30
0.0
 11
300.0000000000001
 21
100.0
 31
0.0
  0
LINE
  5
3AA
  8
DEFAULT
 10
325.0000000000001
 20
100.0
 30
0.0
 11
325.0000000000001
 21
125.0
 31
0.0
  0
LINE
  5
3AB
  8
DEFAULT
 10
325.0000000000001
 20
125.0
 30
0.0
 11
300.0000000000001
 21
125.0
 31
0.0
  0
LINE
  5
3AC
  8
DEFAULT
 10
350.0
 20
100.0
 30
0.0
 11
350.0
 21
150.0
 31
0.0
  0
LINE
  5
3AD
  8
DEFAULT
 10
350.0
 20
150.0
 30
0.0
 11
300.0000000000001
 21
150.0
 31
0.0
  0
LINE
  5
3AE
  8
DEFAULT
 10
300.0000000000001
 20
150.0
 30
0.0
 11
350.0
 21
100.0
 31
0.0
  0
LINE
  5
3AF
  8
DEFAULT
 10
350.0
 20
125.0
 30
0.0
 11
325.0000000000001
 21
150.0
 31
0.0
  0
LINE
  5
3B0
  8
DEFAULT
 10
350.0
 20
149.9999999999999
 30
0.0
 11
325.0000000000001
 21
125.0
 31
0.0
  0
ENDBLK
  5
3B2
  8
0
  0
BLOCK
  8
0
  2
_U59
 70
     0
 10
0.0
 20
0.0
 30
0.0
  3
_U59
  1

  0
LINE
  5
3B4
  8
DEFAULT
 10
250.0
 20
49.99999999999997
 30
0.0
 11
300.0
 21
49.99999999999997
 31
0.0
  0
LINE
  5
3B5
  8
DEFAULT
 10
300.0
 20
49.99999999999997
 30
0.0
 11
250.0
 21
100.0
 31
0.0
  0
LINE
  5
3B6
  8
DEFAULT
 10
250.0
 20
100.0
 30
0.0
 11
250.0
 21
49.99999999999997
 31
0.0
  0
LINE
  5
3B7
  8
DEFAULT
 10
275.0
 20
49.99999999999997
 30
0.0
 11
275.0
 21
74.99999999999999
 31
0.0
  0
LINE
  5
3B8
  8
DEFAULT
 10
275.0
 20
74.99999999999999
 30
0.0
 11
250.0
 21
74.99999999999999
 31
0.0
  0
LINE
  5
3B9
  8
DEFAULT
 10
300.0
 20
49.99999999999997
 30
0.0
 11
300.0
 21
100.0
 31
0.0
  0
LINE
  5
3BA
  8
DEFAULT
 10
300.0
 20
100.0
 30
0.0
 11
250.0
 21
100.0
 31
0.0
  0
LINE
  5
3BB
  8
DEFAULT
 10
250.0
 20
100.0
 30
0.0
 11
300.0
 21
49.99999999999997
 31
0.0
  0
LINE
  5
3BC
  8
DEFAULT
 10
300.0
 20
74.99999999999997
 30
0.0
 11
275.0
 21
100.0
 31
0.0
  0
LINE
  5
3BD
  8
DEFAULT
 10
300.0000000000001
 20
100.0
 30
0.0
 11
275.0
 21
75.0
 31
0.0
  0
ENDBLK
  5
3BF
  8
0
  0
BLOCK
  8
0
  2
_U60
 70
     0
 10
0.0
 20
0.0
 30
0.0
  3
_U60
  1

  0
LINE
  5
3C1
  8
DEFAULT
 10
200.0
 20
100.0
 30
0.0
 11
250.0
 21
100.0
 31
0.0
  0
LINE
  5
3C2
  8
DEFAULT
 10
250.0
 20
100.0
 30
0.0
 11
200.0
 21
150.0
 31
0.0
  0
LINE
  5
3C3
  8
DEFAULT
 10
200.0
 20
150.0
 30
0.0
 11
200.0
 21
100.0
 31
0.0
  0
LINE
  5
3C4
  8
DEFAULT
 10
225.0
 20
100.0
 30
0.0
 11
225.0
 21
125.0
 31
0.0
  0
LINE
  5
3C5
  8
DEFAULT
 10
225.0
 20
125.0
 30
0.0
 11
200.0
 21
125.0
 31
0.0
  0
LINE
  5
3C6
  8
DEFAULT
 10
250.0
 20
100.0
 30
0.0
 11
250.0
 21
150.0
 31
0.0
  0
LINE
  5
3C7
  8
DEFAULT
 10
250.0
 20
150.0
 30
0.0
 11
200.0
 21
150.0
 31
0.0
  0
LINE
  5
3C8
  8
DEFAULT
 10
200.0
 20
150.0
 30
0.0
 11
250.0
 21
100.0
 31
0.0
  0
LINE
  5
3C9
  8
DEFAULT
 10
250.0
 20
125.0
 30
0.0
 11
225.0
 21
150.0
 31
0.0
  0
LINE
  5
3CA
  8
DEFAULT
 10
250.0
 20
150.0
 30
0.0
 11
225.0
 21
125.0
 31
0.0
  0
ENDBLK
  5
3CC
  8
0
  0
BLOCK
  8
0
  2
_U61
 70
     0
 10
0.0
 20
0.0
 30
0.0
  3
_U61
  1

  0
LINE
  5
3CE
  8
DEFAULT
 10
150.0
 20
50.0
 30
0.0
 11
200.0
 21
50.0
 31
0.0
  0
LINE
  5
3CF
  8
DEFAULT
 10
200.0
 20
50.0
 30
0.0
 11
150.0
 21
100.0
 31
0.0
  0
LINE
  5
3D0
  8
DEFAULT
 10
150.0
 20
100.0
 30
0.0
 11
150.0
 21
50.0
 31
0.0
  0
LINE
  5
3D1
  8
DEFAULT
 10
175.0
 20
50.0
 30
0.0
 11
175.0
 21
75.0
 31
0.0
  0
LINE
  5
3D2
  8
DEFAULT
 10
175.0
 20
75.0
 30
0.0
 11
150.0
 21
75.0
 31
0.0
  0
LINE
  5
3D3
  8
DEFAULT
 10
200.0
 20
50.0
 30
0.0
 11
200.0
 21
100.0
 31
0.0
  0
LINE
  5
3D4
  8
DEFAULT
 10
200.0
 20
100.0
 30
0.0
 11
150.0
 21
100.0
 31
0.0
  0
LINE
  5
3D5
  8
DEFAULT
 10
150.0
 20
100.0
 30
0.0
 11
200.0
 21
50.0
 31
0.0
  0
LINE
  5
3D6
  8
DEFAULT
 10
200.0
 20
74.99999999999997
 30
0.0
 11
175.0
 21
99.99999999999997
 31
0.0
  0
LINE
  5
3D7
  8
DEFAULT
 10
200.0
 20
99.99999999999997
 30
0.0
 11
175.0
 21
74.99999999999999
 31
0.0
  0
ENDBLK
  5
3D9
  8
0
  0
BLOCK
  8
0
  2
_U62
 70
     0
 10
0.0
 20
0.0
 30
0.0
  3
_U62
  1

  0
LINE
  5
3DB
  8
DEFAULT
 10
100.0
 20
100.0
 30
0.0
 11
150.0
 21
100.0
 31
0.0
  0
LINE
  5
3DC
  8
DEFAULT
 10
150.0
 20
100.0
 30
0.0
 11
100.0
 21
150.0
 31
0.0
  0
LINE
  5
3DD
  8
DEFAULT
 10
100.0
 20
150.0
 30
0.0
 11
100.0
 21
100.0
 31
0.0
  0
LINE
  5
3DE
  8
DEFAULT
 10
125.0
 20
100.0
 30
0.0
 11
125.0
 21
125.0
 31
0.0
  0
LINE
  5
3DF
  8
DEFAULT
 10
125.0
 20
125.0
 30
0.0
 11
100.0
 21
125.0
 31
0.0
  0
LINE
  5
3E0
  8
DEFAULT
 10
150.0
 20
100.0
 30
0.0
 11
150.0
 21
150.0
 31
0.0
  0
LINE
  5
3E1
  8
DEFAULT
 10
150.0
 20
150.0
 30
0.0
 11
100.0
 21
150.0
 31
0.0
  0
LINE
  5
3E2
  8
DEFAULT
 10
100.0
 20
150.0
 30
0.0
 11
150.0
 21
100.0
 31
0.0
  0
LINE
  5
3E3
  8
DEFAULT
 10
150.0
 20
125.0
 30
0.0
 11
125.0
 21
150.0
 31
0.0
  0
LINE
  5
3E4
  8
DEFAULT
 10
150.0
 20
150.0
 30
0.0
 11
125.0
 21
125.0
 31
0.0
  0
ENDBLK
  5
3E6
  8
0
  0
BLOCK
  8
0
  2
_U63
 70
     0
 10
0.0
 20
0.0
 30
0.0
  3
_U63
  1

  0
LINE
  5
3E8
  8
DEFAULT
 10
50.0
 20
50.0
 30
0.0
 11
100.0
 21
50.0
 31
0.0
  0
LINE
  5
3E9
  8
DEFAULT
 10
100.0
 20
50.0
 30
0.0
 11
50.0
 21
100.0
 31
0.0
  0
LINE
  5
3EA
  8
DEFAULT
 10
50.0
 20
100.0
 30
0.0
 11
50.0
 21
50.0
 31
0.0
  0
LINE
  5
3EB
  8
DEFAULT
 10
75.0
 20
50.0
 30
0.0
 11
75.0
 21
75.0
 31
0.0
  0
LINE
  5
3EC
  8
DEFAULT
 10
75.0
 20
75.0
 30
0.0
 11
50.0
 21
75.0
 31
0.0
  0
LINE
  5
3ED
  8
DEFAULT
 10
100.0
 20
50.0
 30
0.0
 11
100.0
 21
100.0
 31
0.0
  0
LINE
  5
3EE
  8
DEFAULT
 10
100.0
 20
100.0
 30
0.0
 11
50.0
 21
100.0
 31
0.0
  0
LINE
  5
3EF
  8
DEFAULT
 10
50.0
 20
100.0
 30
0.0
 11
100.0
 21
50.0
 31
0.0
  0
LINE
  5
3F0
  8
DEFAULT
 10
100.0
 20
75.0
 30
0.0
 11
75.00000000000001
 21
100.0
 31
0.0
  0
LINE
  5
3F1
  8
DEFAULT
 10
100.0
 20
100.0
 30
0.0
 11
75.0
 21
75.0
 31
0.0
  0
ENDBLK
  5
3F3
  8
0
  0
BLOCK
  8
0
  2
*U65
 70
     1
 10
0.0
 20
0.0
 30
0.0
  3
*U65
  1

  0
SOLID
  5
3FC
  8
DEFAULT
 62
     2
 10
50.0
 20
50.0
 30
0.0
 11
50.0
 21
100.0
 31
0.0
 12
100.0
 22
50.0
 32
0.0
 13
100.0
 23
50.0
 33
0.0
  0
SOLID
  5
3FD
  8
DEFAULT
 62
     2
 10
100.0
 20
50.0
 30
0.0
 11
50.0
 21
100.0
 31
0.0
 12
100.0
 22
100.0
 32
0.0
 13
100.0
 23
100.0
 33
0.0
  0
ENDBLK
  5
45C
  8
0
  0
BLOCK
  8
0
  2
*U66
 70
     1
 10
0.0
 20
0.0
 30
0.0
  3
*U66
  1

  0
SOLID
  5
3FF
  8
DEFAULT
 62
     2
 10
100.0
 20
100.0
 30
0.0
 11
100.0
 21
150.0
 31
0.0
 12
150.0
 22
100.0
 32
0.0
 13
150.0
 23
100.0
 33
0.0
  0
SOLID
  5
400
  8
DEFAULT
 62
     2
 10
150.0
 20
100.0
 30
0.0
 11
100.0
 21
150.0
 31
0.0
 12
150.0
 22
150.0
 32
0.0
 13
150.0
 23
150.0
 33
0.0
  0
ENDBLK
  5
45E
  8
0
  0
BLOCK
  8
0
  2
*U67
 70
     1
 10
0.0
 20
0.0
 30
0.0
  3
*U67
  1

  0
SOLID
  5
402
  8
DEFAULT
 62
     2
 10
150.0
 20
50.0
 30
0.0
 11
150.0
 21
100.0
 31
0.0
 12
200.0
 22
50.0
 32
0.0
 13
200.0
 23
50.0
 33
0.0
  0
SOLID
  5
403
  8
DEFAULT
 62
     2
 10
200.0
 20
50.0
 30
0.0
 11
150.0
 21
100.0
 31
0.0
 12
200.0
 22
100.0
 32
0.0
 13
200.0
 23
100.0
 33
0.0
  0
ENDBLK
  5
460
  8
0
  0
BLOCK
  8
0
  2
*U68
 70
     1
 10
0.0
 20
0.0
 30
0.0
  3
*U68
  1

  0
SOLID
  5
405
  8
DEFAULT
 62
     2
 10
200.0
 20
100.0
 30
0.0
 11
200.0
 21
150.0
 31
0.0
 12
250.0
 22
100.0
 32
0.0
 13
250.0
 23
100.0
 33
0.0
  0
SOLID
  5
406
  8
DEFAULT
 62
     2
 10
250.0
 20
100.0
 30
0.0
 11
200.0
 21
150.0
 31
0.0
 12
250.0
 22
150.0
 32
0.0
 13
250.0
 23
150.0
 33
0.0
  0
ENDBLK
  5
462
  8
0
  0
BLOCK
  8
0
  2
*U69
 70
     1
 10
0.0
 20
0.0
 30
0.0
  3
*U69
  1

  0
SOLID
  5
408
  8
DEFAULT
 62
     2
 10
250.0
 20
49.99999999999997
 30
0.0
 11
250.0
 21
100.0
 31
0.0
 12
300.0
 22
49.99999999999997
 32
0.0
 13
300.0
 23
49.99999999999997
 33
0.0
  0
SOLID
  5
409
  8
DEFAULT
 62
     2
 10
300.0
 20
49.99999999999997
 30
0.0
 11
250.0
 21
100.0
 31
0.0
 12
300.0
 22
100.0
 32
0.0
 13
300.0
 23
100.0
 33
0.0
  0
ENDBLK
  5
464
  8
0
  0
BLOCK
  8
0
  2
*U70
 70
     1
 10
0.0
 20
0.0
 30
0.0
  3
*U70
  1

  0
SOLID
  5
40B
  8
DEFAULT
 62
     2
 10
300.0000000000001
 20
100.0
 30
0.0
 11
300.0000000000001
 21
150.0
 31
0.0
 12
350.0
 22
100.0
 32
0.0
 13
350.0
 23
100.0
 33
0.0
  0
SOLID
  5
40C
  8
DEFAULT
 62
     2
 10
350.0
 20
100.0
 30
0.0
 11
300.0000000000001
 21
150.0
 31
0.0
 12
350.0
 22
150.0
 32
0.0
 13
350.0
 23
150.0
 33
0.0
  0
ENDBLK
  5
466
  8
0
  0
BLOCK
  8
0
  2
*U71
 70
     1
 10
0.0
 20
0.0
 30
0.0
  3
*U71
  1

  0
SOLID
  5
40E
  8
DEFAULT
 62
     2
 10
350.0
 20
50.0
 30
0.0
 11
350.0
 21
100.0
 31
0.0
 12
400.0
 22
50.0
 32
0.0
 13
400.0
 23
50.0
 33
0.0
  0
SOLID
  5
40F
  8
DEFAULT
 62
     2
 10
400.0
 20
50.0
 30
0.0
 11
350.0
 21
100.0
 31
0.0
 12
400.0
 22
100.0
 32
0.0
 13
400.0
 23
100.0
 33
0.0
  0
ENDBLK
  5
468
  8
0
  0
BLOCK
  8
0
  2
*U72
 70
     1
 10
0.0
 20
0.0
 30
0.0
  3
*U72
  1

  0
SOLID
  5
411
  8
DEFAULT
 62
     2
 10
400.0
 20
100.0
 30
0.0
 11
400.0
 21
150.0
 31
0.0
 12
450.0
 22
100.0
 32
0.0
 13
450.0
 23
100.0
 33
0.0
  0
SOLID
  5
412
  8
DEFAULT
 62
     2
 10
450.0
 20
100.0
 30
0.0
 11
400.0
 21
150.0
 31
0.0
 12
450.0
 22
150.0
 32
0.0
 13
450.0
 23
150.0
 33
0.0
  0
ENDBLK
  5
46A
  8
0
  0
BLOCK
  8
0
  2
*U73
 70
     1
 10
0.0
 20
0.0
 30
0.0
  3
*U73
  1

  0
SOLID
  5
414
  8
DEFAULT
 62
     2
 10
50.0
 20
150.0
 30
0.0
 11
50.0
 21
200.0
 31
0.0
 12
100.0
 22
150.0
 32
0.0
 13
100.0
 23
150.0
 33
0.0
  0
SOLID
  5
415
  8
DEFAULT
 62
     2
 10
100.0
 20
150.0
 30
0.0
 11
50.0
 21
200.0
 31
0.0
 12
100.0
 22
200.0
 32
0.0
 13
100.0
 23
200.0
 33
0.0
  0
ENDBLK
  5
46C
  8
0
  0
BLOCK
  8
0
  2
*U74
 70
     1
 10
0.0
 20
0.0
 30
0.0
  3
*U74
  1

  0
SOLID
  5
417
  8
DEFAULT
 62
     2
 10
150.0
 20
150.0
 30
0.0
 11
150.0
 21
200.0
 31
0.0
 12
200.0
 22
150.0
 32
0.0
 13
200.0
 23
150.0
 33
0.0
  0
SOLID
  5
418
  8
DEFAULT
 62
     2
 10
200.0
 20
150.0
 30
0.0
 11
150.0
 21
200.0
 31
0.0
 12
200.0
 22
200.0
 32
0.0
 13
200.0
 23
200.0
 33
0.0
  0
ENDBLK
  5
46E
  8
0
  0
BLOCK
  8
0
  2
*U75
 70
     1
 10
0.0
 20
0.0
 30
0.0
  3
*U75
  1

  0
SOLID
  5
41A
  8
DEFAULT
 62
     2
 10
250.0
 20
150.0
 30
0.0
 11
250.0
 21
200.0
 31
0.0
 12
300.0000000000001
 22
150.0
 32
0.0
 13
300.0000000000001
 23
150.0
 33
0.0
  0
SOLID
  5
41B
  8
DEFAULT
 62
     2
 10
300.0000000000001
 20
150.0
 30
0.0
 11
250.0
 21
200.0
 31
0.0
 12
300.0000000000001
 22
200.0
 32
0.0
 13
300.0000000000001
 23
200.0
 33
0.0
  0
ENDBLK
  5
470
  8
0
  0
BLOCK
  8
0
  2
*U76
 70
     1
 10
0.0
 20
0.0
 30
0.0
  3
*U76
  1

  0
SOLID
  5
41D
  8
DEFAULT
 62
     2
 10
350.0
 20
150.0
 30
0.0
 11
350.0
 21
200.0
 31
0.0
 12
400.0
 22
150.0
 32
0.0
 13
400.0
 23
150.0
 33
0.0
  0
SOLID
  5
41E
  8
DEFAULT
 62
     2
 10
400.0
 20
150.0
 30
0.0
 11
350.0
 21
200.0
 31
0.0
 12
400.0
 22
200.0
 32
0.0
 13
400.0
 23
200.0
 33
0.0
  0
ENDBLK
  5
472
  8
0
  0
BLOCK
  8
0
  2
*U77
 70
     1
 10
0.0
 20
0.0
 30
0.0
  3
*U77
  1

  0
SOLID
  5
420
  8
DEFAULT
 62
     2
 10
100.0
 20
200.0
 30
0.0
 11
100.0
 21
250.0
 31
0.0
 12
150.0
 22
200.0
 32
0.0
 13
150.0
 23
200.0
 33
0.0
  0
SOLID
  5
421
  8
DEFAULT
 62
     2
 10
150.0
 20
200.0
 30
0.0
 11
100.0
 21
250.0
 31
0.0
 12
150.0
 22
250.0
 32
0.0
 13
150.0
 23
250.0
 33
0.0
  0
ENDBLK
  5
474
  8
0
  0
BLOCK
  8
0
  2
*U78
 70
     1
 10
0.0
 20
0.0
 30
0.0
  3
*U78
  1

  0
SOLID
  5
423
  8
DEFAULT
 62
     2
 10
200.0
 20
200.0
 30
0.0
 11
200.0
 21
250.0
 31
0.0
 12
250.0
 22
200.0
 32
0.0
 13
250.0
 23
200.0
 33
0.0
  0
SOLID
  5
424
  8
DEFAULT
 62
     2
 10
250.0
 20
200.0
 30
0.0
 11
200.0
 21
250.0
 31
0.0
 12
250.0
 22
250.0
 32
0.0
 13
250.0
 23
250.0
 33
0.0
  0
ENDBLK
  5
476
  8
0
  0
BLOCK
  8
0
  2
*U79
 70
     1
 10
0.0
 20
0.0
 30
0.0
  3
*U79
  1

  0
SOLID
  5
426
  8
DEFAULT
 62
     2
 10
300.0
 20
200.0
 30
0.0
 11
300.0
 21
250.0
 31
0.0
 12
350.0
 22
200.0
 32
0.0
 13
350.0
 23
200.0
 33
0.0
  0
SOLID
  5
427
  8
DEFAULT
 62
     2
 10
350.0
 20
200.0
 30
0.0
 11
300.0
 21
250.0
 31
0.0
 12
350.0
 22
250.0
 32
0.0
 13
350.0
 23
250.0
 33
0.0
  0
ENDBLK
  5
478
  8
0
  0
BLOCK
  8
0
  2
*U80
 70
     1
 10
0.0
 20
0.0
 30
0.0
  3
*U80
  1

  0
SOLID
  5
429
  8
DEFAULT
 62
     2
 10
400.0
 20
200.0
 30
0.0
 11
400.0
 21
250.0
 31
0.0
 12
450.0
 22
200.0
 32
0.0
 13
450.0
 23
200.0
 33
0.0
  0
SOLID
  5
42A
  8
DEFAULT
 62
     2
 10
450.0
 20
200.0
 30
0.0
 11
400.0
 21
250.0
 31
0.0
 12
450.0
 22
250.0
 32
0.0
 13
450.0
 23
250.0
 33
0.0
  0
ENDBLK
  5
47A
  8
0
  0
BLOCK
  8
0
  2
*U81
 70
     1
 10
0.0
 20
0.0
 30
0.0
  3
*U81
  1

  0
SOLID
  5
42C
  8
DEFAULT
 62
     2
 10
50.0
 20
250.0
 30
0.0
 11
50.0
 21
300.0000000000001
 31
0.0
 12
100.0
 22
250.0
 32
0.0
 13
100.0
 23
250.0
 33
0.0
  0
SOLID
  5
42D
  8
DEFAULT
 62
     2
 10
100.0
 20
250.0
 30
0.0
 11
50.0
 21
300.0000000000001
 31
0.0
 12
100.0
 22
300.0000000000001
 32
0.0
 13
100.0
 23
300.0000000000001
 33
0.0
  0
ENDBLK
  5
47C
  8
0
  0
BLOCK
  8
0
  2
*U82
 70
     1
 10
0.0
 20
0.0
 30
0.0
  3
*U82
  1

  0
SOLID
  5
42F
  8
DEFAULT
 62
     2
 10
150.0
 20
250.0
 30
0.0
 11
150.0
 21
300.0000000000001
 31
0.0
 12
200.0
 22
250.0
 32
0.0
 13
200.0
 23
250.0
 33
0.0
  0
SOLID
  5
430
  8
DEFAULT
 62
     2
 10
200.0
 20
250.0
 30
0.0
 11
150.0
 21
300.0000000000001
 31
0.0
 12
200.0
 22
300.0000000000001
 32
0.0
 13
200.0
 23
300.0000000000001
 33
0.0
  0
ENDBLK
  5
47E
  8
0
  0
BLOCK
  8
0
  2
*U83
 70
     1
 10
0.0
 20
0.0
 30
0.0
  3
*U83
  1

  0
SOLID
  5
432
  8
DEFAULT
 62
     2
 10
249.9999999999999
 20
250.0
 30
0.0
 11
249.9999999999999
 21
300.0
 31
0.0
 12
300.0
 22
250.0
 32
0.0
 13
300.0
 23
250.0
 33
0.0
  0
SOLID
  5
433
  8
DEFAULT
 62
     2
 10
300.0
 20
250.0
 30
0.0
 11
249.9999999999999
 21
300.0
 31
0.0
 12
300.0
 22
300.0
 32
0.0
 13
300.0
 23
300.0
 33
0.0
  0
ENDBLK
  5
480
  8
0
  0
BLOCK
  8
0
  2
*U84
 70
     1
 10
0.0
 20
0.0
 30
0.0
  3
*U84
  1

  0
SOLID
  5
435
  8
DEFAULT
 62
     2
 10
350.0
 20
250.0
 30
0.0
 11
350.0
 21
300.0000000000001
 31
0.0
 12
400.0
 22
250.0
 32
0.0
 13
400.0
 23
250.0
 33
0.0
  0
SOLID
  5
436
  8
DEFAULT
 62
     2
 10
400.0
 20
250.0
 30
0.0
 11
350.0
 21
300.0000000000001
 31
0.0
 12
400.0
 22
300.0000000000001
 32
0.0
 13
400.0
 23
300.0000000000001
 33
0.0
  0
ENDBLK
  5
482
  8
0
  0
BLOCK
  8
0
  2
*U85
 70
     1
 10
0.0
 20
0.0
 30
0.0
  3
*U85
  1

  0
SOLID
  5
438
  8
DEFAULT
 62
     2
 10
100.0
 20
300.0000000000001
 30
0.0
 11
100.0
 21
350.0
 31
0.0
 12
150.0
 22
300.0000000000001
 32
0.0
 13
150.0
 23
300.0000000000001
 33
0.0
  0
SOLID
  5
439
  8
DEFAULT
 62
     2
 10
150.0
 20
300.0000000000001
 30
0.0
 11
100.0
 21
350.0
 31
0.0
 12
150.0
 22
350.0
 32
0.0
 13
150.0
 23
350.0
 33
0.0
  0
ENDBLK
  5
484
  8
0
  0
BLOCK
  8
0
  2
*U86
 70
     1
 10
0.0
 20
0.0
 30
0.0
  3
*U86
  1

  0
SOLID
  5
43B
  8
DEFAULT
 62
     2
 10
200.0
 20
300.0
 30
0.0
 11
200.0
 21
350.0
 31
0.0
 12
249.9999999999999
 22
300.0
 32
0.0
 13
249.9999999999999
 23
300.0
 33
0.0
  0
SOLID
  5
43C
  8
DEFAULT
 62
     2
 10
249.9999999999999
 20
300.0
 30
0.0
 11
200.0
 21
350.0
 31
0.0
 12
249.9999999999999
 22
350.0
 32
0.0
 13
249.9999999999999
 23
350.0
 33
0.0
  0
ENDBLK
  5
486
  8
0
  0
BLOCK
  8
0
  2
*U87
 70
     1
 10
0.0
 20
0.0
 30
0.0
  3
*U87
  1

  0
SOLID
  5
43E
  8
DEFAULT
 62
     2
 10
300.0
 20
300.0000000000001
 30
0.0
 11
300.0
 21
350.0
 31
0.0
 12
350.0
 22
300.0000000000001
 32
0.0
 13
350.0
 23
300.0000000000001
 33
0.0
  0
SOLID
  5
43F
  8
DEFAULT
 62
     2
 10
350.0
 20
300.0000000000001
 30
0.0
 11
300.0
 21
350.0
 31
0.0
 12
350.0
 22
350.0
 32
0.0
 13
350.0
 23
350.0
 33
0.0
  0
ENDBLK
  5
488
  8
0
  0
BLOCK
  8
0
  2
*U88
 70
     1
 10
0.0
 20
0.0
 30
0.0
  3
*U88
  1

  0
SOLID
  5
441
  8
DEFAULT
 62
     2
 10
400.0
 20
300.0
 30
0.0
 11
400.0
 21
350.0
 31
0.0
 12
449.9999999999999
 22
300.0
 32
0.0
 13
449.9999999999999
 23
300.0
 33
0.0
  0
SOLID
  5
442
  8
DEFAULT
 62
     2
 10
449.9999999999999
 20
300.0
 30
0.0
 11
400.0
 21
350.0
 31
0.0
 12
449.9999999999999
 22
350.0
 32
0.0
 13
449.9999999999999
 23
350.0
 33
0.0
  0
ENDBLK
  5
48A
  8
0
  0
BLOCK
  8
0
  2
*U89
 70
     1
 10
0.0
 20
0.0
 30
0.0
  3
*U89
  1

  0
SOLID
  5
444
  8
DEFAULT
 62
     2
 10
50.0
 20
350.0
 30
0.0
 11
50.0
 21
400.0
 31
0.0
 12
100.0
 22
350.0
 32
0.0
 13
100.0
 23
350.0
 33
0.0
  0
SOLID
  5
445
  8
DEFAULT
 62
     2
 10
100.0
 20
350.0
 30
0.0
 11
50.0
 21
400.0
 31
0.0
 12
100.0
 22
400.0
 32
0.0
 13
100.0
 23
400.0
 33
0.0
  0
ENDBLK
  5
48C
  8
0
  0
BLOCK
  8
0
  2
*U90
 70
     1
 10
0.0
 20
0.0
 30
0.0
  3
*U90
  1

  0
SOLID
  5
447
  8
DEFAULT
 62
     2
 10
150.0
 20
350.0
 30
0.0
 11
150.0
 21
400.0
 31
0.0
 12
200.0
 22
350.0
 32
0.0
 13
200.0
 23
350.0
 33
0.0
  0
SOLID
  5
448
  8
DEFAULT
 62
     2
 10
200.0
 20
350.0
 30
0.0
 11
150.0
 21
400.0
 31
0.0
 12
200.0
 22
400.0
 32
0.0
 13
200.0
 23
400.0
 33
0.0
  0
ENDBLK
  5
48E
  8
0
  0
BLOCK
  8
0
  2
*U91
 70
     1
 10
0.0
 20
0.0
 30
0.0
  3
*U91
  1

  0
SOLID
  5
44A
  8
DEFAULT
 62
     2
 10
249.9999999999999
 20
350.0
 30
0.0
 11
249.9999999999999
 21
400.0
 31
0.0
 12
300.0
 22
350.0
 32
0.0
 13
300.0
 23
350.0
 33
0.0
  0
SOLID
  5
44B
  8
DEFAULT
 62
     2
 10
300.0
 20
350.0
 30
0.0
 11
249.9999999999999
 21
400.0
 31
0.0
 12
300.0
 22
400.0
 32
0.0
 13
300.0
 23
400.0
 33
0.0
  0
ENDBLK
  5
490
  8
0
  0
BLOCK
  8
0
  2
*U92
 70
     1
 10
0.0
 20
0.0
 30
0.0
  3
*U92
  1

  0
SOLID
  5
44D
  8
DEFAULT
 62
     2
 10
350.0
 20
350.0
 30
0.0
 11
350.0
 21
400.0
 31
0.0
 12
400.0
 22
350.0
 32
0.0
 13
400.0
 23
350.0
 33
0.0
  0
SOLID
  5
44E
  8
DEFAULT
 62
     2
 10
400.0
 20
350.0
 30
0.0
 11
350.0
 21
400.0
 31
0.0
 12
400.0
 22
400.0
 32
0.0
 13
400.0
 23
400.0
 33
0.0
  0
ENDBLK
  5
492
  8
0
  0
BLOCK
  8
0
  2
*U93
 70
     1
 10
0.0
 20
0.0
 30
0.0
  3
*U93
  1

  0
SOLID
  5
450
  8
DEFAULT
 62
     2
 10
100.0
 20
400.0
 30
0.0
 11
100.0
 21
450.0
 31
0.0
 12
150.0
 22
400.0
 32
0.0
 13
150.0
 23
400.0
 33
0.0
  0
SOLID
  5
451
  8
DEFAULT
 62
     2
 10
150.0
 20
400.0
 30
0.0
 11
100.0
 21
450.0
 31
0.0
 12
150.0
 22
450.0
 32
0.0
 13
150.0
 23
450.0
 33
0.0
  0
ENDBLK
  5
494
  8
0
  0
BLOCK
  8
0
  2
*U94
 70
     1
 10
0.0
 20
0.0
 30
0.0
  3
*U94
  1

  0
SOLID
  5
453
  8
DEFAULT
 62
     2
 10
200.0
 20
400.0
 30
0.0
 11
200.0
 21
450.0
 31
0.0
 12
249.9999999999999
 22
400.0
 32
0.0
 13
249.9999999999999
 23
400.0
 33
0.0
  0
SOLID
  5
454
  8
DEFAULT
 62
     2
 10
249.9999999999999
 20
400.0
 30
0.0
 11
200.0
 21
450.0
 31
0.0
 12
249.9999999999999
 22
450.0
 32
0.0
 13
249.9999999999999
 23
450.0
 33
0.0
  0
ENDBLK
  5
496
  8
0
  0
BLOCK
  8
0
  2
*U95
 70
     1
 10
0.0
 20
0.0
 30
0.0
  3
*U95
  1

  0
SOLID
  5
456
  8
DEFAULT
 62
     2
 10
300.0
 20
400.0
 30
0.0
 11
300.0
 21
450.0
 31
0.0
 12
350.0
 22
400.0
 32
0.0
 13
350.0
 23
400.0
 33
0.0
  0
SOLID
  5
457
  8
DEFAULT
 62
     2
 10
350.0
 20
400.0
 30
0.0
 11
300.0
 21
450.0
 31
0.0
 12
350.0
 22
450.0
 32
0.0
 13
350.0
 23
450.0
 33
0.0
  0
ENDBLK
  5
498
  8
0
  0
BLOCK
  8
0
  2
*U96
 70
     1
 10
0.0
 20
0.0
 30
0.0
  3
*U96
  1

  0
SOLID
  5
459
  8
DEFAULT
 62
     2
 10
400.0
 20
400.0
 30
0.0
 11
400.0
 21
450.0
 31
0.0
 12
449.9999999999999
 22
400.0
 32
0.0
 13
449.9999999999999
 23
400.0
 33
0.0
  0
SOLID
  5
45A
  8
DEFAULT
 62
     2
 10
449.9999999999999
 20
400.0
 30
0.0
 11
400.0
 21
450.0
 31
0.0
 12
449.9999999999999
 22
450.0
 32
0.0
 13
449.9999999999999
 23
450.0
 33
0.0
  0
ENDBLK
  5
49A
  8
0
  0
ENDSEC
  0
SECTION
  2
ENTITIES
  0
TEXT
  5
6F
  8
STANDARD
  6
CONTINUOUS
 62
     5
 10
13.05344233734734
 20
414.5782523947298
 30
0.0
 40
25.7825239472981
  1
8
  0
TEXT
  5
70
  8
STANDARD
  6
CONTINUOUS
 62
     5
 10
13.71039249379872
 20
366.6622604541662
 30
0.0
 40
22.00185876006571
  1
7
  0
TEXT
  5
71
  8
STANDARD
  6
CONTINUOUS
 62
     5
 10
13.46536426640432
 20
316.6622604541662
 30
0.0
 40
22.00185876006571
  1
6
  0
TEXT
  5
72
  8
STANDARD
  6
CONTINUOUS
 62
     5
 10
13.95267802279511
 20
267.6622604541662
 30
0.0
 40
22.00185876006571
  1
5
  0
TEXT
  5
73
  8
STANDARD
  6
CONTINUOUS
 62
     5
 10
15.29664698560876
 20
217.6622604541663
 30
0.0
 40
22.00185876006571
  1
4
  0
TEXT
  5
74
  8
STANDARD
  6
CONTINUOUS
 62
     5
 10
14.61627173190211
 20
167.6622604541663
 30
0.0
 40
22.00185876006571
  1
3
  0
TEXT
  5
75
  8
STANDARD
  6
CONTINUOUS
 62
     5
 10
16.78112027881248
 20
115.6622604541663
 30
0.0
 40
22.00185876006571
  1
2
  0
TEXT
  5
76
  8
STANDARD
  6
CONTINUOUS
 62
     5
 10
13.69670006878562
 20
66.6622604541663
 30
0.0
 40
22.00185876006571
  1
1
  0
LINE
  5
77
  8
STANDARD
 62
     1
 10
449.9999999999999
 20
450.0
 30
0.0
 11
450.0
 21
0.0
 31
0.0
  0
LINE
  5
78
  8
STANDARD
 62
     1
 10
450.0
 20
0.0
 30
0.0
 11
0.0
 21
0.0
 31
0.0
  0
LINE
  5
79
  8
STANDARD
 62
     1
 10
0.0
 20
0.0
 30
0.0
 11
-0.0000000000000568
 21
450.0
 31
0.0
  0
LINE
  5
7A
  8
STANDARD
 62
     1
 10
-0.0000000000000568
 20
450.0
 30
0.0
 11
449.9999999999999
 21
450.0
 31
0.0
  0
LINE
  5
7B
  8
STANDARD
 62
     3
 10
0.0
 20
50.0
 30
0.0
 11
450.0
 21
50.0
 31
0.0
  0
LINE
  5
7C
  8
STANDARD
 62
     3
 10
250.0
 20
0.0
 30
0.0
 11
250.0
 21
450.0
 31
0.0
  0
LINE
  5
7D
  8
STANDARD
 62
     3
 10
200.0
 20
0.0
 30
0.0
 11
200.0
 21
450.0
 31
0.0
  0
LINE
  5
7E
  8
STANDARD
 62
     3
 10
350.0
 20
0.0
 30
0.0
 11
350.0
 21
450.0
 31
0.0
  0
LINE
  5
7F
  8
STANDARD
 62
     3
 10
0.0
 20
100.0
 30
0.0
 11
450.0
 21
100.0
 31
0.0
  0
LINE
  5
80
  8
STANDARD
 62
     3
 10
0.0
 20
150.0
 30
0.0
 11
450.0
 21
150.0
 31
0.0
  0
LINE
  5
81
  8
STANDARD
 62
     3
 10
0.0
 20
200.0
 30
0.0
 11
450.0
 21
200.0
 31
0.0
  0
LINE
  5
82
  8
STANDARD
 62
     3
 10
0.0
 20
250.0
 30
0.0
 11
449.9999999999999
 21
250.0
 31
0.0
  0
LINE
  5
83
  8
STANDARD
 62
     3
 10
0.0
 20
300.0
 30
0.0
 11
449.9999999999999
 21
300.0
 31
0.0
  0
LINE
  5
84
  8
STANDARD
 62
     3
 10
0.0
 20
350.0
 30
0.0
 11
449.9999999999999
 21
350.0
 31
0.0
  0
LINE
  5
85
  8
STANDARD
 62
     3
 10
50.0
 20
0.0
 30
0.0
 11
50.0
 21
450.0
 31
0.0
  0
LINE
  5
86
  8
STANDARD
 62
     3
 10
150.0
 20
450.0
 30
0.0
 11
150.0
 21
0.0
 31
0.0
  0
LINE
  5
87
  8
STANDARD
 62
     3
 10
300.0
 20
450.0
 30
0.0
 11
300.0
 21
0.0
 31
0.0
  0
LINE
  5
88
  8
STANDARD
 62
     3
 10
0.0
 20
400.0
 30
0.0
 11
449.9999999999999
 21
400.0
 31
0.0
  0
LINE
  5
89
  8
STANDARD
 62
     3
 10
400.0
 20
0.0
 30
0.0
 11
400.0
 21
450.0
 31
0.0
  0
TEXT
  5
8A
  8
STANDARD
  6
CONTINUOUS
 62
     5
 10
65.18724588568116
 20
15.6622604541663
 30
0.0
 40
22.00185876006571
  1
A
  0
TEXT
  5
8B
  8
STANDARD
  6
CONTINUOUS
 62
     5
 10
109.4546771051011
 20
15.6622604541663
 30
0.0
 40
22.00185876006571
  1
B
  0
TEXT
  5
8C
  8
STANDARD
  6
CONTINUOUS
 62
     5
 10
161.5668555460674
 20
15.6622604541663
 30
0.0
 40
22.00185876006571
  1
C
  0
TEXT
  5
8D
  8
STANDARD
  6
CONTINUOUS
 62
     5
 10
208.0586436474199
 20
15.6622604541663
 30
0.0
 40
22.00185876006571
  1
D
  0
TEXT
  5
8E
  8
STANDARD
  6
CONTINUOUS
 62
     5
 10
258.9266324948596
 20
15.6622604541663
 30
0.0
 40
22.00185876006571
  1
E
  0
TEXT
  5
8F
  8
STANDARD
  6
CONTINUOUS
 62
     5
 10
308.5966046134584
 20
15.6622604541663
 30
0.0
 40
22.00185876006571
  1
F
  0
TEXT
  5
90
  8
STANDARD
  6
CONTINUOUS
 62
     5
 10
359.3028332409467
 20
15.6622604541663
 30
0.0
 40
22.00185876006571
  1
G
  0
TEXT
  5
91
  8
STANDARD
  6
CONTINUOUS
 62
     5
 10
409.7946213422993
 20
15.6622604541663
 30
0.0
 40
22.00185876006571
  1
H
  0
INSERT
  5
93
  8
DEFAULT
 62
     2
  2
*U65
 10
0.0
 20
0.0
 30
0.0
1001
ACAD
1002
{
1000
R14_HATCH_DATA
1000
93
1011
1.0
1021
0.0
1031
0.0
1021
0.0
1031
0.0
1011
0.0
1021
1.0
1031
0.0
1021
1.0
1031
0.0
1011
0.0
1021
0.0
1031
1.0
1021
0.0
1031
1.0
1040
0.0
1010
0.0
1020
0.0
1030
1.0
1000
SOLID
1070
     1
1070
     1
1071
        1
1071
        2
1070
     0
1070
     1
1071
        4
1040
50.0
1040
50.0
1040
100.0
1040
50.0
1040
100.0
1040
100.0
1040
50.0
1040
100.0
1071
        0
1070
     0
1070
     1
1071
        0
1002
}
  0
INSERT
  5
94
  8
DEFAULT
 62
     2
  2
*U66
 10
0.0
 20
0.0
 30
0.0
1001
ACAD
1002
{
1000
R14_HATCH_DATA
1000
94
1011
1.0
1021
0.0
1031
0.0
1021
0.0
1031
0.0
1011
0.0
1021
1.0
1031
0.0
1021
1.0
1031
0.0
1011
0.0
1021
0.0
1031
1.0
1021
0.0
1031
1.0
1040
0.0
1010
0.0
1020
0.0
1030
1.0
1000
SOLID
1070
     1
1070
     1
1071
        1
1071
        2
1070
     0
1070
     1
1071
        4
1040
100.0
1040
100.0
1040
150.0
1040
100.0
1040
150.0
1040
150.0
1040
100.0
1040
150.0
1071
        0
1070
     0
1070
     1
1071
        0
1002
}
  0
INSERT
  5
95
  8
DEFAULT
 62
     2
  2
*U67
 10
0.0
 20
0.0
 30
0.0
1001
ACAD
1002
{
1000
R14_HATCH_DATA
1000
95
1011
1.0
1021
0.0
1031
0.0
1021
0.0
1031
0.0
1011
0.0
1021
1.0
1031
0.0
1021
1.0
1031
0.0
1011
0.0
1021
0.0
1031
1.0
1021
0.0
1031
1.0
1040
0.0
1010
0.0
1020
0.0
1030
1.0
1000
SOLID
1070
     1
1070
     1
1071
        1
1071
        2
1070
     0
1070
     1
1071
        4
1040
150.0
1040
50.0
1040
200.0
1040
50.0
1040
200.0
1040
100.0
1040
150.0
1040
100.0
1071
        0
1070
     0
1070
     1
1071
        0
1002
}
  0
INSERT
  5
96
  8
DEFAULT
 62
     2
  2
*U68
 10
0.0
 20
0.0
 30
0.0
1001
ACAD
1002
{
1000
R14_HATCH_DATA
1000
96
1011
1.0
1021
0.0
1031
0.0
1021
0.0
1031
0.0
1011
0.0
1021
1.0
1031
0.0
1021
1.0
1031
0.0
1011
0.0
1021
0.0
1031
1.0
1021
0.0
1031
1.0
1040
0.0
1010
0.0
1020
0.0
1030
1.0
1000
SOLID
1070
     1
1070
     1
1071
        1
1071
        2
1070
     0
1070
     1
1071
        4
1040
200.0
1040
100.0
1040
250.0
1040
100.0
1040
250.0
1040
150.0
1040
200.0
1040
150.0
1071
        0
1070
     0
1070
     1
1071
        0
1002
}
  0
INSERT
  5
97
  8
DEFAULT
 62
     2
  2
*U69
 10
0.0
 20
0.0
 30
0.0
1001
ACAD
1002
{
1000
R14_HATCH_DATA
1000
97
1011
1.0
1021
0.0
1031
0.0
1021
0.0
1031
0.0
1011
0.0
1021
1.0
1031
0.0
1021
1.0
1031
0.0
1011
0.0
1021
0.0
1031
1.0
1021
0.0
1031
1.0
1040
0.0
1010
0.0
1020
0.0
1030
1.0
1000
SOLID
1070
     1
1070
     1
1071
        1
1071
        2
1070
     0
1070
     1
1071
        4
1040
250.0
1040
49.99999999999997
1040
300.0
1040
49.99999999999997
1040
300.0
1040
100.0
1040
250.0
1040
100.0
1071
        0
1070
     0
1070
     1
1071
        0
1002
}
  0
INSERT
  5
98
  8
DEFAULT
 62
     2
  2
*U70
 10
0.0
 20
0.0
 30
0.0
1001
ACAD
1002
{
1000
R14_HATCH_DATA
1000
98
1011
1.0
1021
0.0
1031
0.0
1021
0.0
1031
0.0
1011
0.0
1021
1.0
1031
0.0
1021
1.0
1031
0.0
1011
0.0
1021
0.0
1031
1.0
1021
0.0
1031
1.0
1040
0.0
1010
0.0
1020
0.0
1030
1.0
1000
SOLID
1070
     1
1070
     1
1071
        1
1071
        2
1070
     0
1070
     1
1071
        4
1040
300.0000000000001
1040
100.0
1040
350.0
1040
100.0
1040
350.0
1040
150.0
1040
300.0000000000001
1040
150.0
1071
        0
1070
     0
1070
     1
1071
        0
1002
}
  0
INSERT
  5
99
  8
DEFAULT
 62
     2
  2
*U71
 10
0.0
 20
0.0
 30
0.0
1001
ACAD
1002
{
1000
R14_HATCH_DATA
1000
99
1011
1.0
1021
0.0
1031
0.0
1021
0.0
1031
0.0
1011
0.0
1021
1.0
1031
0.0
1021
1.0
1031
0.0
1011
0.0
1021
0.0
1031
1.0
1021
0.0
1031
1.0
1040
0.0
1010
0.0
1020
0.0
1030
1.0
1000
SOLID
1070
     1
1070
     1
1071
        1
1071
        2
1070
     0
1070
     1
1071
        4
1040
350.0
1040
50.0
1040
400.0
1040
50.0
1040
400.0
1040
100.0
1040
350.0
1040
100.0
1071
        0
1070
     0
1070
     1
1071
        0
1002
}
  0
INSERT
  5
9A
  8
DEFAULT
 62
     2
  2
*U72
 10
0.0
 20
0.0
 30
0.0
1001
ACAD
1002
{
1000
R14_HATCH_DATA
1000
9A
1011
1.0
1021
0.0
1031
0.0
1021
0.0
1031
0.0
1011
0.0
1021
1.0
1031
0.0
1021
1.0
1031
0.0
1011
0.0
1021
0.0
1031
1.0
1021
0.0
1031
1.0
1040
0.0
1010
0.0
1020
0.0
1030
1.0
1000
SOLID
1070
     1
1070
     1
1071
        1
1071
        2
1070
     0
1070
     1
1071
        4
1040
400.0
1040
100.0
1040
450.0
1040
100.0
1040
450.0
1040
150.0
1040
400.0
1040
150.0
1071
        0
1070
     0
1070
     1
1071
        0
1002
}
  0
INSERT
  5
9B
  8
DEFAULT
 62
     2
  2
*U73
 10
0.0
 20
0.0
 30
0.0
1001
ACAD
1002
{
1000
R14_HATCH_DATA
1000
9B
1011
1.0
1021
0.0
1031
0.0
1021
0.0
1031
0.0
1011
0.0
1021
1.0
1031
0.0
1021
1.0
1031
0.0
1011
0.0
1021
0.0
1031
1.0
1021
0.0
1031
1.0
1040
0.0
1010
0.0
1020
0.0
1030
1.0
1000
SOLID
1070
     1
1070
     1
1071
        1
1071
        2
1070
     0
1070
     1
1071
        4
1040
50.0
1040
150.0
1040
100.0
1040
150.0
1040
100.0
1040
200.0
1040
50.0
1040
200.0
1071
        0
1070
     0
1070
     1
1071
        0
1002
}
  0
INSERT
  5
9C
  8
DEFAULT
 62
     2
  2
*U74
 10
0.0
 20
0.0
 30
0.0
1001
ACAD
1002
{
1000
R14_HATCH_DATA
1000
9C
1011
1.0
1021
0.0
1031
0.0
1021
0.0
1031
0.0
1011
0.0
1021
1.0
1031
0.0
1021
1.0
1031
0.0
1011
0.0
1021
0.0
1031
1.0
1021
0.0
1031
1.0
1040
0.0
1010
0.0
1020
0.0
1030
1.0
1000
SOLID
1070
     1
1070
     1
1071
        1
1071
        2
1070
     0
1070
     1
1071
        4
1040
150.0
1040
150.0
1040
200.0
1040
150.0
1040
200.0
1040
200.0
1040
150.0
1040
200.0
1071
        0
1070
     0
1070
     1
1071
        0
1002
}
  0
INSERT
  5
9D
  8
DEFAULT
 62
     2
  2
*U75
 10
0.0
 20
0.0
 30
0.0
1001
ACAD
1002
{
1000
R14_HATCH_DATA
1000
9D
1011
1.0
1021
0.0
1031
0.0
1021
0.0
1031
0.0
1011
0.0
1021
1.0
1031
0.0
1021
1.0
1031
0.0
1011
0.0
1021
0.0
1031
1.0
1021
0.0
1031
1.0
1040
0.0
1010
0.0
1020
0.0
1030
1.0
1000
SOLID
1070
     1
1070
     1
1071
        1
1071
        2
1070
     0
1070
     1
1071
        4
1040
250.0
1040
150.0
1040
300.0000000000001
1040
150.0
1040
300.0000000000001
1040
200.0
1040
250.0
1040
200.0
1071
        0
1070
     0
1070
     1
1071
        0
1002
}
  0
INSERT
  5
9E
  8
DEFAULT
 62
     2
  2
*U76
 10
0.0
 20
0.0
 30
0.0
1001
ACAD
1002
{
1000
R14_HATCH_DATA
1000
9E
1011
1.0
1021
0.0
1031
0.0
1021
0.0
1031
0.0
1011
0.0
1021
1.0
1031
0.0
1021
1.0
1031
0.0
1011
0.0
1021
0.0
1031
1.0
1021
0.0
1031
1.0
1040
0.0
1010
0.0
1020
0.0
1030
1.0
1000
SOLID
1070
     1
1070
     1
1071
        1
1071
        2
1070
     0
1070
     1
1071
        4
1040
350.0
1040
150.0
1040
400.0
1040
150.0
1040
400.0
1040
200.0
1040
350.0
1040
200.0
1071
        0
1070
     0
1070
     1
1071
        0
1002
}
  0
INSERT
  5
9F
  8
DEFAULT
 62
     2
  2
*U77
 10
0.0
 20
0.0
 30
0.0
1001
ACAD
1002
{
1000
R14_HATCH_DATA
1000
9F
1011
1.0
1021
0.0
1031
0.0
1021
0.0
1031
0.0
1011
0.0
1021
1.0
1031
0.0
1021
1.0
1031
0.0
1011
0.0
1021
0.0
1031
1.0
1021
0.0
1031
1.0
1040
0.0
1010
0.0
1020
0.0
1030
1.0
1000
SOLID
1070
     1
1070
     1
1071
        1
1071
        2
1070
     0
1070
     1
1071
        4
1040
100.0
1040
200.0
1040
150.0
1040
200.0
1040
150.0
1040
250.0
1040
100.0
1040
250.0
1071
        0
1070
     0
1070
     1
1071
        0
1002
}
  0
INSERT
  5
A0
  8
DEFAULT
 62
     2
  2
*U78
 10
0.0
 20
0.0
 30
0.0
1001
ACAD
1002
{
1000
R14_HATCH_DATA
1000
A0
1011
1.0
1021
0.0
1031
0.0
1021
0.0
1031
0.0
1011
0.0
1021
1.0
1031
0.0
1021
1.0
1031
0.0
1011
0.0
1021
0.0
1031
1.0
1021
0.0
1031
1.0
1040
0.0
1010
0.0
1020
0.0
1030
1.0
1000
SOLID
1070
     1
1070
     1
1071
        1
1071
        2
1070
     0
1070
     1
1071
        4
1040
200.0
1040
200.0
1040
250.0
1040
200.0
1040
250.0
1040
250.0
1040
200.0
1040
250.0
1071
        0
1070
     0
1070
     1
1071
        0
1002
}
  0
INSERT
  5
A1
  8
DEFAULT
 62
     2
  2
*U79
 10
0.0
 20
0.0
 30
0.0
1001
ACAD
1002
{
1000
R14_HATCH_DATA
1000
A1
1011
1.0
1021
0.0
1031
0.0
1021
0.0
1031
0.0
1011
0.0
1021
1.0
1031
0.0
1021
1.0
1031
0.0
1011
0.0
1021
0.0
1031
1.0
1021
0.0
1031
1.0
1040
0.0
1010
0.0
1020
0.0
1030
1.0
1000
SOLID
1070
     1
1070
     1
1071
        1
1071
        2
1070
     0
1070
     1
1071
        4
1040
300.0
1040
200.0
1040
350.0
1040
200.0
1040
350.0
1040
250.0
1040
300.0
1040
250.0
1071
        0
1070
     0
1070
     1
1071
        0
1002
}
  0
INSERT
  5
A2
  8
DEFAULT
 62
     2
  2
*U80
 10
0.0
 20
0.0
 30
0.0
1001
ACAD
1002
{
1000
R14_HATCH_DATA
1000
A2
1011
1.0
1021
0.0
1031
0.0
1021
0.0
1031
0.0
1011
0.0
1021
1.0
1031
0.0
1021
1.0
1031
0.0
1011
0.0
1021
0.0
1031
1.0
1021
0.0
1031
1.0
1040
0.0
1010
0.0
1020
0.0
1030
1.0
1000
SOLID
1070
     1
1070
     1
1071
        1
1071
        2
1070
     0
1070
     1
1071
        4
1040
400.0
1040
200.0
1040
450.0
1040
200.0
1040
450.0
1040
250.0
1040
400.0
1040
250.0
1071
        0
1070
     0
1070
     1
1071
        0
1002
}
  0
INSERT
  5
A3
  8
DEFAULT
 62
     2
  2
*U81
 10
0.0
 20
0.0
 30
0.0
1001
ACAD
1002
{
1000
R14_HATCH_DATA
1000
A3
1011
1.0
1021
0.0
1031
0.0
1021
0.0
1031
0.0
1011
0.0
1021
1.0
1031
0.0
1021
1.0
1031
0.0
1011
0.0
1021
0.0
1031
1.0
1021
0.0
1031
1.0
1040
0.0
1010
0.0
1020
0.0
1030
1.0
1000
SOLID
1070
     1
1070
     1
1071
        1
1071
        2
1070
     0
1070
     1
1071
        4
1040
50.0
1040
250.0
1040
100.0
1040
250.0
1040
100.0
1040
300.0000000000001
1040
50.0
1040
300.0000000000001
1071
        0
1070
     0
1070
     1
1071
        0
1002
}
  0
INSERT
  5
A4
  8
DEFAULT
 62
     2
  2
*U82
 10
0.0
 20
0.0
 30
0.0
1001
ACAD
1002
{
1000
R14_HATCH_DATA
1000
A4
1011
1.0
1021
0.0
1031
0.0
1021
0.0
1031
0.0
1011
0.0
1021
1.0
1031
0.0
1021
1.0
1031
0.0
1011
0.0
1021
0.0
1031
1.0
1021
0.0
1031
1.0
1040
0.0
1010
0.0
1020
0.0
1030
1.0
1000
SOLID
1070
     1
1070
     1
1071
        1
1071
        2
1070
     0
1070
     1
1071
        4
1040
150.0
1040
250.0
1040
200.0
1040
250.0
1040
200.0
1040
300.0000000000001
1040
150.0
1040
300.0000000000001
1071
        0
1070
     0
1070
     1
1071
        0
1002
}
  0
INSERT
  5
A5
  8
DEFAULT
 62
     2
  2
*U83
 10
0.0
 20
0.0
 30
0.0
1001
ACAD
1002
{
1000
R14_HATCH_DATA
1000
A5
1011
1.0
1021
0.0
1031
0.0
1021
0.0
1031
0.0
1011
0.0
1021
1.0
1031
0.0
1021
1.0
1031
0.0
1011
0.0
1021
0.0
1031
1.0
1021
0.0
1031
1.0
1040
0.0
1010
0.0
1020
0.0
1030
1.0
1000
SOLID
1070
     1
1070
     1
1071
        1
1071
        2
1070
     0
1070
     1
1071
        4
1040
249.9999999999999
1040
250.0
1040
300.0
1040
250.0
1040
300.0
1040
300.0
1040
249.9999999999999
1040
300.0
1071
        0
1070
     0
1070
     1
1071
        0
1002
}
  0
INSERT
  5
A6
  8
DEFAULT
 62
     2
  2
*U84
 10
0.0
 20
0.0
 30
0.0
1001
ACAD
1002
{
1000
R14_HATCH_DATA
1000
A6
1011
1.0
1021
0.0
1031
0.0
1021
0.0
1031
0.0
1011
0.0
1021
1.0
1031
0.0
1021
1.0
1031
0.0
1011
0.0
1021
0.0
1031
1.0
1021
0.0
1031
1.0
1040
0.0
1010
0.0
1020
0.0
1030
1.0
1000
SOLID
1070
     1
1070
     1
1071
        1
1071
        2
1070
     0
1070
     1
1071
        4
1040
350.0
1040
250.0
1040
400.0
1040
250.0
1040
400.0
1040
300.0000000000001
1040
350.0
1040
300.0000000000001
1071
        0
1070
     0
1070
     1
1071
        0
1002
}
  0
INSERT
  5
A7
  8
DEFAULT
 62
     2
  2
*U85
 10
0.0
 20
0.0
 30
0.0
1001
ACAD
1002
{
1000
R14_HATCH_DATA
1000
A7
1011
1.0
1021
0.0
1031
0.0
1021
0.0
1031
0.0
1011
0.0
1021
1.0
1031
0.0
1021
1.0
1031
0.0
1011
0.0
1021
0.0
1031
1.0
1021
0.0
1031
1.0
1040
0.0
1010
0.0
1020
0.0
1030
1.0
1000
SOLID
1070
     1
1070
     1
1071
        1
1071
        2
1070
     0
1070
     1
1071
        4
1040
100.0
1040
300.0000000000001
1040
150.0
1040
300.0000000000001
1040
150.0
1040
350.0
1040
100.0
1040
350.0
1071
        0
1070
     0
1070
     1
1071
        0
1002
}
  0
INSERT
  5
A8
  8
DEFAULT
 62
     2
  2
*U86
 10
0.0
 20
0.0
 30
0.0
1001
ACAD
1002
{
1000
R14_HATCH_DATA
1000
A8
1011
1.0
1021
0.0
1031
0.0
1021
0.0
1031
0.0
1011
0.0
1021
1.0
1031
0.0
1021
1.0
1031
0.0
1011
0.0
1021
0.0
1031
1.0
1021
0.0
1031
1.0
1040
0.0
1010
0.0
1020
0.0
1030
1.0
1000
SOLID
1070
     1
1070
     1
1071
        1
1071
        2
1070
     0
1070
     1
1071
        4
1040
200.0
1040
300.0
1040
249.9999999999999
1040
300.0
1040
249.9999999999999
1040
350.0
1040
200.0
1040
350.0
1071
        0
1070
     0
1070
     1
1071
        0
1002
}
  0
INSERT
  5
A9
  8
DEFAULT
 62
     2
  2
*U87
 10
0.0
 20
0.0
 30
0.0
1001
ACAD
1002
{
1000
R14_HATCH_DATA
1000
A9
1011
1.0
1021
0.0
1031
0.0
1021
0.0
1031
0.0
1011
0.0
1021
1.0
1031
0.0
1021
1.0
1031
0.0
1011
0.0
1021
0.0
1031
1.0
1021
0.0
1031
1.0
1040
0.0
1010
0.0
1020
0.0
1030
1.0
1000
SOLID
1070
     1
1070
     1
1071
        1
1071
        2
1070
     0
1070
     1
1071
        4
1040
300.0
1040
300.0000000000001
1040
350.0
1040
300.0000000000001
1040
350.0
1040
350.0
1040
300.0
1040
350.0
1071
        0
1070
     0
1070
     1
1071
        0
1002
}
  0
INSERT
  5
AA
  8
DEFAULT
 62
     2
  2
*U88
 10
0.0
 20
0.0
 30
0.0
1001
ACAD
1002
{
1000
R14_HATCH_DATA
1000
AA
1011
1.0
1021
0.0
1031
0.0
1021
0.0
1031
0.0
1011
0.0
1021
1.0
1031
0.0
1021
1.0
1031
0.0
1011
0.0
1021
0.0
1031
1.0
1021
0.0
1031
1.0
1040
0.0
1010
0.0
1020
0.0
1030
1.0
1000
SOLID
1070
     1
1070
     1
1071
        1
1071
        2
1070
     0
1070
     1
1071
        4
1040
400.0
1040
300.0
1040
449.9999999999999
1040
300.0
1040
449.9999999999999
1040
350.0
1040
400.0
1040
350.0
1071
        0
1070
     0
1070
     1
1071
        0
1002
}
  0
INSERT
  5
AB
  8
DEFAULT
 62
     2
  2
*U89
 10
0.0
 20
0.0
 30
0.0
1001
ACAD
1002
{
1000
R14_HATCH_DATA
1000
AB
1011
1.0
1021
0.0
1031
0.0
1021
0.0
1031
0.0
1011
0.0
1021
1.0
1031
0.0
1021
1.0
1031
0.0
1011
0.0
1021
0.0
1031
1.0
1021
0.0
1031
1.0
1040
0.0
1010
0.0
1020
0.0
1030
1.0
1000
SOLID
1070
     1
1070
     1
1071
        1
1071
        2
1070
     0
1070
     1
1071
        4
1040
50.0
1040
350.0
1040
100.0
1040
350.0
1040
100.0
1040
400.0
1040
50.0
1040
400.0
1071
        0
1070
     0
1070
     1
1071
        0
1002
}
  0
INSERT
  5
AC
  8
DEFAULT
 62
     2
  2
*U90
 10
0.0
 20
0.0
 30
0.0
1001
ACAD
1002
{
1000
R14_HATCH_DATA
1000
AC
1011
1.0
1021
0.0
1031
0.0
1021
0.0
1031
0.0
1011
0.0
1021
1.0
1031
0.0
1021
1.0
1031
0.0
1011
0.0
1021
0.0
1031
1.0
1021
0.0
1031
1.0
1040
0.0
1010
0.0
1020
0.0
1030
1.0
1000
SOLID
1070
     1
1070
     1
1071
        1
1071
        2
1070
     0
1070
     1
1071
        4
1040
150.0
1040
350.0
1040
200.0
1040
350.0
1040
200.0
1040
400.0
1040
150.0
1040
400.0
1071
        0
1070
     0
1070
     1
1071
        0
1002
}
  0
INSERT
  5
AD
  8
DEFAULT
 62
     2
  2
*U91
 10
0.0
 20
0.0
 30
0.0
1001
ACAD
1002
{
1000
R14_HATCH_DATA
1000
AD
1011
1.0
1021
0.0
1031
0.0
1021
0.0
1031
0.0
1011
0.0
1021
1.0
1031
0.0
1021
1.0
1031
0.0
1011
0.0
1021
0.0
1031
1.0
1021
0.0
1031
1.0
1040
0.0
1010
0.0
1020
0.0
1030
1.0
1000
SOLID
1070
     1
1070
     1
1071
        1
1071
        2
1070
     0
1070
     1
1071
        4
1040
249.9999999999999
1040
350.0
1040
300.0
1040
350.0
1040
300.0
1040
400.0
1040
249.9999999999999
1040
400.0
1071
        0
1070
     0
1070
     1
1071
        0
1002
}
  0
INSERT
  5
AE
  8
DEFAULT
 62
     2
  2
*U92
 10
0.0
 20
0.0
 30
0.0
1001
ACAD
1002
{
1000
R14_HATCH_DATA
1000
AE
1011
1.0
1021
0.0
1031
0.0
1021
0.0
1031
0.0
1011
0.0
1021
1.0
1031
0.0
1021
1.0
1031
0.0
1011
0.0
1021
0.0
1031
1.0
1021
0.0
1031
1.0
1040
0.0
1010
0.0
1020
0.0
1030
1.0
1000
SOLID
1070
     1
1070
     1
1071
        1
1071
        2
1070
     0
1070
     1
1071
        4
1040
350.0
1040
350.0
1040
400.0
1040
350.0
1040
400.0
1040
400.0
1040
350.0
1040
400.0
1071
        0
1070
     0
1070
     1
1071
        0
1002
}
  0
INSERT
  5
AF
  8
DEFAULT
 62
     2
  2
*U93
 10
0.0
 20
0.0
 30
0.0
1001
ACAD
1002
{
1000
R14_HATCH_DATA
1000
AF
1011
1.0
1021
0.0
1031
0.0
1021
0.0
1031
0.0
1011
0.0
1021
1.0
1031
0.0
1021
1.0
1031
0.0
1011
0.0
1021
0.0
1031
1.0
1021
0.0
1031
1.0
1040
0.0
1010
0.0
1020
0.0
1030
1.0
1000
SOLID
1070
     1
1070
     1
1071
        1
1071
        2
1070
     0
1070
     1
1071
        4
1040
100.0
1040
400.0
1040
150.0
1040
400.0
1040
150.0
1040
450.0
1040
100.0
1040
450.0
1071
        0
1070
     0
1070
     1
1071
        0
1002
}
  0
INSERT
  5
B0
  8
DEFAULT
 62
     2
  2
*U94
 10
0.0
 20
0.0
 30
0.0
1001
ACAD
1002
{
1000
R14_HATCH_DATA
1000
B0
1011
1.0
1021
0.0
1031
0.0
1021
0.0
1031
0.0
1011
0.0
1021
1.0
1031
0.0
1021
1.0
1031
0.0
1011
0.0
1021
0.0
1031
1.0
1021
0.0
1031
1.0
1040
0.0
1010
0.0
1020
0.0
1030
1.0
1000
SOLID
1070
     1
1070
     1
1071
        1
1071
        2
1070
     0
1070
     1
1071
        4
1040
200.0
1040
400.0
1040
249.9999999999999
1040
400.0
1040
249.9999999999999
1040
450.0
1040
200.0
1040
450.0
1071
        0
1070
     0
1070
     1
1071
        0
1002
}
  0
INSERT
  5
B1
  8
DEFAULT
 62
     2
  2
*U95
 10
0.0
 20
0.0
 30
0.0
1001
ACAD
1002
{
1000
R14_HATCH_DATA
1000
B1
1011
1.0
1021
0.0
1031
0.0
1021
0.0
1031
0.0
1011
0.0
1021
1.0
1031
0.0
1021
1.0
1031
0.0
1011
0.0
1021
0.0
1031
1.0
1021
0.0
1031
1.0
1040
0.0
1010
0.0
1020
0.0
1030
1.0
1000
SOLID
1070
     1
1070
     1
1071
        1
1071
        2
1070
     0
1070
     1
1071
        4
1040
300.0
1040
400.0
1040
350.0
1040
400.0
1040
350.0
1040
450.0
1040
300.0
1040
450.0
1071
        0
1070
     0
1070
     1
1071
        0
1002
}
  0
INSERT
  5
B2
  8
DEFAULT
 62
     2
  2
*U96
 10
0.0
 20
0.0
 30
0.0
1001
ACAD
1002
{
1000
R14_HATCH_DATA
1000
B2
1011
1.0
1021
0.0
1031
0.0
1021
0.0
1031
0.0
1011
0.0
1021
1.0
1031
0.0
1021
1.0
1031
0.0
1011
0.0
1021
0.0
1031
1.0
1021
0.0
1031
1.0
1040
0.0
1010
0.0
1020
0.0
1030
1.0
1000
SOLID
1070
     1
1070
     1
1071
        1
1071
        2
1070
     0
1070
     1
1071
        4
1040
400.0
1040
400.0
1040
449.9999999999999
1040
400.0
1040
449.9999999999999
1040
450.0
1040
400.0
1040
450.0
1071
        0
1070
     0
1070
     1
1071
        0
1002
}
  0
LINE
  5
B3
  8
STANDARD
 62
     3
 10
100.0
 20
0.0
 30
0.0
 11
100.0
 21
450.0
 31
0.0
  0
ENDSEC
  0
EOF
