  0
SECTION
  2
HEADER
  9
$ACADVER
  1
AC1009
  9
$DWGCODEPAGE
  3
ansi_1252
  9
$INSBASE
 10
0.0
 20
0.0
 30
0.0
  9
$EXTMIN
 10
-0.0000000000000009
 20
0.0
 30
0.0
  9
$EXTMAX
 10
103.0
 20
83.41547594742265
 30
0.0
  9
$LIMMIN
 10
0.0
 20
0.0
  9
$LIMMAX
 10
12.0
 20
9.0
  9
$ORTHOMODE
 70
     0
  9
$REGENMODE
 70
     1
  9
$FILLMODE
 70
     1
  9
$QTEXTMODE
 70
     0
  9
$MIRRTEXT
 70
     1
  9
$DRAGMODE
 70
     2
  9
$LTSCALE
 40
1.0
  9
$OSMODE
 70
    37
  9
$ATTMODE
 70
     1
  9
$TEXTSIZE
 40
0.2
  9
$TRACEWID
 40
0.05
  9
$TEXTSTYLE
  7
STANDARD
  9
$CLAYER
  8
STANDARD
  9
$CELTYPE
  6
BYLAYER
  9
$CECOLOR
 62
   256
  9
$DIMSCALE
 40
1.0
  9
$DIMASZ
 40
0.18
  9
$DIMEXO
 40
0.0625
  9
$DIMDLI
 40
0.38
  9
$DIMRND
 40
0.0
  9
$DIMDLE
 40
0.0
  9
$DIMEXE
 40
0.18
  9
$DIMTP
 40
0.0
  9
$DIMTM
 40
0.0
  9
$DIMTXT
 40
0.18
  9
$DIMCEN
 40
0.09
  9
$DIMTSZ
 40
0.0
  9
$DIMTOL
 70
     0
  9
$DIMLIM
 70
     0
  9
$DIMTIH
 70
     1
  9
$DIMTOH
 70
     1
  9
$DIMSE1
 70
     0
  9
$DIMSE2
 70
     0
  9
$DIMTAD
 70
     0
  9
$DIMZIN
 70
     0
  9
$DIMBLK
  1

  9
$DIMASO
 70
     1
  9
$DIMSHO
 70
     1
  9
$DIMPOST
  1

  9
$DIMAPOST
  1

  9
$DIMALT
 70
     0
  9
$DIMALTD
 70
     2
  9
$DIMALTF
 40
25.4
  9
$DIMLFAC
 40
1.0
  9
$DIMTOFL
 70
     0
  9
$DIMTVP
 40
0.0
  9
$DIMTIX
 70
     0
  9
$DIMSOXD
 70
     0
  9
$DIMSAH
 70
     0
  9
$DIMBLK1
  1

  9
$DIMBLK2
  1

  9
$DIMSTYLE
  2
STANDARD
  9
$DIMCLRD
 70
     0
  9
$DIMCLRE
 70
     0
  9
$DIMCLRT
 70
     0
  9
$DIMTFAC
 40
1.0
  9
$DIMGAP
 40
0.09
  9
$LUNITS
 70
     2
  9
$LUPREC
 70
     3
  9
$SKETCHINC
 40
0.1
  9
$FILLETRAD
 40
0.5
  9
$AUNITS
 70
     0
  9
$AUPREC
 70
     0
  9
$MENU
  1
.
  9
$ELEVATION
 40
0.0
  9
$PELEVATION
 40
0.0
  9
$THICKNESS
 40
0.0
  9
$LIMCHECK
 70
     0
  9
$CHAMFERA
 40
0.0
  9
$CHAMFERB
 40
0.0
  9
$SKPOLY
 70
     0
  9
$TDCREATE
 40
2458065.771577708
  9
$TDUPDATE
 40
2458065.771577882
  9
$TDINDWG
 40
0.0000000116
  9
$TDUSRTIMER
 40
0.0000000116
  9
$USRTIMER
 70
     1
  9
$ANGBASE
 50
0.0
  9
$ANGDIR
 70
     0
  9
$PDMODE
 70
     0
  9
$PDSIZE
 40
0.0
  9
$PLINEWID
 40
0.0
  9
$COORDS
 70
     1
  9
$SPLFRAME
 70
     0
  9
$SPLINETYPE
 70
     6
  9
$SPLINESEGS
 70
     8
  9
$ATTDIA
 70
     0
  9
$ATTREQ
 70
     1
  9
$HANDLING
 70
     1
  9
$HANDSEED
  5
270
  9
$SURFTAB1
 70
     6
  9
$SURFTAB2
 70
     6
  9
$SURFTYPE
 70
     6
  9
$SURFU
 70
     6
  9
$SURFV
 70
     6
  9
$UCSNAME
  2

  9
$UCSORG
 10
0.0
 20
0.0
 30
0.0
  9
$UCSXDIR
 10
1.0
 20
0.0
 30
0.0
  9
$UCSYDIR
 10
0.0
 20
1.0
 30
0.0
  9
$PUCSNAME
  2

  9
$PUCSORG
 10
0.0
 20
0.0
 30
0.0
  9
$PUCSXDIR
 10
1.0
 20
0.0
 30
0.0
  9
$PUCSYDIR
 10
0.0
 20
1.0
 30
0.0
  9
$USERI1
 70
     0
  9
$USERI2
 70
     0
  9
$USERI3
 70
     0
  9
$USERI4
 70
     0
  9
$USERI5
 70
     0
  9
$USERR1
 40
0.0
  9
$USERR2
 40
0.0
  9
$USERR3
 40
0.0
  9
$USERR4
 40
0.0
  9
$USERR5
 40
0.0
  9
$WORLDVIEW
 70
     1
  9
$SHADEDGE
 70
     3
  9
$SHADEDIF
 70
    70
  9
$TILEMODE
 70
     1
  9
$MAXACTVP
 70
    64
  9
$PLIMCHECK
 70
     0
  9
$PEXTMIN
 10
1.000000000000000E+20
 20
1.000000000000000E+20
 30
1.000000000000000E+20
  9
$PEXTMAX
 10
-1.000000000000000E+20
 20
-1.000000000000000E+20
 30
-1.000000000000000E+20
  9
$PLIMMIN
 10
0.0
 20
0.0
  9
$PLIMMAX
 10
12.0
 20
9.0
  9
$UNITMODE
 70
     0
  9
$VISRETAIN
 70
     1
  9
$PLINEGEN
 70
     0
  9
$PSLTSCALE
 70
     1
  0
ENDSEC
  0
SECTION
  2
TABLES
  0
TABLE
  2
VPORT
 70
     1
  0
VPORT
  2
*ACTIVE
 70
     0
 10
0.0
 20
0.0
 11
1.0
 21
1.0
 12
51.5
 22
41.70773797371132
 13
0.0
 23
0.0
 14
0.5
 24
0.5
 15
0.5
 25
0.5
 16
0.0
 26
0.0
 36
1.0
 17
0.0
 27
0.0
 37
0.0
 40
85.0837854663711
 41
1.234782860496074
 42
50.0
 43
0.0
 44
0.0
 50
0.0
 51
0.0
 71
     0
 72
   100
 73
     1
 74
     3
 75
     0
 76
     0
 77
     0
 78
     0
  0
ENDTAB
  0
TABLE
  2
LTYPE
 70
     1
  0
LTYPE
  2
CONTINUOUS
 70
     0
  3
Solid line
 72
    65
 73
     0
 40
0.0
  0
ENDTAB
  0
TABLE
  2
LAYER
 70
     2
  0
LAYER
  2
0
 70
     0
 62
     7
  6
CONTINUOUS
  0
LAYER
  2
STANDARD
 70
     0
 62
     7
  6
CONTINUOUS
  0
ENDTAB
  0
TABLE
  2
STYLE
 70
     1
  0
STYLE
  2
STANDARD
 70
     0
 40
0.0
 41
1.0
 50
0.0
 71
     0
 42
0.2
  3
txt
  4

  0
ENDTAB
  0
TABLE
  2
VIEW
 70
     0
  0
ENDTAB
  0
TABLE
  2
UCS
 70
     0
  0
ENDTAB
  0
TABLE
  2
APPID
 70
     1
  0
APPID
  2
ACAD
 70
     0
  0
ENDTAB
  0
TABLE
  2
DIMSTYLE
 70
     1
  0
DIMSTYLE
  2
STANDARD
 70
     0
  3

  4

  5

  6

  7

 40
1.0
 41
0.18
 42
0.0625
 43
0.38
 44
0.18
 45
0.0
 46
0.0
 47
0.0
 48
0.0
140
0.18
141
0.09
142
0.0
143
25.4
144
1.0
145
0.0
146
1.0
147
0.09
 71
     0
 72
     0
 73
     1
 74
     1
 75
     0
 76
     0
 77
     0
 78
     0
170
     0
171
     2
172
     0
173
     0
174
     0
175
     0
176
     0
177
     0
178
     0
  0
ENDTAB
  0
ENDSEC
  0
SECTION
  2
BLOCKS
  0
BLOCK
  8
0
  2
$MODEL_SPACE
 70
     0
 10
0.0
 20
0.0
 30
0.0
  3
$MODEL_SPACE
  1

  0
ENDBLK
  5
21
  8
0
  0
BLOCK
 67
     1
  8
0
  2
$PAPER_SPACE
 70
     0
 10
0.0
 20
0.0
 30
0.0
  3
$PAPER_SPACE
  1

  0
ENDBLK
  5
1D
 67
     1
  8
0
  0
ENDSEC
  0
SECTION
  2
ENTITIES
  0
LINE
  5
6F
  8
STANDARD
 10
13.5
 20
45.00815830836756
 30
0.0
 11
13.49776889786244
 21
44.34528852150414
 31
0.0
  0
LINE
  5
70
  8
STANDARD
 10
13.49776889786244
 20
44.34528852150414
 30
0.0
 11
13.49607128879122
 21
43.6824961507485
 31
0.0
  0
LINE
  5
71
  8
STANDARD
 10
13.49607128879122
 20
43.6824961507485
 30
0.0
 11
13.49544066585268
 21
43.01985861220843
 31
0.0
  0
LINE
  5
72
  8
STANDARD
 10
13.49544066585268
 20
43.01985861220843
 30
0.0
 11
13.49641052211318
 21
42.3574533219918
 31
0.0
  0
LINE
  5
73
  8
STANDARD
 10
13.49641052211318
 20
42.3574533219918
 30
0.0
 11
13.49951435063904
 21
41.69535769620635
 31
0.0
  0
LINE
  5
74
  8
STANDARD
 10
13.49951435063904
 20
41.69535769620635
 30
0.0
 11
13.50514038841149
 21
41.03362807259647
 31
0.0
  0
LINE
  5
75
  8
STANDARD
 10
13.50514038841149
 20
41.03362807259647
 30
0.0
 11
13.512871595639
 21
40.37220393379185
 31
0.0
  0
LINE
  5
76
  8
STANDARD
 10
13.512871595639
 20
40.37220393379185
 30
0.0
 11
13.52201345346548
 21
39.71098449695195
 31
0.0
  0
LINE
  5
77
  8
STANDARD
 10
13.52201345346548
 20
39.71098449695195
 30
0.0
 11
13.53187118465192
 21
39.04986894174181
 31
0.0
  0
LINE
  5
78
  8
STANDARD
 10
13.53187118465192
 20
39.04986894174181
 30
0.0
 11
13.54175001195934
 21
38.38875644782652
 31
0.0
  0
LINE
  5
79
  8
STANDARD
 10
13.54175001195934
 20
38.38875644782652
 30
0.0
 11
13.55095515814872
 21
37.72754619487115
 31
0.0
  0
LINE
  5
7A
  8
STANDARD
 10
13.55095515814872
 20
37.72754619487115
 30
0.0
 11
13.55879184598106
 21
37.06613736254076
 31
0.0
  0
LINE
  5
7B
  8
STANDARD
 10
13.55879184598106
 20
37.06613736254076
 30
0.0
 11
13.56456529821736
 21
36.40442913050042
 31
0.0
  0
LINE
  5
7C
  8
STANDARD
 10
13.56456529821736
 20
36.40442913050042
 30
0.0
 11
13.56758073761861
 21
35.7423206784152
 31
0.0
  0
LINE
  5
7D
  8
STANDARD
 10
13.56758073761861
 20
35.7423206784152
 30
0.0
 11
13.56714338694583
 21
35.07971118595017
 31
0.0
  0
LINE
  5
7E
  8
STANDARD
 10
13.56714338694583
 20
35.07971118595017
 30
0.0
 11
13.56255846895999
 21
34.41649983277039
 31
0.0
  0
LINE
  5
7F
  8
STANDARD
 10
13.56255846895999
 20
34.41649983277039
 30
0.0
 11
13.5531312064221
 21
33.75258579854093
 31
0.0
  0
LINE
  5
80
  8
STANDARD
 10
13.5531312064221
 20
33.75258579854093
 30
0.0
 11
13.53816682209316
 21
33.08786826292687
 31
0.0
  0
LINE
  5
81
  8
STANDARD
 10
13.53816682209316
 20
33.08786826292687
 30
0.0
 11
13.51697053873417
 21
32.42224640559326
 31
0.0
  0
LINE
  5
82
  8
STANDARD
 10
13.51697053873417
 20
32.42224640559326
 30
0.0
 11
13.48884634169965
 21
31.75562431331003
 31
0.0
  0
LINE
  5
83
  8
STANDARD
 10
13.48884634169965
 20
31.75562431331003
 30
0.0
 11
13.45303899207348
 21
31.08814093480347
 31
0.0
  0
LINE
  5
84
  8
STANDARD
 10
13.45303899207348
 20
31.08814093480347
 30
0.0
 11
13.40870918314953
 21
30.42026860113472
 31
0.0
  0
LINE
  5
85
  8
STANDARD
 10
13.40870918314953
 20
30.42026860113472
 30
0.0
 11
13.35501121019709
 21
29.75250501560779
 31
0.0
  0
LINE
  5
86
  8
STANDARD
 10
13.35501121019709
 20
29.75250501560779
 30
0.0
 11
13.29109936848543
 21
29.08534788152667
 31
0.0
  0
LINE
  5
87
  8
STANDARD
 10
13.29109936848543
 20
29.08534788152667
 30
0.0
 11
13.21612795328381
 21
28.41929490219534
 31
0.0
  0
LINE
  5
88
  8
STANDARD
 10
13.21612795328381
 20
28.41929490219534
 30
0.0
 11
13.12925125986153
 21
27.75484378091781
 31
0.0
  0
LINE
  5
89
  8
STANDARD
 10
13.12925125986153
 20
27.75484378091781
 30
0.0
 11
13.02962358348784
 21
27.09249222099804
 31
0.0
  0
LINE
  5
8A
  8
STANDARD
 10
13.02962358348784
 20
27.09249222099804
 30
0.0
 11
12.91639921943203
 21
26.43273792574004
 31
0.0
  0
LINE
  5
8B
  8
STANDARD
 10
12.91639921943203
 20
26.43273792574004
 30
0.0
 11
12.78873246296336
 21
25.77607859844779
 31
0.0
  0
LINE
  5
8C
  8
STANDARD
 10
12.78873246296336
 20
25.77607859844779
 30
0.0
 11
12.64577760935112
 21
25.12301194242529
 31
0.0
  0
LINE
  5
8D
  8
STANDARD
 10
12.64577760935112
 20
25.12301194242529
 30
0.0
 11
12.48668895386458
 21
24.47403566097652
 31
0.0
  0
LINE
  5
8E
  8
STANDARD
 10
12.48668895386458
 20
24.47403566097652
 30
0.0
 11
12.310620791773
 21
23.82964745740546
 31
0.0
  0
LINE
  5
8F
  8
STANDARD
 10
12.310620791773
 20
23.82964745740546
 30
0.0
 11
12.11672741834567
 21
23.19034503501612
 31
0.0
  0
LINE
  5
90
  8
STANDARD
 10
12.11672741834567
 20
23.19034503501612
 30
0.0
 11
11.90416312885186
 21
22.55662609711247
 31
0.0
  0
LINE
  5
91
  8
STANDARD
 10
11.90416312885186
 20
22.55662609711247
 30
0.0
 11
11.67208221856084
 21
21.92898834699851
 31
0.0
  0
LINE
  5
92
  8
STANDARD
 10
11.67208221856084
 20
21.92898834699851
 30
0.0
 11
11.41963898274189
 21
21.30792948797822
 31
0.0
  0
LINE
  5
93
  8
STANDARD
 10
11.41963898274189
 20
21.30792948797822
 30
0.0
 11
11.14598771666428
 21
20.6939472233556
 31
0.0
  0
LINE
  5
94
  8
STANDARD
 10
11.14598771666428
 20
20.6939472233556
 30
0.0
 11
10.85028271559729
 21
20.08753925643465
 31
0.0
  0
LINE
  5
95
  8
STANDARD
 10
10.85028271559729
 20
20.08753925643465
 30
0.0
 11
10.53167827481018
 21
19.48920329051932
 31
0.0
  0
LINE
  5
96
  8
STANDARD
 10
10.53167827481018
 20
19.48920329051932
 30
0.0
 11
10.18932868957224
 21
18.89943702891363
 31
0.0
  0
LINE
  5
97
  8
STANDARD
 10
10.18932868957224
 20
18.89943702891363
 30
0.0
 11
9.82238825515274
 21
18.31873817492156
 31
0.0
  0
LINE
  5
98
  8
STANDARD
 10
9.82238825515274
 20
18.31873817492156
 30
0.0
 11
9.430011266820948
 21
17.7476044318471
 31
0.0
  0
LINE
  5
99
  8
STANDARD
 10
9.430011266820948
 20
17.7476044318471
 30
0.0
 11
9.011352019846145
 21
17.18653350299425
 31
0.0
  0
LINE
  5
9A
  8
STANDARD
 10
9.011352019846145
 20
17.18653350299425
 30
0.0
 11
8.565564809497598
 21
16.63602309166697
 31
0.0
  0
LINE
  5
9B
  8
STANDARD
 10
8.565564809497598
 20
16.63602309166697
 30
0.0
 11
8.091803931044586
 21
16.09657090116928
 31
0.0
  0
LINE
  5
9C
  8
STANDARD
 10
8.091803931044586
 20
16.09657090116928
 30
0.0
 11
7.589223679756387
 21
15.56867463480516
 31
0.0
  0
LINE
  5
9D
  8
STANDARD
 10
7.589223679756387
 20
15.56867463480516
 30
0.0
 11
7.056978350902268
 21
15.05283199587859
 31
0.0
  0
LINE
  5
9E
  8
STANDARD
 10
7.056978350902268
 20
15.05283199587859
 30
0.0
 11
6.500814942497586
 21
14.54826433006479
 31
0.0
  0
LINE
  5
9F
  8
STANDARD
 10
6.500814942497586
 20
14.54826433006479
 30
0.0
 11
5.962554710813125
 21
14.04720894985858
 31
0.0
  0
LINE
  5
A0
  8
STANDARD
 10
5.962554710813125
 20
14.04720894985858
 30
0.0
 11
5.496295079049076
 21
13.53952648251419
 31
0.0
  0
LINE
  5
A1
  8
STANDARD
 10
5.496295079049076
 20
13.53952648251419
 30
0.0
 11
5.156143712454076
 21
13.01507557240911
 31
0.0
  0
LINE
  5
A2
  8
STANDARD
 10
5.156143712454076
 20
13.01507557240911
 30
0.0
 11
4.99620343195952
 21
12.46371569807674
 31
0.0
  0
LINE
  5
A3
  8
STANDARD
 10
4.99620343195952
 20
12.46371569807674
 30
0.0
 11
5.048329937596187
 21
11.87913712907612
 31
0.0
  0
LINE
  5
A4
  8
STANDARD
 10
5.048329937596187
 20
11.87913712907612
 30
0.0
 11
5.27087584583867
 21
11.26768682677387
 31
0.0
  0
LINE
  5
A5
  8
STANDARD
 10
5.27087584583867
 20
11.26768682677387
 30
0.0
 11
5.6070346891517
 21
10.63832203560388
 31
0.0
  0
LINE
  5
A6
  8
STANDARD
 10
5.6070346891517
 20
10.63832203560388
 30
0.0
 11
6.0
 21
10.0
 31
0.0
  0
LINE
  5
A7
  8
STANDARD
 10
6.0
 20
10.0
 30
0.0
 11
2.0
 21
10.0
 31
0.0
  0
ARC
  5
A8
  8
STANDARD
 10
2.0
 20
7.999999999999999
 30
0.0
 40
2.000000000000001
 50
90.0
 51
180.0
  0
LINE
  5
A9
  8
STANDARD
 10
-0.0000000000000009
 20
7.999999999999999
 30
0.0
 11
0.0
 21
0.0
 31
0.0
  0
LINE
  5
AA
  8
STANDARD
 10
0.0
 20
0.0
 30
0.0
 11
21.5
 21
0.0
 31
0.0
  0
LINE
  5
AB
  8
STANDARD
 10
21.5
 20
0.0
 30
0.0
 11
21.5
 21
39.0
 31
0.0
  0
LINE
  5
AC
  8
STANDARD
 10
21.5
 20
39.0
 30
0.0
 11
24.5
 21
39.0
 31
0.0
  0
LINE
  5
AD
  8
STANDARD
 10
24.5
 20
39.0
 30
0.0
 11
24.5
 21
0.0
 31
0.0
  0
LINE
  5
AE
  8
STANDARD
 10
24.5
 20
0.0
 30
0.0
 11
46.0
 21
0.0
 31
0.0
  0
LINE
  5
AF
  8
STANDARD
 10
46.0
 20
0.0
 30
0.0
 11
46.0
 21
7.999999999999999
 31
0.0
  0
ARC
  5
B0
  8
STANDARD
 10
44.0
 20
7.999999999999999
 30
0.0
 40
2.000000000000001
 50
0.0
 51
90.0
  0
LINE
  5
B1
  8
STANDARD
 10
44.0
 20
10.0
 30
0.0
 11
40.0
 21
10.0
 31
0.0
  0
LINE
  5
B2
  8
STANDARD
 10
40.0
 20
10.0
 30
0.0
 11
39.99741385523117
 21
10.0
 31
0.0
  0
LINE
  5
B3
  8
STANDARD
 10
39.99741385523117
 20
10.0
 30
0.0
 11
40.39037916607947
 21
10.63832203560388
 31
0.0
  0
LINE
  5
B4
  8
STANDARD
 10
40.39037916607947
 20
10.63832203560388
 30
0.0
 11
40.72653800939249
 21
11.26768682677387
 31
0.0
  0
LINE
  5
B5
  8
STANDARD
 10
40.72653800939249
 20
11.26768682677387
 30
0.0
 11
40.94908391763499
 21
11.87913712907612
 31
0.0
  0
LINE
  5
B6
  8
STANDARD
 10
40.94908391763499
 20
11.87913712907612
 30
0.0
 11
41.00121042327164
 21
12.46371569807674
 31
0.0
  0
LINE
  5
B7
  8
STANDARD
 10
41.00121042327164
 20
12.46371569807674
 30
0.0
 11
40.84127014277709
 21
13.01507557240911
 31
0.0
  0
LINE
  5
B8
  8
STANDARD
 10
40.84127014277709
 20
13.01507557240911
 30
0.0
 11
40.50111877618209
 21
13.53952648251419
 31
0.0
  0
LINE
  5
B9
  8
STANDARD
 10
40.50111877618209
 20
13.53952648251419
 30
0.0
 11
40.03485914441805
 21
14.04720894985858
 31
0.0
  0
LINE
  5
BA
  8
STANDARD
 10
40.03485914441805
 20
14.04720894985858
 30
0.0
 11
39.49659891273359
 21
14.54826433006479
 31
0.0
  0
LINE
  5
BB
  8
STANDARD
 10
39.49659891273359
 20
14.54826433006479
 30
0.0
 11
38.9404355043289
 21
15.05283199587859
 31
0.0
  0
LINE
  5
BC
  8
STANDARD
 10
38.9404355043289
 20
15.05283199587859
 30
0.0
 11
38.40819017547477
 21
15.56867463480516
 31
0.0
  0
LINE
  5
BD
  8
STANDARD
 10
38.40819017547477
 20
15.56867463480516
 30
0.0
 11
37.90560992418658
 21
16.09657090116928
 31
0.0
  0
LINE
  5
BE
  8
STANDARD
 10
37.90560992418658
 20
16.09657090116928
 30
0.0
 11
37.43184904573357
 21
16.63602309166697
 31
0.0
  0
LINE
  5
BF
  8
STANDARD
 10
37.43184904573357
 20
16.63602309166697
 30
0.0
 11
36.98606183538503
 21
17.18653350299425
 31
0.0
  0
LINE
  5
C0
  8
STANDARD
 10
36.98606183538503
 20
17.18653350299425
 30
0.0
 11
36.56740258841022
 21
17.7476044318471
 31
0.0
  0
LINE
  5
C1
  8
STANDARD
 10
36.56740258841022
 20
17.7476044318471
 30
0.0
 11
36.17502560007843
 21
18.31873817492156
 31
0.0
  0
LINE
  5
C2
  8
STANDARD
 10
36.17502560007843
 20
18.31873817492156
 30
0.0
 11
35.80808516565892
 21
18.89943702891363
 31
0.0
  0
LINE
  5
C3
  8
STANDARD
 10
35.80808516565892
 20
18.89943702891363
 30
0.0
 11
35.46573558042099
 21
19.48920329051932
 31
0.0
  0
LINE
  5
C4
  8
STANDARD
 10
35.46573558042099
 20
19.48920329051932
 30
0.0
 11
35.14713113963388
 21
20.08753925643465
 31
0.0
  0
LINE
  5
C5
  8
STANDARD
 10
35.14713113963388
 20
20.08753925643465
 30
0.0
 11
34.85142613856689
 21
20.6939472233556
 31
0.0
  0
LINE
  5
C6
  8
STANDARD
 10
34.85142613856689
 20
20.6939472233556
 30
0.0
 11
34.57777487248928
 21
21.30792948797822
 31
0.0
  0
LINE
  5
C7
  8
STANDARD
 10
34.57777487248928
 20
21.30792948797822
 30
0.0
 11
34.32533163667033
 21
21.92898834699851
 31
0.0
  0
LINE
  5
C8
  8
STANDARD
 10
34.32533163667033
 20
21.92898834699851
 30
0.0
 11
34.09325072637931
 21
22.55662609711247
 31
0.0
  0
LINE
  5
C9
  8
STANDARD
 10
34.09325072637931
 20
22.55662609711247
 30
0.0
 11
33.8806864368855
 21
23.19034503501612
 31
0.0
  0
LINE
  5
CA
  8
STANDARD
 10
33.8806864368855
 20
23.19034503501612
 30
0.0
 11
33.68679306345817
 21
23.82964745740546
 31
0.0
  0
LINE
  5
CB
  8
STANDARD
 10
33.68679306345817
 20
23.82964745740546
 30
0.0
 11
33.5107249013666
 21
24.47403566097652
 31
0.0
  0
LINE
  5
CC
  8
STANDARD
 10
33.5107249013666
 20
24.47403566097652
 30
0.0
 11
33.35163624588005
 21
25.12301194242529
 31
0.0
  0
LINE
  5
CD
  8
STANDARD
 10
33.35163624588005
 20
25.12301194242529
 30
0.0
 11
33.20868139226781
 21
25.77607859844779
 31
0.0
  0
LINE
  5
CE
  8
STANDARD
 10
33.20868139226781
 20
25.77607859844779
 30
0.0
 11
33.08101463579914
 21
26.43273792574004
 31
0.0
  0
LINE
  5
CF
  8
STANDARD
 10
33.08101463579914
 20
26.43273792574004
 30
0.0
 11
32.96779027174333
 21
27.09249222099804
 31
0.0
  0
LINE
  5
D0
  8
STANDARD
 10
32.96779027174333
 20
27.09249222099804
 30
0.0
 11
32.86816259536965
 21
27.75484378091781
 31
0.0
  0
LINE
  5
D1
  8
STANDARD
 10
32.86816259536965
 20
27.75484378091781
 30
0.0
 11
32.78128590194736
 21
28.41929490219534
 31
0.0
  0
LINE
  5
D2
  8
STANDARD
 10
32.78128590194736
 20
28.41929490219534
 30
0.0
 11
32.70631448674575
 21
29.08534788152667
 31
0.0
  0
LINE
  5
D3
  8
STANDARD
 10
32.70631448674575
 20
29.08534788152667
 30
0.0
 11
32.64240264503408
 21
29.75250501560779
 31
0.0
  0
LINE
  5
D4
  8
STANDARD
 10
32.64240264503408
 20
29.75250501560779
 30
0.0
 11
32.58870467208165
 21
30.42026860113472
 31
0.0
  0
LINE
  5
D5
  8
STANDARD
 10
32.58870467208165
 20
30.42026860113472
 30
0.0
 11
32.54437486315771
 21
31.08814093480347
 31
0.0
  0
LINE
  5
D6
  8
STANDARD
 10
32.54437486315771
 20
31.08814093480347
 30
0.0
 11
32.50856751353153
 21
31.75562431331003
 31
0.0
  0
LINE
  5
D7
  8
STANDARD
 10
32.50856751353153
 20
31.75562431331003
 30
0.0
 11
32.48044331649701
 21
32.42224640559326
 31
0.0
  0
LINE
  5
D8
  8
STANDARD
 10
32.48044331649701
 20
32.42224640559326
 30
0.0
 11
32.45924703313801
 21
33.08786826292687
 31
0.0
  0
LINE
  5
D9
  8
STANDARD
 10
32.45924703313801
 20
33.08786826292687
 30
0.0
 11
32.44428264880907
 21
33.75258579854093
 31
0.0
  0
LINE
  5
DA
  8
STANDARD
 10
32.44428264880907
 20
33.75258579854093
 30
0.0
 11
32.43485538627119
 21
34.41649983277039
 31
0.0
  0
LINE
  5
DB
  8
STANDARD
 10
32.43485538627119
 20
34.41649983277039
 30
0.0
 11
32.43027046828535
 21
35.07971118595017
 31
0.0
  0
LINE
  5
DC
  8
STANDARD
 10
32.43027046828535
 20
35.07971118595017
 30
0.0
 11
32.42983311761255
 21
35.7423206784152
 31
0.0
  0
LINE
  5
DD
  8
STANDARD
 10
32.42983311761255
 20
35.7423206784152
 30
0.0
 11
32.43284855701382
 21
36.40442913050042
 31
0.0
  0
LINE
  5
DE
  8
STANDARD
 10
32.43284855701382
 20
36.40442913050042
 30
0.0
 11
32.43862200925011
 21
37.06613736254076
 31
0.0
  0
LINE
  5
DF
  8
STANDARD
 10
32.43862200925011
 20
37.06613736254076
 30
0.0
 11
32.44645869708246
 21
37.72754619487115
 31
0.0
  0
LINE
  5
E0
  8
STANDARD
 10
32.44645869708246
 20
37.72754619487115
 30
0.0
 11
32.45566384327183
 21
38.38875644782652
 31
0.0
  0
LINE
  5
E1
  8
STANDARD
 10
32.45566384327183
 20
38.38875644782652
 30
0.0
 11
32.46554267057925
 21
39.04986894174181
 31
0.0
  0
LINE
  5
E2
  8
STANDARD
 10
32.46554267057925
 20
39.04986894174181
 30
0.0
 11
32.4754004017657
 21
39.71098449695195
 31
0.0
  0
LINE
  5
E3
  8
STANDARD
 10
32.4754004017657
 20
39.71098449695195
 30
0.0
 11
32.48454225959217
 21
40.37220393379185
 31
0.0
  0
LINE
  5
E4
  8
STANDARD
 10
32.48454225959217
 20
40.37220393379185
 30
0.0
 11
32.49227346681968
 21
41.03362807259647
 31
0.0
  0
LINE
  5
E5
  8
STANDARD
 10
32.49227346681968
 20
41.03362807259647
 30
0.0
 11
32.49789950459213
 21
41.69535769620635
 31
0.0
  0
LINE
  5
E6
  8
STANDARD
 10
32.49789950459213
 20
41.69535769620635
 30
0.0
 11
32.501003333118
 21
42.3574533219918
 31
0.0
  0
LINE
  5
E7
  8
STANDARD
 10
32.501003333118
 20
42.3574533219918
 30
0.0
 11
32.50197318937849
 21
43.01985861220843
 31
0.0
  0
LINE
  5
E8
  8
STANDARD
 10
32.50197318937849
 20
43.01985861220843
 30
0.0
 11
32.50134256643996
 21
43.6824961507485
 31
0.0
  0
LINE
  5
E9
  8
STANDARD
 10
32.50134256643996
 20
43.6824961507485
 30
0.0
 11
32.49964495736874
 21
44.34528852150414
 31
0.0
  0
LINE
  5
EA
  8
STANDARD
 10
32.49964495736874
 20
44.34528852150414
 30
0.0
 11
32.49741385523117
 21
45.00815830836756
 31
0.0
  0
LINE
  5
EB
  8
STANDARD
 10
32.49741385523117
 20
45.00815830836756
 30
0.0
 11
33.18324676399578
 21
45.49656792243112
 31
0.0
  0
LINE
  5
EC
  8
STANDARD
 10
33.18324676399578
 20
45.49656792243112
 30
0.0
 11
33.84628983073139
 21
45.98270725209115
 31
0.0
  0
LINE
  5
ED
  8
STANDARD
 10
33.84628983073139
 20
45.98270725209115
 30
0.0
 11
34.46375321340899
 21
46.46430601294416
 31
0.0
  0
LINE
  5
EE
  8
STANDARD
 10
34.46375321340899
 20
46.46430601294416
 30
0.0
 11
35.01284706999958
 21
46.93909392058661
 31
0.0
  0
LINE
  5
EF
  8
STANDARD
 10
35.01284706999958
 20
46.93909392058661
 30
0.0
 11
35.47078155847416
 21
47.40480069061498
 31
0.0
  0
LINE
  5
F0
  8
STANDARD
 10
35.47078155847416
 20
47.40480069061498
 30
0.0
 11
35.81476683680373
 21
47.85915603862579
 31
0.0
  0
LINE
  5
F1
  8
STANDARD
 10
35.81476683680373
 20
47.85915603862579
 30
0.0
 11
36.0220130629593
 21
48.29988968021548
 31
0.0
  0
LINE
  5
F2
  8
STANDARD
 10
36.0220130629593
 20
48.29988968021548
 30
0.0
 11
36.06973039491185
 21
48.72473133098055
 31
0.0
  0
LINE
  5
F3
  8
STANDARD
 10
36.06973039491185
 20
48.72473133098055
 30
0.0
 11
35.93547373275458
 21
49.13145747232662
 31
0.0
  0
LINE
  5
F4
  8
STANDARD
 10
35.93547373275458
 20
49.13145747232662
 30
0.0
 11
35.62179003261505
 21
49.52123486972144
 31
0.0
  0
LINE
  5
F5
  8
STANDARD
 10
35.62179003261505
 20
49.52123486972144
 30
0.0
 11
35.17266754776396
 21
49.90085198574418
 31
0.0
  0
LINE
  5
F6
  8
STANDARD
 10
35.17266754776396
 20
49.90085198574418
 30
0.0
 11
34.63599523164977
 21
50.27762643038093
 31
0.0
  0
LINE
  5
F7
  8
STANDARD
 10
34.63599523164977
 20
50.27762643038093
 30
0.0
 11
34.05966203772097
 21
50.65887581361785
 31
0.0
  0
LINE
  5
F8
  8
STANDARD
 10
34.05966203772097
 20
50.65887581361785
 30
0.0
 11
33.49155691942602
 21
51.05191774544099
 31
0.0
  0
LINE
  5
F9
  8
STANDARD
 10
33.49155691942602
 20
51.05191774544099
 30
0.0
 11
32.97956883021338
 21
51.46406983583645
 31
0.0
  0
LINE
  5
FA
  8
STANDARD
 10
32.97956883021338
 20
51.46406983583645
 30
0.0
 11
32.57158672353154
 21
51.90264969479037
 31
0.0
  0
LINE
  5
FB
  8
STANDARD
 10
32.57158672353154
 20
51.90264969479037
 30
0.0
 11
32.31025712779637
 21
52.37414483657287
 31
0.0
  0
LINE
  5
FC
  8
STANDARD
 10
32.31025712779637
 20
52.37414483657287
 30
0.0
 11
32.19548094638759
 21
52.87827435053686
 31
0.0
  0
LINE
  5
FD
  8
STANDARD
 10
32.19548094638759
 20
52.87827435053686
 30
0.0
 11
32.20631457861164
 21
53.41145676695717
 31
0.0
  0
LINE
  5
FE
  8
STANDARD
 10
32.20631457861164
 20
53.41145676695717
 30
0.0
 11
32.32167405379663
 21
53.97008838965492
 31
0.0
  0
LINE
  5
FF
  8
STANDARD
 10
32.32167405379663
 20
53.97008838965492
 30
0.0
 11
32.52047540127068
 21
54.55056552245119
 31
0.0
  0
LINE
  5
100
  8
STANDARD
 10
32.52047540127068
 20
54.55056552245119
 30
0.0
 11
32.78163465036192
 21
55.14928446916705
 31
0.0
  0
LINE
  5
101
  8
STANDARD
 10
32.78163465036192
 20
55.14928446916705
 30
0.0
 11
33.08406783039845
 21
55.76264153362363
 31
0.0
  0
LINE
  5
102
  8
STANDARD
 10
33.08406783039845
 20
55.76264153362363
 30
0.0
 11
33.40669097070839
 21
56.387033019642
 31
0.0
  0
LINE
  5
103
  8
STANDARD
 10
33.40669097070839
 20
56.387033019642
 30
0.0
 11
33.72842010061987
 21
57.01885523104326
 31
0.0
  0
LINE
  5
104
  8
STANDARD
 10
33.72842010061987
 20
57.01885523104326
 30
0.0
 11
34.02817124946102
 21
57.6545044716485
 31
0.0
  0
LINE
  5
105
  8
STANDARD
 10
34.02817124946102
 20
57.6545044716485
 30
0.0
 11
34.28486044655992
 21
58.29037704527881
 31
0.0
  0
LINE
  5
106
  8
STANDARD
 10
34.28486044655992
 20
58.29037704527881
 30
0.0
 11
34.47740372124471
 21
58.92286925575527
 31
0.0
  0
LINE
  5
107
  8
STANDARD
 10
34.47740372124471
 20
58.92286925575527
 30
0.0
 11
34.58767804710673
 21
59.54868195647163
 31
0.0
  0
LINE
  5
108
  8
STANDARD
 10
34.58767804710673
 20
59.54868195647163
 30
0.0
 11
34.61542497986944
 21
60.16635347237452
 31
0.0
  0
LINE
  5
109
  8
STANDARD
 10
34.61542497986944
 20
60.16635347237452
 30
0.0
 11
34.56705284428742
 21
60.77510784265542
 31
0.0
  0
LINE
  5
10A
  8
STANDARD
 10
34.56705284428742
 20
60.77510784265542
 30
0.0
 11
34.44898138671946
 21
61.3741702812812
 31
0.0
  0
LINE
  5
10B
  8
STANDARD
 10
34.44898138671946
 20
61.3741702812812
 30
0.0
 11
34.26763035352432
 21
61.96276600221875
 31
0.0
  0
LINE
  5
10C
  8
STANDARD
 10
34.26763035352432
 20
61.96276600221875
 30
0.0
 11
34.02941949106079
 21
62.540120219435
 31
0.0
  0
LINE
  5
10D
  8
STANDARD
 10
34.02941949106079
 20
62.540120219435
 30
0.0
 11
33.74076854568764
 21
63.10545814689682
 31
0.0
  0
LINE
  5
10E
  8
STANDARD
 10
33.74076854568764
 20
63.10545814689682
 30
0.0
 11
33.40809726376362
 21
63.65800499857115
 31
0.0
  0
LINE
  5
10F
  8
STANDARD
 10
33.40809726376362
 20
63.65800499857115
 30
0.0
 11
33.03782539164752
 21
64.19698598842484
 31
0.0
  0
LINE
  5
110
  8
STANDARD
 10
33.03782539164752
 20
64.19698598842484
 30
0.0
 11
32.63637267569813
 21
64.72162633042484
 31
0.0
  0
LINE
  5
111
  8
STANDARD
 10
32.63637267569813
 20
64.72162633042484
 30
0.0
 11
32.2101588622742
 21
65.231151238538
 31
0.0
  0
LINE
  5
112
  8
STANDARD
 10
32.2101588622742
 20
65.231151238538
 30
0.0
 11
31.76560369773452
 21
65.72478592673127
 31
0.0
  0
LINE
  5
113
  8
STANDARD
 10
31.76560369773452
 20
65.72478592673127
 30
0.0
 11
31.30909142143901
 21
66.20179930025105
 31
0.0
  0
LINE
  5
114
  8
STANDARD
 10
31.30909142143901
 20
66.20179930025105
 30
0.0
 11
30.84570578002356
 21
66.66306051761877
 31
0.0
  0
LINE
  5
115
  8
STANDARD
 10
30.84570578002356
 20
66.66306051761877
 30
0.0
 11
30.37888592504969
 21
67.11146240777309
 31
0.0
  0
LINE
  5
116
  8
STANDARD
 10
30.37888592504969
 20
67.11146240777309
 30
0.0
 11
29.91196548954258
 21
67.55002763996653
 31
0.0
  0
LINE
  5
117
  8
STANDARD
 10
29.91196548954258
 20
67.55002763996653
 30
0.0
 11
29.44827810652741
 21
67.98177888345151
 31
0.0
  0
LINE
  5
118
  8
STANDARD
 10
29.44827810652741
 20
67.98177888345151
 30
0.0
 11
28.99115740902936
 21
68.40973880748051
 31
0.0
  0
LINE
  5
119
  8
STANDARD
 10
28.99115740902936
 20
68.40973880748051
 30
0.0
 11
28.54393703007363
 21
68.83693008130601
 31
0.0
  0
LINE
  5
11A
  8
STANDARD
 10
28.54393703007363
 20
68.83693008130601
 30
0.0
 11
28.10995060268536
 21
69.26637537418047
 31
0.0
  0
LINE
  5
11B
  8
STANDARD
 10
28.10995060268536
 20
69.26637537418047
 30
0.0
 11
27.69253175988976
 21
69.7010973553564
 31
0.0
  0
LINE
  5
11C
  8
STANDARD
 10
27.69253175988976
 20
69.7010973553564
 30
0.0
 11
27.29501413471199
 21
70.14411869408619
 31
0.0
  0
LINE
  5
11D
  8
STANDARD
 10
27.29501413471199
 20
70.14411869408619
 30
0.0
 11
26.92073136017725
 21
70.59846205962238
 31
0.0
  0
LINE
  5
11E
  8
STANDARD
 10
26.92073136017725
 20
70.59846205962238
 30
0.0
 11
26.57301706931072
 21
71.06715012121744
 31
0.0
  0
LINE
  5
11F
  8
STANDARD
 10
26.57301706931072
 20
71.06715012121744
 30
0.0
 11
26.25520489513757
 21
71.5532055481238
 31
0.0
  0
LINE
  5
120
  8
STANDARD
 10
26.25520489513757
 20
71.5532055481238
 30
0.0
 11
25.97062732833425
 21
72.05965013294997
 31
0.0
  0
LINE
  5
121
  8
STANDARD
 10
25.97062732833425
 20
72.05965013294997
 30
0.0
 11
25.72108837413473
 21
72.58833270115127
 31
0.0
  0
LINE
  5
122
  8
STANDARD
 10
25.72108837413473
 20
72.58833270115127
 30
0.0
 11
25.50384633732398
 21
73.13761368557743
 31
0.0
  0
LINE
  5
123
  8
STANDARD
 10
25.50384633732398
 20
73.13761368557743
 30
0.0
 11
25.31531831817932
 21
73.70520797465298
 31
0.0
  0
LINE
  5
124
  8
STANDARD
 10
25.31531831817932
 20
73.70520797465298
 30
0.0
 11
25.15192141697803
 21
74.28883045680227
 31
0.0
  0
LINE
  5
125
  8
STANDARD
 10
25.15192141697803
 20
74.28883045680227
 30
0.0
 11
25.01007273399744
 21
74.88619602044977
 31
0.0
  0
LINE
  5
126
  8
STANDARD
 10
25.01007273399744
 20
74.88619602044977
 30
0.0
 11
24.88618936951485
 21
75.4950195540199
 31
0.0
  0
LINE
  5
127
  8
STANDARD
 10
24.88618936951485
 20
75.4950195540199
 30
0.0
 11
24.77668842380757
 21
76.11301594593712
 31
0.0
  0
LINE
  5
128
  8
STANDARD
 10
24.77668842380757
 20
76.11301594593712
 30
0.0
 11
24.67798699715289
 21
76.73790008462586
 31
0.0
  0
LINE
  5
129
  8
STANDARD
 10
24.67798699715289
 20
76.73790008462586
 30
0.0
 11
24.58650218982814
 21
77.36738685851054
 31
0.0
  0
LINE
  5
12A
  8
STANDARD
 10
24.58650218982814
 20
77.36738685851054
 30
0.0
 11
24.49865110211004
 21
77.99919115601685
 31
0.0
  0
ARC
  5
12B
  8
STANDARD
 10
23.0
 20
80.5
 30
0.0
 40
2.91547594742265
 50
300.9328470705742
 51
239.0362434679264
  0
LINE
  5
12C
  8
STANDARD
 10
21.5
 20
78.0
 30
0.0
 11
21.4121549535654
 21
77.36803940810888
 31
0.0
  0
LINE
  5
12D
  8
STANDARD
 10
21.4121549535654
 20
77.36803940810888
 30
0.0
 11
21.32072462469804
 21
76.73836544744469
 31
0.0
  0
LINE
  5
12E
  8
STANDARD
 10
21.32072462469804
 20
76.73836544744469
 30
0.0
 11
21.22212373096512
 21
76.11326474923429
 31
0.0
  0
LINE
  5
12F
  8
STANDARD
 10
21.22212373096512
 20
76.11326474923429
 30
0.0
 11
21.1127669899339
 21
75.49502394470461
 31
0.0
  0
LINE
  5
130
  8
STANDARD
 10
21.1127669899339
 20
75.49502394470461
 30
0.0
 11
20.98906911917159
 21
74.88592966508257
 31
0.0
  0
LINE
  5
131
  8
STANDARD
 10
20.98906911917159
 20
74.88592966508257
 30
0.0
 11
20.84744483624543
 21
74.28826854159507
 31
0.0
  0
LINE
  5
132
  8
STANDARD
 10
20.84744483624543
 20
74.28826854159507
 30
0.0
 11
20.68430885872264
 21
73.704327205469
 31
0.0
  0
LINE
  5
133
  8
STANDARD
 10
20.68430885872264
 20
73.704327205469
 30
0.0
 11
20.49607590417046
 21
73.1363922879313
 31
0.0
  0
LINE
  5
134
  8
STANDARD
 10
20.49607590417046
 20
73.1363922879313
 30
0.0
 11
20.27916069015611
 21
72.58675042020884
 31
0.0
  0
LINE
  5
135
  8
STANDARD
 10
20.27916069015611
 20
72.58675042020884
 30
0.0
 11
20.02997793424684
 21
72.05768823352858
 31
0.0
  0
LINE
  5
136
  8
STANDARD
 10
20.02997793424684
 20
72.05768823352858
 30
0.0
 11
19.74575106093035
 21
71.55087175349827
 31
0.0
  0
LINE
  5
137
  8
STANDARD
 10
19.74575106093035
 20
71.55087175349827
 30
0.0
 11
19.42823613494041
 21
71.06448863558343
 31
0.0
  0
LINE
  5
138
  8
STANDARD
 10
19.42823613494041
 20
71.06448863558343
 30
0.0
 11
19.080767401155
 21
70.59551543214081
 31
0.0
  0
LINE
  5
139
  8
STANDARD
 10
19.080767401155
 20
70.59551543214081
 30
0.0
 11
18.70668070954134
 21
70.14092746377402
 31
0.0
  0
LINE
  5
13A
  8
STANDARD
 10
18.70668070954134
 20
70.14092746377402
 30
0.0
 11
18.30931191006664
 21
69.69770005108643
 31
0.0
  0
LINE
  5
13B
  8
STANDARD
 10
18.30931191006664
 20
69.69770005108643
 30
0.0
 11
17.89199685269811
 21
69.26280851468162
 31
0.0
  0
LINE
  5
13C
  8
STANDARD
 10
17.89199685269811
 20
69.26280851468162
 30
0.0
 11
17.45807138740297
 21
68.83322817516306
 31
0.0
  0
LINE
  5
13D
  8
STANDARD
 10
17.45807138740297
 20
68.83322817516306
 30
0.0
 11
17.01087136414844
 21
68.40593435313424
 31
0.0
  0
LINE
  5
13E
  8
STANDARD
 10
17.01087136414844
 20
68.40593435313424
 30
0.0
 11
16.55373263290173
 21
67.97790236919867
 31
0.0
  0
LINE
  5
13F
  8
STANDARD
 10
16.55373263290173
 20
67.97790236919867
 30
0.0
 11
16.08999104363006
 21
67.54610754395985
 31
0.0
  0
LINE
  5
140
  8
STANDARD
 10
16.08999104363006
 20
67.54610754395985
 30
0.0
 11
15.62298244630064
 21
67.1075251980213
 31
0.0
  0
LINE
  5
141
  8
STANDARD
 10
15.62298244630064
 20
67.1075251980213
 30
0.0
 11
15.15604269088071
 21
66.65913065198647
 31
0.0
  0
LINE
  5
142
  8
STANDARD
 10
15.15604269088071
 20
66.65913065198647
 30
0.0
 11
14.69250762733745
 21
66.1978992264589
 31
0.0
  0
LINE
  5
143
  8
STANDARD
 10
14.69250762733745
 20
66.1978992264589
 30
0.0
 11
14.23581393716951
 21
65.72093031500718
 31
0.0
  0
LINE
  5
144
  8
STANDARD
 10
14.23581393716951
 20
65.72093031500718
 30
0.0
 11
13.79102811943091
 21
65.22732879791444
 31
0.0
  0
LINE
  5
145
  8
STANDARD
 10
13.79102811943091
 20
65.22732879791444
 30
0.0
 11
13.36453627060721
 21
64.71782331703699
 31
0.0
  0
LINE
  5
146
  8
STANDARD
 10
13.36453627060721
 20
64.71782331703699
 30
0.0
 11
12.96276240633502
 21
64.19318917365833
 31
0.0
  0
LINE
  5
147
  8
STANDARD
 10
12.96276240633502
 20
64.19318917365833
 30
0.0
 11
12.59213054225094
 21
63.65420166906192
 31
0.0
  0
LINE
  5
148
  8
STANDARD
 10
12.59213054225094
 20
63.65420166906192
 30
0.0
 11
12.25906469399158
 21
63.10163610453128
 31
0.0
  0
LINE
  5
149
  8
STANDARD
 10
12.25906469399158
 20
63.10163610453128
 30
0.0
 11
11.96998887719355
 21
62.53626778134991
 31
0.0
  0
LINE
  5
14A
  8
STANDARD
 10
11.96998887719355
 20
62.53626778134991
 30
0.0
 11
11.73132710749343
 21
61.95887200080127
 31
0.0
  0
LINE
  5
14B
  8
STANDARD
 10
11.73132710749343
 20
61.95887200080127
 30
0.0
 11
11.54950340052783
 21
61.37022406416887
 31
0.0
  0
LINE
  5
14C
  8
STANDARD
 10
11.54950340052783
 20
61.37022406416887
 30
0.0
 11
11.43094177193336
 21
60.77109927273622
 31
0.0
  0
LINE
  5
14D
  8
STANDARD
 10
11.43094177193336
 20
60.77109927273622
 30
0.0
 11
11.38206623734662
 21
60.16227292778677
 31
0.0
  0
LINE
  5
14E
  8
STANDARD
 10
11.38206623734662
 20
60.16227292778677
 30
0.0
 11
11.40930081240421
 21
59.54452033060407
 31
0.0
  0
LINE
  5
14F
  8
STANDARD
 10
11.40930081240421
 20
59.54452033060407
 30
0.0
 11
11.51905958886433
 21
58.91861780319761
 31
0.0
  0
LINE
  5
150
  8
STANDARD
 10
11.51905958886433
 20
58.91861780319761
 30
0.0
 11
11.7111894541319
 21
58.28601714104128
 31
0.0
  0
LINE
  5
151
  8
STANDARD
 10
11.7111894541319
 20
58.28601714104128
 30
0.0
 11
11.96761989752386
 21
57.65001304357646
 31
0.0
  0
LINE
  5
152
  8
STANDARD
 10
11.96761989752386
 20
57.65001304357646
 30
0.0
 11
12.2672529270467
 21
57.01421160352226
 31
0.0
  0
LINE
  5
153
  8
STANDARD
 10
12.2672529270467
 20
57.01421160352226
 30
0.0
 11
12.5889905507069
 21
56.38221891359778
 31
0.0
  0
LINE
  5
154
  8
STANDARD
 10
12.5889905507069
 20
56.38221891359778
 30
0.0
 11
12.91173477651094
 21
55.75764106652213
 31
0.0
  0
LINE
  5
155
  8
STANDARD
 10
12.91173477651094
 20
55.75764106652213
 30
0.0
 11
13.2143876124653
 21
55.14408415501443
 31
0.0
  0
LINE
  5
156
  8
STANDARD
 10
13.2143876124653
 20
55.14408415501443
 30
0.0
 11
13.47585106657646
 21
54.54515427179376
 31
0.0
  0
LINE
  5
157
  8
STANDARD
 10
13.47585106657646
 20
54.54515427179376
 30
0.0
 11
13.6750271468509
 21
53.96445750957922
 31
0.0
  0
LINE
  5
158
  8
STANDARD
 10
13.6750271468509
 20
53.96445750957922
 30
0.0
 11
13.79081786129511
 21
53.40559996108995
 31
0.0
  0
LINE
  5
159
  8
STANDARD
 10
13.79081786129511
 20
53.40559996108995
 30
0.0
 11
13.80212521791556
 21
52.872187719045
 31
0.0
  0
LINE
  5
15A
  8
STANDARD
 10
13.80212521791556
 20
52.872187719045
 30
0.0
 11
13.68785122471874
 21
52.36782687616354
 31
0.0
  0
LINE
  5
15B
  8
STANDARD
 10
13.68785122471874
 20
52.36782687616354
 30
0.0
 11
13.42703187439772
 21
51.89610230977027
 31
0.0
  0
LINE
  5
15C
  8
STANDARD
 10
13.42703187439772
 20
51.89610230977027
 30
0.0
 11
13.01940014751498
 21
51.45732169611296
 31
0.0
  0
LINE
  5
15D
  8
STANDARD
 10
13.01940014751498
 20
51.45732169611296
 30
0.0
 11
12.50755706078698
 21
51.04500490370891
 31
0.0
  0
LINE
  5
15E
  8
STANDARD
 10
12.50755706078698
 20
51.04500490370891
 30
0.0
 11
11.93942341490907
 21
50.65182945619438
 31
0.0
  0
LINE
  5
15F
  8
STANDARD
 10
11.93942341490907
 20
50.65182945619438
 30
0.0
 11
11.3629200105766
 21
50.27047287720568
 31
0.0
  0
LINE
  5
160
  8
STANDARD
 10
11.3629200105766
 20
50.27047287720568
 30
0.0
 11
10.82596764848493
 21
49.89361269037905
 31
0.0
  0
LINE
  5
161
  8
STANDARD
 10
10.82596764848493
 20
49.89361269037905
 30
0.0
 11
10.3764871293294
 21
49.51392641935077
 31
0.0
  0
LINE
  5
162
  8
STANDARD
 10
10.3764871293294
 20
49.51392641935077
 30
0.0
 11
10.06239925380536
 21
49.12409158775709
 31
0.0
  0
LINE
  5
163
  8
STANDARD
 10
10.06239925380536
 20
49.12409158775709
 30
0.0
 11
9.927754035283026
 21
48.71731080882911
 31
0.0
  0
LINE
  5
164
  8
STANDARD
 10
9.927754035283026
 20
48.71731080882911
 30
0.0
 11
9.975197319477298
 21
48.29240335612841
 31
0.0
  0
LINE
  5
165
  8
STANDARD
 10
9.975197319477298
 20
48.29240335612841
 30
0.0
 11
10.18227558822971
 21
47.85159334406654
 31
0.0
  0
LINE
  5
166
  8
STANDARD
 10
10.18227558822971
 20
47.85159334406654
 30
0.0
 11
10.52618384374624
 21
47.39715256683795
 31
0.0
  0
LINE
  5
167
  8
STANDARD
 10
10.52618384374624
 20
47.39715256683795
 30
0.0
 11
10.98411708823287
 21
46.93135281863707
 31
0.0
  0
LINE
  5
168
  8
STANDARD
 10
10.98411708823287
 20
46.93135281863707
 30
0.0
 11
11.53327032389559
 21
46.45646589365839
 31
0.0
  0
LINE
  5
169
  8
STANDARD
 10
11.53327032389559
 20
46.45646589365839
 30
0.0
 11
12.15083855294036
 21
45.97476358609634
 31
0.0
  0
LINE
  5
16A
  8
STANDARD
 10
12.15083855294036
 20
45.97476358609634
 30
0.0
 11
12.81401677757317
 21
45.48851769014541
 31
0.0
  0
LINE
  5
16B
  8
STANDARD
 10
12.81401677757317
 20
45.48851769014541
 30
0.0
 11
13.5
 21
45.0
 31
0.0
  0
LINE
  5
16C
  8
STANDARD
 10
78.5
 20
0.0
 30
0.0
 11
57.0
 21
0.0
 31
0.0
  0
LINE
  5
16D
  8
STANDARD
 10
57.0
 20
0.0
 30
0.0
 11
57.0
 21
7.999999999999999
 31
0.0
  0
ARC
  5
16E
  8
STANDARD
 10
59.0
 20
7.999999999999999
 30
0.0
 40
2.000000000000001
 50
90.0
 51
180.0
  0
LINE
  5
16F
  8
STANDARD
 10
59.0
 20
10.0
 30
0.0
 11
63.0
 21
10.0
 31
0.0
  0
LINE
  5
170
  8
STANDARD
 10
63.0
 20
10.0
 30
0.0
 11
62.6070346891517
 21
10.63832203560388
 31
0.0
  0
LINE
  5
171
  8
STANDARD
 10
62.6070346891517
 20
10.63832203560388
 30
0.0
 11
62.27087584583867
 21
11.26768682677387
 31
0.0
  0
LINE
  5
172
  8
STANDARD
 10
62.27087584583867
 20
11.26768682677387
 30
0.0
 11
62.04832993759619
 21
11.87913712907612
 31
0.0
  0
LINE
  5
173
  8
STANDARD
 10
62.04832993759619
 20
11.87913712907612
 30
0.0
 11
61.99620343195952
 21
12.46371569807674
 31
0.0
  0
LINE
  5
174
  8
STANDARD
 10
61.99620343195952
 20
12.46371569807674
 30
0.0
 11
62.15614371245407
 21
13.01507557240911
 31
0.0
  0
LINE
  5
175
  8
STANDARD
 10
62.15614371245407
 20
13.01507557240911
 30
0.0
 11
62.49629507904908
 21
13.53952648251419
 31
0.0
  0
LINE
  5
176
  8
STANDARD
 10
62.49629507904908
 20
13.53952648251419
 30
0.0
 11
62.96255471081312
 21
14.04720894985858
 31
0.0
  0
LINE
  5
177
  8
STANDARD
 10
62.96255471081312
 20
14.04720894985858
 30
0.0
 11
63.50081494249758
 21
14.54826433006479
 31
0.0
  0
LINE
  5
178
  8
STANDARD
 10
63.50081494249758
 20
14.54826433006479
 30
0.0
 11
64.05697835090227
 21
15.05283199587859
 31
0.0
  0
LINE
  5
179
  8
STANDARD
 10
64.05697835090227
 20
15.05283199587859
 30
0.0
 11
64.58922367975639
 21
15.56867463480516
 31
0.0
  0
LINE
  5
17A
  8
STANDARD
 10
64.58922367975639
 20
15.56867463480516
 30
0.0
 11
65.09180393104458
 21
16.09657090116928
 31
0.0
  0
LINE
  5
17B
  8
STANDARD
 10
65.09180393104458
 20
16.09657090116928
 30
0.0
 11
65.5655648094976
 21
16.63602309166697
 31
0.0
  0
LINE
  5
17C
  8
STANDARD
 10
65.5655648094976
 20
16.63602309166697
 30
0.0
 11
66.01135201984614
 21
17.18653350299425
 31
0.0
  0
LINE
  5
17D
  8
STANDARD
 10
66.01135201984614
 20
17.18653350299425
 30
0.0
 11
66.43001126682094
 21
17.7476044318471
 31
0.0
  0
LINE
  5
17E
  8
STANDARD
 10
66.43001126682094
 20
17.7476044318471
 30
0.0
 11
66.82238825515275
 21
18.31873817492156
 31
0.0
  0
LINE
  5
17F
  8
STANDARD
 10
66.82238825515275
 20
18.31873817492156
 30
0.0
 11
67.18932868957224
 21
18.89943702891363
 31
0.0
  0
LINE
  5
180
  8
STANDARD
 10
67.18932868957224
 20
18.89943702891363
 30
0.0
 11
67.53167827481018
 21
19.48920329051932
 31
0.0
  0
LINE
  5
181
  8
STANDARD
 10
67.53167827481018
 20
19.48920329051932
 30
0.0
 11
67.85028271559729
 21
20.08753925643465
 31
0.0
  0
LINE
  5
182
  8
STANDARD
 10
67.85028271559729
 20
20.08753925643465
 30
0.0
 11
68.14598771666428
 21
20.6939472233556
 31
0.0
  0
LINE
  5
183
  8
STANDARD
 10
68.14598771666428
 20
20.6939472233556
 30
0.0
 11
68.41963898274189
 21
21.30792948797822
 31
0.0
  0
LINE
  5
184
  8
STANDARD
 10
68.41963898274189
 20
21.30792948797822
 30
0.0
 11
68.67208221856085
 21
21.92898834699851
 31
0.0
  0
LINE
  5
185
  8
STANDARD
 10
68.67208221856085
 20
21.92898834699851
 30
0.0
 11
68.90416312885186
 21
22.55662609711247
 31
0.0
  0
LINE
  5
186
  8
STANDARD
 10
68.90416312885186
 20
22.55662609711247
 30
0.0
 11
69.11672741834568
 21
23.19034503501612
 31
0.0
  0
LINE
  5
187
  8
STANDARD
 10
69.11672741834568
 20
23.19034503501612
 30
0.0
 11
69.310620791773
 21
23.82964745740546
 31
0.0
  0
LINE
  5
188
  8
STANDARD
 10
69.310620791773
 20
23.82964745740546
 30
0.0
 11
69.48668895386459
 21
24.47403566097652
 31
0.0
  0
LINE
  5
189
  8
STANDARD
 10
69.48668895386459
 20
24.47403566097652
 30
0.0
 11
69.64577760935111
 21
25.12301194242529
 31
0.0
  0
LINE
  5
18A
  8
STANDARD
 10
69.64577760935111
 20
25.12301194242529
 30
0.0
 11
69.78873246296337
 21
25.77607859844779
 31
0.0
  0
LINE
  5
18B
  8
STANDARD
 10
69.78873246296337
 20
25.77607859844779
 30
0.0
 11
69.91639921943204
 21
26.43273792574004
 31
0.0
  0
LINE
  5
18C
  8
STANDARD
 10
69.91639921943204
 20
26.43273792574004
 30
0.0
 11
70.02962358348785
 21
27.09249222099804
 31
0.0
  0
LINE
  5
18D
  8
STANDARD
 10
70.02962358348785
 20
27.09249222099804
 30
0.0
 11
70.12925125986153
 21
27.75484378091781
 31
0.0
  0
LINE
  5
18E
  8
STANDARD
 10
70.12925125986153
 20
27.75484378091781
 30
0.0
 11
70.2161279532838
 21
28.41929490219534
 31
0.0
  0
LINE
  5
18F
  8
STANDARD
 10
70.2161279532838
 20
28.41929490219534
 30
0.0
 11
70.29109936848543
 21
29.08534788152667
 31
0.0
  0
LINE
  5
190
  8
STANDARD
 10
70.29109936848543
 20
29.08534788152667
 30
0.0
 11
70.35501121019709
 21
29.75250501560779
 31
0.0
  0
LINE
  5
191
  8
STANDARD
 10
70.35501121019709
 20
29.75250501560779
 30
0.0
 11
70.40870918314953
 21
30.42026860113472
 31
0.0
  0
LINE
  5
192
  8
STANDARD
 10
70.40870918314953
 20
30.42026860113472
 30
0.0
 11
70.45303899207349
 21
31.08814093480347
 31
0.0
  0
LINE
  5
193
  8
STANDARD
 10
70.45303899207349
 20
31.08814093480347
 30
0.0
 11
70.48884634169966
 21
31.75562431331003
 31
0.0
  0
LINE
  5
194
  8
STANDARD
 10
70.48884634169966
 20
31.75562431331003
 30
0.0
 11
70.51697053873417
 21
32.42224640559326
 31
0.0
  0
LINE
  5
195
  8
STANDARD
 10
70.51697053873417
 20
32.42224640559326
 30
0.0
 11
70.53816682209316
 21
33.08786826292687
 31
0.0
  0
LINE
  5
196
  8
STANDARD
 10
70.53816682209316
 20
33.08786826292687
 30
0.0
 11
70.5531312064221
 21
33.75258579854093
 31
0.0
  0
LINE
  5
197
  8
STANDARD
 10
70.5531312064221
 20
33.75258579854093
 30
0.0
 11
70.56255846895999
 21
34.41649983277039
 31
0.0
  0
LINE
  5
198
  8
STANDARD
 10
70.56255846895999
 20
34.41649983277039
 30
0.0
 11
70.56714338694583
 21
35.07971118595017
 31
0.0
  0
LINE
  5
199
  8
STANDARD
 10
70.56714338694583
 20
35.07971118595017
 30
0.0
 11
70.56758073761861
 21
35.7423206784152
 31
0.0
  0
LINE
  5
19A
  8
STANDARD
 10
70.56758073761861
 20
35.7423206784152
 30
0.0
 11
70.56456529821736
 21
36.40442913050042
 31
0.0
  0
LINE
  5
19B
  8
STANDARD
 10
70.56456529821736
 20
36.40442913050042
 30
0.0
 11
70.55879184598106
 21
37.06613736254076
 31
0.0
  0
LINE
  5
19C
  8
STANDARD
 10
70.55879184598106
 20
37.06613736254076
 30
0.0
 11
70.55095515814872
 21
37.72754619487115
 31
0.0
  0
LINE
  5
19D
  8
STANDARD
 10
70.55095515814872
 20
37.72754619487115
 30
0.0
 11
70.54175001195934
 21
38.38875644782652
 31
0.0
  0
LINE
  5
19E
  8
STANDARD
 10
70.54175001195934
 20
38.38875644782652
 30
0.0
 11
70.53187118465192
 21
39.04986894174181
 31
0.0
  0
LINE
  5
19F
  8
STANDARD
 10
70.53187118465192
 20
39.04986894174181
 30
0.0
 11
70.52201345346548
 21
39.71098449695195
 31
0.0
  0
LINE
  5
1A0
  8
STANDARD
 10
70.52201345346548
 20
39.71098449695195
 30
0.0
 11
70.512871595639
 21
40.37220393379185
 31
0.0
  0
LINE
  5
1A1
  8
STANDARD
 10
70.512871595639
 20
40.37220393379185
 30
0.0
 11
70.50514038841149
 21
41.03362807259647
 31
0.0
  0
LINE
  5
1A2
  8
STANDARD
 10
70.50514038841149
 20
41.03362807259647
 30
0.0
 11
70.49951435063903
 21
41.69535769620635
 31
0.0
  0
LINE
  5
1A3
  8
STANDARD
 10
70.49951435063903
 20
41.69535769620635
 30
0.0
 11
70.49641052211318
 21
42.3574533219918
 31
0.0
  0
LINE
  5
1A4
  8
STANDARD
 10
70.49641052211318
 20
42.3574533219918
 30
0.0
 11
70.49544066585268
 21
43.01985861220843
 31
0.0
  0
LINE
  5
1A5
  8
STANDARD
 10
70.49544066585268
 20
43.01985861220843
 30
0.0
 11
70.49607128879123
 21
43.6824961507485
 31
0.0
  0
LINE
  5
1A6
  8
STANDARD
 10
70.49607128879123
 20
43.6824961507485
 30
0.0
 11
70.49776889786244
 21
44.34528852150414
 31
0.0
  0
LINE
  5
1A7
  8
STANDARD
 10
70.49776889786244
 20
44.34528852150414
 30
0.0
 11
70.4999726062423
 21
45.00001950825443
 31
0.0
  0
LINE
  5
1A8
  8
STANDARD
 10
70.4999726062423
 20
45.00001950825443
 30
0.0
 11
69.81401677757317
 21
45.48851769014541
 31
0.0
  0
LINE
  5
1A9
  8
STANDARD
 10
69.81401677757317
 20
45.48851769014541
 30
0.0
 11
69.15083855294034
 21
45.97476358609634
 31
0.0
  0
LINE
  5
1AA
  8
STANDARD
 10
69.15083855294034
 20
45.97476358609634
 30
0.0
 11
68.53327032389558
 21
46.45646589365839
 31
0.0
  0
LINE
  5
1AB
  8
STANDARD
 10
68.53327032389558
 20
46.45646589365839
 30
0.0
 11
67.98411708823286
 21
46.93135281863707
 31
0.0
  0
LINE
  5
1AC
  8
STANDARD
 10
67.98411708823286
 20
46.93135281863707
 30
0.0
 11
67.52618384374622
 21
47.39715256683795
 31
0.0
  0
LINE
  5
1AD
  8
STANDARD
 10
67.52618384374622
 20
47.39715256683795
 30
0.0
 11
67.18227558822971
 21
47.85159334406654
 31
0.0
  0
LINE
  5
1AE
  8
STANDARD
 10
67.18227558822971
 20
47.85159334406654
 30
0.0
 11
66.9751973194773
 21
48.29240335612841
 31
0.0
  0
LINE
  5
1AF
  8
STANDARD
 10
66.9751973194773
 20
48.29240335612841
 30
0.0
 11
66.92775403528303
 21
48.71731080882911
 31
0.0
  0
LINE
  5
1B0
  8
STANDARD
 10
66.92775403528303
 20
48.71731080882911
 30
0.0
 11
67.06239925380535
 21
49.12409158775709
 31
0.0
  0
LINE
  5
1B1
  8
STANDARD
 10
67.06239925380535
 20
49.12409158775709
 30
0.0
 11
67.37648712932939
 21
49.51392641935077
 31
0.0
  0
LINE
  5
1B2
  8
STANDARD
 10
67.37648712932939
 20
49.51392641935077
 30
0.0
 11
67.82596764848493
 21
49.89361269037905
 31
0.0
  0
LINE
  5
1B3
  8
STANDARD
 10
67.82596764848493
 20
49.89361269037905
 30
0.0
 11
68.36292001057662
 21
50.27047287720568
 31
0.0
  0
LINE
  5
1B4
  8
STANDARD
 10
68.36292001057662
 20
50.27047287720568
 30
0.0
 11
68.93942341490907
 21
50.65182945619438
 31
0.0
  0
LINE
  5
1B5
  8
STANDARD
 10
68.93942341490907
 20
50.65182945619438
 30
0.0
 11
69.507557060787
 21
51.04500490370891
 31
0.0
  0
LINE
  5
1B6
  8
STANDARD
 10
69.507557060787
 20
51.04500490370891
 30
0.0
 11
70.01940014751501
 21
51.45732169611296
 31
0.0
  0
LINE
  5
1B7
  8
STANDARD
 10
70.01940014751501
 20
51.45732169611296
 30
0.0
 11
70.42703187439773
 21
51.89610230977027
 31
0.0
  0
LINE
  5
1B8
  8
STANDARD
 10
70.42703187439773
 20
51.89610230977027
 30
0.0
 11
70.68785122471876
 21
52.36782687616354
 31
0.0
  0
LINE
  5
1B9
  8
STANDARD
 10
70.68785122471876
 20
52.36782687616354
 30
0.0
 11
70.80212521791557
 21
52.872187719045
 31
0.0
  0
LINE
  5
1BA
  8
STANDARD
 10
70.80212521791557
 20
52.872187719045
 30
0.0
 11
70.79081786129512
 21
53.40559996108995
 31
0.0
  0
LINE
  5
1BB
  8
STANDARD
 10
70.79081786129512
 20
53.40559996108995
 30
0.0
 11
70.67502714685092
 21
53.96445750957922
 31
0.0
  0
LINE
  5
1BC
  8
STANDARD
 10
70.67502714685092
 20
53.96445750957922
 30
0.0
 11
70.47585106657648
 21
54.54515427179376
 31
0.0
  0
LINE
  5
1BD
  8
STANDARD
 10
70.47585106657648
 20
54.54515427179376
 30
0.0
 11
70.21438761246532
 21
55.14408415501443
 31
0.0
  0
LINE
  5
1BE
  8
STANDARD
 10
70.21438761246532
 20
55.14408415501443
 30
0.0
 11
69.91173477651094
 21
55.75764106652213
 31
0.0
  0
LINE
  5
1BF
  8
STANDARD
 10
69.91173477651094
 20
55.75764106652213
 30
0.0
 11
69.58899055070692
 21
56.38221891359778
 31
0.0
  0
LINE
  5
1C0
  8
STANDARD
 10
69.58899055070692
 20
56.38221891359778
 30
0.0
 11
69.26725292704671
 21
57.01421160352226
 31
0.0
  0
LINE
  5
1C1
  8
STANDARD
 10
69.26725292704671
 20
57.01421160352226
 30
0.0
 11
68.96761989752386
 21
57.65001304357646
 31
0.0
  0
LINE
  5
1C2
  8
STANDARD
 10
68.96761989752386
 20
57.65001304357646
 30
0.0
 11
68.7111894541319
 21
58.28601714104128
 31
0.0
  0
LINE
  5
1C3
  8
STANDARD
 10
68.7111894541319
 20
58.28601714104128
 30
0.0
 11
68.51905958886434
 21
58.91861780319761
 31
0.0
  0
LINE
  5
1C4
  8
STANDARD
 10
68.51905958886434
 20
58.91861780319761
 30
0.0
 11
68.4093008124042
 21
59.54452033060407
 31
0.0
  0
LINE
  5
1C5
  8
STANDARD
 10
68.4093008124042
 20
59.54452033060407
 30
0.0
 11
68.38206623734662
 21
60.16227292778677
 31
0.0
  0
LINE
  5
1C6
  8
STANDARD
 10
68.38206623734662
 20
60.16227292778677
 30
0.0
 11
68.43094177193338
 21
60.77109927273622
 31
0.0
  0
LINE
  5
1C7
  8
STANDARD
 10
68.43094177193338
 20
60.77109927273622
 30
0.0
 11
68.54950340052784
 21
61.37022406416887
 31
0.0
  0
LINE
  5
1C8
  8
STANDARD
 10
68.54950340052784
 20
61.37022406416887
 30
0.0
 11
68.73132710749343
 21
61.95887200080127
 31
0.0
  0
LINE
  5
1C9
  8
STANDARD
 10
68.73132710749343
 20
61.95887200080127
 30
0.0
 11
68.96998887719356
 21
62.53626778134991
 31
0.0
  0
LINE
  5
1CA
  8
STANDARD
 10
68.96998887719356
 20
62.53626778134991
 30
0.0
 11
69.25906469399159
 21
63.10163610453128
 31
0.0
  0
LINE
  5
1CB
  8
STANDARD
 10
69.25906469399159
 20
63.10163610453128
 30
0.0
 11
69.59213054225094
 21
63.65420166906192
 31
0.0
  0
LINE
  5
1CC
  8
STANDARD
 10
69.59213054225094
 20
63.65420166906192
 30
0.0
 11
69.96276240633502
 21
64.19318917365833
 31
0.0
  0
LINE
  5
1CD
  8
STANDARD
 10
69.96276240633502
 20
64.19318917365833
 30
0.0
 11
70.36453627060722
 21
64.71782331703699
 31
0.0
  0
LINE
  5
1CE
  8
STANDARD
 10
70.36453627060722
 20
64.71782331703699
 30
0.0
 11
70.79102811943092
 21
65.22732879791444
 31
0.0
  0
LINE
  5
1CF
  8
STANDARD
 10
70.79102811943092
 20
65.22732879791444
 30
0.0
 11
71.23581393716954
 21
65.72093031500718
 31
0.0
  0
LINE
  5
1D0
  8
STANDARD
 10
71.23581393716954
 20
65.72093031500718
 30
0.0
 11
71.69250762733746
 21
66.1978992264589
 31
0.0
  0
LINE
  5
1D1
  8
STANDARD
 10
71.69250762733746
 20
66.1978992264589
 30
0.0
 11
72.15604269088071
 21
66.65913065198647
 31
0.0
  0
LINE
  5
1D2
  8
STANDARD
 10
72.15604269088071
 20
66.65913065198647
 30
0.0
 11
72.62298244630065
 21
67.1075251980213
 31
0.0
  0
LINE
  5
1D3
  8
STANDARD
 10
72.62298244630065
 20
67.1075251980213
 30
0.0
 11
73.08999104363006
 21
67.54610754395985
 31
0.0
  0
LINE
  5
1D4
  8
STANDARD
 10
73.08999104363006
 20
67.54610754395985
 30
0.0
 11
73.55373263290173
 21
67.97790236919867
 31
0.0
  0
LINE
  5
1D5
  8
STANDARD
 10
73.55373263290173
 20
67.97790236919867
 30
0.0
 11
74.01087136414844
 21
68.40593435313424
 31
0.0
  0
LINE
  5
1D6
  8
STANDARD
 10
74.01087136414844
 20
68.40593435313424
 30
0.0
 11
74.45807138740297
 21
68.83322817516306
 31
0.0
  0
LINE
  5
1D7
  8
STANDARD
 10
74.45807138740297
 20
68.83322817516306
 30
0.0
 11
74.8919968526981
 21
69.26280851468162
 31
0.0
  0
LINE
  5
1D8
  8
STANDARD
 10
74.8919968526981
 20
69.26280851468162
 30
0.0
 11
75.30931191006664
 21
69.69770005108643
 31
0.0
  0
LINE
  5
1D9
  8
STANDARD
 10
75.30931191006664
 20
69.69770005108643
 30
0.0
 11
75.70668070954135
 21
70.14092746377402
 31
0.0
  0
LINE
  5
1DA
  8
STANDARD
 10
75.70668070954135
 20
70.14092746377402
 30
0.0
 11
76.08076740115499
 21
70.59551543214081
 31
0.0
  0
LINE
  5
1DB
  8
STANDARD
 10
76.08076740115499
 20
70.59551543214081
 30
0.0
 11
76.42823613494042
 21
71.06448863558343
 31
0.0
  0
LINE
  5
1DC
  8
STANDARD
 10
76.42823613494042
 20
71.06448863558343
 30
0.0
 11
76.74575106093036
 21
71.55087175349827
 31
0.0
  0
LINE
  5
1DD
  8
STANDARD
 10
76.74575106093036
 20
71.55087175349827
 30
0.0
 11
77.02997793424684
 21
72.05768823352858
 31
0.0
  0
LINE
  5
1DE
  8
STANDARD
 10
77.02997793424684
 20
72.05768823352858
 30
0.0
 11
77.27916069015612
 21
72.58675042020884
 31
0.0
  0
LINE
  5
1DF
  8
STANDARD
 10
77.27916069015612
 20
72.58675042020884
 30
0.0
 11
77.49607590417047
 21
73.1363922879313
 31
0.0
  0
LINE
  5
1E0
  8
STANDARD
 10
77.49607590417047
 20
73.1363922879313
 30
0.0
 11
77.68430885872264
 21
73.704327205469
 31
0.0
  0
LINE
  5
1E1
  8
STANDARD
 10
77.68430885872264
 20
73.704327205469
 30
0.0
 11
77.84744483624544
 21
74.28826854159507
 31
0.0
  0
LINE
  5
1E2
  8
STANDARD
 10
77.84744483624544
 20
74.28826854159507
 30
0.0
 11
77.98906911917157
 21
74.88592966508257
 31
0.0
  0
LINE
  5
1E3
  8
STANDARD
 10
77.98906911917157
 20
74.88592966508257
 30
0.0
 11
78.1127669899339
 21
75.49502394470461
 31
0.0
  0
LINE
  5
1E4
  8
STANDARD
 10
78.1127669899339
 20
75.49502394470461
 30
0.0
 11
78.22212373096514
 21
76.11326474923429
 31
0.0
  0
LINE
  5
1E5
  8
STANDARD
 10
78.22212373096514
 20
76.11326474923429
 30
0.0
 11
78.32072462469804
 21
76.73836544744469
 31
0.0
  0
LINE
  5
1E6
  8
STANDARD
 10
78.32072462469804
 20
76.73836544744469
 30
0.0
 11
78.4121549535654
 21
77.36803940810888
 31
0.0
  0
LINE
  5
1E7
  8
STANDARD
 10
78.4121549535654
 20
77.36803940810888
 30
0.0
 11
78.5
 21
78.0
 31
0.0
  0
LINE
  5
1E8
  8
STANDARD
 10
78.5
 20
78.0
 30
0.0
 11
78.5
 21
39.0437178842495
 31
0.0
  0
LINE
  5
1E9
  8
STANDARD
 10
78.5
 20
39.0437178842495
 30
0.0
 11
78.5
 21
39.0
 31
0.0
  0
LINE
  5
1EA
  8
STANDARD
 10
78.5
 20
39.0
 30
0.0
 11
81.5
 21
39.0
 31
0.0
  0
LINE
  5
1EB
  8
STANDARD
 10
81.5
 20
39.0
 30
0.0
 11
81.5
 21
78.00000083824091
 31
0.0
  0
LINE
  5
1EC
  8
STANDARD
 10
81.5
 20
78.00000083824091
 30
0.0
 11
81.58748877560903
 21
77.36797928635971
 31
0.0
  0
LINE
  5
1ED
  8
STANDARD
 10
81.58748877560903
 20
77.36797928635971
 30
0.0
 11
81.67868275865752
 21
76.73831812457789
 31
0.0
  0
LINE
  5
1EE
  8
STANDARD
 10
81.67868275865752
 20
76.73831812457789
 30
0.0
 11
81.77715699280188
 21
76.11329775371271
 31
0.0
  0
LINE
  5
1EF
  8
STANDARD
 10
81.77715699280188
 20
76.11329775371271
 30
0.0
 11
81.88648652169846
 21
75.4951985745814
 31
0.0
  0
LINE
  5
1F0
  8
STANDARD
 10
81.88648652169846
 20
75.4951985745814
 30
0.0
 11
82.01024638900363
 21
74.88630098800114
 31
0.0
  0
LINE
  5
1F1
  8
STANDARD
 10
82.01024638900363
 20
74.88630098800114
 30
0.0
 11
82.15201163837376
 21
74.28888539478919
 31
0.0
  0
LINE
  5
1F2
  8
STANDARD
 10
82.15201163837376
 20
74.28888539478919
 30
0.0
 11
82.3153573134653
 21
73.70523219576278
 31
0.0
  0
LINE
  5
1F3
  8
STANDARD
 10
82.3153573134653
 20
73.70523219576278
 30
0.0
 11
82.50385845793453
 21
73.13762179173908
 31
0.0
  0
LINE
  5
1F4
  8
STANDARD
 10
82.50385845793453
 20
73.13762179173908
 30
0.0
 11
82.7210901154379
 21
72.58833458353541
 31
0.0
  0
LINE
  5
1F5
  8
STANDARD
 10
82.7210901154379
 20
72.58833458353541
 30
0.0
 11
82.97062732963177
 21
72.05965097196892
 31
0.0
  0
LINE
  5
1F6
  8
STANDARD
 10
82.97062732963177
 20
72.05965097196892
 30
0.0
 11
83.25520489513758
 21
71.5532063863647
 31
0.0
  0
LINE
  5
1F7
  8
STANDARD
 10
83.25520489513758
 20
71.5532063863647
 30
0.0
 11
83.57301706931074
 21
71.06715095945835
 31
0.0
  0
LINE
  5
1F8
  8
STANDARD
 10
83.57301706931074
 20
71.06715095945835
 30
0.0
 11
83.92073136017727
 21
70.59846289786329
 31
0.0
  0
LINE
  5
1F9
  8
STANDARD
 10
83.92073136017727
 20
70.59846289786329
 30
0.0
 11
84.295014134712
 21
70.14411953232711
 31
0.0
  0
LINE
  5
1FA
  8
STANDARD
 10
84.295014134712
 20
70.14411953232711
 30
0.0
 11
84.69253175988977
 21
69.70109819359729
 31
0.0
  0
LINE
  5
1FB
  8
STANDARD
 10
84.69253175988977
 20
69.70109819359729
 30
0.0
 11
85.10995060268536
 21
69.26637621242138
 31
0.0
  0
LINE
  5
1FC
  8
STANDARD
 10
85.10995060268536
 20
69.26637621242138
 30
0.0
 11
85.54393703007364
 21
68.83693091954692
 31
0.0
  0
LINE
  5
1FD
  8
STANDARD
 10
85.54393703007364
 20
68.83693091954692
 30
0.0
 11
85.99115740902937
 21
68.40973964572142
 31
0.0
  0
LINE
  5
1FE
  8
STANDARD
 10
85.99115740902937
 20
68.40973964572142
 30
0.0
 11
86.44827810652741
 21
67.98177972169242
 31
0.0
  0
LINE
  5
1FF
  8
STANDARD
 10
86.44827810652741
 20
67.98177972169242
 30
0.0
 11
86.9119654895426
 21
67.55002847820745
 31
0.0
  0
LINE
  5
200
  8
STANDARD
 10
86.9119654895426
 20
67.55002847820745
 30
0.0
 11
87.37888592504967
 21
67.11146324601401
 31
0.0
  0
LINE
  5
201
  8
STANDARD
 10
87.37888592504967
 20
67.11146324601401
 30
0.0
 11
87.84570578002355
 21
66.66306135585968
 31
0.0
  0
LINE
  5
202
  8
STANDARD
 10
87.84570578002355
 20
66.66306135585968
 30
0.0
 11
88.30909142143902
 21
66.20180013849196
 31
0.0
  0
LINE
  5
203
  8
STANDARD
 10
88.30909142143902
 20
66.20180013849196
 30
0.0
 11
88.76560369773455
 21
65.72478676497217
 31
0.0
  0
LINE
  5
204
  8
STANDARD
 10
88.76560369773455
 20
65.72478676497217
 30
0.0
 11
89.2101588622742
 21
65.2311520767789
 31
0.0
  0
LINE
  5
205
  8
STANDARD
 10
89.2101588622742
 20
65.2311520767789
 30
0.0
 11
89.63637267569814
 21
64.72162716866575
 31
0.0
  0
LINE
  5
206
  8
STANDARD
 10
89.63637267569814
 20
64.72162716866575
 30
0.0
 11
90.03782539164753
 21
64.19698682666575
 31
0.0
  0
LINE
  5
207
  8
STANDARD
 10
90.03782539164753
 20
64.19698682666575
 30
0.0
 11
90.40809726376361
 21
63.65800583681205
 31
0.0
  0
LINE
  5
208
  8
STANDARD
 10
90.40809726376361
 20
63.65800583681205
 30
0.0
 11
90.74076854568764
 21
63.10545898513773
 31
0.0
  0
LINE
  5
209
  8
STANDARD
 10
90.74076854568764
 20
63.10545898513773
 30
0.0
 11
91.0294194910608
 21
62.54012105767591
 31
0.0
  0
LINE
  5
20A
  8
STANDARD
 10
91.0294194910608
 20
62.54012105767591
 30
0.0
 11
91.26763035352434
 21
61.96276684045966
 31
0.0
  0
LINE
  5
20B
  8
STANDARD
 10
91.26763035352434
 20
61.96276684045966
 30
0.0
 11
91.44898138671947
 21
61.3741711195221
 31
0.0
  0
LINE
  5
20C
  8
STANDARD
 10
91.44898138671947
 20
61.3741711195221
 30
0.0
 11
91.56705284428742
 21
60.77510868089632
 31
0.0
  0
LINE
  5
20D
  8
STANDARD
 10
91.56705284428742
 20
60.77510868089632
 30
0.0
 11
91.61542497986945
 21
60.16635431061543
 31
0.0
  0
LINE
  5
20E
  8
STANDARD
 10
91.61542497986945
 20
60.16635431061543
 30
0.0
 11
91.58767804710672
 21
59.54868279471253
 31
0.0
  0
LINE
  5
20F
  8
STANDARD
 10
91.58767804710672
 20
59.54868279471253
 30
0.0
 11
91.4774037212447
 21
58.92287009399618
 31
0.0
  0
LINE
  5
210
  8
STANDARD
 10
91.4774037212447
 20
58.92287009399618
 30
0.0
 11
91.28486044655992
 21
58.29037788351972
 31
0.0
  0
LINE
  5
211
  8
STANDARD
 10
91.28486044655992
 20
58.29037788351972
 30
0.0
 11
91.02817124946101
 21
57.65450530988942
 31
0.0
  0
LINE
  5
212
  8
STANDARD
 10
91.02817124946101
 20
57.65450530988942
 30
0.0
 11
90.72842010061987
 21
57.01885606928417
 31
0.0
  0
LINE
  5
213
  8
STANDARD
 10
90.72842010061987
 20
57.01885606928417
 30
0.0
 11
90.40669097070838
 21
56.38703385788291
 31
0.0
  0
LINE
  5
214
  8
STANDARD
 10
90.40669097070838
 20
56.38703385788291
 30
0.0
 11
90.08406783039845
 21
55.76264237186454
 31
0.0
  0
LINE
  5
215
  8
STANDARD
 10
90.08406783039845
 20
55.76264237186454
 30
0.0
 11
89.78163465036191
 21
55.14928530740796
 31
0.0
  0
LINE
  5
216
  8
STANDARD
 10
89.78163465036191
 20
55.14928530740796
 30
0.0
 11
89.52047540127069
 21
54.55056636069209
 31
0.0
  0
LINE
  5
217
  8
STANDARD
 10
89.52047540127069
 20
54.55056636069209
 30
0.0
 11
89.32167405379663
 21
53.97008922789582
 31
0.0
  0
LINE
  5
218
  8
STANDARD
 10
89.32167405379663
 20
53.97008922789582
 30
0.0
 11
89.20631457861164
 21
53.41145760519808
 31
0.0
  0
LINE
  5
219
  8
STANDARD
 10
89.20631457861164
 20
53.41145760519808
 30
0.0
 11
89.19548094638759
 21
52.87827518877776
 31
0.0
  0
LINE
  5
21A
  8
STANDARD
 10
89.19548094638759
 20
52.87827518877776
 30
0.0
 11
89.31025712779636
 21
52.37414567481378
 31
0.0
  0
LINE
  5
21B
  8
STANDARD
 10
89.31025712779636
 20
52.37414567481378
 30
0.0
 11
89.57158672353154
 21
51.90265053303127
 31
0.0
  0
LINE
  5
21C
  8
STANDARD
 10
89.57158672353154
 20
51.90265053303127
 30
0.0
 11
89.97956883021338
 21
51.46407067407736
 31
0.0
  0
LINE
  5
21D
  8
STANDARD
 10
89.97956883021338
 20
51.46407067407736
 30
0.0
 11
90.49155691942602
 21
51.0519185836819
 31
0.0
  0
LINE
  5
21E
  8
STANDARD
 10
90.49155691942602
 20
51.0519185836819
 30
0.0
 11
91.05966203772097
 21
50.65887665185875
 31
0.0
  0
LINE
  5
21F
  8
STANDARD
 10
91.05966203772097
 20
50.65887665185875
 30
0.0
 11
91.63599523164976
 21
50.27762726862185
 31
0.0
  0
LINE
  5
220
  8
STANDARD
 10
91.63599523164976
 20
50.27762726862185
 30
0.0
 11
92.17266754776395
 21
49.90085282398508
 31
0.0
  0
LINE
  5
221
  8
STANDARD
 10
92.17266754776395
 20
49.90085282398508
 30
0.0
 11
92.62179003261505
 21
49.52123570796234
 31
0.0
  0
LINE
  5
222
  8
STANDARD
 10
92.62179003261505
 20
49.52123570796234
 30
0.0
 11
92.93547373275457
 21
49.13145831056753
 31
0.0
  0
LINE
  5
223
  8
STANDARD
 10
92.93547373275457
 20
49.13145831056753
 30
0.0
 11
93.06973039491184
 21
48.72473216922147
 31
0.0
  0
LINE
  5
224
  8
STANDARD
 10
93.06973039491184
 20
48.72473216922147
 30
0.0
 11
93.02201306295929
 21
48.29989051845639
 31
0.0
  0
LINE
  5
225
  8
STANDARD
 10
93.02201306295929
 20
48.29989051845639
 30
0.0
 11
92.81476683680374
 21
47.8591568768667
 31
0.0
  0
LINE
  5
226
  8
STANDARD
 10
92.81476683680374
 20
47.8591568768667
 30
0.0
 11
92.47078155847416
 21
47.4048015288559
 31
0.0
  0
LINE
  5
227
  8
STANDARD
 10
92.47078155847416
 20
47.4048015288559
 30
0.0
 11
92.01284706999958
 21
46.93909475882752
 31
0.0
  0
LINE
  5
228
  8
STANDARD
 10
92.01284706999958
 20
46.93909475882752
 30
0.0
 11
91.46375321340898
 21
46.46430685118506
 31
0.0
  0
LINE
  5
229
  8
STANDARD
 10
91.46375321340898
 20
46.46430685118506
 30
0.0
 11
90.84628983073138
 21
45.98270809033207
 31
0.0
  0
LINE
  5
22A
  8
STANDARD
 10
90.84628983073138
 20
45.98270809033207
 30
0.0
 11
90.18324676399577
 21
45.49656876067201
 31
0.0
  0
LINE
  5
22B
  8
STANDARD
 10
90.18324676399577
 20
45.49656876067201
 30
0.0
 11
89.49741385523117
 21
45.00815872748802
 31
0.0
  0
LINE
  5
22C
  8
STANDARD
 10
89.49741385523117
 20
45.00815872748802
 30
0.0
 11
89.49964495736873
 21
44.34528852150414
 31
0.0
  0
LINE
  5
22D
  8
STANDARD
 10
89.49964495736873
 20
44.34528852150414
 30
0.0
 11
89.50134256643996
 21
43.6824961507485
 31
0.0
  0
LINE
  5
22E
  8
STANDARD
 10
89.50134256643996
 20
43.6824961507485
 30
0.0
 11
89.50197318937849
 21
43.01985861220843
 31
0.0
  0
LINE
  5
22F
  8
STANDARD
 10
89.50197318937849
 20
43.01985861220843
 30
0.0
 11
89.501003333118
 21
42.3574533219918
 31
0.0
  0
LINE
  5
230
  8
STANDARD
 10
89.501003333118
 20
42.3574533219918
 30
0.0
 11
89.49789950459213
 21
41.69535769620635
 31
0.0
  0
LINE
  5
231
  8
STANDARD
 10
89.49789950459213
 20
41.69535769620635
 30
0.0
 11
89.49227346681968
 21
41.03362807259647
 31
0.0
  0
LINE
  5
232
  8
STANDARD
 10
89.49227346681968
 20
41.03362807259647
 30
0.0
 11
89.48454225959216
 21
40.37220393379185
 31
0.0
  0
LINE
  5
233
  8
STANDARD
 10
89.48454225959216
 20
40.37220393379185
 30
0.0
 11
89.4754004017657
 21
39.71098449695195
 31
0.0
  0
LINE
  5
234
  8
STANDARD
 10
89.4754004017657
 20
39.71098449695195
 30
0.0
 11
89.46554267057925
 21
39.04986894174181
 31
0.0
  0
LINE
  5
235
  8
STANDARD
 10
89.46554267057925
 20
39.04986894174181
 30
0.0
 11
89.45566384327182
 21
38.38875644782652
 31
0.0
  0
LINE
  5
236
  8
STANDARD
 10
89.45566384327182
 20
38.38875644782652
 30
0.0
 11
89.44645869708246
 21
37.72754619487115
 31
0.0
  0
LINE
  5
237
  8
STANDARD
 10
89.44645869708246
 20
37.72754619487115
 30
0.0
 11
89.43862200925011
 21
37.06613736254076
 31
0.0
  0
LINE
  5
238
  8
STANDARD
 10
89.43862200925011
 20
37.06613736254076
 30
0.0
 11
89.43284855701381
 21
36.40442913050042
 31
0.0
  0
LINE
  5
239
  8
STANDARD
 10
89.43284855701381
 20
36.40442913050042
 30
0.0
 11
89.42983311761256
 21
35.7423206784152
 31
0.0
  0
LINE
  5
23A
  8
STANDARD
 10
89.42983311761256
 20
35.7423206784152
 30
0.0
 11
89.43027046828536
 21
35.07971118595017
 31
0.0
  0
LINE
  5
23B
  8
STANDARD
 10
89.43027046828536
 20
35.07971118595017
 30
0.0
 11
89.43485538627118
 21
34.41649983277039
 31
0.0
  0
LINE
  5
23C
  8
STANDARD
 10
89.43485538627118
 20
34.41649983277039
 30
0.0
 11
89.44428264880906
 21
33.75258579854093
 31
0.0
  0
LINE
  5
23D
  8
STANDARD
 10
89.44428264880906
 20
33.75258579854093
 30
0.0
 11
89.45924703313801
 21
33.08786826292687
 31
0.0
  0
LINE
  5
23E
  8
STANDARD
 10
89.45924703313801
 20
33.08786826292687
 30
0.0
 11
89.480443316497
 21
32.42224640559326
 31
0.0
  0
LINE
  5
23F
  8
STANDARD
 10
89.480443316497
 20
32.42224640559326
 30
0.0
 11
89.50856751353153
 21
31.75562431331003
 31
0.0
  0
LINE
  5
240
  8
STANDARD
 10
89.50856751353153
 20
31.75562431331003
 30
0.0
 11
89.54437486315771
 21
31.08814093480347
 31
0.0
  0
LINE
  5
241
  8
STANDARD
 10
89.54437486315771
 20
31.08814093480347
 30
0.0
 11
89.58870467208165
 21
30.42026860113472
 31
0.0
  0
LINE
  5
242
  8
STANDARD
 10
89.58870467208165
 20
30.42026860113472
 30
0.0
 11
89.64240264503408
 21
29.75250501560779
 31
0.0
  0
LINE
  5
243
  8
STANDARD
 10
89.64240264503408
 20
29.75250501560779
 30
0.0
 11
89.70631448674575
 21
29.08534788152667
 31
0.0
  0
LINE
  5
244
  8
STANDARD
 10
89.70631448674575
 20
29.08534788152667
 30
0.0
 11
89.78128590194737
 21
28.41929490219534
 31
0.0
  0
LINE
  5
245
  8
STANDARD
 10
89.78128590194737
 20
28.41929490219534
 30
0.0
 11
89.86816259536965
 21
27.75484378091781
 31
0.0
  0
LINE
  5
246
  8
STANDARD
 10
89.86816259536965
 20
27.75484378091781
 30
0.0
 11
89.96779027174333
 21
27.09249222099804
 31
0.0
  0
LINE
  5
247
  8
STANDARD
 10
89.96779027174333
 20
27.09249222099804
 30
0.0
 11
90.08101463579914
 21
26.43273792574004
 31
0.0
  0
LINE
  5
248
  8
STANDARD
 10
90.08101463579914
 20
26.43273792574004
 30
0.0
 11
90.2086813922678
 21
25.77607859844779
 31
0.0
  0
LINE
  5
249
  8
STANDARD
 10
90.2086813922678
 20
25.77607859844779
 30
0.0
 11
90.35163624588006
 21
25.12301194242529
 31
0.0
  0
LINE
  5
24A
  8
STANDARD
 10
90.35163624588006
 20
25.12301194242529
 30
0.0
 11
90.5107249013666
 21
24.47403566097652
 31
0.0
  0
LINE
  5
24B
  8
STANDARD
 10
90.5107249013666
 20
24.47403566097652
 30
0.0
 11
90.68679306345817
 21
23.82964745740546
 31
0.0
  0
LINE
  5
24C
  8
STANDARD
 10
90.68679306345817
 20
23.82964745740546
 30
0.0
 11
90.8806864368855
 21
23.19034503501612
 31
0.0
  0
LINE
  5
24D
  8
STANDARD
 10
90.8806864368855
 20
23.19034503501612
 30
0.0
 11
91.09325072637931
 21
22.55662609711247
 31
0.0
  0
LINE
  5
24E
  8
STANDARD
 10
91.09325072637931
 20
22.55662609711247
 30
0.0
 11
91.32533163667033
 21
21.92898834699851
 31
0.0
  0
LINE
  5
24F
  8
STANDARD
 10
91.32533163667033
 20
21.92898834699851
 30
0.0
 11
91.57777487248927
 21
21.30792948797822
 31
0.0
  0
LINE
  5
250
  8
STANDARD
 10
91.57777487248927
 20
21.30792948797822
 30
0.0
 11
91.8514261385669
 21
20.6939472233556
 31
0.0
  0
LINE
  5
251
  8
STANDARD
 10
91.8514261385669
 20
20.6939472233556
 30
0.0
 11
92.14713113963387
 21
20.08753925643465
 31
0.0
  0
LINE
  5
252
  8
STANDARD
 10
92.14713113963387
 20
20.08753925643465
 30
0.0
 11
92.46573558042098
 21
19.48920329051932
 31
0.0
  0
LINE
  5
253
  8
STANDARD
 10
92.46573558042098
 20
19.48920329051932
 30
0.0
 11
92.80808516565892
 21
18.89943702891363
 31
0.0
  0
LINE
  5
254
  8
STANDARD
 10
92.80808516565892
 20
18.89943702891363
 30
0.0
 11
93.17502560007843
 21
18.31873817492156
 31
0.0
  0
LINE
  5
255
  8
STANDARD
 10
93.17502560007843
 20
18.31873817492156
 30
0.0
 11
93.56740258841022
 21
17.7476044318471
 31
0.0
  0
LINE
  5
256
  8
STANDARD
 10
93.56740258841022
 20
17.7476044318471
 30
0.0
 11
93.98606183538503
 21
17.18653350299425
 31
0.0
  0
LINE
  5
257
  8
STANDARD
 10
93.98606183538503
 20
17.18653350299425
 30
0.0
 11
94.43184904573357
 21
16.63602309166697
 31
0.0
  0
LINE
  5
258
  8
STANDARD
 10
94.43184904573357
 20
16.63602309166697
 30
0.0
 11
94.90560992418658
 21
16.09657090116928
 31
0.0
  0
LINE
  5
259
  8
STANDARD
 10
94.90560992418658
 20
16.09657090116928
 30
0.0
 11
95.40819017547477
 21
15.56867463480516
 31
0.0
  0
LINE
  5
25A
  8
STANDARD
 10
95.40819017547477
 20
15.56867463480516
 30
0.0
 11
95.9404355043289
 21
15.05283199587859
 31
0.0
  0
LINE
  5
25B
  8
STANDARD
 10
95.9404355043289
 20
15.05283199587859
 30
0.0
 11
96.49659891273359
 21
14.54826433006479
 31
0.0
  0
LINE
  5
25C
  8
STANDARD
 10
96.49659891273359
 20
14.54826433006479
 30
0.0
 11
97.03485914441805
 21
14.04720894985858
 31
0.0
  0
LINE
  5
25D
  8
STANDARD
 10
97.03485914441805
 20
14.04720894985858
 30
0.0
 11
97.5011187761821
 21
13.53952648251419
 31
0.0
  0
LINE
  5
25E
  8
STANDARD
 10
97.5011187761821
 20
13.53952648251419
 30
0.0
 11
97.84127014277709
 21
13.01507557240911
 31
0.0
  0
LINE
  5
25F
  8
STANDARD
 10
97.84127014277709
 20
13.01507557240911
 30
0.0
 11
98.00121042327163
 21
12.46371569807674
 31
0.0
  0
LINE
  5
260
  8
STANDARD
 10
98.00121042327163
 20
12.46371569807674
 30
0.0
 11
97.949083917635
 21
11.87913712907612
 31
0.0
  0
LINE
  5
261
  8
STANDARD
 10
97.949083917635
 20
11.87913712907612
 30
0.0
 11
97.7265380093925
 21
11.26768682677387
 31
0.0
  0
LINE
  5
262
  8
STANDARD
 10
97.7265380093925
 20
11.26768682677387
 30
0.0
 11
97.39037916607947
 21
10.63832203560388
 31
0.0
  0
LINE
  5
263
  8
STANDARD
 10
97.39037916607947
 20
10.63832203560388
 30
0.0
 11
96.99741385523117
 21
10.0
 31
0.0
  0
LINE
  5
264
  8
STANDARD
 10
96.99741385523117
 20
10.0
 30
0.0
 11
97.0
 21
10.0
 31
0.0
  0
LINE
  5
265
  8
STANDARD
 10
97.0
 20
10.0
 30
0.0
 11
101.0
 21
10.0
 31
0.0
  0
ARC
  5
266
  8
STANDARD
 10
101.0
 20
7.999999999999999
 30
0.0
 40
2.000000000000001
 50
0.0
 51
90.0
  0
LINE
  5
267
  8
STANDARD
 10
103.0
 20
7.999999999999999
 30
0.0
 11
103.0
 21
0.0
 31
0.0
  0
LINE
  5
268
  8
STANDARD
 10
103.0
 20
0.0
 30
0.0
 11
77.98168761789343
 21
0.0000000000000004
 31
0.0
  0
ENDSEC
  0
EOF
