  0
SECTION
  2
HEADER
  9
$ACADVER
  1
AC1009
  9
$DWGCODEPAGE
  3
ansi_1252
  9
$INSBASE
 10
0.0
 20
0.0
 30
0.0
  9
$EXTMIN
 10
1.000000000000000E+20
 20
1.000000000000000E+20
 30
1.000000000000000E+20
  9
$EXTMAX
 10
-1.000000000000000E+20
 20
-1.000000000000000E+20
 30
-1.000000000000000E+20
  9
$LIMMIN
 10
0.0
 20
0.0
  9
$LIMMAX
 10
12.0
 20
9.0
  9
$ORTHOMODE
 70
     0
  9
$REGENMODE
 70
     1
  9
$FILLMODE
 70
     1
  9
$QTEXTMODE
 70
     0
  9
$MIRRTEXT
 70
     1
  9
$DRAGMODE
 70
     2
  9
$LTSCALE
 40
1.0
  9
$OSMODE
 70
    37
  9
$ATTMODE
 70
     1
  9
$TEXTSIZE
 40
0.2
  9
$TRACEWID
 40
0.05
  9
$TEXTSTYLE
  7
STANDARD
  9
$CLAYER
  8
LAYER_02
  9
$CELTYPE
  6
BYLAYER
  9
$CECOLOR
 62
   256
  9
$DIMSCALE
 40
1.0
  9
$DIMASZ
 40
0.18
  9
$DIMEXO
 40
0.0625
  9
$DIMDLI
 40
0.38
  9
$DIMRND
 40
0.0
  9
$DIMDLE
 40
0.0
  9
$DIMEXE
 40
0.18
  9
$DIMTP
 40
0.0
  9
$DIMTM
 40
0.0
  9
$DIMTXT
 40
0.18
  9
$DIMCEN
 40
0.09
  9
$DIMTSZ
 40
0.0
  9
$DIMTOL
 70
     0
  9
$DIMLIM
 70
     0
  9
$DIMTIH
 70
     1
  9
$DIMTOH
 70
     1
  9
$DIMSE1
 70
     0
  9
$DIMSE2
 70
     0
  9
$DIMTAD
 70
     0
  9
$DIMZIN
 70
     0
  9
$DIMBLK
  1

  9
$DIMASO
 70
     1
  9
$DIMSHO
 70
     1
  9
$DIMPOST
  1

  9
$DIMAPOST
  1

  9
$DIMALT
 70
     0
  9
$DIMALTD
 70
     2
  9
$DIMALTF
 40
25.4
  9
$DIMLFAC
 40
1.0
  9
$DIMTOFL
 70
     0
  9
$DIMTVP
 40
0.0
  9
$DIMTIX
 70
     0
  9
$DIMSOXD
 70
     0
  9
$DIMSAH
 70
     0
  9
$DIMBLK1
  1

  9
$DIMBLK2
  1

  9
$DIMSTYLE
  2
STANDARD_ACAD
  9
$DIMCLRD
 70
     0
  9
$DIMCLRE
 70
     0
  9
$DIMCLRT
 70
     0
  9
$DIMTFAC
 40
1.0
  9
$DIMGAP
 40
0.09
  9
$LUNITS
 70
     2
  9
$LUPREC
 70
     3
  9
$SKETCHINC
 40
0.1
  9
$FILLETRAD
 40
0.5
  9
$AUNITS
 70
     0
  9
$AUPREC
 70
     0
  9
$MENU
  1
.
  9
$ELEVATION
 40
0.0
  9
$PELEVATION
 40
0.0
  9
$THICKNESS
 40
0.0
  9
$LIMCHECK
 70
     0
  9
$CHAMFERA
 40
0.0
  9
$CHAMFERB
 40
0.0
  9
$SKPOLY
 70
     0
  9
$TDCREATE
 40
2458292.80356831
  9
$TDUPDATE
 40
2458292.803587107
  9
$TDINDWG
 40
0.0000000116
  9
$TDUSRTIMER
 40
0.0000000116
  9
$USRTIMER
 70
     1
  9
$ANGBASE
 50
0.0
  9
$ANGDIR
 70
     0
  9
$PDMODE
 70
     0
  9
$PDSIZE
 40
0.0
  9
$PLINEWID
 40
0.0
  9
$COORDS
 70
     1
  9
$SPLFRAME
 70
     0
  9
$SPLINETYPE
 70
     6
  9
$SPLINESEGS
 70
     8
  9
$ATTDIA
 70
     0
  9
$ATTREQ
 70
     1
  9
$HANDLING
 70
     1
  9
$HANDSEED
  5
247
  9
$SURFTAB1
 70
     6
  9
$SURFTAB2
 70
     6
  9
$SURFTYPE
 70
     6
  9
$SURFU
 70
     6
  9
$SURFV
 70
     6
  9
$UCSNAME
  2

  9
$UCSORG
 10
0.0
 20
0.0
 30
0.0
  9
$UCSXDIR
 10
1.0
 20
0.0
 30
0.0
  9
$UCSYDIR
 10
0.0
 20
1.0
 30
0.0
  9
$PUCSNAME
  2

  9
$PUCSORG
 10
0.0
 20
0.0
 30
0.0
  9
$PUCSXDIR
 10
1.0
 20
0.0
 30
0.0
  9
$PUCSYDIR
 10
0.0
 20
1.0
 30
0.0
  9
$USERI1
 70
     0
  9
$USERI2
 70
     0
  9
$USERI3
 70
     0
  9
$USERI4
 70
     0
  9
$USERI5
 70
     0
  9
$USERR1
 40
0.0
  9
$USERR2
 40
0.0
  9
$USERR3
 40
0.0
  9
$USERR4
 40
0.0
  9
$USERR5
 40
0.0
  9
$WORLDVIEW
 70
     1
  9
$SHADEDGE
 70
     3
  9
$SHADEDIF
 70
    70
  9
$TILEMODE
 70
     1
  9
$MAXACTVP
 70
    64
  9
$PLIMCHECK
 70
     0
  9
$PEXTMIN
 10
1.000000000000000E+20
 20
1.000000000000000E+20
 30
1.000000000000000E+20
  9
$PEXTMAX
 10
-1.000000000000000E+20
 20
-1.000000000000000E+20
 30
-1.000000000000000E+20
  9
$PLIMMIN
 10
0.0
 20
0.0
  9
$PLIMMAX
 10
12.0
 20
9.0
  9
$UNITMODE
 70
     0
  9
$VISRETAIN
 70
     1
  9
$PLINEGEN
 70
     0
  9
$PSLTSCALE
 70
     1
  0
ENDSEC
  0
SECTION
  2
TABLES
  0
TABLE
  2
VPORT
 70
     1
  0
VPORT
  2
*ACTIVE
 70
     0
 10
0.0
 20
0.0
 11
1.0
 21
1.0
 12
10.42990654205607
 22
4.5
 13
0.0
 23
0.0
 14
0.5
 24
0.5
 15
0.5
 25
0.5
 16
0.0
 26
0.0
 36
1.0
 17
0.0
 27
0.0
 37
0.0
 40
9.0
 41
1.972972972850329
 42
50.0
 43
0.0
 44
0.0
 50
0.0
 51
0.0
 71
     0
 72
   100
 73
     1
 74
     3
 75
     0
 76
     0
 77
     0
 78
     0
  0
ENDTAB
  0
TABLE
  2
LTYPE
 70
     1
  0
LTYPE
  2
CONTINUOUS
 70
     0
  3
Solid line
 72
    65
 73
     0
 40
0.0
  0
ENDTAB
  0
TABLE
  2
LAYER
 70
     8
  0
LAYER
  2
0
 70
     0
 62
     7
  6
CONTINUOUS
  0
LAYER
  2
LAYER_03
 70
     0
 62
     1
  6
CONTINUOUS
  0
LAYER
  2
LAYER_02
 70
     0
 62
     3
  6
CONTINUOUS
  0
LAYER
  2
LAYER_04
 70
     0
 62
     4
  6
CONTINUOUS
  0
LAYER
  2
LAYER_01
 70
     0
 62
   251
  6
CONTINUOUS
  0
LAYER
  2
LAYER_05
 70
     0
 62
     5
  6
CONTINUOUS
  0
LAYER
  2
LAYER_06
 70
     0
 62
     6
  6
CONTINUOUS
  0
LAYER
  2
LAYER_07
 70
     0
 62
    30
  6
CONTINUOUS
  0
ENDTAB
  0
TABLE
  2
STYLE
 70
     1
  0
STYLE
  2
STANDARD
 70
     0
 40
0.0
 41
1.0
 50
0.0
 71
     0
 42
0.2
  3
txt
  4

  0
ENDTAB
  0
TABLE
  2
VIEW
 70
     0
  0
ENDTAB
  0
TABLE
  2
UCS
 70
     0
  0
ENDTAB
  0
TABLE
  2
APPID
 70
     1
  0
APPID
  2
ACAD
 70
     0
  0
ENDTAB
  0
TABLE
  2
DIMSTYLE
 70
     1
  0
DIMSTYLE
  2
STANDARD_ACAD
 70
     0
  3

  4

  5

  6

  7

 40
1.0
 41
0.18
 42
0.0625
 43
0.38
 44
0.18
 45
0.0
 46
0.0
 47
0.0
 48
0.0
140
0.18
141
0.09
142
0.0
143
25.4
144
1.0
145
0.0
146
1.0
147
0.09
 71
     0
 72
     0
 73
     1
 74
     1
 75
     0
 76
     0
 77
     0
 78
     0
170
     0
171
     2
172
     0
173
     0
174
     0
175
     0
176
     0
177
     0
178
     0
  0
ENDTAB
  0
ENDSEC
  0
SECTION
  2
BLOCKS
  0
BLOCK
  8
0
  2
$MODEL_SPACE
 70
     0
 10
0.0
 20
0.0
 30
0.0
  3
$MODEL_SPACE
  1

  0
ENDBLK
  5
21
  8
0
  0
BLOCK
 67
     1
  8
0
  2
$PAPER_SPACE
 70
     0
 10
0.0
 20
0.0
 30
0.0
  3
$PAPER_SPACE
  1

  0
ENDBLK
  5
1D
 67
     1
  8
0
  0
ENDSEC
  0
SECTION
  2
ENTITIES
  0
ARC
  5
6F
  8
LAYER_03
 10
1708.864436559157
 20
-353.9750000000004
 30
0.0
 40
3.100000000000364
 50
0.0000000000010506
 51
270.0000000000084
  0
LINE
  5
70
  8
LAYER_03
 10
1708.864436559157
 20
-357.0750000000008
 30
0.0
 11
1708.864436559157
 21
-450.8750000000002
 31
0.0
  0
ARC
  5
71
  8
LAYER_03
 10
1708.864436559157
 20
-453.9750000000003
 30
0.0
 40
3.1
 50
89.9999999999916
 51
0.0
  0
LINE
  5
72
  8
LAYER_03
 10
1711.964436559157
 20
-453.9750000000003
 30
0.0
 11
1726.864436559157
 21
-453.9750000000003
 31
0.0
  0
LINE
  5
73
  8
LAYER_03
 10
1726.864436559157
 20
-453.9750000000003
 30
0.0
 11
1726.864436559157
 21
-553.9750000000001
 31
0.0
  0
LINE
  5
74
  8
LAYER_03
 10
1726.864436559157
 20
-553.9750000000001
 30
0.0
 11
1696.864436559157
 21
-553.9750000000001
 31
0.0
  0
LINE
  5
75
  8
LAYER_03
 10
1696.864436559157
 20
-553.9750000000001
 30
0.0
 11
1696.864436559157
 21
-539.075008672476
 31
0.0
  0
ARC
  5
76
  8
LAYER_03
 10
1696.864436559157
 20
-535.975008672476
 30
0.0
 40
3.100000000000023
 50
270.0
 51
180.0
  0
LINE
  5
77
  8
LAYER_03
 10
1693.764436559157
 20
-535.975008672476
 30
0.0
 11
1669.964436559157
 21
-535.975008672476
 31
0.0
  0
ARC
  5
78
  8
LAYER_03
 10
1666.864436559157
 20
-535.975008672476
 30
0.0
 40
3.100000000000009
 50
0.0
 51
270.0
  0
LINE
  5
79
  8
LAYER_03
 10
1666.864436559157
 20
-539.075008672476
 30
0.0
 11
1666.864436559157
 21
-553.9750000000001
 31
0.0
  0
LINE
  5
7A
  8
LAYER_03
 10
1666.864436559157
 20
-553.9750000000001
 30
0.0
 11
1636.864436559157
 21
-553.9750000000001
 31
0.0
  0
LINE
  5
7B
  8
LAYER_03
 10
1636.864436559157
 20
-553.9750000000001
 30
0.0
 11
1636.864436559157
 21
-539.075008672476
 31
0.0
  0
ARC
  5
7C
  8
LAYER_03
 10
1636.864436559157
 20
-535.975008672476
 30
0.0
 40
3.099999999999994
 50
270.0
 51
180.0
  0
LINE
  5
7D
  8
LAYER_03
 10
1633.764436559157
 20
-535.975008672476
 30
0.0
 11
1609.964436559157
 21
-535.975008672476
 31
0.0
  0
ARC
  5
7E
  8
LAYER_03
 10
1606.864436559157
 20
-535.975008672476
 30
0.0
 40
3.100000000000009
 50
0.0
 51
270.0
  0
LINE
  5
7F
  8
LAYER_03
 10
1606.864436559157
 20
-539.075008672476
 30
0.0
 11
1606.864436559157
 21
-553.9750000000001
 31
0.0
  0
LINE
  5
80
  8
LAYER_03
 10
1606.864436559157
 20
-553.9750000000001
 30
0.0
 11
1576.864436559157
 21
-553.9750000000001
 31
0.0
  0
LINE
  5
81
  8
LAYER_03
 10
1576.864436559157
 20
-553.9750000000001
 30
0.0
 11
1576.864436559157
 21
-539.075008672476
 31
0.0
  0
ARC
  5
82
  8
LAYER_03
 10
1576.864436559157
 20
-535.975008672476
 30
0.0
 40
3.100000000000023
 50
270.0
 51
180.0
  0
LINE
  5
83
  8
LAYER_03
 10
1573.764436559157
 20
-535.975008672476
 30
0.0
 11
1549.964436559157
 21
-535.975008672476
 31
0.0
  0
ARC
  5
84
  8
LAYER_03
 10
1546.864436559157
 20
-535.975008672476
 30
0.0
 40
3.100000000000009
 50
0.0
 51
270.0
  0
LINE
  5
85
  8
LAYER_03
 10
1546.864436559157
 20
-539.075008672476
 30
0.0
 11
1546.864436559157
 21
-553.9750000000001
 31
0.0
  0
LINE
  5
86
  8
LAYER_03
 10
1546.864436559157
 20
-553.9750000000001
 30
0.0
 11
1486.864436559157
 21
-553.9750000000001
 31
0.0
  0
LINE
  5
87
  8
LAYER_03
 10
1486.864436559157
 20
-553.9750000000001
 30
0.0
 11
1486.864436559157
 21
-539.075008672476
 31
0.0
  0
ARC
  5
88
  8
LAYER_03
 10
1486.864436559157
 20
-535.975008672476
 30
0.0
 40
3.100000000000023
 50
270.0
 51
180.0
  0
LINE
  5
89
  8
LAYER_03
 10
1483.764436559157
 20
-535.975008672476
 30
0.0
 11
1426.864436559157
 21
-535.975008672476
 31
0.0
  0
LINE
  5
8A
  8
LAYER_03
 10
1426.864436559157
 20
-535.975008672476
 30
0.0
 11
1426.864436559157
 21
-503.9750000000001
 31
0.0
  0
LINE
  5
8B
  8
LAYER_03
 10
1426.864436559157
 20
-503.9750000000001
 30
0.0
 11
1626.864436559157
 21
-453.9750000000003
 31
0.0
  0
LINE
  5
8C
  8
LAYER_03
 10
1626.864436559157
 20
-453.9750000000003
 30
0.0
 11
1626.864436559157
 21
246.0249999999997
 31
0.0
  0
LINE
  5
8D
  8
LAYER_03
 10
1626.864436559157
 20
246.0249999999997
 30
0.0
 11
1426.864436559157
 21
296.0249999999997
 31
0.0
  0
LINE
  5
8E
  8
LAYER_03
 10
1426.864436559157
 20
296.0249999999997
 30
0.0
 11
1426.864436559157
 21
328.024999731779
 31
0.0
  0
LINE
  5
8F
  8
LAYER_03
 10
1426.864436559157
 20
328.024999731779
 30
0.0
 11
1483.764436559157
 21
328.024999731779
 31
0.0
  0
ARC
  5
90
  8
LAYER_03
 10
1486.864436559157
 20
328.024999731779
 30
0.0
 40
3.100000000000014
 50
180.0
 51
90.0
  0
LINE
  5
91
  8
LAYER_03
 10
1486.864436559157
 20
331.124999731779
 30
0.0
 11
1486.864436559157
 21
346.0249999999999
 31
0.0
  0
LINE
  5
92
  8
LAYER_03
 10
1486.864436559157
 20
346.0249999999999
 30
0.0
 11
1546.864436559157
 21
346.0249999999999
 31
0.0
  0
LINE
  5
93
  8
LAYER_03
 10
1546.864436559157
 20
346.0249999999999
 30
0.0
 11
1546.864436559157
 21
331.124999731779
 31
0.0
  0
ARC
  5
94
  8
LAYER_03
 10
1546.864436559157
 20
328.024999731779
 30
0.0
 40
3.100000000000009
 50
90.0
 51
0.0
  0
LINE
  5
95
  8
LAYER_03
 10
1549.964436559157
 20
328.024999731779
 30
0.0
 11
1573.764436559157
 21
328.024999731779
 31
0.0
  0
ARC
  5
96
  8
LAYER_03
 10
1576.864436559157
 20
328.024999731779
 30
0.0
 40
3.100000000000016
 50
180.0
 51
90.0
  0
LINE
  5
97
  8
LAYER_03
 10
1576.864436559157
 20
331.124999731779
 30
0.0
 11
1576.864436559157
 21
346.0249999999999
 31
0.0
  0
LINE
  5
98
  8
LAYER_03
 10
1576.864436559157
 20
346.0249999999999
 30
0.0
 11
1606.864436559157
 21
346.0249999999999
 31
0.0
  0
LINE
  5
99
  8
LAYER_03
 10
1606.864436559157
 20
346.0249999999999
 30
0.0
 11
1606.864436559157
 21
331.124999731779
 31
0.0
  0
ARC
  5
9A
  8
LAYER_03
 10
1606.864436559157
 20
328.024999731779
 30
0.0
 40
3.100000000000023
 50
90.0
 51
0.0
  0
LINE
  5
9B
  8
LAYER_03
 10
1609.964436559157
 20
328.024999731779
 30
0.0
 11
1633.764436559157
 21
328.024999731779
 31
0.0
  0
ARC
  5
9C
  8
LAYER_03
 10
1636.864436559157
 20
328.024999731779
 30
0.0
 40
3.100000000000009
 50
180.0
 51
90.0
  0
LINE
  5
9D
  8
LAYER_03
 10
1636.864436559157
 20
331.124999731779
 30
0.0
 11
1636.864436559157
 21
346.0249999999999
 31
0.0
  0
LINE
  5
9E
  8
LAYER_03
 10
1636.864436559157
 20
346.0249999999999
 30
0.0
 11
1666.864440135436
 21
346.0249999999999
 31
0.0
  0
LINE
  5
9F
  8
LAYER_03
 10
1666.864440135436
 20
346.0249999999999
 30
0.0
 11
1666.864440135436
 21
331.124999731779
 31
0.0
  0
ARC
  5
A0
  8
LAYER_03
 10
1666.864440135436
 20
328.024999731779
 30
0.0
 40
3.100000000000023
 50
90.0
 51
0.0
  0
LINE
  5
A1
  8
LAYER_03
 10
1669.964440135436
 20
328.024999731779
 30
0.0
 11
1693.764436559157
 21
328.024999731779
 31
0.0
  0
ARC
  5
A2
  8
LAYER_03
 10
1696.864436559157
 20
328.024999731779
 30
0.0
 40
3.100000000000009
 50
180.0
 51
90.0
  0
LINE
  5
A3
  8
LAYER_03
 10
1696.864436559157
 20
331.124999731779
 30
0.0
 11
1696.864436559157
 21
346.0249999999999
 31
0.0
  0
LINE
  5
A4
  8
LAYER_03
 10
1696.864436559157
 20
346.0249999999999
 30
0.0
 11
1726.864436559157
 21
346.0249999999999
 31
0.0
  0
LINE
  5
A5
  8
LAYER_03
 10
1726.864436559157
 20
346.0249999999999
 30
0.0
 11
1726.864436559157
 21
246.0249999999997
 31
0.0
  0
LINE
  5
A6
  8
LAYER_03
 10
1726.864436559157
 20
246.0249999999997
 30
0.0
 11
1711.964436559157
 21
246.0249999999997
 31
0.0
  0
ARC
  5
A7
  8
LAYER_03
 10
1708.864436559157
 20
246.0249999999997
 30
0.0
 40
3.1
 50
0.0
 51
269.9999999999957
  0
LINE
  5
A8
  8
LAYER_03
 10
1708.864436559157
 20
242.9249999999997
 30
0.0
 11
1708.864436559157
 21
149.1249999999997
 31
0.0
  0
ARC
  5
A9
  8
LAYER_03
 10
1708.864436559157
 20
146.0249999999997
 30
0.0
 40
3.1
 50
90.0
 51
0.0
  0
LINE
  5
AA
  8
LAYER_03
 10
1711.964436559157
 20
146.0249999999997
 30
0.0
 11
1726.864436559157
 21
146.0249999999997
 31
0.0
  0
LINE
  5
AB
  8
LAYER_03
 10
1726.864436559157
 20
146.0249999999997
 30
0.0
 11
1726.864436559157
 21
-3.97500000000025
 31
0.0
  0
LINE
  5
AC
  8
LAYER_03
 10
1726.864436559157
 20
-3.97500000000025
 30
0.0
 11
1711.964436559157
 21
-3.97500000000025
 31
0.0
  0
ARC
  5
AD
  8
LAYER_03
 10
1708.864436559157
 20
-3.97500000000025
 30
0.0
 40
3.1
 50
0.0
 51
269.9999999999916
  0
LINE
  5
AE
  8
LAYER_03
 10
1708.864436559157
 20
-7.07500000000025
 30
0.0
 11
1708.864436559157
 21
-200.8750000000003
 31
0.0
  0
ARC
  5
AF
  8
LAYER_03
 10
1708.864436559157
 20
-203.9750000000003
 30
0.0
 40
3.1
 50
90.0
 51
0.0
  0
LINE
  5
B0
  8
LAYER_03
 10
1711.964436559157
 20
-203.9750000000003
 30
0.0
 11
1726.864436559157
 21
-203.9750000000003
 31
0.0
  0
LINE
  5
B1
  8
LAYER_03
 10
1726.864436559157
 20
-203.9750000000003
 30
0.0
 11
1726.864436559157
 21
-353.9750000000003
 31
0.0
  0
LINE
  5
B2
  8
LAYER_03
 10
1726.864436559157
 20
-353.9750000000003
 30
0.0
 11
1711.964436559157
 21
-353.9750000000004
 31
0.0
  0
LINE
  5
B4
  8
LAYER_02
 10
908.8228468425953
 20
-178.9000000000001
 30
0.0
 11
908.8228468425953
 21
-135.1000000000001
 31
0.0
  0
ARC
  5
B5
  8
LAYER_02
 10
908.8228468425953
 20
-132.0000000000001
 30
0.0
 40
3.099999999999966
 50
270.0
 51
179.9999999999989
  0
LINE
  5
B6
  8
LAYER_02
 10
905.7228468425953
 20
-132.0000000000001
 30
0.0
 11
881.9228468425953
 21
-132.0000000000001
 31
0.0
  0
ARC
  5
B7
  8
LAYER_02
 10
878.8228468425953
 20
-132.0000000000001
 30
0.0
 40
3.1
 50
0.0
 51
270.0
  0
LINE
  5
B8
  8
LAYER_02
 10
878.8228468425953
 20
-135.1000000000001
 30
0.0
 11
878.8228468425953
 21
-178.9000000000001
 31
0.0
  0
ARC
  5
B9
  8
LAYER_02
 10
878.8228468425953
 20
-182.0000000000001
 30
0.0
 40
3.1
 50
90.0
 51
0.0
  0
LINE
  5
BA
  8
LAYER_02
 10
881.9228468425953
 20
-182.0000000000001
 30
0.0
 11
905.7228468425952
 21
-182.0000000000001
 31
0.0
  0
ARC
  5
BB
  8
LAYER_02
 10
908.8228468425954
 20
-182.0000000000002
 30
0.0
 40
3.100000000000136
 50
179.9999999999984
 51
90.0000000000021
  0
ARC
  5
BC
  8
LAYER_02
 10
1530.776343276852
 20
70.37540855406843
 30
0.0
 40
3.100000000000364
 50
180.0
 51
90.00000000000841
  0
LINE
  5
BD
  8
LAYER_02
 10
1530.776343276852
 20
73.47540855406879
 30
0.0
 11
1530.776343276851
 21
123.4754085540684
 31
0.0
  0
ARC
  5
BE
  8
LAYER_02
 10
1530.776343276851
 20
126.5754085540684
 30
0.0
 40
3.1
 50
270.0
 51
180.0
  0
LINE
  5
BF
  8
LAYER_02
 10
1527.676343276851
 20
126.5754085540684
 30
0.0
 11
1477.676343276851
 21
126.5754085540684
 31
0.0
  0
ARC
  5
C0
  8
LAYER_02
 10
1474.576343276851
 20
126.5754085540684
 30
0.0
 40
3.1
 50
0.0
 51
270.0
  0
LINE
  5
C1
  8
LAYER_02
 10
1474.576343276851
 20
123.4754085540684
 30
0.0
 11
1474.576343276851
 21
73.47540855406842
 31
0.0
  0
ARC
  5
C2
  8
LAYER_02
 10
1474.576343276851
 20
70.37540855406843
 30
0.0
 40
3.1
 50
90.0
 51
0.0
  0
LINE
  5
C3
  8
LAYER_02
 10
1477.676343276851
 20
70.37540855406843
 30
0.0
 11
1527.676343276852
 21
70.37540855406843
 31
0.0
  0
ARC
  5
C4
  8
LAYER_03
 10
1389.724990046024
 20
642.0249999999999
 30
0.0
 40
3.100000000000023
 50
90.0
 51
0.0
  0
LINE
  5
C5
  8
LAYER_03
 10
1392.824990046024
 20
642.0249999999999
 30
0.0
 11
1456.624990046024
 21
642.0249999999997
 31
0.0
  0
ARC
  5
C6
  8
LAYER_03
 10
1459.724990046024
 20
642.0249999999997
 30
0.0
 40
3.1
 50
180.0
 51
90.0
  0
LINE
  5
C7
  8
LAYER_03
 10
1459.724990046024
 20
645.1249999999998
 30
0.0
 11
1459.724990046024
 21
660.0249999999997
 31
0.0
  0
LINE
  5
C8
  8
LAYER_03
 10
1459.724990046024
 20
660.0249999999997
 30
0.0
 11
1521.725005424023
 21
660.0249999999997
 31
0.0
  0
LINE
  5
C9
  8
LAYER_03
 10
1521.725005424023
 20
660.0249999999997
 30
0.0
 11
1521.725005424023
 21
633.1249999999998
 31
0.0
  0
ARC
  5
CA
  8
LAYER_03
 10
1521.725005424023
 20
630.0249999999997
 30
0.0
 40
3.100000000000023
 50
90.0
 51
0.0
  0
LINE
  5
CB
  8
LAYER_03
 10
1524.825005424023
 20
630.0249999999997
 30
0.0
 11
1539.724990046024
 21
630.0249999999997
 31
0.0
  0
LINE
  5
CC
  8
LAYER_03
 10
1539.724990046024
 20
630.0249999999997
 30
0.0
 11
1539.724990046024
 21
600.0249999999997
 31
0.0
  0
LINE
  5
CD
  8
LAYER_03
 10
1539.724990046024
 20
600.0249999999997
 30
0.0
 11
1524.825005424023
 21
600.0249999999997
 31
0.0
  0
ARC
  5
CE
  8
LAYER_03
 10
1521.725005424023
 20
600.0249999999997
 30
0.0
 40
3.100000000000023
 50
0.0
 51
270.0
  0
LINE
  5
CF
  8
LAYER_03
 10
1521.725005424023
 20
596.9249999999997
 30
0.0
 11
1521.725005424023
 21
573.1249999999998
 31
0.0
  0
ARC
  5
D0
  8
LAYER_03
 10
1521.725005424023
 20
570.0249999999997
 30
0.0
 40
3.100000000000023
 50
90.0
 51
0.0
  0
LINE
  5
D1
  8
LAYER_03
 10
1524.825005424023
 20
570.0249999999997
 30
0.0
 11
1539.724990046025
 21
570.0249999999997
 31
0.0
  0
LINE
  5
D2
  8
LAYER_03
 10
1539.724990046025
 20
570.0249999999997
 30
0.0
 11
1539.724990046025
 21
540.0249999999997
 31
0.0
  0
LINE
  5
D3
  8
LAYER_03
 10
1539.724990046025
 20
540.0249999999997
 30
0.0
 11
1524.825005424023
 21
540.0249999999997
 31
0.0
  0
ARC
  5
D4
  8
LAYER_03
 10
1521.725005424023
 20
540.0249999999997
 30
0.0
 40
3.100000000000023
 50
0.0
 51
270.0
  0
LINE
  5
D5
  8
LAYER_03
 10
1521.725005424023
 20
536.9249999999997
 30
0.0
 11
1521.725005424023
 21
513.1249999999998
 31
0.0
  0
ARC
  5
D6
  8
LAYER_03
 10
1521.725005424023
 20
510.0249999999997
 30
0.0
 40
3.100000000000023
 50
90.0
 51
0.0
  0
LINE
  5
D7
  8
LAYER_03
 10
1524.825005424023
 20
510.0249999999997
 30
0.0
 11
1539.724990046025
 21
510.0249999999997
 31
0.0
  0
LINE
  5
D8
  8
LAYER_03
 10
1539.724990046025
 20
510.0249999999997
 30
0.0
 11
1539.724990046025
 21
480.0249999999997
 31
0.0
  0
LINE
  5
D9
  8
LAYER_03
 10
1539.724990046025
 20
480.0249999999997
 30
0.0
 11
1524.825005424023
 21
480.0249999999997
 31
0.0
  0
ARC
  5
DA
  8
LAYER_03
 10
1521.725005424023
 20
480.0249999999997
 30
0.0
 40
3.100000000000023
 50
0.0
 51
270.0
  0
LINE
  5
DB
  8
LAYER_03
 10
1521.725005424023
 20
476.9249999999997
 30
0.0
 11
1521.725005424023
 21
423.1249999999997
 31
0.0
  0
ARC
  5
DC
  8
LAYER_03
 10
1521.725005424023
 20
420.0249999999997
 30
0.0
 40
3.100000000000023
 50
90.0
 51
0.0
  0
LINE
  5
DD
  8
LAYER_03
 10
1524.825005424023
 20
420.0249999999997
 30
0.0
 11
1539.724990046025
 21
420.0249999999997
 31
0.0
  0
LINE
  5
DE
  8
LAYER_03
 10
1539.724990046025
 20
420.0249999999997
 30
0.0
 11
1539.724990046025
 21
360.0249999999997
 31
0.0
  0
LINE
  5
DF
  8
LAYER_03
 10
1539.724990046025
 20
360.0249999999997
 30
0.0
 11
1489.724990046025
 21
360.0249999999997
 31
0.0
  0
LINE
  5
E0
  8
LAYER_03
 10
1489.724990046025
 20
360.0249999999997
 30
0.0
 11
1439.724990046024
 21
560.0249999999997
 31
0.0
  0
LINE
  5
E1
  8
LAYER_03
 10
1439.724990046024
 20
560.0249999999997
 30
0.0
 11
1239.724990046024
 21
560.0249999999999
 31
0.0
  0
LINE
  5
E2
  8
LAYER_03
 10
1239.724990046024
 20
560.0249999999999
 30
0.0
 11
1189.724990046024
 21
360.0249999999996
 31
0.0
  0
LINE
  5
E3
  8
LAYER_03
 10
1189.724990046024
 20
360.0249999999996
 30
0.0
 11
1139.724990046024
 21
360.0249999999996
 31
0.0
  0
LINE
  5
E4
  8
LAYER_03
 10
1139.724990046024
 20
360.0249999999996
 30
0.0
 11
1139.724990046024
 21
420.0249999999996
 31
0.0
  0
LINE
  5
E5
  8
LAYER_03
 10
1139.724990046024
 20
420.0249999999996
 30
0.0
 11
1154.625
 21
420.0249999999996
 31
0.0
  0
ARC
  5
E6
  8
LAYER_03
 10
1157.725
 20
420.0249999999996
 30
0.0
 40
3.10000000000002
 50
180.0
 51
90.0
  0
LINE
  5
E7
  8
LAYER_03
 10
1157.725
 20
423.1249999999996
 30
0.0
 11
1157.725
 21
476.9249999999997
 31
0.0
  0
ARC
  5
E8
  8
LAYER_03
 10
1157.725
 20
480.0249999999996
 30
0.0
 40
3.099999999999881
 50
270.0
 51
180.0
  0
LINE
  5
E9
  8
LAYER_03
 10
1154.625
 20
480.0249999999996
 30
0.0
 11
1139.724990046024
 21
480.0249999999996
 31
0.0
  0
LINE
  5
EA
  8
LAYER_03
 10
1139.724990046024
 20
480.0249999999996
 30
0.0
 11
1139.724990046024
 21
510.0249999999999
 31
0.0
  0
LINE
  5
EB
  8
LAYER_03
 10
1139.724990046024
 20
510.0249999999999
 30
0.0
 11
1154.625
 21
510.0249999999999
 31
0.0
  0
ARC
  5
EC
  8
LAYER_03
 10
1157.725
 20
510.0249999999999
 30
0.0
 40
3.100000000000023
 50
180.0
 51
90.0
  0
LINE
  5
ED
  8
LAYER_03
 10
1157.725
 20
513.125
 30
0.0
 11
1157.725
 21
536.9249999999998
 31
0.0
  0
ARC
  5
EE
  8
LAYER_03
 10
1157.725
 20
540.0249999999999
 30
0.0
 40
3.100000000000023
 50
270.0
 51
180.0
  0
LINE
  5
EF
  8
LAYER_03
 10
1154.625
 20
540.0249999999999
 30
0.0
 11
1139.724990046024
 21
540.0249999999999
 31
0.0
  0
LINE
  5
F0
  8
LAYER_03
 10
1139.724990046024
 20
540.0249999999999
 30
0.0
 11
1139.724990046024
 21
570.0249999999999
 31
0.0
  0
LINE
  5
F1
  8
LAYER_03
 10
1139.724990046024
 20
570.0249999999999
 30
0.0
 11
1154.625
 21
570.0249999999999
 31
0.0
  0
ARC
  5
F2
  8
LAYER_03
 10
1157.725
 20
570.0249999999999
 30
0.0
 40
3.100000000000023
 50
180.0
 51
90.0
  0
LINE
  5
F3
  8
LAYER_03
 10
1157.725
 20
573.1249999999999
 30
0.0
 11
1157.725
 21
596.9249999999998
 31
0.0
  0
ARC
  5
F4
  8
LAYER_03
 10
1157.725
 20
600.0249999999999
 30
0.0
 40
3.100000000000023
 50
270.0
 51
180.0
  0
LINE
  5
F5
  8
LAYER_03
 10
1154.625
 20
600.0249999999999
 30
0.0
 11
1139.724990046024
 21
600.0249999999999
 31
0.0
  0
LINE
  5
F6
  8
LAYER_03
 10
1139.724990046024
 20
600.0249999999999
 30
0.0
 11
1139.724990046024
 21
630.0249999999999
 31
0.0
  0
LINE
  5
F7
  8
LAYER_03
 10
1139.724990046024
 20
630.0249999999999
 30
0.0
 11
1154.625
 21
630.0249999999999
 31
0.0
  0
ARC
  5
F8
  8
LAYER_03
 10
1157.725
 20
630.0249999999999
 30
0.0
 40
3.100000000000023
 50
180.0
 51
90.0
  0
LINE
  5
F9
  8
LAYER_03
 10
1157.725
 20
633.1249999999999
 30
0.0
 11
1157.725
 21
660.0249999999999
 31
0.0
  0
LINE
  5
FA
  8
LAYER_03
 10
1157.725
 20
660.0249999999999
 30
0.0
 11
1219.724990046024
 21
660.0249999999999
 31
0.0
  0
LINE
  5
FB
  8
LAYER_03
 10
1219.724990046024
 20
660.0249999999999
 30
0.0
 11
1219.724990046024
 21
645.1249999999997
 31
0.0
  0
ARC
  5
FC
  8
LAYER_03
 10
1219.724990046024
 20
642.0249999999996
 30
0.0
 40
3.1
 50
90.0
 51
0.0
  0
LINE
  5
FD
  8
LAYER_03
 10
1222.824990046025
 20
642.0249999999996
 30
0.0
 11
1286.624990046024
 21
642.0249999999999
 31
0.0
  0
ARC
  5
FE
  8
LAYER_03
 10
1289.724990046024
 20
642.0249999999999
 30
0.0
 40
3.1
 50
180.0
 51
89.99999999999581
  0
LINE
  5
FF
  8
LAYER_03
 10
1289.724990046024
 20
645.1249999999999
 30
0.0
 11
1289.724990046024
 21
655.0249999999983
 31
0.0
  0
LINE
  5
100
  8
LAYER_03
 10
1289.724990046024
 20
655.0249999999983
 30
0.0
 11
1389.724990046024
 21
655.0249999999996
 31
0.0
  0
LINE
  5
101
  8
LAYER_03
 10
1389.724990046024
 20
655.0249999999996
 30
0.0
 11
1389.724990046024
 21
645.1249999999999
 31
0.0
  0
LINE
  5
103
  8
LAYER_04
 10
1013.822846842595
 20
98.10000000000025
 30
0.0
 11
1013.822846842595
 21
291.9
 31
0.0
  0
ARC
  5
104
  8
LAYER_04
 10
1013.822846842595
 20
294.9999999999999
 30
0.0
 40
3.099999999999909
 50
270.0
 51
179.9999999999989
  0
LINE
  5
105
  8
LAYER_04
 10
1010.722846842595
 20
294.9999999999999
 30
0.0
 11
776.9228378869974
 21
295.0
 31
0.0
  0
ARC
  5
106
  8
LAYER_04
 10
773.8228378869974
 20
295.0
 30
0.0
 40
3.1
 50
0.0
 51
270.0000025655872
  0
LINE
  5
107
  8
LAYER_04
 10
773.822838025809
 20
291.9
 30
0.0
 11
773.8228467037834
 21
98.09999999999997
 31
0.0
  0
ARC
  5
108
  8
LAYER_04
 10
773.822846842595
 20
95.0
 30
0.0
 40
3.1
 50
90.00000256559565
 51
0.0
  0
LINE
  5
109
  8
LAYER_04
 10
776.922846842595
 20
95.0
 30
0.0
 11
1010.722846842595
 21
95.0
 31
0.0
  0
ARC
  5
10A
  8
LAYER_04
 10
1013.822846842595
 20
95.0
 30
0.0
 40
3.10000000000025
 50
180.0
 51
90.00000000000422
  0
ARC
  5
10B
  8
LAYER_02
 10
846.8366124433967
 20
70.6843377358681
 30
0.0
 40
3.100000000000067
 50
269.9999981641657
 51
179.9999981641652
  0
LINE
  5
10C
  8
LAYER_02
 10
843.7366124433967
 20
70.68433783519632
 30
0.0
 11
831.9366124433967
 21
70.68433821328465
 31
0.0
  0
ARC
  5
10D
  8
LAYER_02
 10
828.8366124433967
 20
70.68433831261295
 30
0.0
 40
3.1
 50
359.9999981641637
 51
269.9999981641574
  0
LINE
  5
10E
  8
LAYER_02
 10
828.836612344068
 20
67.58433831261296
 30
0.0
 11
828.8366108413277
 21
20.68433333927917
 31
0.0
  0
LINE
  5
10F
  8
LAYER_02
 10
828.8366108413277
 20
20.68433333927917
 30
0.0
 11
811.9366108413277
 21
20.68433333928219
 31
0.0
  0
ARC
  5
110
  8
LAYER_02
 10
808.8366108413277
 20
20.68433333928219
 30
0.0
 40
3.1
 50
0.0
 51
269.9999981641657
  0
LINE
  5
111
  8
LAYER_02
 10
808.8366107419995
 20
17.58433333928219
 30
0.0
 11
808.8366103639107
 21
5.784333339282218
 31
0.0
  0
ARC
  5
112
  8
LAYER_02
 10
808.8366102645825
 20
2.684333339282219
 30
0.0
 40
3.1
 50
89.99999816416579
 51
359.9999999999998
  0
LINE
  5
113
  8
LAYER_02
 10
811.9366102645826
 20
2.684333339282205
 30
0.0
 11
828.8366124433967
 21
2.684333339279164
 31
0.0
  0
LINE
  5
114
  8
LAYER_02
 10
828.8366124433967
 20
2.684333339279164
 30
0.0
 11
828.8366109406561
 21
-44.21566168738703
 31
0.0
  0
ARC
  5
115
  8
LAYER_02
 10
828.8366108413277
 20
-47.31566168738703
 30
0.0
 40
3.1
 50
89.99999816416158
 51
0.0
  0
LINE
  5
116
  8
LAYER_02
 10
831.9366108413277
 20
-47.31566168738703
 30
0.0
 11
843.7366108413274
 21
-47.31566216480368
 31
0.0
  0
ARC
  5
117
  8
LAYER_02
 10
846.8366108413275
 20
-47.31566226413199
 30
0.0
 40
3.1
 50
179.9999981641637
 51
89.99999816415738
  0
LINE
  5
118
  8
LAYER_02
 10
846.8366109406561
 20
-44.21566226413199
 30
0.0
 11
846.8366124433967
 21
2.684333339276463
 31
0.0
  0
LINE
  5
119
  8
LAYER_02
 10
846.8366124433967
 20
2.684333339276463
 30
0.0
 11
940.8228495822943
 21
2.684334724418918
 31
0.0
  0
LINE
  5
11A
  8
LAYER_02
 10
940.8228495822943
 20
2.684334724418918
 30
0.0
 11
940.8228480795533
 21
-44.21566527558115
 31
0.0
  0
ARC
  5
11B
  8
LAYER_02
 10
940.8228479802251
 20
-47.31566527558115
 30
0.0
 40
3.1
 50
89.99999816416579
 51
0.0
  0
LINE
  5
11C
  8
LAYER_02
 10
943.9228479802251
 20
-47.31566527558115
 30
0.0
 11
955.7228479802253
 21
-47.31566575299779
 31
0.0
  0
ARC
  5
11D
  8
LAYER_02
 10
958.8228479802253
 20
-47.31566585232608
 30
0.0
 40
3.1
 50
179.9999981641639
 51
89.99999816416579
  0
LINE
  5
11E
  8
LAYER_02
 10
958.8228480795535
 20
-44.21566585232608
 30
0.0
 11
958.8228495822943
 21
2.684334147673908
 31
0.0
  0
LINE
  5
11F
  8
LAYER_02
 10
958.8228495822943
 20
2.684334147673908
 30
0.0
 11
975.7228467626511
 21
2.684333464561073
 31
0.0
  0
ARC
  5
120
  8
LAYER_02
 10
978.8228467626511
 20
2.684333339256341
 30
0.0
 40
3.1
 50
179.9999976840541
 51
89.99999816416998
  0
LINE
  5
121
  8
LAYER_02
 10
978.8228468619791
 20
5.78433333925634
 30
0.0
 11
978.8228472400682
 21
17.58433333925633
 31
0.0
  0
ARC
  5
122
  8
LAYER_02
 10
978.8228473393962
 20
20.68433333925632
 30
0.0
 40
3.1
 50
269.9999981641616
 51
179.9999976840541
  0
LINE
  5
123
  8
LAYER_02
 10
975.7228473393961
 20
20.68433346456105
 30
0.0
 11
958.8228473393976
 21
20.68433414767392
 31
0.0
  0
LINE
  5
124
  8
LAYER_02
 10
958.8228473393976
 20
20.68433414767392
 30
0.0
 11
958.8228488421385
 21
67.58433414767407
 31
0.0
  0
ARC
  5
125
  8
LAYER_02
 10
958.8228489414666
 20
70.68433414767406
 30
0.0
 40
3.1
 50
269.9999981641657
 51
179.9999981641639
  0
LINE
  5
126
  8
LAYER_02
 10
955.7228489414666
 20
70.68433424700235
 30
0.0
 11
943.9228489414667
 21
70.6843346250907
 31
0.0
  0
ARC
  5
127
  8
LAYER_02
 10
940.8228489414666
 20
70.68433472441899
 30
0.0
 40
3.1
 50
359.999998164164
 51
269.9999981641532
  0
LINE
  5
128
  8
LAYER_02
 10
940.8228488421378
 20
67.584334724419
 30
0.0
 11
940.8228473393974
 21
20.68433472441885
 31
0.0
  0
LINE
  5
129
  8
LAYER_02
 10
940.8228473393974
 20
20.68433472441885
 30
0.0
 11
846.8366108413275
 21
20.68433773586808
 31
0.0
  0
LINE
  5
12A
  8
LAYER_02
 10
846.8366108413275
 20
20.68433773586808
 30
0.0
 11
846.8366123440685
 21
67.58433773586803
 31
0.0
  0
LINE
  5
12B
  8
LAYER_02
 10
983.7228468425951
 20
-156.9999999999997
 30
0.0
 11
971.9228468425952
 21
-157.0000000000001
 31
0.0
  0
ARC
  5
12C
  8
LAYER_02
 10
968.8228468425953
 20
-157.0000000000001
 30
0.0
 40
3.099999999999909
 50
0.0
 51
269.9999999999979
  0
LINE
  5
12D
  8
LAYER_02
 10
968.8228468425951
 20
-160.1
 30
0.0
 11
968.8228468425951
 21
-303.9000000000001
 31
0.0
  0
ARC
  5
12E
  8
LAYER_02
 10
968.8228468425951
 20
-307.0000000000001
 30
0.0
 40
3.1
 50
90.0
 51
0.0
  0
LINE
  5
12F
  8
LAYER_02
 10
971.9228468425952
 20
-307.0000000000001
 30
0.0
 11
983.7228468425951
 21
-307.0000000000001
 31
0.0
  0
ARC
  5
130
  8
LAYER_02
 10
986.8228468425951
 20
-307.0000000000001
 30
0.0
 40
3.1
 50
180.0
 51
90.0
  0
LINE
  5
131
  8
LAYER_02
 10
986.8228468425951
 20
-303.9000000000001
 30
0.0
 11
986.8228468425951
 21
-160.1000000000001
 31
0.0
  0
ARC
  5
132
  8
LAYER_02
 10
986.8228468425951
 20
-157.0
 30
0.0
 40
3.100000000000108
 50
270.0
 51
179.9999999999942
  0
ARC
  5
133
  8
LAYER_03
 10
1385.864436559157
 20
-353.9750000000004
 30
0.0
 40
3.100000000000364
 50
0.0000000000010506
 51
270.0000000000084
  0
LINE
  5
134
  8
LAYER_03
 10
1385.864436559157
 20
-357.0750000000008
 30
0.0
 11
1385.864436559157
 21
-450.8750000000002
 31
0.0
  0
ARC
  5
135
  8
LAYER_03
 10
1385.864436559157
 20
-453.9750000000003
 30
0.0
 40
3.1
 50
89.9999999999916
 51
0.0
  0
LINE
  5
136
  8
LAYER_03
 10
1388.964436559157
 20
-453.9750000000003
 30
0.0
 11
1403.864436559157
 21
-453.9750000000003
 31
0.0
  0
LINE
  5
137
  8
LAYER_03
 10
1403.864436559157
 20
-453.9750000000003
 30
0.0
 11
1403.864436559157
 21
-553.9750000000001
 31
0.0
  0
LINE
  5
138
  8
LAYER_03
 10
1403.864436559157
 20
-553.9750000000001
 30
0.0
 11
1373.864436559157
 21
-553.9750000000001
 31
0.0
  0
LINE
  5
139
  8
LAYER_03
 10
1373.864436559157
 20
-553.9750000000001
 30
0.0
 11
1373.864436559157
 21
-539.075008672476
 31
0.0
  0
ARC
  5
13A
  8
LAYER_03
 10
1373.864436559157
 20
-535.975008672476
 30
0.0
 40
3.100000000000023
 50
270.0
 51
180.0
  0
LINE
  5
13B
  8
LAYER_03
 10
1370.764436559157
 20
-535.975008672476
 30
0.0
 11
1346.964436559157
 21
-535.975008672476
 31
0.0
  0
ARC
  5
13C
  8
LAYER_03
 10
1343.864436559157
 20
-535.975008672476
 30
0.0
 40
3.100000000000009
 50
0.0
 51
270.0
  0
LINE
  5
13D
  8
LAYER_03
 10
1343.864436559157
 20
-539.075008672476
 30
0.0
 11
1343.864436559157
 21
-553.9750000000001
 31
0.0
  0
LINE
  5
13E
  8
LAYER_03
 10
1343.864436559157
 20
-553.9750000000001
 30
0.0
 11
1313.864436559157
 21
-553.9750000000001
 31
0.0
  0
LINE
  5
13F
  8
LAYER_03
 10
1313.864436559157
 20
-553.9750000000001
 30
0.0
 11
1313.864436559157
 21
-539.075008672476
 31
0.0
  0
ARC
  5
140
  8
LAYER_03
 10
1313.864436559157
 20
-535.975008672476
 30
0.0
 40
3.099999999999994
 50
270.0
 51
180.0
  0
LINE
  5
141
  8
LAYER_03
 10
1310.764436559157
 20
-535.975008672476
 30
0.0
 11
1286.964436559157
 21
-535.975008672476
 31
0.0
  0
ARC
  5
142
  8
LAYER_03
 10
1283.864436559157
 20
-535.975008672476
 30
0.0
 40
3.100000000000009
 50
0.0
 51
270.0
  0
LINE
  5
143
  8
LAYER_03
 10
1283.864436559157
 20
-539.075008672476
 30
0.0
 11
1283.864436559157
 21
-553.9750000000001
 31
0.0
  0
LINE
  5
144
  8
LAYER_03
 10
1283.864436559157
 20
-553.9750000000001
 30
0.0
 11
1253.864436559157
 21
-553.9750000000001
 31
0.0
  0
LINE
  5
145
  8
LAYER_03
 10
1253.864436559157
 20
-553.9750000000001
 30
0.0
 11
1253.864436559157
 21
-539.075008672476
 31
0.0
  0
ARC
  5
146
  8
LAYER_03
 10
1253.864436559157
 20
-535.975008672476
 30
0.0
 40
3.100000000000023
 50
270.0
 51
180.0
  0
LINE
  5
147
  8
LAYER_03
 10
1250.764436559157
 20
-535.975008672476
 30
0.0
 11
1226.964436559157
 21
-535.975008672476
 31
0.0
  0
ARC
  5
148
  8
LAYER_03
 10
1223.864436559157
 20
-535.975008672476
 30
0.0
 40
3.100000000000009
 50
0.0
 51
270.0
  0
LINE
  5
149
  8
LAYER_03
 10
1223.864436559157
 20
-539.075008672476
 30
0.0
 11
1223.864436559157
 21
-553.9750000000001
 31
0.0
  0
LINE
  5
14A
  8
LAYER_03
 10
1223.864436559157
 20
-553.9750000000001
 30
0.0
 11
1163.864436559157
 21
-553.9750000000001
 31
0.0
  0
LINE
  5
14B
  8
LAYER_03
 10
1163.864436559157
 20
-553.9750000000001
 30
0.0
 11
1163.864436559157
 21
-539.075008672476
 31
0.0
  0
ARC
  5
14C
  8
LAYER_03
 10
1163.864436559157
 20
-535.975008672476
 30
0.0
 40
3.100000000000023
 50
270.0
 51
180.0
  0
LINE
  5
14D
  8
LAYER_03
 10
1160.764436559157
 20
-535.975008672476
 30
0.0
 11
1103.864436559157
 21
-535.975008672476
 31
0.0
  0
LINE
  5
14E
  8
LAYER_03
 10
1103.864436559157
 20
-535.975008672476
 30
0.0
 11
1103.864436559157
 21
-503.9750000000001
 31
0.0
  0
LINE
  5
14F
  8
LAYER_03
 10
1103.864436559157
 20
-503.9750000000001
 30
0.0
 11
1303.864436559157
 21
-453.9750000000003
 31
0.0
  0
LINE
  5
150
  8
LAYER_03
 10
1303.864436559157
 20
-453.9750000000003
 30
0.0
 11
1303.864436559157
 21
246.0249999999997
 31
0.0
  0
LINE
  5
151
  8
LAYER_03
 10
1303.864436559157
 20
246.0249999999997
 30
0.0
 11
1103.864436559157
 21
296.0249999999997
 31
0.0
  0
LINE
  5
152
  8
LAYER_03
 10
1103.864436559157
 20
296.0249999999997
 30
0.0
 11
1103.864436559157
 21
328.024999731779
 31
0.0
  0
LINE
  5
153
  8
LAYER_03
 10
1103.864436559157
 20
328.024999731779
 30
0.0
 11
1160.764436559157
 21
328.024999731779
 31
0.0
  0
ARC
  5
154
  8
LAYER_03
 10
1163.864436559157
 20
328.024999731779
 30
0.0
 40
3.100000000000014
 50
180.0
 51
90.0
  0
LINE
  5
155
  8
LAYER_03
 10
1163.864436559157
 20
331.124999731779
 30
0.0
 11
1163.864436559157
 21
346.0249999999999
 31
0.0
  0
LINE
  5
156
  8
LAYER_03
 10
1163.864436559157
 20
346.0249999999999
 30
0.0
 11
1223.864436559157
 21
346.0249999999999
 31
0.0
  0
LINE
  5
157
  8
LAYER_03
 10
1223.864436559157
 20
346.0249999999999
 30
0.0
 11
1223.864436559157
 21
331.124999731779
 31
0.0
  0
ARC
  5
158
  8
LAYER_03
 10
1223.864436559157
 20
328.024999731779
 30
0.0
 40
3.100000000000009
 50
90.0
 51
0.0
  0
LINE
  5
159
  8
LAYER_03
 10
1226.964436559157
 20
328.024999731779
 30
0.0
 11
1250.764436559157
 21
328.024999731779
 31
0.0
  0
ARC
  5
15A
  8
LAYER_03
 10
1253.864436559157
 20
328.024999731779
 30
0.0
 40
3.100000000000016
 50
180.0
 51
90.0
  0
LINE
  5
15B
  8
LAYER_03
 10
1253.864436559157
 20
331.124999731779
 30
0.0
 11
1253.864436559157
 21
346.0249999999999
 31
0.0
  0
LINE
  5
15C
  8
LAYER_03
 10
1253.864436559157
 20
346.0249999999999
 30
0.0
 11
1283.864436559157
 21
346.0249999999999
 31
0.0
  0
LINE
  5
15D
  8
LAYER_03
 10
1283.864436559157
 20
346.0249999999999
 30
0.0
 11
1283.864436559157
 21
331.124999731779
 31
0.0
  0
ARC
  5
15E
  8
LAYER_03
 10
1283.864436559157
 20
328.024999731779
 30
0.0
 40
3.100000000000023
 50
90.0
 51
0.0
  0
LINE
  5
15F
  8
LAYER_03
 10
1286.964436559157
 20
328.024999731779
 30
0.0
 11
1310.764436559157
 21
328.024999731779
 31
0.0
  0
ARC
  5
160
  8
LAYER_03
 10
1313.864436559157
 20
328.024999731779
 30
0.0
 40
3.100000000000009
 50
180.0
 51
90.0
  0
LINE
  5
161
  8
LAYER_03
 10
1313.864436559157
 20
331.124999731779
 30
0.0
 11
1313.864436559157
 21
346.0249999999999
 31
0.0
  0
LINE
  5
162
  8
LAYER_03
 10
1313.864436559157
 20
346.0249999999999
 30
0.0
 11
1343.864440135436
 21
346.0249999999999
 31
0.0
  0
LINE
  5
163
  8
LAYER_03
 10
1343.864440135436
 20
346.0249999999999
 30
0.0
 11
1343.864440135436
 21
331.124999731779
 31
0.0
  0
ARC
  5
164
  8
LAYER_03
 10
1343.864440135436
 20
328.024999731779
 30
0.0
 40
3.100000000000023
 50
90.0
 51
0.0
  0
LINE
  5
165
  8
LAYER_03
 10
1346.964440135436
 20
328.024999731779
 30
0.0
 11
1370.764436559157
 21
328.024999731779
 31
0.0
  0
ARC
  5
166
  8
LAYER_03
 10
1373.864436559157
 20
328.024999731779
 30
0.0
 40
3.100000000000009
 50
180.0
 51
90.0
  0
LINE
  5
167
  8
LAYER_03
 10
1373.864436559157
 20
331.124999731779
 30
0.0
 11
1373.864436559157
 21
346.0249999999999
 31
0.0
  0
LINE
  5
168
  8
LAYER_03
 10
1373.864436559157
 20
346.0249999999999
 30
0.0
 11
1403.864436559157
 21
346.0249999999999
 31
0.0
  0
LINE
  5
169
  8
LAYER_03
 10
1403.864436559157
 20
346.0249999999999
 30
0.0
 11
1403.864436559157
 21
246.0249999999997
 31
0.0
  0
LINE
  5
16A
  8
LAYER_03
 10
1403.864436559157
 20
246.0249999999997
 30
0.0
 11
1388.964436559157
 21
246.0249999999997
 31
0.0
  0
ARC
  5
16B
  8
LAYER_03
 10
1385.864436559157
 20
246.0249999999997
 30
0.0
 40
3.1
 50
0.0
 51
269.9999999999957
  0
LINE
  5
16C
  8
LAYER_03
 10
1385.864436559157
 20
242.9249999999997
 30
0.0
 11
1385.864436559157
 21
149.1249999999997
 31
0.0
  0
ARC
  5
16D
  8
LAYER_03
 10
1385.864436559157
 20
146.0249999999997
 30
0.0
 40
3.1
 50
90.0
 51
0.0
  0
LINE
  5
16E
  8
LAYER_03
 10
1388.964436559157
 20
146.0249999999997
 30
0.0
 11
1403.864436559157
 21
146.0249999999997
 31
0.0
  0
LINE
  5
16F
  8
LAYER_03
 10
1403.864436559157
 20
146.0249999999997
 30
0.0
 11
1403.864436559157
 21
-3.97500000000025
 31
0.0
  0
LINE
  5
170
  8
LAYER_03
 10
1403.864436559157
 20
-3.97500000000025
 30
0.0
 11
1388.964436559157
 21
-3.97500000000025
 31
0.0
  0
ARC
  5
171
  8
LAYER_03
 10
1385.864436559157
 20
-3.97500000000025
 30
0.0
 40
3.1
 50
0.0
 51
269.9999999999916
  0
LINE
  5
172
  8
LAYER_03
 10
1385.864436559157
 20
-7.07500000000025
 30
0.0
 11
1385.864436559157
 21
-200.8750000000003
 31
0.0
  0
ARC
  5
173
  8
LAYER_03
 10
1385.864436559157
 20
-203.9750000000003
 30
0.0
 40
3.1
 50
90.0
 51
0.0
  0
LINE
  5
174
  8
LAYER_03
 10
1388.964436559157
 20
-203.9750000000003
 30
0.0
 11
1403.864436559157
 21
-203.9750000000003
 31
0.0
  0
LINE
  5
175
  8
LAYER_03
 10
1403.864436559157
 20
-203.9750000000003
 30
0.0
 11
1403.864436559157
 21
-353.9750000000003
 31
0.0
  0
LINE
  5
176
  8
LAYER_03
 10
1403.864436559157
 20
-353.9750000000003
 30
0.0
 11
1388.964436559157
 21
-353.9750000000004
 31
0.0
  0
LINE
  5
177
  8
LAYER_03
 10
1268.864436559157
 20
-373.9749999999892
 30
0.0
 11
1118.864436559157
 21
-373.9749999999892
 31
0.0
  0
LINE
  5
178
  8
LAYER_03
 10
1118.864436559157
 20
-373.9749999999892
 30
0.0
 11
1118.864436559157
 21
-114.9749999999893
 31
0.0
  0
LINE
  5
179
  8
LAYER_03
 10
1118.864436559157
 20
-114.9749999999893
 30
0.0
 11
1268.864436559157
 21
-114.9749999999893
 31
0.0
  0
LINE
  5
17A
  8
LAYER_03
 10
1268.864436559157
 20
-114.9749999999893
 30
0.0
 11
1268.864436559157
 21
-373.9749999999892
 31
0.0
  0
LINE
  5
17B
  8
LAYER_03
 10
859.7249900460243
 20
645.1249999999998
 30
0.0
 11
859.7249900460243
 21
660.0249999999997
 31
0.0
  0
LINE
  5
17C
  8
LAYER_03
 10
859.7249900460243
 20
660.0249999999997
 30
0.0
 11
959.7249900460243
 21
660.0249999999997
 31
0.0
  0
LINE
  5
17D
  8
LAYER_03
 10
959.7249900460243
 20
660.0249999999997
 30
0.0
 11
959.7249900460245
 21
645.1249999999999
 31
0.0
  0
ARC
  5
17E
  8
LAYER_03
 10
959.7249900460243
 20
642.0249999999999
 30
0.0
 40
3.1
 50
89.9999999999979
 51
0.0
  0
LINE
  5
17F
  8
LAYER_03
 10
962.8249900460244
 20
642.0249999999999
 30
0.0
 11
1026.624990046025
 21
642.0249999999997
 31
0.0
  0
ARC
  5
180
  8
LAYER_03
 10
1029.724990046024
 20
642.0249999999997
 30
0.0
 40
3.1
 50
180.0
 51
89.99999999999581
  0
LINE
  5
181
  8
LAYER_03
 10
1029.724990046024
 20
645.1249999999998
 30
0.0
 11
1029.724990046024
 21
660.0249999999997
 31
0.0
  0
LINE
  5
182
  8
LAYER_03
 10
1029.724990046024
 20
660.0249999999997
 30
0.0
 11
1091.725005424023
 21
660.0249999999997
 31
0.0
  0
LINE
  5
183
  8
LAYER_03
 10
1091.725005424023
 20
660.0249999999997
 30
0.0
 11
1091.725005424023
 21
633.1249999999998
 31
0.0
  0
ARC
  5
184
  8
LAYER_03
 10
1091.725005424023
 20
630.0249999999997
 30
0.0
 40
3.100000000000023
 50
90.0
 51
0.0
  0
LINE
  5
185
  8
LAYER_03
 10
1094.825005424023
 20
630.0249999999997
 30
0.0
 11
1109.724990046024
 21
630.0249999999997
 31
0.0
  0
LINE
  5
186
  8
LAYER_03
 10
1109.724990046024
 20
630.0249999999997
 30
0.0
 11
1109.724990046024
 21
600.0249999999997
 31
0.0
  0
LINE
  5
187
  8
LAYER_03
 10
1109.724990046024
 20
600.0249999999997
 30
0.0
 11
1094.825005424023
 21
600.0249999999997
 31
0.0
  0
ARC
  5
188
  8
LAYER_03
 10
1091.725005424023
 20
600.0249999999997
 30
0.0
 40
3.100000000000023
 50
0.0
 51
270.0
  0
LINE
  5
189
  8
LAYER_03
 10
1091.725005424023
 20
596.9249999999997
 30
0.0
 11
1091.725005424023
 21
573.1249999999998
 31
0.0
  0
ARC
  5
18A
  8
LAYER_03
 10
1091.725005424023
 20
570.0249999999997
 30
0.0
 40
3.100000000000023
 50
90.0
 51
0.0
  0
LINE
  5
18B
  8
LAYER_03
 10
1094.825005424023
 20
570.0249999999997
 30
0.0
 11
1109.724990046025
 21
570.0249999999997
 31
0.0
  0
LINE
  5
18C
  8
LAYER_03
 10
1109.724990046025
 20
570.0249999999997
 30
0.0
 11
1109.724990046025
 21
540.0249999999997
 31
0.0
  0
LINE
  5
18D
  8
LAYER_03
 10
1109.724990046025
 20
540.0249999999997
 30
0.0
 11
1094.825005424023
 21
540.0249999999997
 31
0.0
  0
ARC
  5
18E
  8
LAYER_03
 10
1091.725005424023
 20
540.0249999999997
 30
0.0
 40
3.100000000000023
 50
0.0
 51
270.0
  0
LINE
  5
18F
  8
LAYER_03
 10
1091.725005424023
 20
536.9249999999997
 30
0.0
 11
1091.725005424023
 21
513.1249999999998
 31
0.0
  0
ARC
  5
190
  8
LAYER_03
 10
1091.725005424023
 20
510.0249999999997
 30
0.0
 40
3.100000000000023
 50
90.0
 51
0.0
  0
LINE
  5
191
  8
LAYER_03
 10
1094.825005424023
 20
510.0249999999997
 30
0.0
 11
1109.724990046025
 21
510.0249999999997
 31
0.0
  0
LINE
  5
192
  8
LAYER_03
 10
1109.724990046025
 20
510.0249999999997
 30
0.0
 11
1109.724990046025
 21
480.0249999999997
 31
0.0
  0
LINE
  5
193
  8
LAYER_03
 10
1109.724990046025
 20
480.0249999999997
 30
0.0
 11
1094.825005424023
 21
480.0249999999997
 31
0.0
  0
ARC
  5
194
  8
LAYER_03
 10
1091.725005424023
 20
480.0249999999997
 30
0.0
 40
3.100000000000023
 50
0.0
 51
270.0
  0
LINE
  5
195
  8
LAYER_03
 10
1091.725005424023
 20
476.9249999999997
 30
0.0
 11
1091.725005424023
 21
423.1249999999997
 31
0.0
  0
ARC
  5
196
  8
LAYER_03
 10
1091.725005424023
 20
420.0249999999997
 30
0.0
 40
3.100000000000023
 50
90.0
 51
0.0
  0
LINE
  5
197
  8
LAYER_03
 10
1094.825005424023
 20
420.0249999999997
 30
0.0
 11
1109.724990046025
 21
420.0249999999997
 31
0.0
  0
LINE
  5
198
  8
LAYER_03
 10
1109.724990046025
 20
420.0249999999997
 30
0.0
 11
1109.724990046025
 21
360.0249999999997
 31
0.0
  0
LINE
  5
199
  8
LAYER_03
 10
1109.724990046025
 20
360.0249999999997
 30
0.0
 11
1059.724990046025
 21
360.0249999999997
 31
0.0
  0
LINE
  5
19A
  8
LAYER_03
 10
1059.724990046025
 20
360.0249999999997
 30
0.0
 11
1009.724990046024
 21
560.0249999999997
 31
0.0
  0
LINE
  5
19B
  8
LAYER_03
 10
1009.724990046024
 20
560.0249999999997
 30
0.0
 11
809.7249900460245
 21
560.0249999999999
 31
0.0
  0
LINE
  5
19C
  8
LAYER_03
 10
809.7249900460245
 20
560.0249999999999
 30
0.0
 11
759.7249900460245
 21
360.0249999999996
 31
0.0
  0
LINE
  5
19D
  8
LAYER_03
 10
759.7249900460245
 20
360.0249999999996
 30
0.0
 11
709.7249900460245
 21
360.0249999999996
 31
0.0
  0
LINE
  5
19E
  8
LAYER_03
 10
709.7249900460245
 20
360.0249999999996
 30
0.0
 11
709.7249900460245
 21
420.0249999999996
 31
0.0
  0
LINE
  5
19F
  8
LAYER_03
 10
709.7249900460245
 20
420.0249999999996
 30
0.0
 11
724.6250000000001
 21
420.0249999999996
 31
0.0
  0
ARC
  5
1A0
  8
LAYER_03
 10
727.7250000000001
 20
420.0249999999996
 30
0.0
 40
3.10000000000002
 50
180.0
 51
90.0
  0
LINE
  5
1A1
  8
LAYER_03
 10
727.7250000000001
 20
423.1249999999996
 30
0.0
 11
727.7250000000001
 21
476.9249999999997
 31
0.0
  0
ARC
  5
1A2
  8
LAYER_03
 10
727.7250000000001
 20
480.0249999999996
 30
0.0
 40
3.099999999999881
 50
270.0
 51
180.0
  0
LINE
  5
1A3
  8
LAYER_03
 10
724.6250000000002
 20
480.0249999999996
 30
0.0
 11
709.7249900460245
 21
480.0249999999996
 31
0.0
  0
LINE
  5
1A4
  8
LAYER_03
 10
709.7249900460245
 20
480.0249999999996
 30
0.0
 11
709.7249900460245
 21
510.0249999999999
 31
0.0
  0
LINE
  5
1A5
  8
LAYER_03
 10
709.7249900460245
 20
510.0249999999999
 30
0.0
 11
724.6250000000001
 21
510.0249999999999
 31
0.0
  0
ARC
  5
1A6
  8
LAYER_03
 10
727.7250000000001
 20
510.0249999999999
 30
0.0
 40
3.100000000000023
 50
180.0
 51
90.0
  0
LINE
  5
1A7
  8
LAYER_03
 10
727.7250000000001
 20
513.125
 30
0.0
 11
727.7250000000001
 21
536.9249999999998
 31
0.0
  0
ARC
  5
1A8
  8
LAYER_03
 10
727.7250000000001
 20
540.0249999999999
 30
0.0
 40
3.100000000000023
 50
270.0
 51
180.0
  0
LINE
  5
1A9
  8
LAYER_03
 10
724.6250000000001
 20
540.0249999999999
 30
0.0
 11
709.7249900460245
 21
540.0249999999999
 31
0.0
  0
LINE
  5
1AA
  8
LAYER_03
 10
709.7249900460245
 20
540.0249999999999
 30
0.0
 11
709.7249900460245
 21
570.0249999999999
 31
0.0
  0
LINE
  5
1AB
  8
LAYER_03
 10
709.7249900460245
 20
570.0249999999999
 30
0.0
 11
724.6250000000001
 21
570.0249999999999
 31
0.0
  0
ARC
  5
1AC
  8
LAYER_03
 10
727.7250000000001
 20
570.0249999999999
 30
0.0
 40
3.100000000000023
 50
180.0
 51
90.0
  0
LINE
  5
1AD
  8
LAYER_03
 10
727.7250000000001
 20
573.1249999999999
 30
0.0
 11
727.7249999999999
 21
596.9249999999998
 31
0.0
  0
ARC
  5
1AE
  8
LAYER_03
 10
727.7249999999999
 20
600.0249999999999
 30
0.0
 40
3.100000000000023
 50
270.0
 51
180.0
  0
LINE
  5
1AF
  8
LAYER_03
 10
724.6249999999999
 20
600.0249999999999
 30
0.0
 11
709.7249900460242
 21
600.0249999999999
 31
0.0
  0
LINE
  5
1B0
  8
LAYER_03
 10
709.7249900460242
 20
600.0249999999999
 30
0.0
 11
709.7249900460242
 21
630.0249999999999
 31
0.0
  0
LINE
  5
1B1
  8
LAYER_03
 10
709.7249900460242
 20
630.0249999999999
 30
0.0
 11
724.6249999999999
 21
630.0249999999999
 31
0.0
  0
ARC
  5
1B2
  8
LAYER_03
 10
727.7249999999999
 20
630.0249999999999
 30
0.0
 40
3.100000000000023
 50
180.0
 51
90.0
  0
LINE
  5
1B3
  8
LAYER_03
 10
727.7249999999999
 20
633.1249999999999
 30
0.0
 11
727.7249999999999
 21
660.0249999999999
 31
0.0
  0
LINE
  5
1B4
  8
LAYER_03
 10
727.7249999999999
 20
660.0249999999999
 30
0.0
 11
789.7249900460243
 21
660.0249999999999
 31
0.0
  0
LINE
  5
1B5
  8
LAYER_03
 10
789.7249900460243
 20
660.0249999999999
 30
0.0
 11
789.7249900460243
 21
645.1249999999997
 31
0.0
  0
ARC
  5
1B6
  8
LAYER_03
 10
789.7249900460243
 20
642.0249999999996
 30
0.0
 40
3.1
 50
90.0
 51
0.0
  0
LINE
  5
1B7
  8
LAYER_03
 10
792.8249900460244
 20
642.0249999999996
 30
0.0
 11
856.6249900460243
 21
642.0249999999999
 31
0.0
  0
ARC
  5
1B8
  8
LAYER_03
 10
859.7249900460242
 20
642.0249999999999
 30
0.0
 40
3.099999999999909
 50
180.0
 51
89.9999999999979
  0
LINE
  5
1BA
  8
LAYER_01
 10
3172.0
 20
-569.0
 30
0.0
 11
3172.0
 21
681.0
 31
0.0
  0
LINE
  5
1BB
  8
LAYER_01
 10
3172.0
 20
681.0
 30
0.0
 11
672.0
 21
681.0
 31
0.0
  0
LINE
  5
1BC
  8
LAYER_01
 10
672.0
 20
681.0
 30
0.0
 11
672.0
 21
-569.0
 31
0.0
  0
LINE
  5
1BD
  8
LAYER_01
 10
672.0
 20
-569.0
 30
0.0
 11
3172.0
 21
-569.0
 31
0.0
  0
ARC
  5
1BE
  8
LAYER_03
 10
711.8228468425953
 20
245.0000000000001
 30
0.0
 40
3.100000000000023
 50
180.0
 51
90.0
  0
LINE
  5
1BF
  8
LAYER_03
 10
711.8228468425953
 20
248.1000000000001
 30
0.0
 11
711.8228468425953
 21
327.0000000000001
 31
0.0
  0
LINE
  5
1C0
  8
LAYER_03
 10
711.8228468425953
 20
327.0000000000001
 30
0.0
 11
770.722846842595
 21
327.0000000000001
 31
0.0
  0
ARC
  5
1C1
  8
LAYER_03
 10
773.822846842595
 20
327.0000000000001
 30
0.0
 40
3.1
 50
180.0
 51
90.0
  0
LINE
  5
1C2
  8
LAYER_03
 10
773.822846842595
 20
330.1000000000001
 30
0.0
 11
773.822846842595
 21
345.0
 31
0.0
  0
LINE
  5
1C3
  8
LAYER_03
 10
773.822846842595
 20
345.0
 30
0.0
 11
843.8228468425953
 21
345.0
 31
0.0
  0
LINE
  5
1C4
  8
LAYER_03
 10
843.8228468425953
 20
345.0
 30
0.0
 11
843.8228468425955
 21
330.1000000000001
 31
0.0
  0
ARC
  5
1C5
  8
LAYER_03
 10
843.8228468425953
 20
327.0000000000001
 30
0.0
 40
3.1
 50
89.99999999999581
 51
0.0
  0
LINE
  5
1C6
  8
LAYER_03
 10
846.9228468425953
 20
327.0000000000001
 30
0.0
 11
940.7228468425952
 21
327.0000000000001
 31
0.0
  0
ARC
  5
1C7
  8
LAYER_03
 10
943.8228468425953
 20
327.0000000000001
 30
0.0
 40
3.1
 50
180.0
 51
90.0
  0
LINE
  5
1C8
  8
LAYER_03
 10
943.8228468425953
 20
330.1000000000001
 30
0.0
 11
943.8228468425953
 21
345.0
 31
0.0
  0
LINE
  5
1C9
  8
LAYER_03
 10
943.8228468425953
 20
345.0
 30
0.0
 11
1013.822846842595
 21
345.0
 31
0.0
  0
LINE
  5
1CA
  8
LAYER_03
 10
1013.822846842595
 20
345.0
 30
0.0
 11
1013.822846842595
 21
330.1000000000001
 31
0.0
  0
ARC
  5
1CB
  8
LAYER_03
 10
1013.822846842595
 20
327.0000000000001
 30
0.0
 40
3.1
 50
90.0
 51
0.0
  0
LINE
  5
1CC
  8
LAYER_03
 10
1016.922846842595
 20
327.0000000000001
 30
0.0
 11
1075.822846842595
 21
327.0000000000001
 31
0.0
  0
LINE
  5
1CD
  8
LAYER_03
 10
1075.822846842595
 20
327.0000000000001
 30
0.0
 11
1075.822846842595
 21
248.1
 31
0.0
  0
ARC
  5
1CE
  8
LAYER_03
 10
1075.822846842595
 20
245.0
 30
0.0
 40
3.1
 50
90.0
 51
0.0
  0
LINE
  5
1CF
  8
LAYER_03
 10
1078.922846842595
 20
245.0
 30
0.0
 11
1093.822846842595
 21
245.0
 31
0.0
  0
LINE
  5
1D0
  8
LAYER_03
 10
1093.822846842595
 20
245.0
 30
0.0
 11
1093.822846842595
 21
145.0
 31
0.0
  0
LINE
  5
1D1
  8
LAYER_03
 10
1093.822846842595
 20
145.0
 30
0.0
 11
1078.922846842595
 21
145.0
 31
0.0
  0
ARC
  5
1D2
  8
LAYER_03
 10
1075.822846842595
 20
145.0
 30
0.0
 40
3.1
 50
0.0
 51
270.0
  0
LINE
  5
1D3
  8
LAYER_03
 10
1075.822846842595
 20
141.9
 30
0.0
 11
1075.822846842595
 21
-1.899999999999929
 31
0.0
  0
ARC
  5
1D4
  8
LAYER_03
 10
1075.822846842595
 20
-4.999999999999929
 30
0.0
 40
3.1
 50
90.00000000000841
 51
359.9999999999998
  0
LINE
  5
1D5
  8
LAYER_03
 10
1078.922846842595
 20
-4.999999999999943
 30
0.0
 11
1093.822846842595
 21
-4.999999999999929
 31
0.0
  0
LINE
  5
1D6
  8
LAYER_03
 10
1093.822846842595
 20
-4.999999999999929
 30
0.0
 11
1093.822846842595
 21
-205.0
 31
0.0
  0
LINE
  5
1D7
  8
LAYER_03
 10
1093.822846842595
 20
-205.0
 30
0.0
 11
1078.922846842595
 21
-205.0
 31
0.0
  0
ARC
  5
1D8
  8
LAYER_03
 10
1075.822846842595
 20
-205.0
 30
0.0
 40
3.1
 50
0.0
 51
270.0
  0
LINE
  5
1D9
  8
LAYER_03
 10
1075.822846842595
 20
-208.1
 30
0.0
 11
1075.822846842595
 21
-351.9
 31
0.0
  0
ARC
  5
1DA
  8
LAYER_03
 10
1075.822846842595
 20
-355.0
 30
0.0
 40
3.1
 50
90.0
 51
0.0
  0
LINE
  5
1DB
  8
LAYER_03
 10
1078.922846842595
 20
-355.0
 30
0.0
 11
1093.822846842595
 21
-355.0
 31
0.0
  0
LINE
  5
1DC
  8
LAYER_03
 10
1093.822846842595
 20
-355.0
 30
0.0
 11
1093.822846842595
 21
-455.0
 31
0.0
  0
LINE
  5
1DD
  8
LAYER_03
 10
1093.822846842595
 20
-455.0
 30
0.0
 11
1078.922846842595
 21
-455.0
 31
0.0
  0
ARC
  5
1DE
  8
LAYER_03
 10
1075.822846842595
 20
-455.0
 30
0.0
 40
3.1
 50
0.0
 51
270.0
  0
LINE
  5
1DF
  8
LAYER_03
 10
1075.822846842595
 20
-458.1
 30
0.0
 11
1075.822846842595
 21
-537.0000000000001
 31
0.0
  0
LINE
  5
1E0
  8
LAYER_03
 10
1075.822846842595
 20
-537.0000000000001
 30
0.0
 11
1016.922846842595
 21
-537.0000000000001
 31
0.0
  0
ARC
  5
1E1
  8
LAYER_03
 10
1013.822846842595
 20
-537.0000000000001
 30
0.0
 40
3.1
 50
0.0
 51
270.0
  0
LINE
  5
1E2
  8
LAYER_03
 10
1013.822846842595
 20
-540.1000000000001
 30
0.0
 11
1013.822846842595
 21
-555.0
 31
0.0
  0
LINE
  5
1E3
  8
LAYER_03
 10
1013.822846842595
 20
-555.0
 30
0.0
 11
943.8228468425953
 21
-555.0
 31
0.0
  0
LINE
  5
1E4
  8
LAYER_03
 10
943.8228468425953
 20
-555.0
 30
0.0
 11
943.8228468425953
 21
-540.1000000000001
 31
0.0
  0
ARC
  5
1E5
  8
LAYER_03
 10
943.8228468425953
 20
-537.0000000000001
 30
0.0
 40
3.1
 50
270.0
 51
180.0
  0
LINE
  5
1E6
  8
LAYER_03
 10
940.7228468425963
 20
-537.0000000000001
 30
0.0
 11
846.9228468425953
 21
-537.0000000000001
 31
0.0
  0
ARC
  5
1E7
  8
LAYER_03
 10
843.8228468425953
 20
-537.0000000000001
 30
0.0
 40
3.1
 50
0.0
 51
269.9999999999957
  0
LINE
  5
1E8
  8
LAYER_03
 10
843.822846842595
 20
-540.1000000000001
 30
0.0
 11
843.8228468425953
 21
-555.0
 31
0.0
  0
LINE
  5
1E9
  8
LAYER_03
 10
843.8228468425953
 20
-555.0
 30
0.0
 11
773.822846842595
 21
-555.0
 31
0.0
  0
LINE
  5
1EA
  8
LAYER_03
 10
773.822846842595
 20
-555.0
 30
0.0
 11
773.822846842595
 21
-540.1000000000001
 31
0.0
  0
ARC
  5
1EB
  8
LAYER_03
 10
773.822846842595
 20
-537.0000000000001
 30
0.0
 40
3.1
 50
270.0
 51
179.9999999999979
  0
LINE
  5
1EC
  8
LAYER_03
 10
770.722846842595
 20
-537.0
 30
0.0
 11
711.8228468425953
 21
-537.0000000000001
 31
0.0
  0
LINE
  5
1ED
  8
LAYER_03
 10
711.8228468425953
 20
-537.0000000000001
 30
0.0
 11
711.8228468425953
 21
-458.1
 31
0.0
  0
ARC
  5
1EE
  8
LAYER_03
 10
711.8228468425953
 20
-455.0
 30
0.0
 40
3.1
 50
270.0
 51
180.0
  0
LINE
  5
1EF
  8
LAYER_03
 10
708.7228468425952
 20
-455.0
 30
0.0
 11
693.8228468425953
 21
-455.0
 31
0.0
  0
LINE
  5
1F0
  8
LAYER_03
 10
693.8228468425953
 20
-455.0
 30
0.0
 11
693.8228468425953
 21
-355.0
 31
0.0
  0
LINE
  5
1F1
  8
LAYER_03
 10
693.8228468425953
 20
-355.0
 30
0.0
 11
708.7228468425952
 21
-355.0
 31
0.0
  0
ARC
  5
1F2
  8
LAYER_03
 10
711.8228468425953
 20
-355.0
 30
0.0
 40
3.1
 50
180.0
 51
90.0
  0
LINE
  5
1F3
  8
LAYER_03
 10
711.8228468425953
 20
-351.9
 30
0.0
 11
711.8228468425953
 21
-208.1
 31
0.0
  0
ARC
  5
1F4
  8
LAYER_03
 10
711.8228468425953
 20
-205.0
 30
0.0
 40
3.1
 50
270.0
 51
180.0
  0
LINE
  5
1F5
  8
LAYER_03
 10
708.7228468425952
 20
-205.0
 30
0.0
 11
693.8228468425953
 21
-205.0
 31
0.0
  0
LINE
  5
1F6
  8
LAYER_03
 10
693.8228468425953
 20
-205.0
 30
0.0
 11
693.8228468425953
 21
-5.0
 31
0.0
  0
LINE
  5
1F7
  8
LAYER_03
 10
693.8228468425953
 20
-5.0
 30
0.0
 11
708.7228468425952
 21
-5.0
 31
0.0
  0
ARC
  5
1F8
  8
LAYER_03
 10
711.8228468425953
 20
-5.0
 30
0.0
 40
3.1
 50
180.0
 51
90.0
  0
LINE
  5
1F9
  8
LAYER_03
 10
711.8228468425953
 20
-1.9
 30
0.0
 11
711.8228468425953
 21
141.9000000000001
 31
0.0
  0
ARC
  5
1FA
  8
LAYER_03
 10
711.8228468425953
 20
145.0000000000001
 30
0.0
 40
3.1
 50
270.0
 51
180.0
  0
LINE
  5
1FB
  8
LAYER_03
 10
708.7228468425952
 20
145.0000000000001
 30
0.0
 11
693.8228468425953
 21
145.0
 31
0.0
  0
LINE
  5
1FC
  8
LAYER_03
 10
693.8228468425953
 20
145.0
 30
0.0
 11
693.8228468425953
 21
245.0
 31
0.0
  0
LINE
  5
1FD
  8
LAYER_03
 10
693.8228468425953
 20
245.0
 30
0.0
 11
708.7228468425952
 21
245.0000000000001
 31
0.0
  0
LINE
  5
1FE
  8
LAYER_02
 10
803.9228468425952
 20
-307.0000000000001
 30
0.0
 11
815.7228468425952
 21
-307.0000000000002
 31
0.0
  0
ARC
  5
1FF
  8
LAYER_02
 10
818.8228468425953
 20
-307.0000000000002
 30
0.0
 40
3.100000000000023
 50
179.9999999999989
 51
90.0
  0
LINE
  5
200
  8
LAYER_02
 10
818.8228468425953
 20
-303.9000000000002
 30
0.0
 11
818.8228468425953
 21
-160.1000000000001
 31
0.0
  0
ARC
  5
201
  8
LAYER_02
 10
818.8228468425953
 20
-157.0000000000001
 30
0.0
 40
3.1
 50
270.0
 51
180.0
  0
LINE
  5
202
  8
LAYER_02
 10
815.7228468425952
 20
-157.0000000000001
 30
0.0
 11
803.9228468425953
 21
-157.0000000000001
 31
0.0
  0
ARC
  5
203
  8
LAYER_02
 10
800.8228468425953
 20
-157.0000000000001
 30
0.0
 40
3.1
 50
0.0
 51
270.0000000000041
  0
LINE
  5
204
  8
LAYER_02
 10
800.8228468425953
 20
-160.1000000000002
 30
0.0
 11
800.8228468425953
 21
-303.9000000000001
 31
0.0
  0
ARC
  5
205
  8
LAYER_02
 10
800.8228468425953
 20
-307.0
 30
0.0
 40
3.099999999999909
 50
90.0
 51
359.9999999999979
  0
LINE
  5
206
  8
LAYER_02
 10
878.8228468425953
 20
-376.1000000000001
 30
0.0
 11
878.8228468425953
 21
-419.9000000000001
 31
0.0
  0
ARC
  5
207
  8
LAYER_02
 10
878.8228468425954
 20
-423.0
 30
0.0
 40
3.099999999999909
 50
90.0000000000021
 51
359.9999999999979
  0
LINE
  5
208
  8
LAYER_02
 10
881.9228468425953
 20
-423.0000000000001
 30
0.0
 11
905.7228468425952
 21
-423.0000000000001
 31
0.0
  0
ARC
  5
209
  8
LAYER_02
 10
908.8228468425953
 20
-423.0000000000001
 30
0.0
 40
3.1
 50
180.0
 51
90.0
  0
LINE
  5
20A
  8
LAYER_02
 10
908.8228468425953
 20
-419.9000000000001
 30
0.0
 11
908.8228468425953
 21
-376.1000000000001
 31
0.0
  0
ARC
  5
20B
  8
LAYER_02
 10
908.8228468425953
 20
-373.0000000000001
 30
0.0
 40
3.1
 50
270.0
 51
179.9999999999979
  0
LINE
  5
20C
  8
LAYER_02
 10
905.7228468425953
 20
-373.0000000000001
 30
0.0
 11
881.9228468425953
 21
-373.0000000000001
 31
0.0
  0
ARC
  5
20D
  8
LAYER_02
 10
878.8228468425953
 20
-373.0000000000001
 30
0.0
 40
3.100000000000023
 50
0.0
 51
270.0
  0
ARC
  5
20E
  8
LAYER_04
 10
843.8228468425953
 20
-440.1000000000002
 30
0.0
 40
3.100000000000023
 50
0.0000000000010506
 51
270.0
  0
LINE
  5
20F
  8
LAYER_04
 10
843.8228468425953
 20
-443.2000000000002
 30
0.0
 11
843.8228468425953
 21
-551.9
 31
0.0
  0
ARC
  5
210
  8
LAYER_04
 10
843.8228468425953
 20
-555.0
 30
0.0
 40
3.1
 50
90.0
 51
0.0
  0
LINE
  5
211
  8
LAYER_04
 10
846.9228468425953
 20
-555.0
 30
0.0
 11
940.7228468425952
 21
-555.0
 31
0.0
  0
ARC
  5
212
  8
LAYER_04
 10
943.8228468425953
 20
-555.0
 30
0.0
 40
3.1
 50
180.0
 51
90.0
  0
LINE
  5
213
  8
LAYER_04
 10
943.8228468425953
 20
-551.9
 30
0.0
 11
943.8228468425953
 21
-443.2000000000002
 31
0.0
  0
ARC
  5
214
  8
LAYER_04
 10
943.8228468425953
 20
-440.1000000000001
 30
0.0
 40
3.1
 50
270.0
 51
180.0
  0
LINE
  5
215
  8
LAYER_04
 10
940.7228468425952
 20
-440.1000000000001
 30
0.0
 11
846.9228468425953
 21
-440.1000000000001
 31
0.0
  0
LINE
  5
216
  8
LAYER_03
 10
1200.18010620965
 20
54.06041253821604
 30
0.0
 11
1200.180107843606
 21
-65.93958746178396
 31
0.0
  0
LINE
  5
217
  8
LAYER_03
 10
1200.180107843606
 20
-65.93958746178396
 30
0.0
 11
1150.180107843606
 21
-65.93958814259884
 31
0.0
  0
LINE
  5
218
  8
LAYER_03
 10
1150.180107843606
 20
-65.93958814259884
 30
0.0
 11
1150.180107889132
 21
-56.97499975490177
 31
0.0
  0
LINE
  5
219
  8
LAYER_03
 10
1150.180107889132
 20
-56.97499975490177
 30
0.0
 11
1150.18010620965
 21
54.06041185740116
 31
0.0
  0
LINE
  5
21A
  8
LAYER_03
 10
1150.18010620965
 20
54.06041185740116
 30
0.0
 11
1200.18010620965
 21
54.06041253821604
 31
0.0
  0
LINE
  5
21B
  8
LAYER_03
 10
1265.18010620965
 20
215.060412538216
 30
0.0
 11
1265.180107843606
 21
95.06041253821604
 31
0.0
  0
LINE
  5
21C
  8
LAYER_03
 10
1265.180107843606
 20
95.06041253821604
 30
0.0
 11
1215.180107843606
 21
95.06041185740116
 31
0.0
  0
LINE
  5
21D
  8
LAYER_03
 10
1215.180107843606
 20
95.06041185740116
 30
0.0
 11
1215.180107889132
 21
104.0250002450982
 31
0.0
  0
LINE
  5
21E
  8
LAYER_03
 10
1215.180107889132
 20
104.0250002450982
 30
0.0
 11
1215.18010620965
 21
215.0604118574012
 31
0.0
  0
LINE
  5
21F
  8
LAYER_03
 10
1215.18010620965
 20
215.0604118574012
 30
0.0
 11
1265.18010620965
 21
215.060412538216
 31
0.0
  0
LINE
  5
220
  8
LAYER_03
 10
1272.18010620965
 20
54.06041253821604
 30
0.0
 11
1272.180107843606
 21
-65.93958746178396
 31
0.0
  0
LINE
  5
221
  8
LAYER_03
 10
1272.180107843606
 20
-65.93958746178396
 30
0.0
 11
1222.180107843606
 21
-65.93958814259884
 31
0.0
  0
LINE
  5
222
  8
LAYER_03
 10
1222.180107843606
 20
-65.93958814259884
 30
0.0
 11
1222.180107889132
 21
-56.97499975490177
 31
0.0
  0
LINE
  5
223
  8
LAYER_03
 10
1222.180107889132
 20
-56.97499975490177
 30
0.0
 11
1222.18010620965
 21
54.06041185740116
 31
0.0
  0
LINE
  5
224
  8
LAYER_03
 10
1222.18010620965
 20
54.06041185740116
 30
0.0
 11
1272.18010620965
 21
54.06041253821604
 31
0.0
  0
LINE
  5
225
  8
LAYER_03
 10
1429.194053008905
 20
-162.9749999999899
 30
0.0
 11
1579.194053008905
 21
-162.9749999999899
 31
0.0
  0
LINE
  5
226
  8
LAYER_03
 10
1579.194053008905
 20
-162.9749999999899
 30
0.0
 11
1579.194053008905
 21
-421.9749999999899
 31
0.0
  0
LINE
  5
227
  8
LAYER_03
 10
1579.194053008905
 20
-421.9749999999899
 30
0.0
 11
1429.194053008905
 21
-421.9749999999899
 31
0.0
  0
LINE
  5
228
  8
LAYER_03
 10
1429.194053008905
 20
-421.9749999999899
 30
0.0
 11
1429.194053008905
 21
-162.9749999999899
 31
0.0
  0
ARC
  5
229
  8
LAYER_03
 10
1547.669461525892
 20
158.5108280181769
 30
0.0000002801213723
 40
39.99999999999987
 50
359.9999999999989
 51
90.0
  0
LINE
  5
22A
  8
LAYER_03
 10
1547.669461525892
 20
198.5108280181768
 30
0.0000002801213723
 11
1457.683225027817
 21
198.5108280181761
 31
-0.0000026031485741
  0
ARC
  5
22B
  8
LAYER_03
 10
1457.683225027816
 20
158.5108280181767
 30
-0.0000026031485741
 40
39.99999999999937
 50
89.9999999999987
 51
180.0
  0
LINE
  5
22C
  8
LAYER_03
 10
1417.683225027817
 20
158.5108280181767
 30
-0.0000026031485741
 11
1417.683225027819
 21
-51.52459144592217
 31
0.0000044217014679
  0
LINE
  5
22D
  8
LAYER_03
 10
1417.683225027819
 20
-51.52459144592217
 30
0.0000044217014679
 11
1417.683225027819
 21
-60.52459144592217
 31
0.0000044217014679
  0
LINE
  5
22E
  8
LAYER_03
 10
1417.683225027819
 20
-60.52459144592217
 30
0.0000044217014679
 11
1587.669461525888
 21
-60.52459144592501
 31
0.0000044217014679
  0
LINE
  5
22F
  8
LAYER_03
 10
1587.669461525888
 20
-60.52459144592501
 30
0.0000044217014679
 11
1587.669461525888
 21
-51.52459144592501
 31
0.0000044217014679
  0
LINE
  5
230
  8
LAYER_03
 10
1587.669461525888
 20
-51.52459144592501
 30
0.0000044217014679
 11
1587.669461525892
 21
158.5108280181761
 31
0.0000002801213723
  0
LINE
  5
231
  8
LAYER_03
 10
1193.18010620965
 20
215.060412538216
 30
0.0
 11
1193.180107843606
 21
95.06041253821604
 31
0.0
  0
LINE
  5
232
  8
LAYER_03
 10
1193.180107843606
 20
95.06041253821604
 30
0.0
 11
1143.180107843606
 21
95.06041185740116
 31
0.0
  0
LINE
  5
233
  8
LAYER_03
 10
1143.180107843606
 20
95.06041185740116
 30
0.0
 11
1143.180107889132
 21
104.0250002450982
 31
0.0
  0
LINE
  5
234
  8
LAYER_03
 10
1143.180107889132
 20
104.0250002450982
 30
0.0
 11
1143.18010620965
 21
215.0604118574012
 31
0.0
  0
LINE
  5
235
  8
LAYER_03
 10
1143.18010620965
 20
215.0604118574012
 30
0.0
 11
1193.18010620965
 21
215.060412538216
 31
0.0
  0
CIRCLE
  5
237
  8
LAYER_05
 10
1479.054343276846
 20
122.0974085540632
 30
-0.0000003440460297
 40
2.54
  0
CIRCLE
  5
238
  8
LAYER_05
 10
1526.29834327686
 20
74.85340855407708
 30
-0.000000344046023
 40
2.540000000000004
  0
CIRCLE
  5
239
  8
LAYER_05
 10
1526.298343276846
 20
122.0974085540771
 30
-0.0000003440460279
 40
2.540000000000027
  0
CIRCLE
  5
23A
  8
LAYER_05
 10
1479.054343276859
 20
74.85340855406321
 30
-0.0000003440460247
 40
2.539999999999979
  0
CIRCLE
  5
23C
  8
LAYER_06
 10
1502.676343276853
 20
98.4754085540701
 30
-0.0000003440460298
 40
20.31999999999999
  0
CIRCLE
  5
23D
  8
0
 10
1502.676343276853
 20
98.4754085540701
 30
-0.0000003440460298
 40
4.99998999999883
  0
CIRCLE
  5
23F
  8
LAYER_07
 10
1502.67634327685
 20
4.925408554072419
 30
0.0
 40
30.0
  0
ENDSEC
  0
EOF
