0
SECTION
2
HEADER
9
$INSUNITS
70
4
9
$ACADVER
1
AC1014
9
$HANDSEED
5
FFFF
0
ENDSEC
0
SECTION
2
TABLES
0
TABLE
2
VPORT
5
8
100
AcDbSymbolTable
0
ENDTAB
0
TABLE
2
LTYPE
5
5
100
AcDbSymbolTable
0
LTYPE
5
14
100
AcDbSymbolTableRecord
100
AcDbLinetypeTableRecord
2
BYBLOCK
70
0
0
LTYPE
5
15
100
AcDbSymbolTableRecord
100
AcDbLinetypeTableRecord
2
BYLAYER
70
0
0
ENDTAB
0
TABLE
2
LAYER
5
2
100
AcDbSymbolTable
70
2
0
LAYER
5
50
100
AcDbSymbolTableRecord
100
AcDbLayerTableRecord
2
0
70
0
6
CONTINUOUS
0
ENDTAB
0
TABLE
2
STYLE
5
3
100
AcDbSymbolTable
70
1
0
STYLE
5
11
100
AcDbSymbolTableRecord
100
AcDbTextStyleTableRecord
2
STANDARD
70
0
0
ENDTAB
0
TABLE
2
VIEW
5
6
100
AcDbSymbolTable
70
0
0
ENDTAB
0
TABLE
2
UCS
5
7
100
AcDbSymbolTable
70
0
0
ENDTAB
0
TABLE
2
APPID
5
9
100
AcDbSymbolTable
70
2
0
APPID
5
12
100
AcDbSymbolTableRecord
100
AcDbRegAppTableRecord
2
ACAD
70
0
0
ENDTAB
0
TABLE
2
DIMSTYLE
5
A
100
AcDbSymbolTable
70
1
0
ENDTAB
0
TABLE
2
BLOCK_RECORD
5
1
100
AcDbSymbolTable
70
1
0
BLOCK_RECORD
5
1F
100
AcDbSymbolTableRecord
100
AcDbBlockTableRecord
2
*MODEL_SPACE
0
BLOCK_RECORD
5
1B
100
AcDbSymbolTableRecord
100
AcDbBlockTableRecord
2
*PAPER_SPACE
0
ENDTAB
0
ENDSEC
0
SECTION
2
BLOCKS
0
BLOCK
5
20
100
AcDbEntity
100
AcDbBlockBegin
2
*MODEL_SPACE
0
ENDBLK
5
21
100
AcDbEntity
100
AcDbBlockEnd
0
BLOCK
5
1C
100
AcDbEntity
100
AcDbBlockBegin
2
*PAPER_SPACE
0
ENDBLK
5
1D
100
AcDbEntity
100
AcDbBlockEnd
0
ENDSEC
0
SECTION
2
ENTITIES
0
LINE
5
100
100
AcDbEntity
8
0
100
AcDbLine
10
9
20
9
30
0
11
50
21
9
31
0
0
LINE
5
101
100
AcDbEntity
8
0
100
AcDbLine
10
50
20
9
30
0
11
50
21
-4.5
31
0
0
LINE
5
102
100
AcDbEntity
8
0
100
AcDbLine
10
75.000000000000028
20
-218.06672908862569
30
1.3778603379632021e-14
11
75.000000000000014
21
-399.93327091137331
31
6.5429594049508432e-16
0
LINE
5
103
100
AcDbEntity
8
0
100
AcDbLine
10
54.5
20
-9
30
0
11
77.849976591765397
21
-9.0000000000000036
31
4.0195590821684457e-15
0
LINE
5
104
100
AcDbEntity
8
0
100
AcDbLine
10
124.66643547021768
20
-76.556172079419639
30
1.4432899320127035e-14
11
78.183541121547719
21
-200.51055700920614
31
1.4432899320127035e-14
0
ARC
5
105
100
AcDbEntity
8
0
100
AcDbCircle
10
77.849976591765326
20
-59.000000000000114
30
6.7257277046922489e-15
40
50.000000000000107
100
AcDbArc
50
-20.556045219583361
51
89.999999999999929
0
ARC
5
106
100
AcDbEntity
8
0
100
AcDbCircle
10
124.9999999999976
20
-218.06672908862504
30
4.156670499547924e-15
40
49.99999999999757
100
AcDbArc
50
159.44395478041633
51
180
0
ARC
5
107
100
AcDbEntity
8
0
100
AcDbCircle
10
125.00000000001293
20
-399.93327091137218
30
1.027622882058241e-14
40
50.000000000012925
100
AcDbArc
50
180
51
200.55604521957949
0
LINE
5
108
100
AcDbEntity
8
0
100
AcDbLine
10
-50
20
9
30
0
11
-50
21
-4.4999999999999982
31
0
0
LINE
5
109
100
AcDbEntity
8
0
100
AcDbLine
10
-54.5
20
-9
30
0
11
-77.849976591765397
21
-9.0000000000000018
31
4.0195590821684457e-15
0
ARC
5
110
100
AcDbEntity
8
0
100
AcDbCircle
10
-77.849976591765326
20
-59.000000000000114
30
6.7257277046922489e-15
40
50.000000000000107
100
AcDbArc
50
90.000000000000099
51
200.55604521958332
0
LINE
5
111
100
AcDbEntity
8
0
100
AcDbLine
10
-124.66643547021768
20
-76.556172079419639
30
1.4432899320127035e-14
11
-78.183541121547719
21
-200.51055700920614
31
1.4432899320127035e-14
0
ARC
5
112
100
AcDbEntity
8
0
100
AcDbCircle
10
-124.9999999999976
20
-218.06672908862504
30
4.156670499547924e-15
40
49.99999999999757
100
AcDbArc
50
0
51
20.556045219583677
0
LINE
5
113
100
AcDbEntity
8
0
100
AcDbLine
10
-75.000000000000028
20
-218.06672908862569
30
1.3778603379632021e-14
11
-75.000000000000014
21
-399.93327091137331
31
6.5429594049508432e-16
0
ARC
5
114
100
AcDbEntity
8
0
100
AcDbCircle
10
-125.00000000001293
20
-399.93327091137218
30
1.027622882058241e-14
40
50.000000000012925
100
AcDbArc
50
339.44395478042054
51
360
0
LINE
5
115
100
AcDbEntity
8
0
100
AcDbLine
10
-9
20
9
30
0
11
-50
21
9
31
0
0
LINE
5
116
100
AcDbEntity
8
0
100
AcDbLine
10
0
20
-609
30
0
11
-135.56999531835305
21
-608.99999999999989
31
8.210733189403225e-47
0
LINE
5
117
100
AcDbEntity
8
0
100
AcDbLine
10
9
20
9
30
0
11
9
21
-295.5
31
0
0
LINE
5
118
100
AcDbEntity
8
0
100
AcDbLine
10
-9
20
9
30
0
11
-9
21
-295.50000000000006
31
0
0
LINE
5
119
100
AcDbEntity
8
0
100
AcDbLine
10
1025
20
-218.06672908862569
30
1.3778603379632021e-14
11
1025
21
-399.93327091137331
31
6.5429594049508432e-16
0
LINE
5
120
100
AcDbEntity
8
0
100
AcDbLine
10
1091
20
-608.99999999999989
30
5.4508077935018764e-48
11
964.43000468164701
21
-608.99999999999989
31
8.210733189403225e-47
0
LINE
5
121
100
AcDbEntity
8
0
100
AcDbLine
10
1175
20
-218.06672908862569
30
1.3778603379632021e-14
11
1175
21
-399.93327091137331
31
6.5429594049508432e-16
0
LINE
5
122
100
AcDbEntity
8
0
100
AcDbLine
10
1154.5
20
-9
30
0
11
1177.8499765917654
21
-9.0000000000000036
31
4.0195590821684457e-15
0
ARC
5
123
100
AcDbEntity
8
0
100
AcDbCircle
10
1022.1500234082348
20
-59.000000000000114
30
6.7257277046922489e-15
40
50.000000000000107
100
AcDbArc
50
90.00000000000027
51
200.55604521958332
0
ARC
5
124
100
AcDbEntity
8
0
100
AcDbCircle
10
975.00000000000239
20
-218.06672908862504
30
4.156670499547924e-15
40
49.999999999997584
100
AcDbArc
50
0
51
20.556045219583659
0
LINE
5
125
100
AcDbEntity
8
0
100
AcDbLine
10
1045.5
20
-9
30
0
11
1022.1500234082346
21
-9.0000000000000036
31
4.0195590821684457e-15
0
ARC
5
126
100
AcDbEntity
8
0
100
AcDbCircle
10
1224.9999999999975
20
-218.06672908862504
30
4.156670499547924e-15
40
49.999999999997613
100
AcDbArc
50
159.44395478041628
51
180
0
LINE
5
127
100
AcDbEntity
8
0
100
AcDbLine
10
1091
20
9
30
0
11
1050
21
9
31
0
0
LINE
5
128
100
AcDbEntity
8
0
100
AcDbLine
10
1150
20
9
30
0
11
1150
21
-4.4999999999999716
31
0
0
LINE
5
129
100
AcDbEntity
8
0
100
AcDbLine
10
1109
20
9
30
0
11
1150
21
9
31
0
0
LINE
5
130
100
AcDbEntity
8
0
100
AcDbLine
10
975.33356452978239
20
-76.556172079419639
30
1.4432899320127035e-14
11
1021.8164588784523
21
-200.51055700920614
31
1.4432899320127035e-14
0
ARC
5
131
100
AcDbEntity
8
0
100
AcDbCircle
10
1177.8499765917652
20
-59.000000000000114
30
6.7257277046922489e-15
40
50.000000000000107
100
AcDbArc
50
-20.556045219583361
51
89.999999999999744
0
LINE
5
132
100
AcDbEntity
8
0
100
AcDbLine
10
1224.6664354702175
20
-76.556172079419639
30
1.4432899320127035e-14
11
1178.1835411215477
21
-200.51055700920614
31
1.4432899320127035e-14
0
LINE
5
133
100
AcDbEntity
8
0
100
AcDbLine
10
1050
20
9
30
0
11
1050
21
-4.5000000000000471
31
0
0
ARC
5
134
100
AcDbEntity
8
0
100
AcDbCircle
10
1225.000000000013
20
-399.93327091137218
30
1.027622882058241e-14
40
50.000000000012932
100
AcDbArc
50
180
51
200.55604521957952
0
ARC
5
135
100
AcDbEntity
8
0
100
AcDbCircle
10
974.99999999998704
20
-399.93327091137218
30
1.027622882058241e-14
40
50.000000000012946
100
AcDbArc
50
339.44395478042054
51
360
0
LINE
5
136
100
AcDbEntity
8
0
100
AcDbLine
10
1050
20
9
30
0
11
1050
21
-4.5000000000000471
31
0
0
LINE
5
137
100
AcDbEntity
8
0
100
AcDbLine
10
1100
20
9
30
0
11
1109
21
9
31
0
0
LINE
5
138
100
AcDbEntity
8
0
100
AcDbLine
10
1091
20
9
30
0
11
1100
21
9
31
0
0
LINE
5
139
100
AcDbEntity
8
0
100
AcDbLine
10
1091
20
-608.99999999999989
30
5.4508077935018764e-48
11
1091
21
-304.49999999999977
31
5.4508077935018764e-48
0
LINE
5
140
100
AcDbEntity
8
0
100
AcDbLine
10
1109
20
-608.99999999999989
30
5.4508077935018764e-48
11
1109
21
-304.49999999999989
31
5.4508077935018764e-48
0
LINE
5
141
100
AcDbEntity
8
0
100
AcDbLine
10
0
20
-609
30
0
11
-186.14694534611203
21
-609
31
2.1895288505075267e-46
0
LINE
5
142
100
AcDbEntity
8
0
100
AcDbLine
10
-78.183541121547393
20
-417.48944299079307
30
2.4651903288156619e-30
11
-205.24295253963226
21
-567.86486723745236
31
5.2950569955214313e-31
0
ARC
5
143
100
AcDbEntity
8
0
100
AcDbCircle
10
-186.14694534611161
20
-583.99999999999966
30
3.2180867301968042e-31
40
25.000000000000373
100
AcDbArc
50
139.80392893744906
51
269.99999999999903
0
LINE
5
144
100
AcDbEntity
8
0
100
AcDbLine
10
0
20
-609
30
0
11
186.14694534611203
21
-609
31
2.1895288505075267e-46
0
ARC
5
145
100
AcDbEntity
8
0
100
AcDbCircle
10
186.14694534611161
20
-583.99999999999966
30
3.2180867301968042e-31
40
25.000000000000355
100
AcDbArc
50
-89.999999999999019
51
40.196071062550928
0
LINE
5
146
100
AcDbEntity
8
0
100
AcDbLine
10
78.183541121547393
20
-417.48944299079307
30
2.4651903288156619e-30
11
205.24295253963226
21
-567.86486723745236
31
5.2950569955214313e-31
0
LINE
5
147
100
AcDbEntity
8
0
100
AcDbLine
10
1091
20
-608.99999999999989
30
5.4508077935018764e-48
11
906.79821435690201
21
-608.99999999999989
31
1.6147775272493009e-45
0
LINE
5
148
100
AcDbEntity
8
0
100
AcDbLine
10
888.14130013277327
20
-567.359100035349
30
5.3601611043877187e-31
11
1021.8164588784526
21
-417.48944299079307
31
2.4651903288156619e-30
0
ARC
5
149
100
AcDbEntity
8
0
100
AcDbCircle
10
906.79821435690246
20
-583.99999999999955
30
3.2180867301968195e-31
40
25.000000000000369
100
AcDbArc
50
138.26886401627797
51
269.99999999999898
0
LINE
5
150
100
AcDbEntity
8
0
100
AcDbLine
10
1311.8586998672267
20
-567.359100035349
30
5.3601611043877187e-31
11
1178.1835411215475
21
-417.48944299079307
31
2.4651903288156619e-30
0
ARC
5
151
100
AcDbEntity
8
0
100
AcDbCircle
10
1293.2017856430975
20
-583.99999999999955
30
3.2180867301968195e-31
40
25.000000000000355
100
AcDbArc
50
-89.999999999998991
51
41.731135983722027
0
LINE
5
152
100
AcDbEntity
8
0
100
AcDbLine
10
1109
20
-608.99999999999989
30
5.4508077935018764e-48
11
1293.201785643098
21
-608.99999999999989
31
1.6147775272493009e-45
0
ARC
5
153
100
AcDbEntity
8
0
100
AcDbCircle
10
-50
20
-9
30
0
40
4.5000000000000018
100
AcDbArc
50
-180
51
90
0
ARC
5
154
100
AcDbEntity
8
0
100
AcDbCircle
10
50
20
-9
30
0
40
4.5000000000000009
100
AcDbArc
50
-270
51
0
0
ARC
5
155
100
AcDbEntity
8
0
100
AcDbCircle
10
1150
20
-9
30
0
40
4.5000000000000284
100
AcDbArc
50
-270
51
0
0
ARC
5
156
100
AcDbEntity
8
0
100
AcDbCircle
10
1050
20
-9
30
0
40
4.4999999999998863
100
AcDbArc
50
-180
51
90
0
LINE
5
157
100
AcDbEntity
8
0
100
AcDbLine
10
1104.5
20
-299.99999999999989
30
5.4508077935018764e-48
11
1095.5
21
-299.99999999999989
31
5.4508077935018764e-48
0
ARC
5
158
100
AcDbEntity
8
0
100
AcDbCircle
10
1109
20
-299.99999999999989
30
5.4508077935018764e-48
40
4.4999999999999929
100
AcDbArc
50
-90
51
180
0
ARC
5
159
100
AcDbEntity
8
0
100
AcDbCircle
10
1091
20
-299.99999999999977
30
5.4508077935018764e-48
40
4.5000000000000284
100
AcDbArc
50
0
51
270
0
LINE
5
160
100
AcDbEntity
8
0
100
AcDbLine
10
-4.5000000000000071
20
-300.00000000000006
30
0
11
4.5000000000000071
21
-300
31
0
0
ARC
5
161
100
AcDbEntity
8
0
100
AcDbCircle
10
-9
20
-300.00000000000006
30
0
40
4.4999999999999929
100
AcDbArc
50
-270
51
0
0
ARC
5
162
100
AcDbEntity
8
0
100
AcDbCircle
10
9
20
-300
30
0
40
4.4999999999999929
100
AcDbArc
50
-180
51
90
0
ENDSEC
0
SECTION
2
OBJECTS
0
DICTIONARY
5
C
100
AcDbDictionary
3
ACAD_GROUP
350
D
3
ACAD_MLINESTYLE
350
17
0
DICTIONARY
5
D
100
AcDbDictionary
0
DICTIONARY
5
1A
330
C
100
AcDbDictionary
0
DICTIONARY
5
17
100
AcDbDictionary
0
ENDSEC
0
EOF
