  0
SECTION
  2
HEADER
  9
$ACADVER
  1
AC1014
  9
$HANDSEED
  5
FFFF
  9
$MEASUREMENT
 70
     1
  0
ENDSEC
  0
SECTION
  2
TABLES
  0
TABLE
  2
VPORT
  5
8
330
0
100
AcDbSymbolTable
 70
     4
  0
VPORT
  5
2E
330
8
100
AcDbSymbolTableRecord
100
AcDbViewportTableRecord
  2
*ACTIVE
 70
     0
 10
0.0
 20
0.0
 11
1.0
 21
1.0
 12
210.0
 22
148.5
 13
0.0
 23
0.0
 14
10.0
 24
10.0
 15
10.0
 25
10.0
 16
0.0
 26
0.0
 36
1.0
 17
0.0
 27
0.0
 37
0.0
 40
341.0
 41
1.24
 42
50.0
 43
0.0
 44
0.0
 50
0.0
 51
0.0
 71
     0
 72
   100
 73
     1
 74
     3
 75
     0
 76
     0
 77
     0
 78
     0
  0
ENDTAB
  0
TABLE
  2
LTYPE
  5
5
330
0
100
AcDbSymbolTable
 70
     1
  0
LTYPE
  5
14
330
5
100
AcDbSymbolTableRecord
100
AcDbLinetypeTableRecord
  2
BYBLOCK
 70
     0
  3

 72
    65
 73
     0
 40
0.0
  0
LTYPE
  5
15
330
5
100
AcDbSymbolTableRecord
100
AcDbLinetypeTableRecord
  2
BYLAYER
 70
     0
  3

 72
    65
 73
     0
 40
0.0
  0
LTYPE
  5
16
330
5
100
AcDbSymbolTableRecord
100
AcDbLinetypeTableRecord
  2
CONTINUOUS
 70
     0
  3
Solid line
 72
    65
 73
     0
 40
0.0
  0
ENDTAB
  0
TABLE
  2
LAYER
  5
2
100
AcDbSymbolTable
 70
2
  0
LAYER
  5
50
100
AcDbSymbolTableRecord
100
AcDbLayerTableRecord
  2
0
 70
0
  6
CONTINUOUS
  0
LAYER
  5
51
100
AcDbSymbolTableRecord
100
AcDbLayerTableRecord
  2
Layer_1
 70
0
  6
CONTINUOUS
  0
ENDTAB
  0
TABLE
  2
STYLE
  5
3
330
0
100
AcDbSymbolTable
 70
     1
  0
STYLE
  5
11
330
3
100
AcDbSymbolTableRecord
100
AcDbTextStyleTableRecord
  2
STANDARD
 70
     0
 40
0.0
 41
1.0
 50
0.0
 71
     0
 42
2.5
  3
txt
  4

  0
ENDTAB
  0
TABLE
  2
VIEW
  5
6
330
0
100
AcDbSymbolTable
 70
     0
  0
ENDTAB
  0
TABLE
  2
UCS
  5
7
330
0
100
AcDbSymbolTable
 70
     0
  0
ENDTAB
  0
TABLE
  2
APPID
  5
9
330
0
100
AcDbSymbolTable
 70
     2
  0
APPID
  5
12
330
9
100
AcDbSymbolTableRecord
100
AcDbRegAppTableRecord
  2
ACAD
 70
     0
  0
ENDTAB
  0
TABLE
  2
DIMSTYLE
  5
A
330
0
100
AcDbSymbolTable
 70
     1
  0
DIMSTYLE
105
27
330
A
100
AcDbSymbolTableRecord
100
AcDbDimStyleTableRecord
  2
ISO-25
 70
     0
  3

  4

  5

  6

  7

 40
1.0
 41
2.5
 42
0.625
 43
3.75
 44
1.25
 45
0.0
 46
0.0
 47
0.0
 48
0.0
140
2.5
141
2.5
142
0.0
143
0.03937007874016
144
1.0
145
0.0
146
1.0
147
0.625
 71
     0
 72
     0
 73
     0
 74
     0
 75
     0
 76
     0
 77
     1
 78
     8
170
     0
171
     3
172
     1
173
     0
174
     0
175
     0
176
     0
177
     0
178
     0
270
     2
271
     2
272
     2
273
     2
274
     3
340
11
275
     0
280
     0
281
     0
282
     0
283
     0
284
     8
285
     0
286
     0
287
     3
288
     0
  0
ENDTAB
  0
TABLE
  2
BLOCK_RECORD
  5
1
330
0
100
AcDbSymbolTable
 70
     1
  0
BLOCK_RECORD
  5
1F
330
1
100
AcDbSymbolTableRecord
100
AcDbBlockTableRecord
  2
*MODEL_SPACE
  0
BLOCK_RECORD
  5
1B
330
1
100
AcDbSymbolTableRecord
100
AcDbBlockTableRecord
  2
*PAPER_SPACE
  0
ENDTAB
  0
ENDSEC
  0
SECTION
  2
BLOCKS
  0
BLOCK
  5
20
330
1F
100
AcDbEntity
  8
0
100
AcDbBlockBegin
  2
*MODEL_SPACE
 70
     0
 10
0.0
 20
0.0
 30
0.0
  3
*MODEL_SPACE
  1

  0
ENDBLK
  5
21
330
1F
100
AcDbEntity
  8
0
100
AcDbBlockEnd
  0
BLOCK
  5
1C
330
1B
100
AcDbEntity
 67
     1
  8
0
100
AcDbBlockBegin
  2
*PAPER_SPACE
  1

  0
ENDBLK
  5
1D
330
1B
100
AcDbEntity
 67
     1
  8
0
100
AcDbBlockEnd
  0
ENDSEC
  0
SECTION
  2
ENTITIES
  0
LWPOLYLINE
  5
100
100
AcDbEntity
  8
Layer_1
 62
1
100
AcDbPolyline
 90
5
 70
1
 10
60.457135
 20
719.999948
 30
0.0
 10
209.028560
 20
719.999948
 30
0.0
 10
209.028560
 20
596.571372
 30
0.0
 10
60.457135
 20
596.571372
 30
0.0
 10
60.457135
 20
719.999948
 30
0.0
  0
SPLINE
  5
101
100
AcDbEntity
  8
Layer_1
 62
7
100
AcDbSpline
 70
8
 71
3
 72
8
 73
4
 74
0
 40
0
 40
0
 40
0
 40
0
 40
1
 40
1
 40
1
 40
1
 10
263.524778
 20
685.840395
 30
0.0
 10
262.326858
 20
686.413312
 30
0.0
 10
261.196650
 20
686.840395
 30
0.0
 10
260.134154
 20
687.121643
 30
0.0
  0
SPLINE
  5
102
100
AcDbEntity
  8
Layer_1
 62
7
100
AcDbSpline
 70
8
 71
3
 72
8
 73
4
 74
0
 40
0
 40
0
 40
0
 40
0
 40
1
 40
1
 40
1
 40
1
 10
260.134154
 20
687.121643
 30
0.0
 10
259.071653
 20
687.402896
 30
0.0
 10
258.045610
 20
687.543523
 30
0.0
 10
257.056026
 20
687.543523
 30
0.0
  0
SPLINE
  5
103
100
AcDbEntity
  8
Layer_1
 62
7
100
AcDbSpline
 70
8
 71
3
 72
8
 73
4
 74
0
 40
0
 40
0
 40
0
 40
0
 40
1
 40
1
 40
1
 40
1
 10
257.056026
 20
687.543523
 30
0.0
 10
255.337274
 20
687.543523
 30
0.0
 10
254.009149
 20
687.210190
 30
0.0
 10
253.071650
 20
686.543523
 30
0.0
  0
SPLINE
  5
104
100
AcDbEntity
  8
Layer_1
 62
7
100
AcDbSpline
 70
8
 71
3
 72
8
 73
4
 74
0
 40
0
 40
0
 40
0
 40
0
 40
1
 40
1
 40
1
 40
1
 10
253.071650
 20
686.543523
 30
0.0
 10
252.144568
 20
685.876856
 30
0.0
 10
251.681026
 20
684.928939
 30
0.0
 10
251.681026
 20
683.699771
 30
0.0
  0
SPLINE
  5
105
100
AcDbEntity
  8
Layer_1
 62
7
100
AcDbSpline
 70
8
 71
3
 72
8
 73
4
 74
0
 40
0
 40
0
 40
0
 40
0
 40
1
 40
1
 40
1
 40
1
 10
251.681026
 20
683.699771
 30
0.0
 10
251.681026
 20
682.668523
 30
0.0
 10
251.988317
 20
681.887272
 30
0.0
 10
252.602898
 20
681.356019
 30
0.0
  0
SPLINE
  5
106
100
AcDbEntity
  8
Layer_1
 62
7
100
AcDbSpline
 70
8
 71
3
 72
8
 73
4
 74
0
 40
0
 40
0
 40
0
 40
0
 40
1
 40
1
 40
1
 40
1
 10
252.602898
 20
681.356019
 30
0.0
 10
253.227901
 20
680.835187
 30
0.0
 10
254.404986
 20
680.413312
 30
0.0
 10
256.134154
 20
680.090395
 30
0.0
  0
LWPOLYLINE
  5
107
100
AcDbEntity
  8
Layer_1
 62
7
100
AcDbPolyline
 90
2
 70
1
 10
263.524778
 20
688.918523
 30
0.0
 10
263.524778
 20
685.840395
 30
0.0
  0
SPLINE
  5
108
100
AcDbEntity
  8
Layer_1
 62
7
100
AcDbSpline
 70
8
 71
3
 72
8
 73
4
 74
0
 40
0
 40
0
 40
0
 40
0
 40
1
 40
1
 40
1
 40
1
 10
258.040402
 20
679.699771
 30
0.0
 10
260.394568
 20
679.251856
 30
0.0
 10
262.128944
 20
678.460190
 30
0.0
 10
263.243530
 20
677.324771
 30
0.0
  0
SPLINE
  5
109
100
AcDbEntity
  8
Layer_1
 62
7
100
AcDbSpline
 70
8
 71
3
 72
8
 73
4
 74
0
 40
0
 40
0
 40
0
 40
0
 40
1
 40
1
 40
1
 40
1
 10
263.243530
 20
677.324771
 30
0.0
 10
264.368528
 20
676.199768
 30
0.0
 10
264.931026
 20
674.689352
 30
0.0
 10
264.931026
 20
672.793523
 30
0.0
  0
SPLINE
  5
10a
100
AcDbEntity
  8
Layer_1
 62
7
100
AcDbSpline
 70
8
 71
3
 72
8
 73
4
 74
0
 40
0
 40
0
 40
0
 40
0
 40
1
 40
1
 40
1
 40
1
 10
264.931026
 20
672.793523
 30
0.0
 10
264.931026
 20
670.533107
 30
0.0
 10
264.170610
 20
668.819566
 30
0.0
 10
262.649778
 20
667.652899
 30
0.0
  0
SPLINE
  5
10b
100
AcDbEntity
  8
Layer_1
 62
7
100
AcDbSpline
 70
8
 71
3
 72
8
 73
4
 74
0
 40
0
 40
0
 40
0
 40
0
 40
1
 40
1
 40
1
 40
1
 10
262.649778
 20
667.652899
 30
0.0
 10
261.139362
 20
666.486232
 30
0.0
 10
258.920613
 20
665.902899
 30
0.0
 10
255.993530
 20
665.902899
 30
0.0
  0
SPLINE
  5
10c
100
AcDbEntity
  8
Layer_1
 62
7
100
AcDbSpline
 70
8
 71
3
 72
8
 73
4
 74
0
 40
0
 40
0
 40
0
 40
0
 40
1
 40
1
 40
1
 40
1
 10
255.993530
 20
665.902899
 30
0.0
 10
254.889360
 20
665.902899
 30
0.0
 10
253.712274
 20
666.027899
 30
0.0
 10
252.462274
 20
666.277899
 30
0.0
  0
SPLINE
  5
10d
100
AcDbEntity
  8
Layer_1
 62
7
100
AcDbSpline
 70
8
 71
3
 72
8
 73
4
 74
0
 40
0
 40
0
 40
0
 40
0
 40
1
 40
1
 40
1
 40
1
 10
252.462274
 20
666.277899
 30
0.0
 10
251.222690
 20
666.527899
 30
0.0
 10
249.936232
 20
666.897688
 30
0.0
 10
248.602898
 20
667.387267
 30
0.0
  0
LWPOLYLINE
  5
10e
100
AcDbEntity
  8
Layer_1
 62
7
100
AcDbPolyline
 90
2
 70
1
 10
256.134154
 20
680.090395
 30
0.0
 10
258.040402
 20
679.699771
 30
0.0
  0
SPLINE
  5
10f
100
AcDbEntity
  8
Layer_1
 62
7
100
AcDbSpline
 70
8
 71
3
 72
8
 73
4
 74
0
 40
0
 40
0
 40
0
 40
0
 40
1
 40
1
 40
1
 40
1
 10
248.602898
 20
670.637267
 30
0.0
 10
249.884152
 20
669.918520
 30
0.0
 10
251.139362
 20
669.376854
 30
0.0
 10
252.368530
 20
669.012267
 30
0.0
  0
SPLINE
  5
110
100
AcDbEntity
  8
Layer_1
 62
7
100
AcDbSpline
 70
8
 71
3
 72
8
 73
4
 74
0
 40
0
 40
0
 40
0
 40
0
 40
1
 40
1
 40
1
 40
1
 10
252.368530
 20
669.012267
 30
0.0
 10
253.597693
 20
668.647686
 30
0.0
 10
254.806026
 20
668.465395
 30
0.0
 10
255.993530
 20
668.465395
 30
0.0
  0
SPLINE
  5
111
100
AcDbEntity
  8
Layer_1
 62
7
100
AcDbSpline
 70
8
 71
3
 72
8
 73
4
 74
0
 40
0
 40
0
 40
0
 40
0
 40
1
 40
1
 40
1
 40
1
 10
255.993530
 20
668.465395
 30
0.0
 10
257.795610
 20
668.465395
 30
0.0
 10
259.186234
 20
668.819563
 30
0.0
 10
260.165402
 20
669.527899
 30
0.0
  0
SPLINE
  5
112
100
AcDbEntity
  8
Layer_1
 62
7
100
AcDbSpline
 70
8
 71
3
 72
8
 73
4
 74
0
 40
0
 40
0
 40
0
 40
0
 40
1
 40
1
 40
1
 40
1
 10
260.165402
 20
669.527899
 30
0.0
 10
261.144570
 20
670.236230
 30
0.0
 10
261.634154
 20
671.246646
 30
0.0
 10
261.634154
 20
672.559147
 30
0.0
  0
SPLINE
  5
113
100
AcDbEntity
  8
Layer_1
 62
7
100
AcDbSpline
 70
8
 71
3
 72
8
 73
4
 74
0
 40
0
 40
0
 40
0
 40
0
 40
1
 40
1
 40
1
 40
1
 10
261.634154
 20
672.559147
 30
0.0
 10
261.634154
 20
673.704982
 30
0.0
 10
261.279986
 20
674.600814
 30
0.0
 10
260.571650
 20
675.246643
 30
0.0
  0
SPLINE
  5
114
100
AcDbEntity
  8
Layer_1
 62
7
100
AcDbSpline
 70
8
 71
3
 72
8
 73
4
 74
0
 40
0
 40
0
 40
0
 40
0
 40
1
 40
1
 40
1
 40
1
 10
260.571650
 20
675.246643
 30
0.0
 10
259.873736
 20
675.892478
 30
0.0
 10
258.722696
 20
676.376854
 30
0.0
 10
257.118530
 20
676.699771
 30
0.0
  0
LWPOLYLINE
  5
115
100
AcDbEntity
  8
Layer_1
 62
7
100
AcDbPolyline
 90
2
 70
1
 10
248.602898
 20
667.387267
 30
0.0
 10
248.602898
 20
670.637267
 30
0.0
  0
SPLINE
  5
116
100
AcDbEntity
  8
Layer_1
 62
7
100
AcDbSpline
 70
8
 71
3
 72
8
 73
4
 74
0
 40
0
 40
0
 40
0
 40
0
 40
1
 40
1
 40
1
 40
1
 10
255.196650
 20
677.074771
 30
0.0
 10
252.842485
 20
677.543523
 30
0.0
 10
251.139360
 20
678.277899
 30
0.0
 10
250.087274
 20
679.277899
 30
0.0
  0
SPLINE
  5
117
100
AcDbEntity
  8
Layer_1
 62
7
100
AcDbSpline
 70
8
 71
3
 72
8
 73
4
 74
0
 40
0
 40
0
 40
0
 40
0
 40
1
 40
1
 40
1
 40
1
 10
250.087274
 20
679.277899
 30
0.0
 10
249.035194
 20
680.277899
 30
0.0
 10
248.509154
 20
681.668523
 30
0.0
 10
248.509154
 20
683.449771
 30
0.0
  0
SPLINE
  5
118
100
AcDbEntity
  8
Layer_1
 62
7
100
AcDbSpline
 70
8
 71
3
 72
8
 73
4
 74
0
 40
0
 40
0
 40
0
 40
0
 40
1
 40
1
 40
1
 40
1
 10
248.509154
 20
683.449771
 30
0.0
 10
248.509154
 20
685.512272
 30
0.0
 10
249.233112
 20
687.137272
 30
0.0
 10
250.681026
 20
688.324771
 30
0.0
  0
SPLINE
  5
119
100
AcDbEntity
  8
Layer_1
 62
7
100
AcDbSpline
 70
8
 71
3
 72
8
 73
4
 74
0
 40
0
 40
0
 40
0
 40
0
 40
1
 40
1
 40
1
 40
1
 10
250.681026
 20
688.324771
 30
0.0
 10
252.139362
 20
689.512270
 30
0.0
 10
254.144570
 20
690.106019
 30
0.0
 10
256.696650
 20
690.106019
 30
0.0
  0
SPLINE
  5
11a
100
AcDbEntity
  8
Layer_1
 62
7
100
AcDbSpline
 70
8
 71
3
 72
8
 73
4
 74
0
 40
0
 40
0
 40
0
 40
0
 40
1
 40
1
 40
1
 40
1
 10
256.696650
 20
690.106019
 30
0.0
 10
257.790400
 20
690.106019
 30
0.0
 10
258.904984
 20
690.007062
 30
0.0
 10
260.040402
 20
689.809147
 30
0.0
  0
SPLINE
  5
11b
100
AcDbEntity
  8
Layer_1
 62
7
100
AcDbSpline
 70
8
 71
3
 72
8
 73
4
 74
0
 40
0
 40
0
 40
0
 40
0
 40
1
 40
1
 40
1
 40
1
 10
260.040402
 20
689.809147
 30
0.0
 10
261.175821
 20
689.611227
 30
0.0
 10
262.337280
 20
689.314352
 30
0.0
 10
263.524778
 20
688.918523
 30
0.0
  0
LWPOLYLINE
  5
11c
100
AcDbEntity
  8
Layer_1
 62
7
100
AcDbPolyline
 90
2
 70
1
 10
257.118530
 20
676.699771
 30
0.0
 10
255.196650
 20
677.074771
 30
0.0
  0
LWPOLYLINE
  5
11d
100
AcDbEntity
  8
Layer_1
 62
7
100
AcDbPolyline
 90
2
 70
1
 10
263.524778
 20
688.918523
 30
0.0
 10
263.524778
 20
688.918523
 30
0.0
  0
SPLINE
  5
11e
100
AcDbEntity
  8
Layer_1
 62
7
100
AcDbSpline
 70
8
 71
3
 72
8
 73
4
 74
0
 40
0
 40
0
 40
0
 40
0
 40
1
 40
1
 40
1
 40
1
 10
272.571650
 20
681.199771
 30
0.0
 10
273.175816
 20
682.241435
 30
0.0
 10
273.936232
 20
683.012267
 30
0.0
 10
274.852898
 20
683.512267
 30
0.0
  0
SPLINE
  5
11f
100
AcDbEntity
  8
Layer_1
 62
7
100
AcDbSpline
 70
8
 71
3
 72
8
 73
4
 74
0
 40
0
 40
0
 40
0
 40
0
 40
1
 40
1
 40
1
 40
1
 10
274.852898
 20
683.512267
 30
0.0
 10
275.779986
 20
684.022688
 30
0.0
 10
276.884154
 20
684.277899
 30
0.0
 10
278.165402
 20
684.277899
 30
0.0
  0
SPLINE
  5
120
100
AcDbEntity
  8
Layer_1
 62
7
100
AcDbSpline
 70
8
 71
3
 72
8
 73
4
 74
0
 40
0
 40
0
 40
0
 40
0
 40
1
 40
1
 40
1
 40
1
 10
278.165402
 20
684.277899
 30
0.0
 10
280.290400
 20
684.277899
 30
0.0
 10
282.014357
 20
683.434147
 30
0.0
 10
283.337274
 20
681.746643
 30
0.0
  0
SPLINE
  5
121
100
AcDbEntity
  8
Layer_1
 62
7
100
AcDbSpline
 70
8
 71
3
 72
8
 73
4
 74
0
 40
0
 40
0
 40
0
 40
0
 40
1
 40
1
 40
1
 40
1
 10
283.337274
 20
681.746643
 30
0.0
 10
284.670608
 20
680.059144
 30
0.0
 10
285.337274
 20
677.840395
 30
0.0
 10
285.337274
 20
675.090395
 30
0.0
  0
SPLINE
  5
122
100
AcDbEntity
  8
Layer_1
 62
7
100
AcDbSpline
 70
8
 71
3
 72
8
 73
4
 74
0
 40
0
 40
0
 40
0
 40
0
 40
1
 40
1
 40
1
 40
1
 10
285.337274
 20
675.090395
 30
0.0
 10
285.337274
 20
672.340395
 30
0.0
 10
284.670608
 20
670.121646
 30
0.0
 10
283.337274
 20
668.434147
 30
0.0
  0
SPLINE
  5
123
100
AcDbEntity
  8
Layer_1
 62
7
100
AcDbSpline
 70
8
 71
3
 72
8
 73
4
 74
0
 40
0
 40
0
 40
0
 40
0
 40
1
 40
1
 40
1
 40
1
 10
283.337274
 20
668.434147
 30
0.0
 10
282.014357
 20
666.746648
 30
0.0
 10
280.290400
 20
665.902899
 30
0.0
 10
278.165402
 20
665.902899
 30
0.0
  0
SPLINE
  5
124
100
AcDbEntity
  8
Layer_1
 62
7
100
AcDbSpline
 70
8
 71
3
 72
8
 73
4
 74
0
 40
0
 40
0
 40
0
 40
0
 40
1
 40
1
 40
1
 40
1
 10
278.165402
 20
665.902899
 30
0.0
 10
276.884154
 20
665.902899
 30
0.0
 10
275.779986
 20
666.152899
 30
0.0
 10
274.852898
 20
666.652899
 30
0.0
  0
SPLINE
  5
125
100
AcDbEntity
  8
Layer_1
 62
7
100
AcDbSpline
 70
8
 71
3
 72
8
 73
4
 74
0
 40
0
 40
0
 40
0
 40
0
 40
1
 40
1
 40
1
 40
1
 10
274.852898
 20
666.652899
 30
0.0
 10
273.936232
 20
667.163315
 30
0.0
 10
273.175816
 20
667.939355
 30
0.0
 10
272.571650
 20
668.981019
 30
0.0
  0
LWPOLYLINE
  5
126
100
AcDbEntity
  8
Layer_1
 62
7
100
AcDbPolyline
 90
6
 70
1
 10
272.571650
 20
668.981019
 30
0.0
 10
272.571650
 20
659.699771
 30
0.0
 10
269.681026
 20
659.699771
 30
0.0
 10
269.681026
 20
683.856019
 30
0.0
 10
272.571650
 20
683.856019
 30
0.0
 10
272.571650
 20
681.199771
 30
0.0
  0
SPLINE
  5
127
100
AcDbEntity
  8
Layer_1
 62
7
100
AcDbSpline
 70
8
 71
3
 72
8
 73
4
 74
0
 40
0
 40
0
 40
0
 40
0
 40
1
 40
1
 40
1
 40
1
 10
282.352898
 20
675.090395
 30
0.0
 10
282.352898
 20
677.204976
 30
0.0
 10
281.915400
 20
678.861227
 30
0.0
 10
281.040402
 20
680.059147
 30
0.0
  0
SPLINE
  5
128
100
AcDbEntity
  8
Layer_1
 62
7
100
AcDbSpline
 70
8
 71
3
 72
8
 73
4
 74
0
 40
0
 40
0
 40
0
 40
0
 40
1
 40
1
 40
1
 40
1
 10
281.040402
 20
680.059147
 30
0.0
 10
280.175821
 20
681.267478
 30
0.0
 10
278.983112
 20
681.871643
 30
0.0
 10
277.462274
 20
681.871643
 30
0.0
  0
SPLINE
  5
129
100
AcDbEntity
  8
Layer_1
 62
7
100
AcDbSpline
 70
8
 71
3
 72
8
 73
4
 74
0
 40
0
 40
0
 40
0
 40
0
 40
1
 40
1
 40
1
 40
1
 10
277.462274
 20
681.871643
 30
0.0
 10
275.941442
 20
681.871643
 30
0.0
 10
274.743528
 20
681.267478
 30
0.0
 10
273.868530
 20
680.059147
 30
0.0
  0
SPLINE
  5
12a
100
AcDbEntity
  8
Layer_1
 62
7
100
AcDbSpline
 70
8
 71
3
 72
8
 73
4
 74
0
 40
0
 40
0
 40
0
 40
0
 40
1
 40
1
 40
1
 40
1
 10
273.868530
 20
680.059147
 30
0.0
 10
273.003944
 20
678.861227
 30
0.0
 10
272.571650
 20
677.204976
 30
0.0
 10
272.571650
 20
675.090395
 30
0.0
  0
SPLINE
  5
12b
100
AcDbEntity
  8
Layer_1
 62
7
100
AcDbSpline
 70
8
 71
3
 72
8
 73
4
 74
0
 40
0
 40
0
 40
0
 40
0
 40
1
 40
1
 40
1
 40
1
 10
272.571650
 20
675.090395
 30
0.0
 10
272.571650
 20
672.975814
 30
0.0
 10
273.003944
 20
671.314355
 30
0.0
 10
273.868530
 20
670.106019
 30
0.0
  0
SPLINE
  5
12c
100
AcDbEntity
  8
Layer_1
 62
7
100
AcDbSpline
 70
8
 71
3
 72
8
 73
4
 74
0
 40
0
 40
0
 40
0
 40
0
 40
1
 40
1
 40
1
 40
1
 10
273.868530
 20
670.106019
 30
0.0
 10
274.743528
 20
668.908104
 30
0.0
 10
275.941442
 20
668.309147
 30
0.0
 10
277.462274
 20
668.309147
 30
0.0
  0
SPLINE
  5
12d
100
AcDbEntity
  8
Layer_1
 62
7
100
AcDbSpline
 70
8
 71
3
 72
8
 73
4
 74
0
 40
0
 40
0
 40
0
 40
0
 40
1
 40
1
 40
1
 40
1
 10
277.462274
 20
668.309147
 30
0.0
 10
278.983112
 20
668.309147
 30
0.0
 10
280.175821
 20
668.908104
 30
0.0
 10
281.040402
 20
670.106019
 30
0.0
  0
SPLINE
  5
12e
100
AcDbEntity
  8
Layer_1
 62
7
100
AcDbSpline
 70
8
 71
3
 72
8
 73
4
 74
0
 40
0
 40
0
 40
0
 40
0
 40
1
 40
1
 40
1
 40
1
 10
281.040402
 20
670.106019
 30
0.0
 10
281.915400
 20
671.314355
 30
0.0
 10
282.352898
 20
672.975814
 30
0.0
 10
282.352898
 20
675.090395
 30
0.0
  0
LWPOLYLINE
  5
12f
100
AcDbEntity
  8
Layer_1
 62
7
100
AcDbPolyline
 90
2
 70
1
 10
272.571650
 20
668.981019
 30
0.0
 10
272.571650
 20
668.981019
 30
0.0
  0
LWPOLYLINE
  5
130
100
AcDbEntity
  8
Layer_1
 62
7
100
AcDbPolyline
 90
2
 70
1
 10
282.352898
 20
675.090395
 30
0.0
 10
282.352898
 20
675.090395
 30
0.0
  0
SPLINE
  5
131
100
AcDbEntity
  8
Layer_1
 62
7
100
AcDbSpline
 70
8
 71
3
 72
8
 73
4
 74
0
 40
0
 40
0
 40
0
 40
0
 40
1
 40
1
 40
1
 40
1
 10
291.852898
 20
674.418523
 30
0.0
 10
291.977901
 20
672.439355
 30
0.0
 10
292.571653
 20
670.928936
 30
0.0
 10
293.634154
 20
669.887267
 30
0.0
  0
SPLINE
  5
132
100
AcDbEntity
  8
Layer_1
 62
7
100
AcDbSpline
 70
8
 71
3
 72
8
 73
4
 74
0
 40
0
 40
0
 40
0
 40
0
 40
1
 40
1
 40
1
 40
1
 10
293.634154
 20
669.887267
 30
0.0
 10
294.707072
 20
668.856019
 30
0.0
 10
296.196653
 20
668.340395
 30
0.0
 10
298.102898
 20
668.340395
 30
0.0
  0
SPLINE
  5
133
100
AcDbEntity
  8
Layer_1
 62
7
100
AcDbSpline
 70
8
 71
3
 72
8
 73
4
 74
0
 40
0
 40
0
 40
0
 40
0
 40
1
 40
1
 40
1
 40
1
 10
298.102898
 20
668.340395
 30
0.0
 10
299.207069
 20
668.340395
 30
0.0
 10
300.274778
 20
668.475811
 30
0.0
 10
301.306026
 20
668.746643
 30
0.0
  0
SPLINE
  5
134
100
AcDbEntity
  8
Layer_1
 62
7
100
AcDbSpline
 70
8
 71
3
 72
8
 73
4
 74
0
 40
0
 40
0
 40
0
 40
0
 40
1
 40
1
 40
1
 40
1
 10
301.306026
 20
668.746643
 30
0.0
 10
302.347696
 20
669.017480
 30
0.0
 10
303.378946
 20
669.423731
 30
0.0
 10
304.399778
 20
669.965395
 30
0.0
  0
LWPOLYLINE
  5
135
100
AcDbEntity
  8
Layer_1
 62
7
100
AcDbPolyline
 90
3
 70
1
 10
305.071650
 20
675.824771
 30
0.0
 10
305.071650
 20
674.418523
 30
0.0
 10
291.852898
 20
674.418523
 30
0.0
  0
SPLINE
  5
136
100
AcDbEntity
  8
Layer_1
 62
7
100
AcDbSpline
 70
8
 71
3
 72
8
 73
4
 74
0
 40
0
 40
0
 40
0
 40
0
 40
1
 40
1
 40
1
 40
1
 10
304.399778
 20
667.246643
 30
0.0
 10
303.368525
 20
666.809144
 30
0.0
 10
302.311232
 20
666.475811
 30
0.0
 10
301.227898
 20
666.246643
 30
0.0
  0
SPLINE
  5
137
100
AcDbEntity
  8
Layer_1
 62
7
100
AcDbSpline
 70
8
 71
3
 72
8
 73
4
 74
0
 40
0
 40
0
 40
0
 40
0
 40
1
 40
1
 40
1
 40
1
 10
301.227898
 20
666.246643
 30
0.0
 10
300.144565
 20
666.017480
 30
0.0
 10
299.045608
 20
665.902899
 30
0.0
 10
297.931026
 20
665.902899
 30
0.0
  0
SPLINE
  5
138
100
AcDbEntity
  8
Layer_1
 62
7
100
AcDbSpline
 70
8
 71
3
 72
8
 73
4
 74
0
 40
0
 40
0
 40
0
 40
0
 40
1
 40
1
 40
1
 40
1
 10
297.931026
 20
665.902899
 30
0.0
 10
295.139362
 20
665.902899
 30
0.0
 10
292.925821
 20
666.715398
 30
0.0
 10
291.290402
 20
668.340395
 30
0.0
  0
SPLINE
  5
139
100
AcDbEntity
  8
Layer_1
 62
7
100
AcDbSpline
 70
8
 71
3
 72
8
 73
4
 74
0
 40
0
 40
0
 40
0
 40
0
 40
1
 40
1
 40
1
 40
1
 10
291.290402
 20
668.340395
 30
0.0
 10
289.665400
 20
669.965398
 30
0.0
 10
288.852898
 20
672.163315
 30
0.0
 10
288.852898
 20
674.934147
 30
0.0
  0
SPLINE
  5
13a
100
AcDbEntity
  8
Layer_1
 62
7
100
AcDbSpline
 70
8
 71
3
 72
8
 73
4
 74
0
 40
0
 40
0
 40
0
 40
0
 40
1
 40
1
 40
1
 40
1
 10
288.852898
 20
674.934147
 30
0.0
 10
288.852898
 20
677.798728
 30
0.0
 10
289.623733
 20
680.069560
 30
0.0
 10
291.165402
 20
681.746643
 30
0.0
  0
SPLINE
  5
13b
100
AcDbEntity
  8
Layer_1
 62
7
100
AcDbSpline
 70
8
 71
3
 72
8
 73
4
 74
0
 40
0
 40
0
 40
0
 40
0
 40
1
 40
1
 40
1
 40
1
 10
291.165402
 20
681.746643
 30
0.0
 10
292.717488
 20
683.434147
 30
0.0
 10
294.806029
 20
684.277899
 30
0.0
 10
297.431026
 20
684.277899
 30
0.0
  0
SPLINE
  5
13c
100
AcDbEntity
  8
Layer_1
 62
7
100
AcDbSpline
 70
8
 71
3
 72
8
 73
4
 74
0
 40
0
 40
0
 40
0
 40
0
 40
1
 40
1
 40
1
 40
1
 10
297.431026
 20
684.277899
 30
0.0
 10
299.785192
 20
684.277899
 30
0.0
 10
301.644568
 20
683.517480
 30
0.0
 10
303.009154
 20
681.996643
 30
0.0
  0
SPLINE
  5
13d
100
AcDbEntity
  8
Layer_1
 62
7
100
AcDbSpline
 70
8
 71
3
 72
8
 73
4
 74
0
 40
0
 40
0
 40
0
 40
0
 40
1
 40
1
 40
1
 40
1
 10
303.009154
 20
681.996643
 30
0.0
 10
304.384152
 20
680.486227
 30
0.0
 10
305.071650
 20
678.428936
 30
0.0
 10
305.071650
 20
675.824771
 30
0.0
  0
LWPOLYLINE
  5
13e
100
AcDbEntity
  8
Layer_1
 62
7
100
AcDbPolyline
 90
2
 70
1
 10
304.399778
 20
669.965395
 30
0.0
 10
304.399778
 20
667.246643
 30
0.0
  0
SPLINE
  5
13f
100
AcDbEntity
  8
Layer_1
 62
7
100
AcDbSpline
 70
8
 71
3
 72
8
 73
4
 74
0
 40
0
 40
0
 40
0
 40
0
 40
1
 40
1
 40
1
 40
1
 10
302.196650
 20
676.668523
 30
0.0
 10
302.175797
 20
678.241440
 30
0.0
 10
301.733090
 20
679.496648
 30
0.0
 10
300.868530
 20
680.434147
 30
0.0
  0
SPLINE
  5
140
100
AcDbEntity
  8
Layer_1
 62
7
100
AcDbSpline
 70
8
 71
3
 72
8
 73
4
 74
0
 40
0
 40
0
 40
0
 40
0
 40
1
 40
1
 40
1
 40
1
 10
300.868530
 20
680.434147
 30
0.0
 10
300.014360
 20
681.371646
 30
0.0
 10
298.878941
 20
681.840395
 30
0.0
 10
297.462274
 20
681.840395
 30
0.0
  0
SPLINE
  5
141
100
AcDbEntity
  8
Layer_1
 62
7
100
AcDbSpline
 70
8
 71
3
 72
8
 73
4
 74
0
 40
0
 40
0
 40
0
 40
0
 40
1
 40
1
 40
1
 40
1
 10
297.462274
 20
681.840395
 30
0.0
 10
295.858109
 20
681.840395
 30
0.0
 10
294.571650
 20
681.387270
 30
0.0
 10
293.602898
 20
680.481019
 30
0.0
  0
SPLINE
  5
142
100
AcDbEntity
  8
Layer_1
 62
7
100
AcDbSpline
 70
8
 71
3
 72
8
 73
4
 74
0
 40
0
 40
0
 40
0
 40
0
 40
1
 40
1
 40
1
 40
1
 10
293.602898
 20
680.481019
 30
0.0
 10
292.644568
 20
679.574768
 30
0.0
 10
292.092485
 20
678.298728
 30
0.0
 10
291.946650
 20
676.652899
 30
0.0
  0
LWPOLYLINE
  5
143
100
AcDbEntity
  8
Layer_1
 62
7
100
AcDbPolyline
 90
2
 70
1
 10
305.071650
 20
675.824771
 30
0.0
 10
305.071650
 20
675.824771
 30
0.0
  0
LWPOLYLINE
  5
144
100
AcDbEntity
  8
Layer_1
 62
7
100
AcDbPolyline
 90
3
 70
1
 10
291.946650
 20
676.652899
 30
0.0
 10
302.196650
 20
676.668499
 30
0.0
 10
302.196650
 20
676.668523
 30
0.0
  0
SPLINE
  5
145
100
AcDbEntity
  8
Layer_1
 62
7
100
AcDbSpline
 70
8
 71
3
 72
8
 73
4
 74
0
 40
0
 40
0
 40
0
 40
0
 40
1
 40
1
 40
1
 40
1
 10
311.477898
 20
674.418523
 30
0.0
 10
311.602901
 20
672.439355
 30
0.0
 10
312.196653
 20
670.928936
 30
0.0
 10
313.259154
 20
669.887267
 30
0.0
  0
SPLINE
  5
146
100
AcDbEntity
  8
Layer_1
 62
7
100
AcDbSpline
 70
8
 71
3
 72
8
 73
4
 74
0
 40
0
 40
0
 40
0
 40
0
 40
1
 40
1
 40
1
 40
1
 10
313.259154
 20
669.887267
 30
0.0
 10
314.332072
 20
668.856019
 30
0.0
 10
315.821653
 20
668.340395
 30
0.0
 10
317.727898
 20
668.340395
 30
0.0
  0
SPLINE
  5
147
100
AcDbEntity
  8
Layer_1
 62
7
100
AcDbSpline
 70
8
 71
3
 72
8
 73
4
 74
0
 40
0
 40
0
 40
0
 40
0
 40
1
 40
1
 40
1
 40
1
 10
317.727898
 20
668.340395
 30
0.0
 10
318.832069
 20
668.340395
 30
0.0
 10
319.899778
 20
668.475811
 30
0.0
 10
320.931026
 20
668.746643
 30
0.0
  0
SPLINE
  5
148
100
AcDbEntity
  8
Layer_1
 62
7
100
AcDbSpline
 70
8
 71
3
 72
8
 73
4
 74
0
 40
0
 40
0
 40
0
 40
0
 40
1
 40
1
 40
1
 40
1
 10
320.931026
 20
668.746643
 30
0.0
 10
321.972696
 20
669.017480
 30
0.0
 10
323.003946
 20
669.423731
 30
0.0
 10
324.024778
 20
669.965395
 30
0.0
  0
LWPOLYLINE
  5
149
100
AcDbEntity
  8
Layer_1
 62
7
100
AcDbPolyline
 90
3
 70
1
 10
324.696650
 20
675.824771
 30
0.0
 10
324.696650
 20
674.418523
 30
0.0
 10
311.477898
 20
674.418523
 30
0.0
  0
SPLINE
  5
14a
100
AcDbEntity
  8
Layer_1
 62
7
100
AcDbSpline
 70
8
 71
3
 72
8
 73
4
 74
0
 40
0
 40
0
 40
0
 40
0
 40
1
 40
1
 40
1
 40
1
 10
324.024778
 20
667.246643
 30
0.0
 10
322.993525
 20
666.809144
 30
0.0
 10
321.936232
 20
666.475811
 30
0.0
 10
320.852898
 20
666.246643
 30
0.0
  0
SPLINE
  5
14b
100
AcDbEntity
  8
Layer_1
 62
7
100
AcDbSpline
 70
8
 71
3
 72
8
 73
4
 74
0
 40
0
 40
0
 40
0
 40
0
 40
1
 40
1
 40
1
 40
1
 10
320.852898
 20
666.246643
 30
0.0
 10
319.769565
 20
666.017480
 30
0.0
 10
318.670608
 20
665.902899
 30
0.0
 10
317.556026
 20
665.902899
 30
0.0
  0
SPLINE
  5
14c
100
AcDbEntity
  8
Layer_1
 62
7
100
AcDbSpline
 70
8
 71
3
 72
8
 73
4
 74
0
 40
0
 40
0
 40
0
 40
0
 40
1
 40
1
 40
1
 40
1
 10
317.556026
 20
665.902899
 30
0.0
 10
314.764362
 20
665.902899
 30
0.0
 10
312.550821
 20
666.715398
 30
0.0
 10
310.915402
 20
668.340395
 30
0.0
  0
SPLINE
  5
14d
100
AcDbEntity
  8
Layer_1
 62
7
100
AcDbSpline
 70
8
 71
3
 72
8
 73
4
 74
0
 40
0
 40
0
 40
0
 40
0
 40
1
 40
1
 40
1
 40
1
 10
310.915402
 20
668.340395
 30
0.0
 10
309.290400
 20
669.965398
 30
0.0
 10
308.477898
 20
672.163315
 30
0.0
 10
308.477898
 20
674.934147
 30
0.0
  0
SPLINE
  5
14e
100
AcDbEntity
  8
Layer_1
 62
7
100
AcDbSpline
 70
8
 71
3
 72
8
 73
4
 74
0
 40
0
 40
0
 40
0
 40
0
 40
1
 40
1
 40
1
 40
1
 10
308.477898
 20
674.934147
 30
0.0
 10
308.477898
 20
677.798728
 30
0.0
 10
309.248733
 20
680.069560
 30
0.0
 10
310.790402
 20
681.746643
 30
0.0
  0
SPLINE
  5
14f
100
AcDbEntity
  8
Layer_1
 62
7
100
AcDbSpline
 70
8
 71
3
 72
8
 73
4
 74
0
 40
0
 40
0
 40
0
 40
0
 40
1
 40
1
 40
1
 40
1
 10
310.790402
 20
681.746643
 30
0.0
 10
312.342488
 20
683.434147
 30
0.0
 10
314.431029
 20
684.277899
 30
0.0
 10
317.056026
 20
684.277899
 30
0.0
  0
SPLINE
  5
150
100
AcDbEntity
  8
Layer_1
 62
7
100
AcDbSpline
 70
8
 71
3
 72
8
 73
4
 74
0
 40
0
 40
0
 40
0
 40
0
 40
1
 40
1
 40
1
 40
1
 10
317.056026
 20
684.277899
 30
0.0
 10
319.410192
 20
684.277899
 30
0.0
 10
321.269568
 20
683.517480
 30
0.0
 10
322.634154
 20
681.996643
 30
0.0
  0
SPLINE
  5
151
100
AcDbEntity
  8
Layer_1
 62
7
100
AcDbSpline
 70
8
 71
3
 72
8
 73
4
 74
0
 40
0
 40
0
 40
0
 40
0
 40
1
 40
1
 40
1
 40
1
 10
322.634154
 20
681.996643
 30
0.0
 10
324.009152
 20
680.486227
 30
0.0
 10
324.696650
 20
678.428936
 30
0.0
 10
324.696650
 20
675.824771
 30
0.0
  0
LWPOLYLINE
  5
152
100
AcDbEntity
  8
Layer_1
 62
7
100
AcDbPolyline
 90
2
 70
1
 10
324.024778
 20
669.965395
 30
0.0
 10
324.024778
 20
667.246643
 30
0.0
  0
SPLINE
  5
153
100
AcDbEntity
  8
Layer_1
 62
7
100
AcDbSpline
 70
8
 71
3
 72
8
 73
4
 74
0
 40
0
 40
0
 40
0
 40
0
 40
1
 40
1
 40
1
 40
1
 10
321.821650
 20
676.668523
 30
0.0
 10
321.800797
 20
678.241440
 30
0.0
 10
321.358090
 20
679.496648
 30
0.0
 10
320.493530
 20
680.434147
 30
0.0
  0
SPLINE
  5
154
100
AcDbEntity
  8
Layer_1
 62
7
100
AcDbSpline
 70
8
 71
3
 72
8
 73
4
 74
0
 40
0
 40
0
 40
0
 40
0
 40
1
 40
1
 40
1
 40
1
 10
320.493530
 20
680.434147
 30
0.0
 10
319.639360
 20
681.371646
 30
0.0
 10
318.503941
 20
681.840395
 30
0.0
 10
317.087274
 20
681.840395
 30
0.0
  0
SPLINE
  5
155
100
AcDbEntity
  8
Layer_1
 62
7
100
AcDbSpline
 70
8
 71
3
 72
8
 73
4
 74
0
 40
0
 40
0
 40
0
 40
0
 40
1
 40
1
 40
1
 40
1
 10
317.087274
 20
681.840395
 30
0.0
 10
315.483109
 20
681.840395
 30
0.0
 10
314.196650
 20
681.387270
 30
0.0
 10
313.227898
 20
680.481019
 30
0.0
  0
SPLINE
  5
156
100
AcDbEntity
  8
Layer_1
 62
7
100
AcDbSpline
 70
8
 71
3
 72
8
 73
4
 74
0
 40
0
 40
0
 40
0
 40
0
 40
1
 40
1
 40
1
 40
1
 10
313.227898
 20
680.481019
 30
0.0
 10
312.269568
 20
679.574768
 30
0.0
 10
311.717485
 20
678.298728
 30
0.0
 10
311.571650
 20
676.652899
 30
0.0
  0
LWPOLYLINE
  5
157
100
AcDbEntity
  8
Layer_1
 62
7
100
AcDbPolyline
 90
2
 70
1
 10
324.696650
 20
675.824771
 30
0.0
 10
324.696650
 20
675.824771
 30
0.0
  0
LWPOLYLINE
  5
158
100
AcDbEntity
  8
Layer_1
 62
7
100
AcDbPolyline
 90
3
 70
1
 10
311.571650
 20
676.652899
 30
0.0
 10
321.821650
 20
676.668499
 30
0.0
 10
321.821650
 20
676.668523
 30
0.0
  0
SPLINE
  5
159
100
AcDbEntity
  8
Layer_1
 62
7
100
AcDbSpline
 70
8
 71
3
 72
8
 73
4
 74
0
 40
0
 40
0
 40
0
 40
0
 40
1
 40
1
 40
1
 40
1
 10
340.868530
 20
668.981019
 30
0.0
 10
340.264360
 20
667.939355
 30
0.0
 10
339.498733
 20
667.163315
 30
0.0
 10
338.571650
 20
666.652899
 30
0.0
  0
SPLINE
  5
15a
100
AcDbEntity
  8
Layer_1
 62
7
100
AcDbSpline
 70
8
 71
3
 72
8
 73
4
 74
0
 40
0
 40
0
 40
0
 40
0
 40
1
 40
1
 40
1
 40
1
 10
338.571650
 20
666.652899
 30
0.0
 10
337.654984
 20
666.152899
 30
0.0
 10
336.550818
 20
665.902899
 30
0.0
 10
335.259154
 20
665.902899
 30
0.0
  0
SPLINE
  5
15b
100
AcDbEntity
  8
Layer_1
 62
7
100
AcDbSpline
 70
8
 71
3
 72
8
 73
4
 74
0
 40
0
 40
0
 40
0
 40
0
 40
1
 40
1
 40
1
 40
1
 10
335.259154
 20
665.902899
 30
0.0
 10
333.144568
 20
665.902899
 30
0.0
 10
331.420608
 20
666.746648
 30
0.0
 10
330.087274
 20
668.434147
 30
0.0
  0
SPLINE
  5
15c
100
AcDbEntity
  8
Layer_1
 62
7
100
AcDbSpline
 70
8
 71
3
 72
8
 73
4
 74
0
 40
0
 40
0
 40
0
 40
0
 40
1
 40
1
 40
1
 40
1
 10
330.087274
 20
668.434147
 30
0.0
 10
328.764357
 20
670.121646
 30
0.0
 10
328.102898
 20
672.340395
 30
0.0
 10
328.102898
 20
675.090395
 30
0.0
  0
SPLINE
  5
15d
100
AcDbEntity
  8
Layer_1
 62
7
100
AcDbSpline
 70
8
 71
3
 72
8
 73
4
 74
0
 40
0
 40
0
 40
0
 40
0
 40
1
 40
1
 40
1
 40
1
 10
328.102898
 20
675.090395
 30
0.0
 10
328.102898
 20
677.840395
 30
0.0
 10
328.764357
 20
680.059144
 30
0.0
 10
330.087274
 20
681.746643
 30
0.0
  0
SPLINE
  5
15e
100
AcDbEntity
  8
Layer_1
 62
7
100
AcDbSpline
 70
8
 71
3
 72
8
 73
4
 74
0
 40
0
 40
0
 40
0
 40
0
 40
1
 40
1
 40
1
 40
1
 10
330.087274
 20
681.746643
 30
0.0
 10
331.420608
 20
683.434147
 30
0.0
 10
333.144568
 20
684.277899
 30
0.0
 10
335.259154
 20
684.277899
 30
0.0
  0
SPLINE
  5
15f
100
AcDbEntity
  8
Layer_1
 62
7
100
AcDbSpline
 70
8
 71
3
 72
8
 73
4
 74
0
 40
0
 40
0
 40
0
 40
0
 40
1
 40
1
 40
1
 40
1
 10
335.259154
 20
684.277899
 30
0.0
 10
336.550818
 20
684.277899
 30
0.0
 10
337.654984
 20
684.022688
 30
0.0
 10
338.571650
 20
683.512267
 30
0.0
  0
SPLINE
  5
160
100
AcDbEntity
  8
Layer_1
 62
7
100
AcDbSpline
 70
8
 71
3
 72
8
 73
4
 74
0
 40
0
 40
0
 40
0
 40
0
 40
1
 40
1
 40
1
 40
1
 10
338.571650
 20
683.512267
 30
0.0
 10
339.498733
 20
683.012267
 30
0.0
 10
340.264360
 20
682.241435
 30
0.0
 10
340.868530
 20
681.199771
 30
0.0
  0
LWPOLYLINE
  5
161
100
AcDbEntity
  8
Layer_1
 62
7
100
AcDbPolyline
 90
6
 70
1
 10
340.868530
 20
681.199771
 30
0.0
 10
340.868530
 20
690.668523
 30
0.0
 10
343.743530
 20
690.668523
 30
0.0
 10
343.743530
 20
666.356019
 30
0.0
 10
340.868530
 20
666.356019
 30
0.0
 10
340.868530
 20
668.981019
 30
0.0
  0
SPLINE
  5
162
100
AcDbEntity
  8
Layer_1
 62
7
100
AcDbSpline
 70
8
 71
3
 72
8
 73
4
 74
0
 40
0
 40
0
 40
0
 40
0
 40
1
 40
1
 40
1
 40
1
 10
331.071650
 20
675.090395
 30
0.0
 10
331.071650
 20
672.975814
 30
0.0
 10
331.503944
 20
671.314355
 30
0.0
 10
332.368530
 20
670.106019
 30
0.0
  0
SPLINE
  5
163
100
AcDbEntity
  8
Layer_1
 62
7
100
AcDbSpline
 70
8
 71
3
 72
8
 73
4
 74
0
 40
0
 40
0
 40
0
 40
0
 40
1
 40
1
 40
1
 40
1
 10
332.368530
 20
670.106019
 30
0.0
 10
333.243528
 20
668.908104
 30
0.0
 10
334.441442
 20
668.309147
 30
0.0
 10
335.962274
 20
668.309147
 30
0.0
  0
SPLINE
  5
164
100
AcDbEntity
  8
Layer_1
 62
7
100
AcDbSpline
 70
8
 71
3
 72
8
 73
4
 74
0
 40
0
 40
0
 40
0
 40
0
 40
1
 40
1
 40
1
 40
1
 10
335.962274
 20
668.309147
 30
0.0
 10
337.483112
 20
668.309147
 30
0.0
 10
338.681029
 20
668.908104
 30
0.0
 10
339.556026
 20
670.106019
 30
0.0
  0
SPLINE
  5
165
100
AcDbEntity
  8
Layer_1
 62
7
100
AcDbSpline
 70
8
 71
3
 72
8
 73
4
 74
0
 40
0
 40
0
 40
0
 40
0
 40
1
 40
1
 40
1
 40
1
 10
339.556026
 20
670.106019
 30
0.0
 10
340.431029
 20
671.314355
 30
0.0
 10
340.868530
 20
672.975814
 30
0.0
 10
340.868530
 20
675.090395
 30
0.0
  0
SPLINE
  5
166
100
AcDbEntity
  8
Layer_1
 62
7
100
AcDbSpline
 70
8
 71
3
 72
8
 73
4
 74
0
 40
0
 40
0
 40
0
 40
0
 40
1
 40
1
 40
1
 40
1
 10
340.868530
 20
675.090395
 30
0.0
 10
340.868530
 20
677.204976
 30
0.0
 10
340.431029
 20
678.861227
 30
0.0
 10
339.556026
 20
680.059147
 30
0.0
  0
SPLINE
  5
167
100
AcDbEntity
  8
Layer_1
 62
7
100
AcDbSpline
 70
8
 71
3
 72
8
 73
4
 74
0
 40
0
 40
0
 40
0
 40
0
 40
1
 40
1
 40
1
 40
1
 10
339.556026
 20
680.059147
 30
0.0
 10
338.681029
 20
681.267478
 30
0.0
 10
337.483112
 20
681.871643
 30
0.0
 10
335.962274
 20
681.871643
 30
0.0
  0
SPLINE
  5
168
100
AcDbEntity
  8
Layer_1
 62
7
100
AcDbSpline
 70
8
 71
3
 72
8
 73
4
 74
0
 40
0
 40
0
 40
0
 40
0
 40
1
 40
1
 40
1
 40
1
 10
335.962274
 20
681.871643
 30
0.0
 10
334.441442
 20
681.871643
 30
0.0
 10
333.243528
 20
681.267478
 30
0.0
 10
332.368530
 20
680.059147
 30
0.0
  0
SPLINE
  5
169
100
AcDbEntity
  8
Layer_1
 62
7
100
AcDbSpline
 70
8
 71
3
 72
8
 73
4
 74
0
 40
0
 40
0
 40
0
 40
0
 40
1
 40
1
 40
1
 40
1
 10
332.368530
 20
680.059147
 30
0.0
 10
331.503944
 20
678.861227
 30
0.0
 10
331.071650
 20
677.204976
 30
0.0
 10
331.071650
 20
675.090395
 30
0.0
  0
LWPOLYLINE
  5
16a
100
AcDbEntity
  8
Layer_1
 62
7
100
AcDbPolyline
 90
2
 70
1
 10
340.868530
 20
681.199771
 30
0.0
 10
340.868530
 20
681.199771
 30
0.0
  0
LWPOLYLINE
  5
16b
100
AcDbEntity
  8
Layer_1
 62
7
100
AcDbPolyline
 90
2
 70
1
 10
331.071650
 20
675.090395
 30
0.0
 10
331.071650
 20
675.090395
 30
0.0
  0
LWPOLYLINE
  5
16c
100
AcDbEntity
  8
Layer_1
 62
7
100
AcDbPolyline
 90
6
 70
1
 10
350.399778
 20
670.324771
 30
0.0
 10
353.696650
 20
670.324771
 30
0.0
 10
353.696650
 20
666.356019
 30
0.0
 10
350.399778
 20
666.356019
 30
0.0
 10
350.399778
 20
670.324771
 30
0.0
 10
350.399778
 20
670.324771
 30
0.0
  0
LWPOLYLINE
  5
16d
100
AcDbEntity
  8
Layer_1
 62
7
100
AcDbPolyline
 90
6
 70
1
 10
350.399778
 20
682.902899
 30
0.0
 10
353.696650
 20
682.902899
 30
0.0
 10
353.696650
 20
678.934147
 30
0.0
 10
350.399778
 20
678.934147
 30
0.0
 10
350.399778
 20
682.902899
 30
0.0
 10
350.399778
 20
682.902899
 30
0.0
  0
SPLINE
  5
16e
100
AcDbEntity
  8
Layer_1
 62
7
100
AcDbSpline
 70
8
 71
3
 72
8
 73
4
 74
0
 40
0
 40
0
 40
0
 40
0
 40
1
 40
1
 40
1
 40
1
 10
398.196650
 20
687.606019
 30
0.0
 10
396.571653
 20
687.606019
 30
0.0
 10
395.347696
 20
686.803936
 30
0.0
 10
394.524778
 20
685.199771
 30
0.0
  0
SPLINE
  5
16f
100
AcDbEntity
  8
Layer_1
 62
7
100
AcDbSpline
 70
8
 71
3
 72
8
 73
4
 74
0
 40
0
 40
0
 40
0
 40
0
 40
1
 40
1
 40
1
 40
1
 10
394.524778
 20
685.199771
 30
0.0
 10
393.712277
 20
683.606022
 30
0.0
 10
393.306026
 20
681.204979
 30
0.0
 10
393.306026
 20
677.996643
 30
0.0
  0
SPLINE
  5
170
100
AcDbEntity
  8
Layer_1
 62
7
100
AcDbSpline
 70
8
 71
3
 72
8
 73
4
 74
0
 40
0
 40
0
 40
0
 40
0
 40
1
 40
1
 40
1
 40
1
 10
393.306026
 20
677.996643
 30
0.0
 10
393.306026
 20
674.798728
 30
0.0
 10
393.712277
 20
672.397688
 30
0.0
 10
394.524778
 20
670.793523
 30
0.0
  0
SPLINE
  5
171
100
AcDbEntity
  8
Layer_1
 62
7
100
AcDbSpline
 70
8
 71
3
 72
8
 73
4
 74
0
 40
0
 40
0
 40
0
 40
0
 40
1
 40
1
 40
1
 40
1
 10
394.524778
 20
670.793523
 30
0.0
 10
395.347696
 20
669.199774
 30
0.0
 10
396.571653
 20
668.402899
 30
0.0
 10
398.196650
 20
668.402899
 30
0.0
  0
SPLINE
  5
172
100
AcDbEntity
  8
Layer_1
 62
7
100
AcDbSpline
 70
8
 71
3
 72
8
 73
4
 74
0
 40
0
 40
0
 40
0
 40
0
 40
1
 40
1
 40
1
 40
1
 10
398.196650
 20
668.402899
 30
0.0
 10
399.832069
 20
668.402899
 30
0.0
 10
401.056029
 20
669.199774
 30
0.0
 10
401.868530
 20
670.793523
 30
0.0
  0
SPLINE
  5
173
100
AcDbEntity
  8
Layer_1
 62
7
100
AcDbSpline
 70
8
 71
3
 72
8
 73
4
 74
0
 40
0
 40
0
 40
0
 40
0
 40
1
 40
1
 40
1
 40
1
 10
401.868530
 20
670.793523
 30
0.0
 10
402.691442
 20
672.397688
 30
0.0
 10
403.102898
 20
674.798728
 30
0.0
 10
403.102898
 20
677.996643
 30
0.0
  0
SPLINE
  5
174
100
AcDbEntity
  8
Layer_1
 62
7
100
AcDbSpline
 70
8
 71
3
 72
8
 73
4
 74
0
 40
0
 40
0
 40
0
 40
0
 40
1
 40
1
 40
1
 40
1
 10
403.102898
 20
677.996643
 30
0.0
 10
403.102898
 20
681.204979
 30
0.0
 10
402.691442
 20
683.606022
 30
0.0
 10
401.868530
 20
685.199771
 30
0.0
  0
SPLINE
  5
175
100
AcDbEntity
  8
Layer_1
 62
7
100
AcDbSpline
 70
8
 71
3
 72
8
 73
4
 74
0
 40
0
 40
0
 40
0
 40
0
 40
1
 40
1
 40
1
 40
1
 10
401.868530
 20
685.199771
 30
0.0
 10
401.056029
 20
686.803936
 30
0.0
 10
399.832069
 20
687.606019
 30
0.0
 10
398.196650
 20
687.606019
 30
0.0
  0
LWPOLYLINE
  5
176
100
AcDbEntity
  8
Layer_1
 62
7
100
AcDbPolyline
 90
13
 70
1
 10
371.618530
 20
669.012267
 30
0.0
 10
376.774778
 20
669.012267
 30
0.0
 10
376.774778
 20
686.809147
 30
0.0
 10
371.165402
 20
685.684147
 30
0.0
 10
371.165402
 20
688.559147
 30
0.0
 10
376.743530
 20
689.684147
 30
0.0
 10
379.899778
 20
689.684147
 30
0.0
 10
379.899778
 20
669.012267
 30
0.0
 10
385.056026
 20
669.012267
 30
0.0
 10
385.056026
 20
666.356019
 30
0.0
 10
371.618530
 20
666.356019
 30
0.0
 10
371.618530
 20
669.012267
 30
0.0
 10
371.618530
 20
669.012267
 30
0.0
  0
SPLINE
  5
177
100
AcDbEntity
  8
Layer_1
 62
7
100
AcDbSpline
 70
8
 71
3
 72
8
 73
4
 74
0
 40
0
 40
0
 40
0
 40
0
 40
1
 40
1
 40
1
 40
1
 10
398.196650
 20
690.106019
 30
0.0
 10
400.811237
 20
690.106019
 30
0.0
 10
402.806029
 20
689.069560
 30
0.0
 10
404.181026
 20
686.996643
 30
0.0
  0
SPLINE
  5
178
100
AcDbEntity
  8
Layer_1
 62
7
100
AcDbSpline
 70
8
 71
3
 72
8
 73
4
 74
0
 40
0
 40
0
 40
0
 40
0
 40
1
 40
1
 40
1
 40
1
 10
404.181026
 20
686.996643
 30
0.0
 10
405.566445
 20
684.934147
 30
0.0
 10
406.259154
 20
681.934147
 30
0.0
 10
406.259154
 20
677.996643
 30
0.0
  0
SPLINE
  5
179
100
AcDbEntity
  8
Layer_1
 62
7
100
AcDbSpline
 70
8
 71
3
 72
8
 73
4
 74
0
 40
0
 40
0
 40
0
 40
0
 40
1
 40
1
 40
1
 40
1
 10
406.259154
 20
677.996643
 30
0.0
 10
406.259154
 20
674.069560
 30
0.0
 10
405.566445
 20
671.069560
 30
0.0
 10
404.181026
 20
668.996643
 30
0.0
  0
SPLINE
  5
17a
100
AcDbEntity
  8
Layer_1
 62
7
100
AcDbSpline
 70
8
 71
3
 72
8
 73
4
 74
0
 40
0
 40
0
 40
0
 40
0
 40
1
 40
1
 40
1
 40
1
 10
404.181026
 20
668.996643
 30
0.0
 10
402.806029
 20
666.934147
 30
0.0
 10
400.811237
 20
665.902899
 30
0.0
 10
398.196650
 20
665.902899
 30
0.0
  0
SPLINE
  5
17b
100
AcDbEntity
  8
Layer_1
 62
7
100
AcDbSpline
 70
8
 71
3
 72
8
 73
4
 74
0
 40
0
 40
0
 40
0
 40
0
 40
1
 40
1
 40
1
 40
1
 10
398.196650
 20
665.902899
 30
0.0
 10
395.582069
 20
665.902899
 30
0.0
 10
393.582069
 20
666.934147
 30
0.0
 10
392.196650
 20
668.996643
 30
0.0
  0
SPLINE
  5
17c
100
AcDbEntity
  8
Layer_1
 62
7
100
AcDbSpline
 70
8
 71
3
 72
8
 73
4
 74
0
 40
0
 40
0
 40
0
 40
0
 40
1
 40
1
 40
1
 40
1
 10
392.196650
 20
668.996643
 30
0.0
 10
390.821653
 20
671.069560
 30
0.0
 10
390.134154
 20
674.069560
 30
0.0
 10
390.134154
 20
677.996643
 30
0.0
  0
SPLINE
  5
17d
100
AcDbEntity
  8
Layer_1
 62
7
100
AcDbSpline
 70
8
 71
3
 72
8
 73
4
 74
0
 40
0
 40
0
 40
0
 40
0
 40
1
 40
1
 40
1
 40
1
 10
390.134154
 20
677.996643
 30
0.0
 10
390.134154
 20
681.934147
 30
0.0
 10
390.821653
 20
684.934147
 30
0.0
 10
392.196650
 20
686.996643
 30
0.0
  0
SPLINE
  5
17e
100
AcDbEntity
  8
Layer_1
 62
7
100
AcDbSpline
 70
8
 71
3
 72
8
 73
4
 74
0
 40
0
 40
0
 40
0
 40
0
 40
1
 40
1
 40
1
 40
1
 10
392.196650
 20
686.996643
 30
0.0
 10
393.582069
 20
689.069560
 30
0.0
 10
395.582069
 20
690.106019
 30
0.0
 10
398.196650
 20
690.106019
 30
0.0
  0
LWPOLYLINE
  5
17f
100
AcDbEntity
  8
Layer_1
 62
7
100
AcDbPolyline
 90
2
 70
1
 10
398.196650
 20
687.606019
 30
0.0
 10
398.196650
 20
687.606019
 30
0.0
  0
LWPOLYLINE
  5
180
100
AcDbEntity
  8
Layer_1
 62
7
100
AcDbPolyline
 90
2
 70
1
 10
398.196650
 20
690.106019
 30
0.0
 10
398.196650
 20
690.106019
 30
0.0
  0
SPLINE
  5
181
100
AcDbEntity
  8
Layer_1
 62
7
100
AcDbSpline
 70
8
 71
3
 72
8
 73
4
 74
0
 40
0
 40
0
 40
0
 40
0
 40
1
 40
1
 40
1
 40
1
 10
256.665402
 20
638.324771
 30
0.0
 10
258.134154
 20
638.324771
 30
0.0
 10
259.269570
 20
638.704979
 30
0.0
 10
260.071650
 20
639.465395
 30
0.0
  0
SPLINE
  5
182
100
AcDbEntity
  8
Layer_1
 62
7
100
AcDbSpline
 70
8
 71
3
 72
8
 73
4
 74
0
 40
0
 40
0
 40
0
 40
0
 40
1
 40
1
 40
1
 40
1
 10
260.071650
 20
639.465395
 30
0.0
 10
260.873736
 20
640.225811
 30
0.0
 10
261.274778
 20
641.309144
 30
0.0
 10
261.274778
 20
642.715395
 30
0.0
  0
SPLINE
  5
183
100
AcDbEntity
  8
Layer_1
 62
7
100
AcDbSpline
 70
8
 71
3
 72
8
 73
4
 74
0
 40
0
 40
0
 40
0
 40
0
 40
1
 40
1
 40
1
 40
1
 10
261.274778
 20
642.715395
 30
0.0
 10
261.274778
 20
644.111230
 30
0.0
 10
260.873736
 20
645.189355
 30
0.0
 10
260.071650
 20
645.949771
 30
0.0
  0
SPLINE
  5
184
100
AcDbEntity
  8
Layer_1
 62
7
100
AcDbSpline
 70
8
 71
3
 72
8
 73
4
 74
0
 40
0
 40
0
 40
0
 40
0
 40
1
 40
1
 40
1
 40
1
 10
260.071650
 20
645.949771
 30
0.0
 10
259.269570
 20
646.710187
 30
0.0
 10
258.134154
 20
647.090395
 30
0.0
 10
256.665402
 20
647.090395
 30
0.0
  0
LWPOLYLINE
  5
185
100
AcDbEntity
  8
Layer_1
 62
7
100
AcDbPolyline
 90
3
 70
1
 10
252.696650
 20
647.090395
 30
0.0
 10
252.696650
 20
638.324771
 30
0.0
 10
256.665402
 20
638.324771
 30
0.0
  0
LWPOLYLINE
  5
186
100
AcDbEntity
  8
Layer_1
 62
7
100
AcDbPolyline
 90
3
 70
1
 10
256.665402
 20
647.090395
 30
0.0
 10
252.696650
 20
647.090395
 30
0.0
 10
252.696650
 20
647.090395
 30
0.0
  0
SPLINE
  5
187
100
AcDbEntity
  8
Layer_1
 62
7
100
AcDbSpline
 70
8
 71
3
 72
8
 73
4
 74
0
 40
0
 40
0
 40
0
 40
0
 40
1
 40
1
 40
1
 40
1
 10
256.665402
 20
649.684147
 30
0.0
 10
259.279984
 20
649.684147
 30
0.0
 10
261.253941
 20
649.090398
 30
0.0
 10
262.587274
 20
647.902899
 30
0.0
  0
SPLINE
  5
188
100
AcDbEntity
  8
Layer_1
 62
7
100
AcDbSpline
 70
8
 71
3
 72
8
 73
4
 74
0
 40
0
 40
0
 40
0
 40
0
 40
1
 40
1
 40
1
 40
1
 10
262.587274
 20
647.902899
 30
0.0
 10
263.931024
 20
646.725811
 30
0.0
 10
264.602898
 20
644.996643
 30
0.0
 10
264.602898
 20
642.715395
 30
0.0
  0
SPLINE
  5
189
100
AcDbEntity
  8
Layer_1
 62
7
100
AcDbSpline
 70
8
 71
3
 72
8
 73
4
 74
0
 40
0
 40
0
 40
0
 40
0
 40
1
 40
1
 40
1
 40
1
 10
264.602898
 20
642.715395
 30
0.0
 10
264.602898
 20
640.413310
 30
0.0
 10
263.931024
 20
638.673726
 30
0.0
 10
262.587274
 20
637.496643
 30
0.0
  0
SPLINE
  5
18a
100
AcDbEntity
  8
Layer_1
 62
7
100
AcDbSpline
 70
8
 71
3
 72
8
 73
4
 74
0
 40
0
 40
0
 40
0
 40
0
 40
1
 40
1
 40
1
 40
1
 10
262.587274
 20
637.496643
 30
0.0
 10
261.253941
 20
636.319560
 30
0.0
 10
259.279984
 20
635.731019
 30
0.0
 10
256.665402
 20
635.731019
 30
0.0
  0
LWPOLYLINE
  5
18b
100
AcDbEntity
  8
Layer_1
 62
7
100
AcDbPolyline
 90
2
 70
1
 10
249.540402
 20
649.684147
 30
0.0
 10
256.665402
 20
649.684147
 30
0.0
  0
SPLINE
  5
18c
100
AcDbEntity
  8
Layer_1
 62
7
100
AcDbSpline
 70
8
 71
3
 72
8
 73
4
 74
0
 40
0
 40
0
 40
0
 40
0
 40
1
 40
1
 40
1
 40
1
 10
274.384154
 20
641.840395
 30
0.0
 10
272.842485
 20
641.840395
 30
0.0
 10
271.623733
 20
641.236230
 30
0.0
 10
270.727898
 20
640.027899
 30
0.0
  0
SPLINE
  5
18d
100
AcDbEntity
  8
Layer_1
 62
7
100
AcDbSpline
 70
8
 71
3
 72
8
 73
4
 74
0
 40
0
 40
0
 40
0
 40
0
 40
1
 40
1
 40
1
 40
1
 10
270.727898
 20
640.027899
 30
0.0
 10
269.832069
 20
638.829979
 30
0.0
 10
269.384154
 20
637.184144
 30
0.0
 10
269.384154
 20
635.090395
 30
0.0
  0
SPLINE
  5
18e
100
AcDbEntity
  8
Layer_1
 62
7
100
AcDbSpline
 70
8
 71
3
 72
8
 73
4
 74
0
 40
0
 40
0
 40
0
 40
0
 40
1
 40
1
 40
1
 40
1
 10
269.384154
 20
635.090395
 30
0.0
 10
269.384154
 20
632.996646
 30
0.0
 10
269.826861
 20
631.345603
 30
0.0
 10
270.712274
 20
630.137267
 30
0.0
  0
SPLINE
  5
18f
100
AcDbEntity
  8
Layer_1
 62
7
100
AcDbSpline
 70
8
 71
3
 72
8
 73
4
 74
0
 40
0
 40
0
 40
0
 40
0
 40
1
 40
1
 40
1
 40
1
 10
270.712274
 20
630.137267
 30
0.0
 10
271.608109
 20
628.939352
 30
0.0
 10
272.832069
 20
628.340395
 30
0.0
 10
274.384154
 20
628.340395
 30
0.0
  0
SPLINE
  5
190
100
AcDbEntity
  8
Layer_1
 62
7
100
AcDbSpline
 70
8
 71
3
 72
8
 73
4
 74
0
 40
0
 40
0
 40
0
 40
0
 40
1
 40
1
 40
1
 40
1
 10
274.384154
 20
628.340395
 30
0.0
 10
275.915402
 20
628.340395
 30
0.0
 10
277.128944
 20
628.944563
 30
0.0
 10
278.024778
 20
630.152899
 30
0.0
  0
SPLINE
  5
191
100
AcDbEntity
  8
Layer_1
 62
7
100
AcDbSpline
 70
8
 71
3
 72
8
 73
4
 74
0
 40
0
 40
0
 40
0
 40
0
 40
1
 40
1
 40
1
 40
1
 10
278.024778
 20
630.152899
 30
0.0
 10
278.920613
 20
631.361230
 30
0.0
 10
279.368530
 20
633.007062
 30
0.0
 10
279.368530
 20
635.090395
 30
0.0
  0
SPLINE
  5
192
100
AcDbEntity
  8
Layer_1
 62
7
100
AcDbSpline
 70
8
 71
3
 72
8
 73
4
 74
0
 40
0
 40
0
 40
0
 40
0
 40
1
 40
1
 40
1
 40
1
 10
279.368530
 20
635.090395
 30
0.0
 10
279.368530
 20
637.163312
 30
0.0
 10
278.920613
 20
638.803936
 30
0.0
 10
278.024778
 20
640.012267
 30
0.0
  0
SPLINE
  5
193
100
AcDbEntity
  8
Layer_1
 62
7
100
AcDbSpline
 70
8
 71
3
 72
8
 73
4
 74
0
 40
0
 40
0
 40
0
 40
0
 40
1
 40
1
 40
1
 40
1
 10
278.024778
 20
640.012267
 30
0.0
 10
277.128944
 20
641.231019
 30
0.0
 10
275.915402
 20
641.840395
 30
0.0
 10
274.384154
 20
641.840395
 30
0.0
  0
LWPOLYLINE
  5
194
100
AcDbEntity
  8
Layer_1
 62
7
100
AcDbPolyline
 90
6
 70
1
 10
256.665402
 20
635.731019
 30
0.0
 10
252.696650
 20
635.731019
 30
0.0
 10
252.696650
 20
626.356019
 30
0.0
 10
249.540402
 20
626.356019
 30
0.0
 10
249.540402
 20
649.684147
 30
0.0
 10
249.540402
 20
649.684147
 30
0.0
  0
SPLINE
  5
195
100
AcDbEntity
  8
Layer_1
 62
7
100
AcDbSpline
 70
8
 71
3
 72
8
 73
4
 74
0
 40
0
 40
0
 40
0
 40
0
 40
1
 40
1
 40
1
 40
1
 10
274.384154
 20
644.277899
 30
0.0
 10
276.884154
 20
644.277899
 30
0.0
 10
278.847696
 20
643.465398
 30
0.0
 10
280.274778
 20
641.840395
 30
0.0
  0
SPLINE
  5
196
100
AcDbEntity
  8
Layer_1
 62
7
100
AcDbSpline
 70
8
 71
3
 72
8
 73
4
 74
0
 40
0
 40
0
 40
0
 40
0
 40
1
 40
1
 40
1
 40
1
 10
280.274778
 20
641.840395
 30
0.0
 10
281.701861
 20
640.215398
 30
0.0
 10
282.415402
 20
637.965398
 30
0.0
 10
282.415402
 20
635.090395
 30
0.0
  0
SPLINE
  5
197
100
AcDbEntity
  8
Layer_1
 62
7
100
AcDbSpline
 70
8
 71
3
 72
8
 73
4
 74
0
 40
0
 40
0
 40
0
 40
0
 40
1
 40
1
 40
1
 40
1
 10
282.415402
 20
635.090395
 30
0.0
 10
282.415402
 20
632.225814
 30
0.0
 10
281.701861
 20
629.975814
 30
0.0
 10
280.274778
 20
628.340395
 30
0.0
  0
SPLINE
  5
198
100
AcDbEntity
  8
Layer_1
 62
7
100
AcDbSpline
 70
8
 71
3
 72
8
 73
4
 74
0
 40
0
 40
0
 40
0
 40
0
 40
1
 40
1
 40
1
 40
1
 10
280.274778
 20
628.340395
 30
0.0
 10
278.847696
 20
626.715398
 30
0.0
 10
276.884154
 20
625.902899
 30
0.0
 10
274.384154
 20
625.902899
 30
0.0
  0
SPLINE
  5
199
100
AcDbEntity
  8
Layer_1
 62
7
100
AcDbSpline
 70
8
 71
3
 72
8
 73
4
 74
0
 40
0
 40
0
 40
0
 40
0
 40
1
 40
1
 40
1
 40
1
 10
274.384154
 20
625.902899
 30
0.0
 10
271.873738
 20
625.902899
 30
0.0
 10
269.904986
 20
626.715398
 30
0.0
 10
268.477898
 20
628.340395
 30
0.0
  0
SPLINE
  5
19a
100
AcDbEntity
  8
Layer_1
 62
7
100
AcDbSpline
 70
8
 71
3
 72
8
 73
4
 74
0
 40
0
 40
0
 40
0
 40
0
 40
1
 40
1
 40
1
 40
1
 10
268.477898
 20
628.340395
 30
0.0
 10
267.061232
 20
629.975814
 30
0.0
 10
266.352898
 20
632.225814
 30
0.0
 10
266.352898
 20
635.090395
 30
0.0
  0
SPLINE
  5
19b
100
AcDbEntity
  8
Layer_1
 62
7
100
AcDbSpline
 70
8
 71
3
 72
8
 73
4
 74
0
 40
0
 40
0
 40
0
 40
0
 40
1
 40
1
 40
1
 40
1
 10
266.352898
 20
635.090395
 30
0.0
 10
266.352898
 20
637.965398
 30
0.0
 10
267.061232
 20
640.215398
 30
0.0
 10
268.477898
 20
641.840395
 30
0.0
  0
SPLINE
  5
19c
100
AcDbEntity
  8
Layer_1
 62
7
100
AcDbSpline
 70
8
 71
3
 72
8
 73
4
 74
0
 40
0
 40
0
 40
0
 40
0
 40
1
 40
1
 40
1
 40
1
 10
268.477898
 20
641.840395
 30
0.0
 10
269.904986
 20
643.465398
 30
0.0
 10
271.873738
 20
644.277899
 30
0.0
 10
274.384154
 20
644.277899
 30
0.0
  0
LWPOLYLINE
  5
19d
100
AcDbEntity
  8
Layer_1
 62
7
100
AcDbPolyline
 90
2
 70
1
 10
274.384154
 20
641.840395
 30
0.0
 10
274.384154
 20
641.840395
 30
0.0
  0
LWPOLYLINE
  5
19e
100
AcDbEntity
  8
Layer_1
 62
7
100
AcDbPolyline
 90
2
 70
1
 10
274.384154
 20
644.277899
 30
0.0
 10
274.384154
 20
644.277899
 30
0.0
  0
LWPOLYLINE
  5
19f
100
AcDbEntity
  8
Layer_1
 62
7
100
AcDbPolyline
 90
15
 70
1
 10
285.493530
 20
643.856019
 30
0.0
 10
288.368530
 20
643.856019
 30
0.0
 10
291.962274
 20
630.199771
 30
0.0
 10
295.540402
 20
643.856019
 30
0.0
 10
298.931026
 20
643.856019
 30
0.0
 10
302.524778
 20
630.199771
 30
0.0
 10
306.102898
 20
643.856019
 30
0.0
 10
308.977898
 20
643.856019
 30
0.0
 10
304.399778
 20
626.356019
 30
0.0
 10
301.009154
 20
626.356019
 30
0.0
 10
297.243530
 20
640.699771
 30
0.0
 10
293.462274
 20
626.356019
 30
0.0
 10
290.071650
 20
626.356019
 30
0.0
 10
285.493530
 20
643.856019
 30
0.0
 10
285.493530
 20
643.856019
 30
0.0
  0
SPLINE
  5
1a0
100
AcDbEntity
  8
Layer_1
 62
7
100
AcDbSpline
 70
8
 71
3
 72
8
 73
4
 74
0
 40
0
 40
0
 40
0
 40
0
 40
1
 40
1
 40
1
 40
1
 10
315.102898
 20
634.418523
 30
0.0
 10
315.227901
 20
632.439355
 30
0.0
 10
315.821653
 20
630.928936
 30
0.0
 10
316.884154
 20
629.887267
 30
0.0
  0
SPLINE
  5
1a1
100
AcDbEntity
  8
Layer_1
 62
7
100
AcDbSpline
 70
8
 71
3
 72
8
 73
4
 74
0
 40
0
 40
0
 40
0
 40
0
 40
1
 40
1
 40
1
 40
1
 10
316.884154
 20
629.887267
 30
0.0
 10
317.957072
 20
628.856019
 30
0.0
 10
319.446653
 20
628.340395
 30
0.0
 10
321.352898
 20
628.340395
 30
0.0
  0
SPLINE
  5
1a2
100
AcDbEntity
  8
Layer_1
 62
7
100
AcDbSpline
 70
8
 71
3
 72
8
 73
4
 74
0
 40
0
 40
0
 40
0
 40
0
 40
1
 40
1
 40
1
 40
1
 10
321.352898
 20
628.340395
 30
0.0
 10
322.457069
 20
628.340395
 30
0.0
 10
323.524778
 20
628.475811
 30
0.0
 10
324.556026
 20
628.746643
 30
0.0
  0
SPLINE
  5
1a3
100
AcDbEntity
  8
Layer_1
 62
7
100
AcDbSpline
 70
8
 71
3
 72
8
 73
4
 74
0
 40
0
 40
0
 40
0
 40
0
 40
1
 40
1
 40
1
 40
1
 10
324.556026
 20
628.746643
 30
0.0
 10
325.597696
 20
629.017480
 30
0.0
 10
326.628946
 20
629.423731
 30
0.0
 10
327.649778
 20
629.965395
 30
0.0
  0
LWPOLYLINE
  5
1a4
100
AcDbEntity
  8
Layer_1
 62
7
100
AcDbPolyline
 90
3
 70
1
 10
328.321650
 20
635.824771
 30
0.0
 10
328.321650
 20
634.418523
 30
0.0
 10
315.102898
 20
634.418523
 30
0.0
  0
SPLINE
  5
1a5
100
AcDbEntity
  8
Layer_1
 62
7
100
AcDbSpline
 70
8
 71
3
 72
8
 73
4
 74
0
 40
0
 40
0
 40
0
 40
0
 40
1
 40
1
 40
1
 40
1
 10
327.649778
 20
627.246643
 30
0.0
 10
326.618525
 20
626.809144
 30
0.0
 10
325.561232
 20
626.475811
 30
0.0
 10
324.477898
 20
626.246643
 30
0.0
  0
SPLINE
  5
1a6
100
AcDbEntity
  8
Layer_1
 62
7
100
AcDbSpline
 70
8
 71
3
 72
8
 73
4
 74
0
 40
0
 40
0
 40
0
 40
0
 40
1
 40
1
 40
1
 40
1
 10
324.477898
 20
626.246643
 30
0.0
 10
323.394565
 20
626.017480
 30
0.0
 10
322.295608
 20
625.902899
 30
0.0
 10
321.181026
 20
625.902899
 30
0.0
  0
SPLINE
  5
1a7
100
AcDbEntity
  8
Layer_1
 62
7
100
AcDbSpline
 70
8
 71
3
 72
8
 73
4
 74
0
 40
0
 40
0
 40
0
 40
0
 40
1
 40
1
 40
1
 40
1
 10
321.181026
 20
625.902899
 30
0.0
 10
318.389362
 20
625.902899
 30
0.0
 10
316.175821
 20
626.715398
 30
0.0
 10
314.540402
 20
628.340395
 30
0.0
  0
SPLINE
  5
1a8
100
AcDbEntity
  8
Layer_1
 62
7
100
AcDbSpline
 70
8
 71
3
 72
8
 73
4
 74
0
 40
0
 40
0
 40
0
 40
0
 40
1
 40
1
 40
1
 40
1
 10
314.540402
 20
628.340395
 30
0.0
 10
312.915400
 20
629.965398
 30
0.0
 10
312.102898
 20
632.163315
 30
0.0
 10
312.102898
 20
634.934147
 30
0.0
  0
SPLINE
  5
1a9
100
AcDbEntity
  8
Layer_1
 62
7
100
AcDbSpline
 70
8
 71
3
 72
8
 73
4
 74
0
 40
0
 40
0
 40
0
 40
0
 40
1
 40
1
 40
1
 40
1
 10
312.102898
 20
634.934147
 30
0.0
 10
312.102898
 20
637.798728
 30
0.0
 10
312.873733
 20
640.069560
 30
0.0
 10
314.415402
 20
641.746643
 30
0.0
  0
SPLINE
  5
1aa
100
AcDbEntity
  8
Layer_1
 62
7
100
AcDbSpline
 70
8
 71
3
 72
8
 73
4
 74
0
 40
0
 40
0
 40
0
 40
0
 40
1
 40
1
 40
1
 40
1
 10
314.415402
 20
641.746643
 30
0.0
 10
315.967488
 20
643.434147
 30
0.0
 10
318.056029
 20
644.277899
 30
0.0
 10
320.681026
 20
644.277899
 30
0.0
  0
SPLINE
  5
1ab
100
AcDbEntity
  8
Layer_1
 62
7
100
AcDbSpline
 70
8
 71
3
 72
8
 73
4
 74
0
 40
0
 40
0
 40
0
 40
0
 40
1
 40
1
 40
1
 40
1
 10
320.681026
 20
644.277899
 30
0.0
 10
323.035192
 20
644.277899
 30
0.0
 10
324.894568
 20
643.517480
 30
0.0
 10
326.259154
 20
641.996643
 30
0.0
  0
SPLINE
  5
1ac
100
AcDbEntity
  8
Layer_1
 62
7
100
AcDbSpline
 70
8
 71
3
 72
8
 73
4
 74
0
 40
0
 40
0
 40
0
 40
0
 40
1
 40
1
 40
1
 40
1
 10
326.259154
 20
641.996643
 30
0.0
 10
327.634152
 20
640.486227
 30
0.0
 10
328.321650
 20
638.428936
 30
0.0
 10
328.321650
 20
635.824771
 30
0.0
  0
LWPOLYLINE
  5
1ad
100
AcDbEntity
  8
Layer_1
 62
7
100
AcDbPolyline
 90
2
 70
1
 10
327.649778
 20
629.965395
 30
0.0
 10
327.649778
 20
627.246643
 30
0.0
  0
SPLINE
  5
1ae
100
AcDbEntity
  8
Layer_1
 62
7
100
AcDbSpline
 70
8
 71
3
 72
8
 73
4
 74
0
 40
0
 40
0
 40
0
 40
0
 40
1
 40
1
 40
1
 40
1
 10
325.446650
 20
636.668523
 30
0.0
 10
325.425797
 20
638.241440
 30
0.0
 10
324.983090
 20
639.496648
 30
0.0
 10
324.118530
 20
640.434147
 30
0.0
  0
SPLINE
  5
1af
100
AcDbEntity
  8
Layer_1
 62
7
100
AcDbSpline
 70
8
 71
3
 72
8
 73
4
 74
0
 40
0
 40
0
 40
0
 40
0
 40
1
 40
1
 40
1
 40
1
 10
324.118530
 20
640.434147
 30
0.0
 10
323.264360
 20
641.371646
 30
0.0
 10
322.128941
 20
641.840395
 30
0.0
 10
320.712274
 20
641.840395
 30
0.0
  0
SPLINE
  5
1b0
100
AcDbEntity
  8
Layer_1
 62
7
100
AcDbSpline
 70
8
 71
3
 72
8
 73
4
 74
0
 40
0
 40
0
 40
0
 40
0
 40
1
 40
1
 40
1
 40
1
 10
320.712274
 20
641.840395
 30
0.0
 10
319.108109
 20
641.840395
 30
0.0
 10
317.821650
 20
641.387270
 30
0.0
 10
316.852898
 20
640.481019
 30
0.0
  0
SPLINE
  5
1b1
100
AcDbEntity
  8
Layer_1
 62
7
100
AcDbSpline
 70
8
 71
3
 72
8
 73
4
 74
0
 40
0
 40
0
 40
0
 40
0
 40
1
 40
1
 40
1
 40
1
 10
316.852898
 20
640.481019
 30
0.0
 10
315.894568
 20
639.574768
 30
0.0
 10
315.342485
 20
638.298728
 30
0.0
 10
315.196650
 20
636.652899
 30
0.0
  0
LWPOLYLINE
  5
1b2
100
AcDbEntity
  8
Layer_1
 62
7
100
AcDbPolyline
 90
2
 70
1
 10
328.321650
 20
635.824771
 30
0.0
 10
328.321650
 20
635.824771
 30
0.0
  0
SPLINE
  5
1b3
100
AcDbEntity
  8
Layer_1
 62
7
100
AcDbSpline
 70
8
 71
3
 72
8
 73
4
 74
0
 40
0
 40
0
 40
0
 40
0
 40
1
 40
1
 40
1
 40
1
 10
343.118530
 20
641.168523
 30
0.0
 10
342.795613
 20
641.356022
 30
0.0
 10
342.441445
 20
641.491438
 30
0.0
 10
342.056026
 20
641.574771
 30
0.0
  0
SPLINE
  5
1b4
100
AcDbEntity
  8
Layer_1
 62
7
100
AcDbSpline
 70
8
 71
3
 72
8
 73
4
 74
0
 40
0
 40
0
 40
0
 40
0
 40
1
 40
1
 40
1
 40
1
 10
342.056026
 20
641.574771
 30
0.0
 10
341.681029
 20
641.668520
 30
0.0
 10
341.264362
 20
641.715395
 30
0.0
 10
340.806026
 20
641.715395
 30
0.0
  0
SPLINE
  5
1b5
100
AcDbEntity
  8
Layer_1
 62
7
100
AcDbSpline
 70
8
 71
3
 72
8
 73
4
 74
0
 40
0
 40
0
 40
0
 40
0
 40
1
 40
1
 40
1
 40
1
 10
340.806026
 20
641.715395
 30
0.0
 10
339.181029
 20
641.715395
 30
0.0
 10
337.931029
 20
641.184144
 30
0.0
 10
337.056026
 20
640.121643
 30
0.0
  0
SPLINE
  5
1b6
100
AcDbEntity
  8
Layer_1
 62
7
100
AcDbSpline
 70
8
 71
3
 72
8
 73
4
 74
0
 40
0
 40
0
 40
0
 40
0
 40
1
 40
1
 40
1
 40
1
 10
337.056026
 20
640.121643
 30
0.0
 10
336.191445
 20
639.069563
 30
0.0
 10
335.759154
 20
637.553939
 30
0.0
 10
335.759154
 20
635.574771
 30
0.0
  0
LWPOLYLINE
  5
1b7
100
AcDbEntity
  8
Layer_1
 62
7
100
AcDbPolyline
 90
3
 70
1
 10
315.196650
 20
636.652899
 30
0.0
 10
325.446650
 20
636.668499
 30
0.0
 10
325.446650
 20
636.668523
 30
0.0
  0
SPLINE
  5
1b8
100
AcDbEntity
  8
Layer_1
 62
7
100
AcDbSpline
 70
8
 71
3
 72
8
 73
4
 74
0
 40
0
 40
0
 40
0
 40
0
 40
1
 40
1
 40
1
 40
1
 10
335.759154
 20
641.137267
 30
0.0
 10
336.363320
 20
642.199768
 30
0.0
 10
337.149778
 20
642.986227
 30
0.0
 10
338.118530
 20
643.496643
 30
0.0
  0
SPLINE
  5
1b9
100
AcDbEntity
  8
Layer_1
 62
7
100
AcDbSpline
 70
8
 71
3
 72
8
 73
4
 74
0
 40
0
 40
0
 40
0
 40
0
 40
1
 40
1
 40
1
 40
1
 10
338.118530
 20
643.496643
 30
0.0
 10
339.087277
 20
644.017480
 30
0.0
 10
340.264360
 20
644.277899
 30
0.0
 10
341.649778
 20
644.277899
 30
0.0
  0
SPLINE
  5
1ba
100
AcDbEntity
  8
Layer_1
 62
7
100
AcDbSpline
 70
8
 71
3
 72
8
 73
4
 74
0
 40
0
 40
0
 40
0
 40
0
 40
1
 40
1
 40
1
 40
1
 10
341.649778
 20
644.277899
 30
0.0
 10
341.847693
 20
644.277899
 30
0.0
 10
342.066442
 20
644.262272
 30
0.0
 10
342.306026
 20
644.231019
 30
0.0
  0
SPLINE
  5
1bb
100
AcDbEntity
  8
Layer_1
 62
7
100
AcDbSpline
 70
8
 71
3
 72
8
 73
4
 74
0
 40
0
 40
0
 40
0
 40
0
 40
1
 40
1
 40
1
 40
1
 10
342.306026
 20
644.231019
 30
0.0
 10
342.545610
 20
644.210166
 30
0.0
 10
342.811234
 20
644.173707
 30
0.0
 10
343.102898
 20
644.121643
 30
0.0
  0
LWPOLYLINE
  5
1bc
100
AcDbEntity
  8
Layer_1
 62
7
100
AcDbPolyline
 90
6
 70
1
 10
335.759154
 20
635.574771
 30
0.0
 10
335.759154
 20
626.356019
 30
0.0
 10
332.868530
 20
626.356019
 30
0.0
 10
332.868530
 20
643.856019
 30
0.0
 10
335.759154
 20
643.856019
 30
0.0
 10
335.759154
 20
641.137267
 30
0.0
  0
LWPOLYLINE
  5
1bd
100
AcDbEntity
  8
Layer_1
 62
7
100
AcDbPolyline
 90
3
 70
1
 10
343.102898
 20
644.121643
 30
0.0
 10
343.118498
 20
641.168523
 30
0.0
 10
343.118530
 20
641.168523
 30
0.0
  0
LWPOLYLINE
  5
1be
100
AcDbEntity
  8
Layer_1
 62
7
100
AcDbPolyline
 90
6
 70
1
 10
346.368530
 20
630.324771
 30
0.0
 10
349.665402
 20
630.324771
 30
0.0
 10
349.665402
 20
626.356019
 30
0.0
 10
346.368530
 20
626.356019
 30
0.0
 10
346.368530
 20
630.324771
 30
0.0
 10
346.368530
 20
630.324771
 30
0.0
  0
LWPOLYLINE
  5
1bf
100
AcDbEntity
  8
Layer_1
 62
7
100
AcDbPolyline
 90
6
 70
1
 10
346.368530
 20
642.902899
 30
0.0
 10
349.665402
 20
642.902899
 30
0.0
 10
349.665402
 20
638.934147
 30
0.0
 10
346.368530
 20
638.934147
 30
0.0
 10
346.368530
 20
642.902899
 30
0.0
 10
346.368530
 20
642.902899
 30
0.0
  0
SPLINE
  5
1c0
100
AcDbEntity
  8
Layer_1
 62
7
100
AcDbSpline
 70
8
 71
3
 72
8
 73
4
 74
0
 40
0
 40
0
 40
0
 40
0
 40
1
 40
1
 40
1
 40
1
 10
369.993530
 20
641.309147
 30
0.0
 10
370.451861
 20
641.465398
 30
0.0
 10
370.910194
 20
641.579982
 30
0.0
 10
371.368530
 20
641.652899
 30
0.0
  0
SPLINE
  5
1c1
100
AcDbEntity
  8
Layer_1
 62
7
100
AcDbSpline
 70
8
 71
3
 72
8
 73
4
 74
0
 40
0
 40
0
 40
0
 40
0
 40
1
 40
1
 40
1
 40
1
 10
371.368530
 20
641.652899
 30
0.0
 10
371.826861
 20
641.736232
 30
0.0
 10
372.285194
 20
641.777899
 30
0.0
 10
372.743530
 20
641.777899
 30
0.0
  0
SPLINE
  5
1c2
100
AcDbEntity
  8
Layer_1
 62
7
100
AcDbSpline
 70
8
 71
3
 72
8
 73
4
 74
0
 40
0
 40
0
 40
0
 40
0
 40
1
 40
1
 40
1
 40
1
 10
372.743530
 20
641.777899
 30
0.0
 10
375.347696
 20
641.777899
 30
0.0
 10
377.410194
 20
641.064355
 30
0.0
 10
378.931026
 20
639.637267
 30
0.0
  0
SPLINE
  5
1c3
100
AcDbEntity
  8
Layer_1
 62
7
100
AcDbSpline
 70
8
 71
3
 72
8
 73
4
 74
0
 40
0
 40
0
 40
0
 40
0
 40
1
 40
1
 40
1
 40
1
 10
378.931026
 20
639.637267
 30
0.0
 10
380.451858
 20
638.210184
 30
0.0
 10
381.212274
 20
636.277894
 30
0.0
 10
381.212274
 20
633.840395
 30
0.0
  0
SPLINE
  5
1c4
100
AcDbEntity
  8
Layer_1
 62
7
100
AcDbSpline
 70
8
 71
3
 72
8
 73
4
 74
0
 40
0
 40
0
 40
0
 40
0
 40
1
 40
1
 40
1
 40
1
 10
381.212274
 20
633.840395
 30
0.0
 10
381.212274
 20
631.329979
 30
0.0
 10
380.431026
 20
629.376854
 30
0.0
 10
378.868530
 20
627.981019
 30
0.0
  0
SPLINE
  5
1c5
100
AcDbEntity
  8
Layer_1
 62
7
100
AcDbSpline
 70
8
 71
3
 72
8
 73
4
 74
0
 40
0
 40
0
 40
0
 40
0
 40
1
 40
1
 40
1
 40
1
 10
378.868530
 20
627.981019
 30
0.0
 10
377.306029
 20
626.595606
 30
0.0
 10
375.102904
 20
625.902899
 30
0.0
 10
372.259154
 20
625.902899
 30
0.0
  0
SPLINE
  5
1c6
100
AcDbEntity
  8
Layer_1
 62
7
100
AcDbSpline
 70
8
 71
3
 72
8
 73
4
 74
0
 40
0
 40
0
 40
0
 40
0
 40
1
 40
1
 40
1
 40
1
 10
372.259154
 20
625.902899
 30
0.0
 10
371.279986
 20
625.902899
 30
0.0
 10
370.279986
 20
625.986232
 30
0.0
 10
369.259154
 20
626.152899
 30
0.0
  0
SPLINE
  5
1c7
100
AcDbEntity
  8
Layer_1
 62
7
100
AcDbSpline
 70
8
 71
3
 72
8
 73
4
 74
0
 40
0
 40
0
 40
0
 40
0
 40
1
 40
1
 40
1
 40
1
 10
369.259154
 20
626.152899
 30
0.0
 10
368.248738
 20
626.319566
 30
0.0
 10
367.201864
 20
626.569566
 30
0.0
 10
366.118530
 20
626.902899
 30
0.0
  0
LWPOLYLINE
  5
1c8
100
AcDbEntity
  8
Layer_1
 62
7
100
AcDbPolyline
 90
5
 70
1
 10
367.102898
 20
649.684147
 30
0.0
 10
379.493530
 20
649.684147
 30
0.0
 10
379.493530
 20
647.027899
 30
0.0
 10
369.993530
 20
647.027899
 30
0.0
 10
369.993530
 20
641.309147
 30
0.0
  0
SPLINE
  5
1c9
100
AcDbEntity
  8
Layer_1
 62
7
100
AcDbSpline
 70
8
 71
3
 72
8
 73
4
 74
0
 40
0
 40
0
 40
0
 40
0
 40
1
 40
1
 40
1
 40
1
 10
366.118530
 20
630.074771
 30
0.0
 10
367.056029
 20
629.564355
 30
0.0
 10
368.024778
 20
629.184147
 30
0.0
 10
369.024778
 20
628.934147
 30
0.0
  0
SPLINE
  5
1ca
100
AcDbEntity
  8
Layer_1
 62
7
100
AcDbSpline
 70
8
 71
3
 72
8
 73
4
 74
0
 40
0
 40
0
 40
0
 40
0
 40
1
 40
1
 40
1
 40
1
 10
369.024778
 20
628.934147
 30
0.0
 10
370.024778
 20
628.684147
 30
0.0
 10
371.082069
 20
628.559147
 30
0.0
 10
372.196650
 20
628.559147
 30
0.0
  0
SPLINE
  5
1cb
100
AcDbEntity
  8
Layer_1
 62
7
100
AcDbSpline
 70
8
 71
3
 72
8
 73
4
 74
0
 40
0
 40
0
 40
0
 40
0
 40
1
 40
1
 40
1
 40
1
 10
372.196650
 20
628.559147
 30
0.0
 10
373.998736
 20
628.559147
 30
0.0
 10
375.425818
 20
629.033104
 30
0.0
 10
376.477898
 20
629.981019
 30
0.0
  0
SPLINE
  5
1cc
100
AcDbEntity
  8
Layer_1
 62
7
100
AcDbSpline
 70
8
 71
3
 72
8
 73
4
 74
0
 40
0
 40
0
 40
0
 40
0
 40
1
 40
1
 40
1
 40
1
 10
376.477898
 20
629.981019
 30
0.0
 10
377.529984
 20
630.928939
 30
0.0
 10
378.056026
 20
632.215398
 30
0.0
 10
378.056026
 20
633.840395
 30
0.0
  0
SPLINE
  5
1cd
100
AcDbEntity
  8
Layer_1
 62
7
100
AcDbSpline
 70
8
 71
3
 72
8
 73
4
 74
0
 40
0
 40
0
 40
0
 40
0
 40
1
 40
1
 40
1
 40
1
 10
378.056026
 20
633.840395
 30
0.0
 10
378.056026
 20
635.465398
 30
0.0
 10
377.529984
 20
636.751856
 30
0.0
 10
376.477898
 20
637.699771
 30
0.0
  0
SPLINE
  5
1ce
100
AcDbEntity
  8
Layer_1
 62
7
100
AcDbSpline
 70
8
 71
3
 72
8
 73
4
 74
0
 40
0
 40
0
 40
0
 40
0
 40
1
 40
1
 40
1
 40
1
 10
376.477898
 20
637.699771
 30
0.0
 10
375.425818
 20
638.647686
 30
0.0
 10
373.998736
 20
639.121643
 30
0.0
 10
372.196650
 20
639.121643
 30
0.0
  0
SPLINE
  5
1cf
100
AcDbEntity
  8
Layer_1
 62
7
100
AcDbSpline
 70
8
 71
3
 72
8
 73
4
 74
0
 40
0
 40
0
 40
0
 40
0
 40
1
 40
1
 40
1
 40
1
 10
372.196650
 20
639.121643
 30
0.0
 10
371.352901
 20
639.121643
 30
0.0
 10
370.509152
 20
639.027894
 30
0.0
 10
369.665402
 20
638.840395
 30
0.0
  0
SPLINE
  5
1d0
100
AcDbEntity
  8
Layer_1
 62
7
100
AcDbSpline
 70
8
 71
3
 72
8
 73
4
 74
0
 40
0
 40
0
 40
0
 40
0
 40
1
 40
1
 40
1
 40
1
 10
369.665402
 20
638.840395
 30
0.0
 10
368.832069
 20
638.652896
 30
0.0
 10
367.977901
 20
638.361230
 30
0.0
 10
367.102898
 20
637.965395
 30
0.0
  0
LWPOLYLINE
  5
1d1
100
AcDbEntity
  8
Layer_1
 62
7
100
AcDbPolyline
 90
2
 70
1
 10
366.118530
 20
626.902899
 30
0.0
 10
366.118530
 20
630.074771
 30
0.0
  0
SPLINE
  5
1d2
100
AcDbEntity
  8
Layer_1
 62
7
100
AcDbSpline
 70
8
 71
3
 72
8
 73
4
 74
0
 40
0
 40
0
 40
0
 40
0
 40
1
 40
1
 40
1
 40
1
 10
394.196650
 20
647.606019
 30
0.0
 10
392.571653
 20
647.606019
 30
0.0
 10
391.347696
 20
646.803936
 30
0.0
 10
390.524778
 20
645.199771
 30
0.0
  0
SPLINE
  5
1d3
100
AcDbEntity
  8
Layer_1
 62
7
100
AcDbSpline
 70
8
 71
3
 72
8
 73
4
 74
0
 40
0
 40
0
 40
0
 40
0
 40
1
 40
1
 40
1
 40
1
 10
390.524778
 20
645.199771
 30
0.0
 10
389.712277
 20
643.606022
 30
0.0
 10
389.306026
 20
641.204979
 30
0.0
 10
389.306026
 20
637.996643
 30
0.0
  0
SPLINE
  5
1d4
100
AcDbEntity
  8
Layer_1
 62
7
100
AcDbSpline
 70
8
 71
3
 72
8
 73
4
 74
0
 40
0
 40
0
 40
0
 40
0
 40
1
 40
1
 40
1
 40
1
 10
389.306026
 20
637.996643
 30
0.0
 10
389.306026
 20
634.798728
 30
0.0
 10
389.712277
 20
632.397688
 30
0.0
 10
390.524778
 20
630.793523
 30
0.0
  0
SPLINE
  5
1d5
100
AcDbEntity
  8
Layer_1
 62
7
100
AcDbSpline
 70
8
 71
3
 72
8
 73
4
 74
0
 40
0
 40
0
 40
0
 40
0
 40
1
 40
1
 40
1
 40
1
 10
390.524778
 20
630.793523
 30
0.0
 10
391.347696
 20
629.199774
 30
0.0
 10
392.571653
 20
628.402899
 30
0.0
 10
394.196650
 20
628.402899
 30
0.0
  0
SPLINE
  5
1d6
100
AcDbEntity
  8
Layer_1
 62
7
100
AcDbSpline
 70
8
 71
3
 72
8
 73
4
 74
0
 40
0
 40
0
 40
0
 40
0
 40
1
 40
1
 40
1
 40
1
 10
394.196650
 20
628.402899
 30
0.0
 10
395.832069
 20
628.402899
 30
0.0
 10
397.056029
 20
629.199774
 30
0.0
 10
397.868530
 20
630.793523
 30
0.0
  0
SPLINE
  5
1d7
100
AcDbEntity
  8
Layer_1
 62
7
100
AcDbSpline
 70
8
 71
3
 72
8
 73
4
 74
0
 40
0
 40
0
 40
0
 40
0
 40
1
 40
1
 40
1
 40
1
 10
397.868530
 20
630.793523
 30
0.0
 10
398.691442
 20
632.397688
 30
0.0
 10
399.102898
 20
634.798728
 30
0.0
 10
399.102898
 20
637.996643
 30
0.0
  0
SPLINE
  5
1d8
100
AcDbEntity
  8
Layer_1
 62
7
100
AcDbSpline
 70
8
 71
3
 72
8
 73
4
 74
0
 40
0
 40
0
 40
0
 40
0
 40
1
 40
1
 40
1
 40
1
 10
399.102898
 20
637.996643
 30
0.0
 10
399.102898
 20
641.204979
 30
0.0
 10
398.691442
 20
643.606022
 30
0.0
 10
397.868530
 20
645.199771
 30
0.0
  0
SPLINE
  5
1d9
100
AcDbEntity
  8
Layer_1
 62
7
100
AcDbSpline
 70
8
 71
3
 72
8
 73
4
 74
0
 40
0
 40
0
 40
0
 40
0
 40
1
 40
1
 40
1
 40
1
 10
397.868530
 20
645.199771
 30
0.0
 10
397.056029
 20
646.803936
 30
0.0
 10
395.832069
 20
647.606019
 30
0.0
 10
394.196650
 20
647.606019
 30
0.0
  0
LWPOLYLINE
  5
1da
100
AcDbEntity
  8
Layer_1
 62
7
100
AcDbPolyline
 90
3
 70
1
 10
367.102898
 20
637.965395
 30
0.0
 10
367.102898
 20
649.684147
 30
0.0
 10
367.102898
 20
649.684147
 30
0.0
  0
SPLINE
  5
1db
100
AcDbEntity
  8
Layer_1
 62
7
100
AcDbSpline
 70
8
 71
3
 72
8
 73
4
 74
0
 40
0
 40
0
 40
0
 40
0
 40
1
 40
1
 40
1
 40
1
 10
394.196650
 20
650.106019
 30
0.0
 10
396.811237
 20
650.106019
 30
0.0
 10
398.806029
 20
649.069560
 30
0.0
 10
400.181026
 20
646.996643
 30
0.0
  0
SPLINE
  5
1dc
100
AcDbEntity
  8
Layer_1
 62
7
100
AcDbSpline
 70
8
 71
3
 72
8
 73
4
 74
0
 40
0
 40
0
 40
0
 40
0
 40
1
 40
1
 40
1
 40
1
 10
400.181026
 20
646.996643
 30
0.0
 10
401.566445
 20
644.934147
 30
0.0
 10
402.259154
 20
641.934147
 30
0.0
 10
402.259154
 20
637.996643
 30
0.0
  0
SPLINE
  5
1dd
100
AcDbEntity
  8
Layer_1
 62
7
100
AcDbSpline
 70
8
 71
3
 72
8
 73
4
 74
0
 40
0
 40
0
 40
0
 40
0
 40
1
 40
1
 40
1
 40
1
 10
402.259154
 20
637.996643
 30
0.0
 10
402.259154
 20
634.069560
 30
0.0
 10
401.566445
 20
631.069560
 30
0.0
 10
400.181026
 20
628.996643
 30
0.0
  0
SPLINE
  5
1de
100
AcDbEntity
  8
Layer_1
 62
7
100
AcDbSpline
 70
8
 71
3
 72
8
 73
4
 74
0
 40
0
 40
0
 40
0
 40
0
 40
1
 40
1
 40
1
 40
1
 10
400.181026
 20
628.996643
 30
0.0
 10
398.806029
 20
626.934147
 30
0.0
 10
396.811237
 20
625.902899
 30
0.0
 10
394.196650
 20
625.902899
 30
0.0
  0
SPLINE
  5
1df
100
AcDbEntity
  8
Layer_1
 62
7
100
AcDbSpline
 70
8
 71
3
 72
8
 73
4
 74
0
 40
0
 40
0
 40
0
 40
0
 40
1
 40
1
 40
1
 40
1
 10
394.196650
 20
625.902899
 30
0.0
 10
391.582069
 20
625.902899
 30
0.0
 10
389.582069
 20
626.934147
 30
0.0
 10
388.196650
 20
628.996643
 30
0.0
  0
SPLINE
  5
1e0
100
AcDbEntity
  8
Layer_1
 62
7
100
AcDbSpline
 70
8
 71
3
 72
8
 73
4
 74
0
 40
0
 40
0
 40
0
 40
0
 40
1
 40
1
 40
1
 40
1
 10
388.196650
 20
628.996643
 30
0.0
 10
386.821653
 20
631.069560
 30
0.0
 10
386.134154
 20
634.069560
 30
0.0
 10
386.134154
 20
637.996643
 30
0.0
  0
SPLINE
  5
1e1
100
AcDbEntity
  8
Layer_1
 62
7
100
AcDbSpline
 70
8
 71
3
 72
8
 73
4
 74
0
 40
0
 40
0
 40
0
 40
0
 40
1
 40
1
 40
1
 40
1
 10
386.134154
 20
637.996643
 30
0.0
 10
386.134154
 20
641.934147
 30
0.0
 10
386.821653
 20
644.934147
 30
0.0
 10
388.196650
 20
646.996643
 30
0.0
  0
SPLINE
  5
1e2
100
AcDbEntity
  8
Layer_1
 62
7
100
AcDbSpline
 70
8
 71
3
 72
8
 73
4
 74
0
 40
0
 40
0
 40
0
 40
0
 40
1
 40
1
 40
1
 40
1
 10
388.196650
 20
646.996643
 30
0.0
 10
389.582069
 20
649.069560
 30
0.0
 10
391.582069
 20
650.106019
 30
0.0
 10
394.196650
 20
650.106019
 30
0.0
  0
LWPOLYLINE
  5
1e3
100
AcDbEntity
  8
Layer_1
 62
7
100
AcDbPolyline
 90
2
 70
1
 10
394.196650
 20
647.606019
 30
0.0
 10
394.196650
 20
647.606019
 30
0.0
  0
LWPOLYLINE
  5
1e4
100
AcDbEntity
  8
Layer_1
 62
7
100
AcDbPolyline
 90
2
 70
1
 10
394.196650
 20
650.106019
 30
0.0
 10
394.196650
 20
650.106019
 30
0.0
  0
SPLINE
  5
1e5
100
AcDbEntity
  8
Layer_1
 62
7
100
AcDbSpline
 70
8
 71
3
 72
8
 73
4
 74
0
 40
0
 40
0
 40
0
 40
0
 40
1
 40
1
 40
1
 40
1
 10
263.524778
 20
524.233694
 30
0.0
 10
262.326858
 20
524.806612
 30
0.0
 10
261.196650
 20
525.233694
 30
0.0
 10
260.134154
 20
525.514942
 30
0.0
  0
SPLINE
  5
1e6
100
AcDbEntity
  8
Layer_1
 62
7
100
AcDbSpline
 70
8
 71
3
 72
8
 73
4
 74
0
 40
0
 40
0
 40
0
 40
0
 40
1
 40
1
 40
1
 40
1
 10
260.134154
 20
525.514942
 30
0.0
 10
259.071653
 20
525.796190
 30
0.0
 10
258.045610
 20
525.936814
 30
0.0
 10
257.056026
 20
525.936814
 30
0.0
  0
SPLINE
  5
1e7
100
AcDbEntity
  8
Layer_1
 62
7
100
AcDbSpline
 70
8
 71
3
 72
8
 73
4
 74
0
 40
0
 40
0
 40
0
 40
0
 40
1
 40
1
 40
1
 40
1
 10
257.056026
 20
525.936814
 30
0.0
 10
255.337274
 20
525.936814
 30
0.0
 10
254.009149
 20
525.603481
 30
0.0
 10
253.071650
 20
524.936814
 30
0.0
  0
SPLINE
  5
1e8
100
AcDbEntity
  8
Layer_1
 62
7
100
AcDbSpline
 70
8
 71
3
 72
8
 73
4
 74
0
 40
0
 40
0
 40
0
 40
0
 40
1
 40
1
 40
1
 40
1
 10
253.071650
 20
524.936814
 30
0.0
 10
252.144568
 20
524.270148
 30
0.0
 10
251.681026
 20
523.322233
 30
0.0
 10
251.681026
 20
522.093070
 30
0.0
  0
SPLINE
  5
1e9
100
AcDbEntity
  8
Layer_1
 62
7
100
AcDbSpline
 70
8
 71
3
 72
8
 73
4
 74
0
 40
0
 40
0
 40
0
 40
0
 40
1
 40
1
 40
1
 40
1
 10
251.681026
 20
522.093070
 30
0.0
 10
251.681026
 20
521.061817
 30
0.0
 10
251.988317
 20
520.280566
 30
0.0
 10
252.602898
 20
519.749318
 30
0.0
  0
SPLINE
  5
1ea
100
AcDbEntity
  8
Layer_1
 62
7
100
AcDbSpline
 70
8
 71
3
 72
8
 73
4
 74
0
 40
0
 40
0
 40
0
 40
0
 40
1
 40
1
 40
1
 40
1
 10
252.602898
 20
519.749318
 30
0.0
 10
253.227901
 20
519.228486
 30
0.0
 10
254.404986
 20
518.806612
 30
0.0
 10
256.134154
 20
518.483694
 30
0.0
  0
LWPOLYLINE
  5
1eb
100
AcDbEntity
  8
Layer_1
 62
7
100
AcDbPolyline
 90
2
 70
1
 10
263.524778
 20
527.311814
 30
0.0
 10
263.524778
 20
524.233694
 30
0.0
  0
SPLINE
  5
1ec
100
AcDbEntity
  8
Layer_1
 62
7
100
AcDbSpline
 70
8
 71
3
 72
8
 73
4
 74
0
 40
0
 40
0
 40
0
 40
0
 40
1
 40
1
 40
1
 40
1
 10
258.040402
 20
518.093070
 30
0.0
 10
260.394568
 20
517.645150
 30
0.0
 10
262.128944
 20
516.853484
 30
0.0
 10
263.243530
 20
515.718070
 30
0.0
  0
SPLINE
  5
1ed
100
AcDbEntity
  8
Layer_1
 62
7
100
AcDbSpline
 70
8
 71
3
 72
8
 73
4
 74
0
 40
0
 40
0
 40
0
 40
0
 40
1
 40
1
 40
1
 40
1
 10
263.243530
 20
515.718070
 30
0.0
 10
264.368528
 20
514.593068
 30
0.0
 10
264.931026
 20
513.082649
 30
0.0
 10
264.931026
 20
511.186814
 30
0.0
  0
SPLINE
  5
1ee
100
AcDbEntity
  8
Layer_1
 62
7
100
AcDbSpline
 70
8
 71
3
 72
8
 73
4
 74
0
 40
0
 40
0
 40
0
 40
0
 40
1
 40
1
 40
1
 40
1
 10
264.931026
 20
511.186814
 30
0.0
 10
264.931026
 20
508.926398
 30
0.0
 10
264.170610
 20
507.212857
 30
0.0
 10
262.649778
 20
506.046190
 30
0.0
  0
SPLINE
  5
1ef
100
AcDbEntity
  8
Layer_1
 62
7
100
AcDbSpline
 70
8
 71
3
 72
8
 73
4
 74
0
 40
0
 40
0
 40
0
 40
0
 40
1
 40
1
 40
1
 40
1
 10
262.649778
 20
506.046190
 30
0.0
 10
261.139362
 20
504.879524
 30
0.0
 10
258.920613
 20
504.296190
 30
0.0
 10
255.993530
 20
504.296190
 30
0.0
  0
SPLINE
  5
1f0
100
AcDbEntity
  8
Layer_1
 62
7
100
AcDbSpline
 70
8
 71
3
 72
8
 73
4
 74
0
 40
0
 40
0
 40
0
 40
0
 40
1
 40
1
 40
1
 40
1
 10
255.993530
 20
504.296190
 30
0.0
 10
254.889360
 20
504.296190
 30
0.0
 10
253.712274
 20
504.421190
 30
0.0
 10
252.462274
 20
504.671190
 30
0.0
  0
SPLINE
  5
1f1
100
AcDbEntity
  8
Layer_1
 62
7
100
AcDbSpline
 70
8
 71
3
 72
8
 73
4
 74
0
 40
0
 40
0
 40
0
 40
0
 40
1
 40
1
 40
1
 40
1
 10
252.462274
 20
504.671190
 30
0.0
 10
251.222690
 20
504.921190
 30
0.0
 10
249.936232
 20
505.290982
 30
0.0
 10
248.602898
 20
505.780566
 30
0.0
  0
LWPOLYLINE
  5
1f2
100
AcDbEntity
  8
Layer_1
 62
7
100
AcDbPolyline
 90
2
 70
1
 10
256.134154
 20
518.483694
 30
0.0
 10
258.040402
 20
518.093070
 30
0.0
  0
SPLINE
  5
1f3
100
AcDbEntity
  8
Layer_1
 62
7
100
AcDbSpline
 70
8
 71
3
 72
8
 73
4
 74
0
 40
0
 40
0
 40
0
 40
0
 40
1
 40
1
 40
1
 40
1
 10
248.602898
 20
509.030566
 30
0.0
 10
249.884152
 20
508.311814
 30
0.0
 10
251.139362
 20
507.770148
 30
0.0
 10
252.368530
 20
507.405566
 30
0.0
  0
SPLINE
  5
1f4
100
AcDbEntity
  8
Layer_1
 62
7
100
AcDbSpline
 70
8
 71
3
 72
8
 73
4
 74
0
 40
0
 40
0
 40
0
 40
0
 40
1
 40
1
 40
1
 40
1
 10
252.368530
 20
507.405566
 30
0.0
 10
253.597693
 20
507.040985
 30
0.0
 10
254.806026
 20
506.858694
 30
0.0
 10
255.993530
 20
506.858694
 30
0.0
  0
SPLINE
  5
1f5
100
AcDbEntity
  8
Layer_1
 62
7
100
AcDbSpline
 70
8
 71
3
 72
8
 73
4
 74
0
 40
0
 40
0
 40
0
 40
0
 40
1
 40
1
 40
1
 40
1
 10
255.993530
 20
506.858694
 30
0.0
 10
257.795610
 20
506.858694
 30
0.0
 10
259.186234
 20
507.212860
 30
0.0
 10
260.165402
 20
507.921190
 30
0.0
  0
SPLINE
  5
1f6
100
AcDbEntity
  8
Layer_1
 62
7
100
AcDbSpline
 70
8
 71
3
 72
8
 73
4
 74
0
 40
0
 40
0
 40
0
 40
0
 40
1
 40
1
 40
1
 40
1
 10
260.165402
 20
507.921190
 30
0.0
 10
261.144570
 20
508.629526
 30
0.0
 10
261.634154
 20
509.639942
 30
0.0
 10
261.634154
 20
510.952438
 30
0.0
  0
SPLINE
  5
1f7
100
AcDbEntity
  8
Layer_1
 62
7
100
AcDbSpline
 70
8
 71
3
 72
8
 73
4
 74
0
 40
0
 40
0
 40
0
 40
0
 40
1
 40
1
 40
1
 40
1
 10
261.634154
 20
510.952438
 30
0.0
 10
261.634154
 20
512.098273
 30
0.0
 10
261.279986
 20
512.994108
 30
0.0
 10
260.571650
 20
513.639942
 30
0.0
  0
SPLINE
  5
1f8
100
AcDbEntity
  8
Layer_1
 62
7
100
AcDbSpline
 70
8
 71
3
 72
8
 73
4
 74
0
 40
0
 40
0
 40
0
 40
0
 40
1
 40
1
 40
1
 40
1
 10
260.571650
 20
513.639942
 30
0.0
 10
259.873736
 20
514.285777
 30
0.0
 10
258.722696
 20
514.770153
 30
0.0
 10
257.118530
 20
515.093070
 30
0.0
  0
LWPOLYLINE
  5
1f9
100
AcDbEntity
  8
Layer_1
 62
7
100
AcDbPolyline
 90
2
 70
1
 10
248.602898
 20
505.780566
 30
0.0
 10
248.602898
 20
509.030566
 30
0.0
  0
SPLINE
  5
1fa
100
AcDbEntity
  8
Layer_1
 62
7
100
AcDbSpline
 70
8
 71
3
 72
8
 73
4
 74
0
 40
0
 40
0
 40
0
 40
0
 40
1
 40
1
 40
1
 40
1
 10
255.196650
 20
515.468070
 30
0.0
 10
252.842485
 20
515.936817
 30
0.0
 10
251.139360
 20
516.671190
 30
0.0
 10
250.087274
 20
517.671190
 30
0.0
  0
SPLINE
  5
1fb
100
AcDbEntity
  8
Layer_1
 62
7
100
AcDbSpline
 70
8
 71
3
 72
8
 73
4
 74
0
 40
0
 40
0
 40
0
 40
0
 40
1
 40
1
 40
1
 40
1
 10
250.087274
 20
517.671190
 30
0.0
 10
249.035194
 20
518.671190
 30
0.0
 10
248.509154
 20
520.061817
 30
0.0
 10
248.509154
 20
521.843070
 30
0.0
  0
SPLINE
  5
1fc
100
AcDbEntity
  8
Layer_1
 62
7
100
AcDbSpline
 70
8
 71
3
 72
8
 73
4
 74
0
 40
0
 40
0
 40
0
 40
0
 40
1
 40
1
 40
1
 40
1
 10
248.509154
 20
521.843070
 30
0.0
 10
248.509154
 20
523.905566
 30
0.0
 10
249.233112
 20
525.530566
 30
0.0
 10
250.681026
 20
526.718070
 30
0.0
  0
SPLINE
  5
1fd
100
AcDbEntity
  8
Layer_1
 62
7
100
AcDbSpline
 70
8
 71
3
 72
8
 73
4
 74
0
 40
0
 40
0
 40
0
 40
0
 40
1
 40
1
 40
1
 40
1
 10
250.681026
 20
526.718070
 30
0.0
 10
252.139362
 20
527.905569
 30
0.0
 10
254.144570
 20
528.499318
 30
0.0
 10
256.696650
 20
528.499318
 30
0.0
  0
SPLINE
  5
1fe
100
AcDbEntity
  8
Layer_1
 62
7
100
AcDbSpline
 70
8
 71
3
 72
8
 73
4
 74
0
 40
0
 40
0
 40
0
 40
0
 40
1
 40
1
 40
1
 40
1
 10
256.696650
 20
528.499318
 30
0.0
 10
257.790400
 20
528.499318
 30
0.0
 10
258.904984
 20
528.400358
 30
0.0
 10
260.040402
 20
528.202438
 30
0.0
  0
SPLINE
  5
1ff
100
AcDbEntity
  8
Layer_1
 62
7
100
AcDbSpline
 70
8
 71
3
 72
8
 73
4
 74
0
 40
0
 40
0
 40
0
 40
0
 40
1
 40
1
 40
1
 40
1
 10
260.040402
 20
528.202438
 30
0.0
 10
261.175821
 20
528.004524
 30
0.0
 10
262.337280
 20
527.707649
 30
0.0
 10
263.524778
 20
527.311814
 30
0.0
  0
LWPOLYLINE
  5
200
100
AcDbEntity
  8
Layer_1
 62
7
100
AcDbPolyline
 90
2
 70
1
 10
257.118530
 20
515.093070
 30
0.0
 10
255.196650
 20
515.468070
 30
0.0
  0
LWPOLYLINE
  5
201
100
AcDbEntity
  8
Layer_1
 62
7
100
AcDbPolyline
 90
2
 70
1
 10
263.524778
 20
527.311814
 30
0.0
 10
263.524778
 20
527.311814
 30
0.0
  0
SPLINE
  5
202
100
AcDbEntity
  8
Layer_1
 62
7
100
AcDbSpline
 70
8
 71
3
 72
8
 73
4
 74
0
 40
0
 40
0
 40
0
 40
0
 40
1
 40
1
 40
1
 40
1
 10
272.571650
 20
519.593070
 30
0.0
 10
273.175816
 20
520.634734
 30
0.0
 10
273.936232
 20
521.405566
 30
0.0
 10
274.852898
 20
521.905566
 30
0.0
  0
SPLINE
  5
203
100
AcDbEntity
  8
Layer_1
 62
7
100
AcDbSpline
 70
8
 71
3
 72
8
 73
4
 74
0
 40
0
 40
0
 40
0
 40
0
 40
1
 40
1
 40
1
 40
1
 10
274.852898
 20
521.905566
 30
0.0
 10
275.779986
 20
522.415982
 30
0.0
 10
276.884154
 20
522.671190
 30
0.0
 10
278.165402
 20
522.671190
 30
0.0
  0
SPLINE
  5
204
100
AcDbEntity
  8
Layer_1
 62
7
100
AcDbSpline
 70
8
 71
3
 72
8
 73
4
 74
0
 40
0
 40
0
 40
0
 40
0
 40
1
 40
1
 40
1
 40
1
 10
278.165402
 20
522.671190
 30
0.0
 10
280.290400
 20
522.671190
 30
0.0
 10
282.014357
 20
521.827441
 30
0.0
 10
283.337274
 20
520.139942
 30
0.0
  0
SPLINE
  5
205
100
AcDbEntity
  8
Layer_1
 62
7
100
AcDbSpline
 70
8
 71
3
 72
8
 73
4
 74
0
 40
0
 40
0
 40
0
 40
0
 40
1
 40
1
 40
1
 40
1
 10
283.337274
 20
520.139942
 30
0.0
 10
284.670608
 20
518.452444
 30
0.0
 10
285.337274
 20
516.233694
 30
0.0
 10
285.337274
 20
513.483694
 30
0.0
  0
SPLINE
  5
206
100
AcDbEntity
  8
Layer_1
 62
7
100
AcDbSpline
 70
8
 71
3
 72
8
 73
4
 74
0
 40
0
 40
0
 40
0
 40
0
 40
1
 40
1
 40
1
 40
1
 10
285.337274
 20
513.483694
 30
0.0
 10
285.337274
 20
510.733694
 30
0.0
 10
284.670608
 20
508.514942
 30
0.0
 10
283.337274
 20
506.827438
 30
0.0
  0
SPLINE
  5
207
100
AcDbEntity
  8
Layer_1
 62
7
100
AcDbSpline
 70
8
 71
3
 72
8
 73
4
 74
0
 40
0
 40
0
 40
0
 40
0
 40
1
 40
1
 40
1
 40
1
 10
283.337274
 20
506.827438
 30
0.0
 10
282.014357
 20
505.139940
 30
0.0
 10
280.290400
 20
504.296190
 30
0.0
 10
278.165402
 20
504.296190
 30
0.0
  0
SPLINE
  5
208
100
AcDbEntity
  8
Layer_1
 62
7
100
AcDbSpline
 70
8
 71
3
 72
8
 73
4
 74
0
 40
0
 40
0
 40
0
 40
0
 40
1
 40
1
 40
1
 40
1
 10
278.165402
 20
504.296190
 30
0.0
 10
276.884154
 20
504.296190
 30
0.0
 10
275.779986
 20
504.546190
 30
0.0
 10
274.852898
 20
505.046190
 30
0.0
  0
SPLINE
  5
209
100
AcDbEntity
  8
Layer_1
 62
7
100
AcDbSpline
 70
8
 71
3
 72
8
 73
4
 74
0
 40
0
 40
0
 40
0
 40
0
 40
1
 40
1
 40
1
 40
1
 10
274.852898
 20
505.046190
 30
0.0
 10
273.936232
 20
505.556606
 30
0.0
 10
273.175816
 20
506.332649
 30
0.0
 10
272.571650
 20
507.374318
 30
0.0
  0
LWPOLYLINE
  5
20a
100
AcDbEntity
  8
Layer_1
 62
7
100
AcDbPolyline
 90
6
 70
1
 10
272.571650
 20
507.374318
 30
0.0
 10
272.571650
 20
498.093070
 30
0.0
 10
269.681026
 20
498.093070
 30
0.0
 10
269.681026
 20
522.249318
 30
0.0
 10
272.571650
 20
522.249318
 30
0.0
 10
272.571650
 20
519.593070
 30
0.0
  0
SPLINE
  5
20b
100
AcDbEntity
  8
Layer_1
 62
7
100
AcDbSpline
 70
8
 71
3
 72
8
 73
4
 74
0
 40
0
 40
0
 40
0
 40
0
 40
1
 40
1
 40
1
 40
1
 10
282.352898
 20
513.483694
 30
0.0
 10
282.352898
 20
515.598276
 30
0.0
 10
281.915400
 20
517.254524
 30
0.0
 10
281.040402
 20
518.452438
 30
0.0
  0
SPLINE
  5
20c
100
AcDbEntity
  8
Layer_1
 62
7
100
AcDbSpline
 70
8
 71
3
 72
8
 73
4
 74
0
 40
0
 40
0
 40
0
 40
0
 40
1
 40
1
 40
1
 40
1
 10
281.040402
 20
518.452438
 30
0.0
 10
280.175821
 20
519.660774
 30
0.0
 10
278.983112
 20
520.264942
 30
0.0
 10
277.462274
 20
520.264942
 30
0.0
  0
SPLINE
  5
20d
100
AcDbEntity
  8
Layer_1
 62
7
100
AcDbSpline
 70
8
 71
3
 72
8
 73
4
 74
0
 40
0
 40
0
 40
0
 40
0
 40
1
 40
1
 40
1
 40
1
 10
277.462274
 20
520.264942
 30
0.0
 10
275.941442
 20
520.264942
 30
0.0
 10
274.743528
 20
519.660774
 30
0.0
 10
273.868530
 20
518.452438
 30
0.0
  0
SPLINE
  5
20e
100
AcDbEntity
  8
Layer_1
 62
7
100
AcDbSpline
 70
8
 71
3
 72
8
 73
4
 74
0
 40
0
 40
0
 40
0
 40
0
 40
1
 40
1
 40
1
 40
1
 10
273.868530
 20
518.452438
 30
0.0
 10
273.003944
 20
517.254524
 30
0.0
 10
272.571650
 20
515.598276
 30
0.0
 10
272.571650
 20
513.483694
 30
0.0
  0
SPLINE
  5
20f
100
AcDbEntity
  8
Layer_1
 62
7
100
AcDbSpline
 70
8
 71
3
 72
8
 73
4
 74
0
 40
0
 40
0
 40
0
 40
0
 40
1
 40
1
 40
1
 40
1
 10
272.571650
 20
513.483694
 30
0.0
 10
272.571650
 20
511.369108
 30
0.0
 10
273.003944
 20
509.707649
 30
0.0
 10
273.868530
 20
508.499318
 30
0.0
  0
SPLINE
  5
210
100
AcDbEntity
  8
Layer_1
 62
7
100
AcDbSpline
 70
8
 71
3
 72
8
 73
4
 74
0
 40
0
 40
0
 40
0
 40
0
 40
1
 40
1
 40
1
 40
1
 10
273.868530
 20
508.499318
 30
0.0
 10
274.743528
 20
507.301398
 30
0.0
 10
275.941442
 20
506.702438
 30
0.0
 10
277.462274
 20
506.702438
 30
0.0
  0
SPLINE
  5
211
100
AcDbEntity
  8
Layer_1
 62
7
100
AcDbSpline
 70
8
 71
3
 72
8
 73
4
 74
0
 40
0
 40
0
 40
0
 40
0
 40
1
 40
1
 40
1
 40
1
 10
277.462274
 20
506.702438
 30
0.0
 10
278.983112
 20
506.702438
 30
0.0
 10
280.175821
 20
507.301398
 30
0.0
 10
281.040402
 20
508.499318
 30
0.0
  0
SPLINE
  5
212
100
AcDbEntity
  8
Layer_1
 62
7
100
AcDbSpline
 70
8
 71
3
 72
8
 73
4
 74
0
 40
0
 40
0
 40
0
 40
0
 40
1
 40
1
 40
1
 40
1
 10
281.040402
 20
508.499318
 30
0.0
 10
281.915400
 20
509.707649
 30
0.0
 10
282.352898
 20
511.369108
 30
0.0
 10
282.352898
 20
513.483694
 30
0.0
  0
LWPOLYLINE
  5
213
100
AcDbEntity
  8
Layer_1
 62
7
100
AcDbPolyline
 90
2
 70
1
 10
272.571650
 20
507.374318
 30
0.0
 10
272.571650
 20
507.374318
 30
0.0
  0
LWPOLYLINE
  5
214
100
AcDbEntity
  8
Layer_1
 62
7
100
AcDbPolyline
 90
2
 70
1
 10
282.352898
 20
513.483694
 30
0.0
 10
282.352898
 20
513.483694
 30
0.0
  0
SPLINE
  5
215
100
AcDbEntity
  8
Layer_1
 62
7
100
AcDbSpline
 70
8
 71
3
 72
8
 73
4
 74
0
 40
0
 40
0
 40
0
 40
0
 40
1
 40
1
 40
1
 40
1
 10
291.852898
 20
512.811814
 30
0.0
 10
291.977901
 20
510.832652
 30
0.0
 10
292.571653
 20
509.322236
 30
0.0
 10
293.634154
 20
508.280566
 30
0.0
  0
SPLINE
  5
216
100
AcDbEntity
  8
Layer_1
 62
7
100
AcDbSpline
 70
8
 71
3
 72
8
 73
4
 74
0
 40
0
 40
0
 40
0
 40
0
 40
1
 40
1
 40
1
 40
1
 10
293.634154
 20
508.280566
 30
0.0
 10
294.707072
 20
507.249318
 30
0.0
 10
296.196653
 20
506.733694
 30
0.0
 10
298.102898
 20
506.733694
 30
0.0
  0
SPLINE
  5
217
100
AcDbEntity
  8
Layer_1
 62
7
100
AcDbSpline
 70
8
 71
3
 72
8
 73
4
 74
0
 40
0
 40
0
 40
0
 40
0
 40
1
 40
1
 40
1
 40
1
 10
298.102898
 20
506.733694
 30
0.0
 10
299.207069
 20
506.733694
 30
0.0
 10
300.274778
 20
506.869110
 30
0.0
 10
301.306026
 20
507.139942
 30
0.0
  0
SPLINE
  5
218
100
AcDbEntity
  8
Layer_1
 62
7
100
AcDbSpline
 70
8
 71
3
 72
8
 73
4
 74
0
 40
0
 40
0
 40
0
 40
0
 40
1
 40
1
 40
1
 40
1
 10
301.306026
 20
507.139942
 30
0.0
 10
302.347696
 20
507.410774
 30
0.0
 10
303.378946
 20
507.817025
 30
0.0
 10
304.399778
 20
508.358694
 30
0.0
  0
LWPOLYLINE
  5
219
100
AcDbEntity
  8
Layer_1
 62
7
100
AcDbPolyline
 90
3
 70
1
 10
305.071650
 20
514.218070
 30
0.0
 10
305.071650
 20
512.811814
 30
0.0
 10
291.852898
 20
512.811814
 30
0.0
  0
SPLINE
  5
21a
100
AcDbEntity
  8
Layer_1
 62
7
100
AcDbSpline
 70
8
 71
3
 72
8
 73
4
 74
0
 40
0
 40
0
 40
0
 40
0
 40
1
 40
1
 40
1
 40
1
 10
304.399778
 20
505.639942
 30
0.0
 10
303.368525
 20
505.202444
 30
0.0
 10
302.311232
 20
504.869110
 30
0.0
 10
301.227898
 20
504.639942
 30
0.0
  0
SPLINE
  5
21b
100
AcDbEntity
  8
Layer_1
 62
7
100
AcDbSpline
 70
8
 71
3
 72
8
 73
4
 74
0
 40
0
 40
0
 40
0
 40
0
 40
1
 40
1
 40
1
 40
1
 10
301.227898
 20
504.639942
 30
0.0
 10
300.144565
 20
504.410774
 30
0.0
 10
299.045608
 20
504.296190
 30
0.0
 10
297.931026
 20
504.296190
 30
0.0
  0
SPLINE
  5
21c
100
AcDbEntity
  8
Layer_1
 62
7
100
AcDbSpline
 70
8
 71
3
 72
8
 73
4
 74
0
 40
0
 40
0
 40
0
 40
0
 40
1
 40
1
 40
1
 40
1
 10
297.931026
 20
504.296190
 30
0.0
 10
295.139362
 20
504.296190
 30
0.0
 10
292.925821
 20
505.108692
 30
0.0
 10
291.290402
 20
506.733694
 30
0.0
  0
SPLINE
  5
21d
100
AcDbEntity
  8
Layer_1
 62
7
100
AcDbSpline
 70
8
 71
3
 72
8
 73
4
 74
0
 40
0
 40
0
 40
0
 40
0
 40
1
 40
1
 40
1
 40
1
 10
291.290402
 20
506.733694
 30
0.0
 10
289.665400
 20
508.358692
 30
0.0
 10
288.852898
 20
510.556606
 30
0.0
 10
288.852898
 20
513.327438
 30
0.0
  0
SPLINE
  5
21e
100
AcDbEntity
  8
Layer_1
 62
7
100
AcDbSpline
 70
8
 71
3
 72
8
 73
4
 74
0
 40
0
 40
0
 40
0
 40
0
 40
1
 40
1
 40
1
 40
1
 10
288.852898
 20
513.327438
 30
0.0
 10
288.852898
 20
516.192025
 30
0.0
 10
289.623733
 20
518.462860
 30
0.0
 10
291.165402
 20
520.139942
 30
0.0
  0
SPLINE
  5
21f
100
AcDbEntity
  8
Layer_1
 62
7
100
AcDbSpline
 70
8
 71
3
 72
8
 73
4
 74
0
 40
0
 40
0
 40
0
 40
0
 40
1
 40
1
 40
1
 40
1
 10
291.165402
 20
520.139942
 30
0.0
 10
292.717488
 20
521.827441
 30
0.0
 10
294.806029
 20
522.671190
 30
0.0
 10
297.431026
 20
522.671190
 30
0.0
  0
SPLINE
  5
220
100
AcDbEntity
  8
Layer_1
 62
7
100
AcDbSpline
 70
8
 71
3
 72
8
 73
4
 74
0
 40
0
 40
0
 40
0
 40
0
 40
1
 40
1
 40
1
 40
1
 10
297.431026
 20
522.671190
 30
0.0
 10
299.785192
 20
522.671190
 30
0.0
 10
301.644568
 20
521.910774
 30
0.0
 10
303.009154
 20
520.389942
 30
0.0
  0
SPLINE
  5
221
100
AcDbEntity
  8
Layer_1
 62
7
100
AcDbSpline
 70
8
 71
3
 72
8
 73
4
 74
0
 40
0
 40
0
 40
0
 40
0
 40
1
 40
1
 40
1
 40
1
 10
303.009154
 20
520.389942
 30
0.0
 10
304.384152
 20
518.879526
 30
0.0
 10
305.071650
 20
516.822236
 30
0.0
 10
305.071650
 20
514.218070
 30
0.0
  0
LWPOLYLINE
  5
222
100
AcDbEntity
  8
Layer_1
 62
7
100
AcDbPolyline
 90
2
 70
1
 10
304.399778
 20
508.358694
 30
0.0
 10
304.399778
 20
505.639942
 30
0.0
  0
SPLINE
  5
223
100
AcDbEntity
  8
Layer_1
 62
7
100
AcDbSpline
 70
8
 71
3
 72
8
 73
4
 74
0
 40
0
 40
0
 40
0
 40
0
 40
1
 40
1
 40
1
 40
1
 10
302.196650
 20
515.061814
 30
0.0
 10
302.175797
 20
516.634732
 30
0.0
 10
301.733090
 20
517.889940
 30
0.0
 10
300.868530
 20
518.827438
 30
0.0
  0
SPLINE
  5
224
100
AcDbEntity
  8
Layer_1
 62
7
100
AcDbSpline
 70
8
 71
3
 72
8
 73
4
 74
0
 40
0
 40
0
 40
0
 40
0
 40
1
 40
1
 40
1
 40
1
 10
300.868530
 20
518.827438
 30
0.0
 10
300.014360
 20
519.764942
 30
0.0
 10
298.878941
 20
520.233694
 30
0.0
 10
297.462274
 20
520.233694
 30
0.0
  0
SPLINE
  5
225
100
AcDbEntity
  8
Layer_1
 62
7
100
AcDbSpline
 70
8
 71
3
 72
8
 73
4
 74
0
 40
0
 40
0
 40
0
 40
0
 40
1
 40
1
 40
1
 40
1
 10
297.462274
 20
520.233694
 30
0.0
 10
295.858109
 20
520.233694
 30
0.0
 10
294.571650
 20
519.780569
 30
0.0
 10
293.602898
 20
518.874318
 30
0.0
  0
SPLINE
  5
226
100
AcDbEntity
  8
Layer_1
 62
7
100
AcDbSpline
 70
8
 71
3
 72
8
 73
4
 74
0
 40
0
 40
0
 40
0
 40
0
 40
1
 40
1
 40
1
 40
1
 10
293.602898
 20
518.874318
 30
0.0
 10
292.644568
 20
517.968068
 30
0.0
 10
292.092485
 20
516.692025
 30
0.0
 10
291.946650
 20
515.046190
 30
0.0
  0
LWPOLYLINE
  5
227
100
AcDbEntity
  8
Layer_1
 62
7
100
AcDbPolyline
 90
2
 70
1
 10
305.071650
 20
514.218070
 30
0.0
 10
305.071650
 20
514.218070
 30
0.0
  0
LWPOLYLINE
  5
228
100
AcDbEntity
  8
Layer_1
 62
7
100
AcDbPolyline
 90
3
 70
1
 10
291.946650
 20
515.046190
 30
0.0
 10
302.196650
 20
515.061790
 30
0.0
 10
302.196650
 20
515.061814
 30
0.0
  0
SPLINE
  5
229
100
AcDbEntity
  8
Layer_1
 62
7
100
AcDbSpline
 70
8
 71
3
 72
8
 73
4
 74
0
 40
0
 40
0
 40
0
 40
0
 40
1
 40
1
 40
1
 40
1
 10
311.477898
 20
512.811814
 30
0.0
 10
311.602901
 20
510.832652
 30
0.0
 10
312.196653
 20
509.322236
 30
0.0
 10
313.259154
 20
508.280566
 30
0.0
  0
SPLINE
  5
22a
100
AcDbEntity
  8
Layer_1
 62
7
100
AcDbSpline
 70
8
 71
3
 72
8
 73
4
 74
0
 40
0
 40
0
 40
0
 40
0
 40
1
 40
1
 40
1
 40
1
 10
313.259154
 20
508.280566
 30
0.0
 10
314.332072
 20
507.249318
 30
0.0
 10
315.821653
 20
506.733694
 30
0.0
 10
317.727898
 20
506.733694
 30
0.0
  0
SPLINE
  5
22b
100
AcDbEntity
  8
Layer_1
 62
7
100
AcDbSpline
 70
8
 71
3
 72
8
 73
4
 74
0
 40
0
 40
0
 40
0
 40
0
 40
1
 40
1
 40
1
 40
1
 10
317.727898
 20
506.733694
 30
0.0
 10
318.832069
 20
506.733694
 30
0.0
 10
319.899778
 20
506.869110
 30
0.0
 10
320.931026
 20
507.139942
 30
0.0
  0
SPLINE
  5
22c
100
AcDbEntity
  8
Layer_1
 62
7
100
AcDbSpline
 70
8
 71
3
 72
8
 73
4
 74
0
 40
0
 40
0
 40
0
 40
0
 40
1
 40
1
 40
1
 40
1
 10
320.931026
 20
507.139942
 30
0.0
 10
321.972696
 20
507.410774
 30
0.0
 10
323.003946
 20
507.817025
 30
0.0
 10
324.024778
 20
508.358694
 30
0.0
  0
LWPOLYLINE
  5
22d
100
AcDbEntity
  8
Layer_1
 62
7
100
AcDbPolyline
 90
3
 70
1
 10
324.696650
 20
514.218070
 30
0.0
 10
324.696650
 20
512.811814
 30
0.0
 10
311.477898
 20
512.811814
 30
0.0
  0
SPLINE
  5
22e
100
AcDbEntity
  8
Layer_1
 62
7
100
AcDbSpline
 70
8
 71
3
 72
8
 73
4
 74
0
 40
0
 40
0
 40
0
 40
0
 40
1
 40
1
 40
1
 40
1
 10
324.024778
 20
505.639942
 30
0.0
 10
322.993525
 20
505.202444
 30
0.0
 10
321.936232
 20
504.869110
 30
0.0
 10
320.852898
 20
504.639942
 30
0.0
  0
SPLINE
  5
22f
100
AcDbEntity
  8
Layer_1
 62
7
100
AcDbSpline
 70
8
 71
3
 72
8
 73
4
 74
0
 40
0
 40
0
 40
0
 40
0
 40
1
 40
1
 40
1
 40
1
 10
320.852898
 20
504.639942
 30
0.0
 10
319.769565
 20
504.410774
 30
0.0
 10
318.670608
 20
504.296190
 30
0.0
 10
317.556026
 20
504.296190
 30
0.0
  0
SPLINE
  5
230
100
AcDbEntity
  8
Layer_1
 62
7
100
AcDbSpline
 70
8
 71
3
 72
8
 73
4
 74
0
 40
0
 40
0
 40
0
 40
0
 40
1
 40
1
 40
1
 40
1
 10
317.556026
 20
504.296190
 30
0.0
 10
314.764362
 20
504.296190
 30
0.0
 10
312.550821
 20
505.108692
 30
0.0
 10
310.915402
 20
506.733694
 30
0.0
  0
SPLINE
  5
231
100
AcDbEntity
  8
Layer_1
 62
7
100
AcDbSpline
 70
8
 71
3
 72
8
 73
4
 74
0
 40
0
 40
0
 40
0
 40
0
 40
1
 40
1
 40
1
 40
1
 10
310.915402
 20
506.733694
 30
0.0
 10
309.290400
 20
508.358692
 30
0.0
 10
308.477898
 20
510.556606
 30
0.0
 10
308.477898
 20
513.327438
 30
0.0
  0
SPLINE
  5
232
100
AcDbEntity
  8
Layer_1
 62
7
100
AcDbSpline
 70
8
 71
3
 72
8
 73
4
 74
0
 40
0
 40
0
 40
0
 40
0
 40
1
 40
1
 40
1
 40
1
 10
308.477898
 20
513.327438
 30
0.0
 10
308.477898
 20
516.192025
 30
0.0
 10
309.248733
 20
518.462860
 30
0.0
 10
310.790402
 20
520.139942
 30
0.0
  0
SPLINE
  5
233
100
AcDbEntity
  8
Layer_1
 62
7
100
AcDbSpline
 70
8
 71
3
 72
8
 73
4
 74
0
 40
0
 40
0
 40
0
 40
0
 40
1
 40
1
 40
1
 40
1
 10
310.790402
 20
520.139942
 30
0.0
 10
312.342488
 20
521.827441
 30
0.0
 10
314.431029
 20
522.671190
 30
0.0
 10
317.056026
 20
522.671190
 30
0.0
  0
SPLINE
  5
234
100
AcDbEntity
  8
Layer_1
 62
7
100
AcDbSpline
 70
8
 71
3
 72
8
 73
4
 74
0
 40
0
 40
0
 40
0
 40
0
 40
1
 40
1
 40
1
 40
1
 10
317.056026
 20
522.671190
 30
0.0
 10
319.410192
 20
522.671190
 30
0.0
 10
321.269568
 20
521.910774
 30
0.0
 10
322.634154
 20
520.389942
 30
0.0
  0
SPLINE
  5
235
100
AcDbEntity
  8
Layer_1
 62
7
100
AcDbSpline
 70
8
 71
3
 72
8
 73
4
 74
0
 40
0
 40
0
 40
0
 40
0
 40
1
 40
1
 40
1
 40
1
 10
322.634154
 20
520.389942
 30
0.0
 10
324.009152
 20
518.879526
 30
0.0
 10
324.696650
 20
516.822236
 30
0.0
 10
324.696650
 20
514.218070
 30
0.0
  0
LWPOLYLINE
  5
236
100
AcDbEntity
  8
Layer_1
 62
7
100
AcDbPolyline
 90
2
 70
1
 10
324.024778
 20
508.358694
 30
0.0
 10
324.024778
 20
505.639942
 30
0.0
  0
SPLINE
  5
237
100
AcDbEntity
  8
Layer_1
 62
7
100
AcDbSpline
 70
8
 71
3
 72
8
 73
4
 74
0
 40
0
 40
0
 40
0
 40
0
 40
1
 40
1
 40
1
 40
1
 10
321.821650
 20
515.061814
 30
0.0
 10
321.800797
 20
516.634732
 30
0.0
 10
321.358090
 20
517.889940
 30
0.0
 10
320.493530
 20
518.827438
 30
0.0
  0
SPLINE
  5
238
100
AcDbEntity
  8
Layer_1
 62
7
100
AcDbSpline
 70
8
 71
3
 72
8
 73
4
 74
0
 40
0
 40
0
 40
0
 40
0
 40
1
 40
1
 40
1
 40
1
 10
320.493530
 20
518.827438
 30
0.0
 10
319.639360
 20
519.764942
 30
0.0
 10
318.503941
 20
520.233694
 30
0.0
 10
317.087274
 20
520.233694
 30
0.0
  0
SPLINE
  5
239
100
AcDbEntity
  8
Layer_1
 62
7
100
AcDbSpline
 70
8
 71
3
 72
8
 73
4
 74
0
 40
0
 40
0
 40
0
 40
0
 40
1
 40
1
 40
1
 40
1
 10
317.087274
 20
520.233694
 30
0.0
 10
315.483109
 20
520.233694
 30
0.0
 10
314.196650
 20
519.780569
 30
0.0
 10
313.227898
 20
518.874318
 30
0.0
  0
SPLINE
  5
23a
100
AcDbEntity
  8
Layer_1
 62
7
100
AcDbSpline
 70
8
 71
3
 72
8
 73
4
 74
0
 40
0
 40
0
 40
0
 40
0
 40
1
 40
1
 40
1
 40
1
 10
313.227898
 20
518.874318
 30
0.0
 10
312.269568
 20
517.968068
 30
0.0
 10
311.717485
 20
516.692025
 30
0.0
 10
311.571650
 20
515.046190
 30
0.0
  0
LWPOLYLINE
  5
23b
100
AcDbEntity
  8
Layer_1
 62
7
100
AcDbPolyline
 90
2
 70
1
 10
324.696650
 20
514.218070
 30
0.0
 10
324.696650
 20
514.218070
 30
0.0
  0
LWPOLYLINE
  5
23c
100
AcDbEntity
  8
Layer_1
 62
7
100
AcDbPolyline
 90
3
 70
1
 10
311.571650
 20
515.046190
 30
0.0
 10
321.821650
 20
515.061790
 30
0.0
 10
321.821650
 20
515.061814
 30
0.0
  0
SPLINE
  5
23d
100
AcDbEntity
  8
Layer_1
 62
7
100
AcDbSpline
 70
8
 71
3
 72
8
 73
4
 74
0
 40
0
 40
0
 40
0
 40
0
 40
1
 40
1
 40
1
 40
1
 10
340.868530
 20
507.374318
 30
0.0
 10
340.264360
 20
506.332649
 30
0.0
 10
339.498733
 20
505.556606
 30
0.0
 10
338.571650
 20
505.046190
 30
0.0
  0
SPLINE
  5
23e
100
AcDbEntity
  8
Layer_1
 62
7
100
AcDbSpline
 70
8
 71
3
 72
8
 73
4
 74
0
 40
0
 40
0
 40
0
 40
0
 40
1
 40
1
 40
1
 40
1
 10
338.571650
 20
505.046190
 30
0.0
 10
337.654984
 20
504.546190
 30
0.0
 10
336.550818
 20
504.296190
 30
0.0
 10
335.259154
 20
504.296190
 30
0.0
  0
SPLINE
  5
23f
100
AcDbEntity
  8
Layer_1
 62
7
100
AcDbSpline
 70
8
 71
3
 72
8
 73
4
 74
0
 40
0
 40
0
 40
0
 40
0
 40
1
 40
1
 40
1
 40
1
 10
335.259154
 20
504.296190
 30
0.0
 10
333.144568
 20
504.296190
 30
0.0
 10
331.420608
 20
505.139940
 30
0.0
 10
330.087274
 20
506.827438
 30
0.0
  0
SPLINE
  5
240
100
AcDbEntity
  8
Layer_1
 62
7
100
AcDbSpline
 70
8
 71
3
 72
8
 73
4
 74
0
 40
0
 40
0
 40
0
 40
0
 40
1
 40
1
 40
1
 40
1
 10
330.087274
 20
506.827438
 30
0.0
 10
328.764357
 20
508.514942
 30
0.0
 10
328.102898
 20
510.733694
 30
0.0
 10
328.102898
 20
513.483694
 30
0.0
  0
SPLINE
  5
241
100
AcDbEntity
  8
Layer_1
 62
7
100
AcDbSpline
 70
8
 71
3
 72
8
 73
4
 74
0
 40
0
 40
0
 40
0
 40
0
 40
1
 40
1
 40
1
 40
1
 10
328.102898
 20
513.483694
 30
0.0
 10
328.102898
 20
516.233694
 30
0.0
 10
328.764357
 20
518.452444
 30
0.0
 10
330.087274
 20
520.139942
 30
0.0
  0
SPLINE
  5
242
100
AcDbEntity
  8
Layer_1
 62
7
100
AcDbSpline
 70
8
 71
3
 72
8
 73
4
 74
0
 40
0
 40
0
 40
0
 40
0
 40
1
 40
1
 40
1
 40
1
 10
330.087274
 20
520.139942
 30
0.0
 10
331.420608
 20
521.827441
 30
0.0
 10
333.144568
 20
522.671190
 30
0.0
 10
335.259154
 20
522.671190
 30
0.0
  0
SPLINE
  5
243
100
AcDbEntity
  8
Layer_1
 62
7
100
AcDbSpline
 70
8
 71
3
 72
8
 73
4
 74
0
 40
0
 40
0
 40
0
 40
0
 40
1
 40
1
 40
1
 40
1
 10
335.259154
 20
522.671190
 30
0.0
 10
336.550818
 20
522.671190
 30
0.0
 10
337.654984
 20
522.415982
 30
0.0
 10
338.571650
 20
521.905566
 30
0.0
  0
SPLINE
  5
244
100
AcDbEntity
  8
Layer_1
 62
7
100
AcDbSpline
 70
8
 71
3
 72
8
 73
4
 74
0
 40
0
 40
0
 40
0
 40
0
 40
1
 40
1
 40
1
 40
1
 10
338.571650
 20
521.905566
 30
0.0
 10
339.498733
 20
521.405566
 30
0.0
 10
340.264360
 20
520.634734
 30
0.0
 10
340.868530
 20
519.593070
 30
0.0
  0
LWPOLYLINE
  5
245
100
AcDbEntity
  8
Layer_1
 62
7
100
AcDbPolyline
 90
6
 70
1
 10
340.868530
 20
519.593070
 30
0.0
 10
340.868530
 20
529.061814
 30
0.0
 10
343.743530
 20
529.061814
 30
0.0
 10
343.743530
 20
504.749318
 30
0.0
 10
340.868530
 20
504.749318
 30
0.0
 10
340.868530
 20
507.374318
 30
0.0
  0
SPLINE
  5
246
100
AcDbEntity
  8
Layer_1
 62
7
100
AcDbSpline
 70
8
 71
3
 72
8
 73
4
 74
0
 40
0
 40
0
 40
0
 40
0
 40
1
 40
1
 40
1
 40
1
 10
331.071650
 20
513.483694
 30
0.0
 10
331.071650
 20
511.369108
 30
0.0
 10
331.503944
 20
509.707649
 30
0.0
 10
332.368530
 20
508.499318
 30
0.0
  0
SPLINE
  5
247
100
AcDbEntity
  8
Layer_1
 62
7
100
AcDbSpline
 70
8
 71
3
 72
8
 73
4
 74
0
 40
0
 40
0
 40
0
 40
0
 40
1
 40
1
 40
1
 40
1
 10
332.368530
 20
508.499318
 30
0.0
 10
333.243528
 20
507.301398
 30
0.0
 10
334.441442
 20
506.702438
 30
0.0
 10
335.962274
 20
506.702438
 30
0.0
  0
SPLINE
  5
248
100
AcDbEntity
  8
Layer_1
 62
7
100
AcDbSpline
 70
8
 71
3
 72
8
 73
4
 74
0
 40
0
 40
0
 40
0
 40
0
 40
1
 40
1
 40
1
 40
1
 10
335.962274
 20
506.702438
 30
0.0
 10
337.483112
 20
506.702438
 30
0.0
 10
338.681029
 20
507.301398
 30
0.0
 10
339.556026
 20
508.499318
 30
0.0
  0
SPLINE
  5
249
100
AcDbEntity
  8
Layer_1
 62
7
100
AcDbSpline
 70
8
 71
3
 72
8
 73
4
 74
0
 40
0
 40
0
 40
0
 40
0
 40
1
 40
1
 40
1
 40
1
 10
339.556026
 20
508.499318
 30
0.0
 10
340.431029
 20
509.707649
 30
0.0
 10
340.868530
 20
511.369108
 30
0.0
 10
340.868530
 20
513.483694
 30
0.0
  0
SPLINE
  5
24a
100
AcDbEntity
  8
Layer_1
 62
7
100
AcDbSpline
 70
8
 71
3
 72
8
 73
4
 74
0
 40
0
 40
0
 40
0
 40
0
 40
1
 40
1
 40
1
 40
1
 10
340.868530
 20
513.483694
 30
0.0
 10
340.868530
 20
515.598276
 30
0.0
 10
340.431029
 20
517.254524
 30
0.0
 10
339.556026
 20
518.452438
 30
0.0
  0
SPLINE
  5
24b
100
AcDbEntity
  8
Layer_1
 62
7
100
AcDbSpline
 70
8
 71
3
 72
8
 73
4
 74
0
 40
0
 40
0
 40
0
 40
0
 40
1
 40
1
 40
1
 40
1
 10
339.556026
 20
518.452438
 30
0.0
 10
338.681029
 20
519.660774
 30
0.0
 10
337.483112
 20
520.264942
 30
0.0
 10
335.962274
 20
520.264942
 30
0.0
  0
SPLINE
  5
24c
100
AcDbEntity
  8
Layer_1
 62
7
100
AcDbSpline
 70
8
 71
3
 72
8
 73
4
 74
0
 40
0
 40
0
 40
0
 40
0
 40
1
 40
1
 40
1
 40
1
 10
335.962274
 20
520.264942
 30
0.0
 10
334.441442
 20
520.264942
 30
0.0
 10
333.243528
 20
519.660774
 30
0.0
 10
332.368530
 20
518.452438
 30
0.0
  0
SPLINE
  5
24d
100
AcDbEntity
  8
Layer_1
 62
7
100
AcDbSpline
 70
8
 71
3
 72
8
 73
4
 74
0
 40
0
 40
0
 40
0
 40
0
 40
1
 40
1
 40
1
 40
1
 10
332.368530
 20
518.452438
 30
0.0
 10
331.503944
 20
517.254524
 30
0.0
 10
331.071650
 20
515.598276
 30
0.0
 10
331.071650
 20
513.483694
 30
0.0
  0
LWPOLYLINE
  5
24e
100
AcDbEntity
  8
Layer_1
 62
7
100
AcDbPolyline
 90
2
 70
1
 10
340.868530
 20
519.593070
 30
0.0
 10
340.868530
 20
519.593070
 30
0.0
  0
LWPOLYLINE
  5
24f
100
AcDbEntity
  8
Layer_1
 62
7
100
AcDbPolyline
 90
2
 70
1
 10
331.071650
 20
513.483694
 30
0.0
 10
331.071650
 20
513.483694
 30
0.0
  0
LWPOLYLINE
  5
250
100
AcDbEntity
  8
Layer_1
 62
7
100
AcDbPolyline
 90
6
 70
1
 10
350.399778
 20
508.718070
 30
0.0
 10
353.696650
 20
508.718070
 30
0.0
 10
353.696650
 20
504.749318
 30
0.0
 10
350.399778
 20
504.749318
 30
0.0
 10
350.399778
 20
508.718070
 30
0.0
 10
350.399778
 20
508.718070
 30
0.0
  0
LWPOLYLINE
  5
251
100
AcDbEntity
  8
Layer_1
 62
7
100
AcDbPolyline
 90
6
 70
1
 10
350.399778
 20
521.296190
 30
0.0
 10
353.696650
 20
521.296190
 30
0.0
 10
353.696650
 20
517.327438
 30
0.0
 10
350.399778
 20
517.327438
 30
0.0
 10
350.399778
 20
521.296190
 30
0.0
 10
350.399778
 20
521.296190
 30
0.0
  0
SPLINE
  5
252
100
AcDbEntity
  8
Layer_1
 62
7
100
AcDbSpline
 70
8
 71
3
 72
8
 73
4
 74
0
 40
0
 40
0
 40
0
 40
0
 40
1
 40
1
 40
1
 40
1
 10
398.196650
 20
525.999318
 30
0.0
 10
396.571653
 20
525.999318
 30
0.0
 10
395.347696
 20
525.197236
 30
0.0
 10
394.524778
 20
523.593070
 30
0.0
  0
SPLINE
  5
253
100
AcDbEntity
  8
Layer_1
 62
7
100
AcDbSpline
 70
8
 71
3
 72
8
 73
4
 74
0
 40
0
 40
0
 40
0
 40
0
 40
1
 40
1
 40
1
 40
1
 10
394.524778
 20
523.593070
 30
0.0
 10
393.712277
 20
521.999316
 30
0.0
 10
393.306026
 20
519.598273
 30
0.0
 10
393.306026
 20
516.389942
 30
0.0
  0
SPLINE
  5
254
100
AcDbEntity
  8
Layer_1
 62
7
100
AcDbSpline
 70
8
 71
3
 72
8
 73
4
 74
0
 40
0
 40
0
 40
0
 40
0
 40
1
 40
1
 40
1
 40
1
 10
393.306026
 20
516.389942
 30
0.0
 10
393.306026
 20
513.192028
 30
0.0
 10
393.712277
 20
510.790985
 30
0.0
 10
394.524778
 20
509.186814
 30
0.0
  0
SPLINE
  5
255
100
AcDbEntity
  8
Layer_1
 62
7
100
AcDbSpline
 70
8
 71
3
 72
8
 73
4
 74
0
 40
0
 40
0
 40
0
 40
0
 40
1
 40
1
 40
1
 40
1
 10
394.524778
 20
509.186814
 30
0.0
 10
395.347696
 20
507.593065
 30
0.0
 10
396.571653
 20
506.796190
 30
0.0
 10
398.196650
 20
506.796190
 30
0.0
  0
SPLINE
  5
256
100
AcDbEntity
  8
Layer_1
 62
7
100
AcDbSpline
 70
8
 71
3
 72
8
 73
4
 74
0
 40
0
 40
0
 40
0
 40
0
 40
1
 40
1
 40
1
 40
1
 10
398.196650
 20
506.796190
 30
0.0
 10
399.832069
 20
506.796190
 30
0.0
 10
401.056029
 20
507.593065
 30
0.0
 10
401.868530
 20
509.186814
 30
0.0
  0
SPLINE
  5
257
100
AcDbEntity
  8
Layer_1
 62
7
100
AcDbSpline
 70
8
 71
3
 72
8
 73
4
 74
0
 40
0
 40
0
 40
0
 40
0
 40
1
 40
1
 40
1
 40
1
 10
401.868530
 20
509.186814
 30
0.0
 10
402.691442
 20
510.790985
 30
0.0
 10
403.102898
 20
513.192028
 30
0.0
 10
403.102898
 20
516.389942
 30
0.0
  0
SPLINE
  5
258
100
AcDbEntity
  8
Layer_1
 62
7
100
AcDbSpline
 70
8
 71
3
 72
8
 73
4
 74
0
 40
0
 40
0
 40
0
 40
0
 40
1
 40
1
 40
1
 40
1
 10
403.102898
 20
516.389942
 30
0.0
 10
403.102898
 20
519.598273
 30
0.0
 10
402.691442
 20
521.999316
 30
0.0
 10
401.868530
 20
523.593070
 30
0.0
  0
SPLINE
  5
259
100
AcDbEntity
  8
Layer_1
 62
7
100
AcDbSpline
 70
8
 71
3
 72
8
 73
4
 74
0
 40
0
 40
0
 40
0
 40
0
 40
1
 40
1
 40
1
 40
1
 10
401.868530
 20
523.593070
 30
0.0
 10
401.056029
 20
525.197236
 30
0.0
 10
399.832069
 20
525.999318
 30
0.0
 10
398.196650
 20
525.999318
 30
0.0
  0
LWPOLYLINE
  5
25a
100
AcDbEntity
  8
Layer_1
 62
7
100
AcDbPolyline
 90
13
 70
1
 10
371.618530
 20
507.405566
 30
0.0
 10
376.774778
 20
507.405566
 30
0.0
 10
376.774778
 20
525.202438
 30
0.0
 10
371.165402
 20
524.077438
 30
0.0
 10
371.165402
 20
526.952438
 30
0.0
 10
376.743530
 20
528.077438
 30
0.0
 10
379.899778
 20
528.077438
 30
0.0
 10
379.899778
 20
507.405566
 30
0.0
 10
385.056026
 20
507.405566
 30
0.0
 10
385.056026
 20
504.749318
 30
0.0
 10
371.618530
 20
504.749318
 30
0.0
 10
371.618530
 20
507.405566
 30
0.0
 10
371.618530
 20
507.405566
 30
0.0
  0
SPLINE
  5
25b
100
AcDbEntity
  8
Layer_1
 62
7
100
AcDbSpline
 70
8
 71
3
 72
8
 73
4
 74
0
 40
0
 40
0
 40
0
 40
0
 40
1
 40
1
 40
1
 40
1
 10
398.196650
 20
528.499318
 30
0.0
 10
400.811237
 20
528.499318
 30
0.0
 10
402.806029
 20
527.462860
 30
0.0
 10
404.181026
 20
525.389942
 30
0.0
  0
SPLINE
  5
25c
100
AcDbEntity
  8
Layer_1
 62
7
100
AcDbSpline
 70
8
 71
3
 72
8
 73
4
 74
0
 40
0
 40
0
 40
0
 40
0
 40
1
 40
1
 40
1
 40
1
 10
404.181026
 20
525.389942
 30
0.0
 10
405.566445
 20
523.327441
 30
0.0
 10
406.259154
 20
520.327441
 30
0.0
 10
406.259154
 20
516.389942
 30
0.0
  0
SPLINE
  5
25d
100
AcDbEntity
  8
Layer_1
 62
7
100
AcDbSpline
 70
8
 71
3
 72
8
 73
4
 74
0
 40
0
 40
0
 40
0
 40
0
 40
1
 40
1
 40
1
 40
1
 10
406.259154
 20
516.389942
 30
0.0
 10
406.259154
 20
512.462860
 30
0.0
 10
405.566445
 20
509.462860
 30
0.0
 10
404.181026
 20
507.389942
 30
0.0
  0
SPLINE
  5
25e
100
AcDbEntity
  8
Layer_1
 62
7
100
AcDbSpline
 70
8
 71
3
 72
8
 73
4
 74
0
 40
0
 40
0
 40
0
 40
0
 40
1
 40
1
 40
1
 40
1
 10
404.181026
 20
507.389942
 30
0.0
 10
402.806029
 20
505.327441
 30
0.0
 10
400.811237
 20
504.296190
 30
0.0
 10
398.196650
 20
504.296190
 30
0.0
  0
SPLINE
  5
25f
100
AcDbEntity
  8
Layer_1
 62
7
100
AcDbSpline
 70
8
 71
3
 72
8
 73
4
 74
0
 40
0
 40
0
 40
0
 40
0
 40
1
 40
1
 40
1
 40
1
 10
398.196650
 20
504.296190
 30
0.0
 10
395.582069
 20
504.296190
 30
0.0
 10
393.582069
 20
505.327441
 30
0.0
 10
392.196650
 20
507.389942
 30
0.0
  0
SPLINE
  5
260
100
AcDbEntity
  8
Layer_1
 62
7
100
AcDbSpline
 70
8
 71
3
 72
8
 73
4
 74
0
 40
0
 40
0
 40
0
 40
0
 40
1
 40
1
 40
1
 40
1
 10
392.196650
 20
507.389942
 30
0.0
 10
390.821653
 20
509.462860
 30
0.0
 10
390.134154
 20
512.462860
 30
0.0
 10
390.134154
 20
516.389942
 30
0.0
  0
SPLINE
  5
261
100
AcDbEntity
  8
Layer_1
 62
7
100
AcDbSpline
 70
8
 71
3
 72
8
 73
4
 74
0
 40
0
 40
0
 40
0
 40
0
 40
1
 40
1
 40
1
 40
1
 10
390.134154
 20
516.389942
 30
0.0
 10
390.134154
 20
520.327441
 30
0.0
 10
390.821653
 20
523.327441
 30
0.0
 10
392.196650
 20
525.389942
 30
0.0
  0
SPLINE
  5
262
100
AcDbEntity
  8
Layer_1
 62
7
100
AcDbSpline
 70
8
 71
3
 72
8
 73
4
 74
0
 40
0
 40
0
 40
0
 40
0
 40
1
 40
1
 40
1
 40
1
 10
392.196650
 20
525.389942
 30
0.0
 10
393.582069
 20
527.462860
 30
0.0
 10
395.582069
 20
528.499318
 30
0.0
 10
398.196650
 20
528.499318
 30
0.0
  0
LWPOLYLINE
  5
263
100
AcDbEntity
  8
Layer_1
 62
7
100
AcDbPolyline
 90
2
 70
1
 10
398.196650
 20
525.999318
 30
0.0
 10
398.196650
 20
525.999318
 30
0.0
  0
LWPOLYLINE
  5
264
100
AcDbEntity
  8
Layer_1
 62
7
100
AcDbPolyline
 90
2
 70
1
 10
398.196650
 20
528.499318
 30
0.0
 10
398.196650
 20
528.499318
 30
0.0
  0
SPLINE
  5
265
100
AcDbEntity
  8
Layer_1
 62
7
100
AcDbSpline
 70
8
 71
3
 72
8
 73
4
 74
0
 40
0
 40
0
 40
0
 40
0
 40
1
 40
1
 40
1
 40
1
 10
256.665402
 20
476.718070
 30
0.0
 10
258.134154
 20
476.718070
 30
0.0
 10
259.269570
 20
477.098278
 30
0.0
 10
260.071650
 20
477.858694
 30
0.0
  0
SPLINE
  5
266
100
AcDbEntity
  8
Layer_1
 62
7
100
AcDbSpline
 70
8
 71
3
 72
8
 73
4
 74
0
 40
0
 40
0
 40
0
 40
0
 40
1
 40
1
 40
1
 40
1
 10
260.071650
 20
477.858694
 30
0.0
 10
260.873736
 20
478.619110
 30
0.0
 10
261.274778
 20
479.702444
 30
0.0
 10
261.274778
 20
481.108694
 30
0.0
  0
SPLINE
  5
267
100
AcDbEntity
  8
Layer_1
 62
7
100
AcDbSpline
 70
8
 71
3
 72
8
 73
4
 74
0
 40
0
 40
0
 40
0
 40
0
 40
1
 40
1
 40
1
 40
1
 10
261.274778
 20
481.108694
 30
0.0
 10
261.274778
 20
482.504524
 30
0.0
 10
260.873736
 20
483.582649
 30
0.0
 10
260.071650
 20
484.343070
 30
0.0
  0
SPLINE
  5
268
100
AcDbEntity
  8
Layer_1
 62
7
100
AcDbSpline
 70
8
 71
3
 72
8
 73
4
 74
0
 40
0
 40
0
 40
0
 40
0
 40
1
 40
1
 40
1
 40
1
 10
260.071650
 20
484.343070
 30
0.0
 10
259.269570
 20
485.103486
 30
0.0
 10
258.134154
 20
485.483694
 30
0.0
 10
256.665402
 20
485.483694
 30
0.0
  0
LWPOLYLINE
  5
269
100
AcDbEntity
  8
Layer_1
 62
7
100
AcDbPolyline
 90
3
 70
1
 10
252.696650
 20
485.483694
 30
0.0
 10
252.696650
 20
476.718070
 30
0.0
 10
256.665402
 20
476.718070
 30
0.0
  0
LWPOLYLINE
  5
26a
100
AcDbEntity
  8
Layer_1
 62
7
100
AcDbPolyline
 90
3
 70
1
 10
256.665402
 20
485.483694
 30
0.0
 10
252.696650
 20
485.483694
 30
0.0
 10
252.696650
 20
485.483694
 30
0.0
  0
SPLINE
  5
26b
100
AcDbEntity
  8
Layer_1
 62
7
100
AcDbSpline
 70
8
 71
3
 72
8
 73
4
 74
0
 40
0
 40
0
 40
0
 40
0
 40
1
 40
1
 40
1
 40
1
 10
256.665402
 20
488.077438
 30
0.0
 10
259.279984
 20
488.077438
 30
0.0
 10
261.253941
 20
487.483689
 30
0.0
 10
262.587274
 20
486.296190
 30
0.0
  0
SPLINE
  5
26c
100
AcDbEntity
  8
Layer_1
 62
7
100
AcDbSpline
 70
8
 71
3
 72
8
 73
4
 74
0
 40
0
 40
0
 40
0
 40
0
 40
1
 40
1
 40
1
 40
1
 10
262.587274
 20
486.296190
 30
0.0
 10
263.931024
 20
485.119108
 30
0.0
 10
264.602898
 20
483.389942
 30
0.0
 10
264.602898
 20
481.108694
 30
0.0
  0
SPLINE
  5
26d
100
AcDbEntity
  8
Layer_1
 62
7
100
AcDbSpline
 70
8
 71
3
 72
8
 73
4
 74
0
 40
0
 40
0
 40
0
 40
0
 40
1
 40
1
 40
1
 40
1
 10
264.602898
 20
481.108694
 30
0.0
 10
264.602898
 20
478.806609
 30
0.0
 10
263.931024
 20
477.067025
 30
0.0
 10
262.587274
 20
475.889942
 30
0.0
  0
SPLINE
  5
26e
100
AcDbEntity
  8
Layer_1
 62
7
100
AcDbSpline
 70
8
 71
3
 72
8
 73
4
 74
0
 40
0
 40
0
 40
0
 40
0
 40
1
 40
1
 40
1
 40
1
 10
262.587274
 20
475.889942
 30
0.0
 10
261.253941
 20
474.712860
 30
0.0
 10
259.279984
 20
474.124318
 30
0.0
 10
256.665402
 20
474.124318
 30
0.0
  0
LWPOLYLINE
  5
26f
100
AcDbEntity
  8
Layer_1
 62
7
100
AcDbPolyline
 90
2
 70
1
 10
249.540402
 20
488.077438
 30
0.0
 10
256.665402
 20
488.077438
 30
0.0
  0
SPLINE
  5
270
100
AcDbEntity
  8
Layer_1
 62
7
100
AcDbSpline
 70
8
 71
3
 72
8
 73
4
 74
0
 40
0
 40
0
 40
0
 40
0
 40
1
 40
1
 40
1
 40
1
 10
274.384154
 20
480.233694
 30
0.0
 10
272.842485
 20
480.233694
 30
0.0
 10
271.623733
 20
479.629526
 30
0.0
 10
270.727898
 20
478.421190
 30
0.0
  0
SPLINE
  5
271
100
AcDbEntity
  8
Layer_1
 62
7
100
AcDbSpline
 70
8
 71
3
 72
8
 73
4
 74
0
 40
0
 40
0
 40
0
 40
0
 40
1
 40
1
 40
1
 40
1
 10
270.727898
 20
478.421190
 30
0.0
 10
269.832069
 20
477.223276
 30
0.0
 10
269.384154
 20
475.577444
 30
0.0
 10
269.384154
 20
473.483694
 30
0.0
  0
SPLINE
  5
272
100
AcDbEntity
  8
Layer_1
 62
7
100
AcDbSpline
 70
8
 71
3
 72
8
 73
4
 74
0
 40
0
 40
0
 40
0
 40
0
 40
1
 40
1
 40
1
 40
1
 10
269.384154
 20
473.483694
 30
0.0
 10
269.384154
 20
471.389945
 30
0.0
 10
269.826861
 20
469.738902
 30
0.0
 10
270.712274
 20
468.530566
 30
0.0
  0
SPLINE
  5
273
100
AcDbEntity
  8
Layer_1
 62
7
100
AcDbSpline
 70
8
 71
3
 72
8
 73
4
 74
0
 40
0
 40
0
 40
0
 40
0
 40
1
 40
1
 40
1
 40
1
 10
270.712274
 20
468.530566
 30
0.0
 10
271.608109
 20
467.332652
 30
0.0
 10
272.832069
 20
466.733694
 30
0.0
 10
274.384154
 20
466.733694
 30
0.0
  0
SPLINE
  5
274
100
AcDbEntity
  8
Layer_1
 62
7
100
AcDbSpline
 70
8
 71
3
 72
8
 73
4
 74
0
 40
0
 40
0
 40
0
 40
0
 40
1
 40
1
 40
1
 40
1
 10
274.384154
 20
466.733694
 30
0.0
 10
275.915402
 20
466.733694
 30
0.0
 10
277.128944
 20
467.337860
 30
0.0
 10
278.024778
 20
468.546190
 30
0.0
  0
SPLINE
  5
275
100
AcDbEntity
  8
Layer_1
 62
7
100
AcDbSpline
 70
8
 71
3
 72
8
 73
4
 74
0
 40
0
 40
0
 40
0
 40
0
 40
1
 40
1
 40
1
 40
1
 10
278.024778
 20
468.546190
 30
0.0
 10
278.920613
 20
469.754526
 30
0.0
 10
279.368530
 20
471.400361
 30
0.0
 10
279.368530
 20
473.483694
 30
0.0
  0
SPLINE
  5
276
100
AcDbEntity
  8
Layer_1
 62
7
100
AcDbSpline
 70
8
 71
3
 72
8
 73
4
 74
0
 40
0
 40
0
 40
0
 40
0
 40
1
 40
1
 40
1
 40
1
 10
279.368530
 20
473.483694
 30
0.0
 10
279.368530
 20
475.556612
 30
0.0
 10
278.920613
 20
477.197236
 30
0.0
 10
278.024778
 20
478.405566
 30
0.0
  0
SPLINE
  5
277
100
AcDbEntity
  8
Layer_1
 62
7
100
AcDbSpline
 70
8
 71
3
 72
8
 73
4
 74
0
 40
0
 40
0
 40
0
 40
0
 40
1
 40
1
 40
1
 40
1
 10
278.024778
 20
478.405566
 30
0.0
 10
277.128944
 20
479.624318
 30
0.0
 10
275.915402
 20
480.233694
 30
0.0
 10
274.384154
 20
480.233694
 30
0.0
  0
LWPOLYLINE
  5
278
100
AcDbEntity
  8
Layer_1
 62
7
100
AcDbPolyline
 90
6
 70
1
 10
256.665402
 20
474.124318
 30
0.0
 10
252.696650
 20
474.124318
 30
0.0
 10
252.696650
 20
464.749318
 30
0.0
 10
249.540402
 20
464.749318
 30
0.0
 10
249.540402
 20
488.077438
 30
0.0
 10
249.540402
 20
488.077438
 30
0.0
  0
SPLINE
  5
279
100
AcDbEntity
  8
Layer_1
 62
7
100
AcDbSpline
 70
8
 71
3
 72
8
 73
4
 74
0
 40
0
 40
0
 40
0
 40
0
 40
1
 40
1
 40
1
 40
1
 10
274.384154
 20
482.671190
 30
0.0
 10
276.884154
 20
482.671190
 30
0.0
 10
278.847696
 20
481.858692
 30
0.0
 10
280.274778
 20
480.233694
 30
0.0
  0
SPLINE
  5
27a
100
AcDbEntity
  8
Layer_1
 62
7
100
AcDbSpline
 70
8
 71
3
 72
8
 73
4
 74
0
 40
0
 40
0
 40
0
 40
0
 40
1
 40
1
 40
1
 40
1
 10
280.274778
 20
480.233694
 30
0.0
 10
281.701861
 20
478.608692
 30
0.0
 10
282.415402
 20
476.358692
 30
0.0
 10
282.415402
 20
473.483694
 30
0.0
  0
SPLINE
  5
27b
100
AcDbEntity
  8
Layer_1
 62
7
100
AcDbSpline
 70
8
 71
3
 72
8
 73
4
 74
0
 40
0
 40
0
 40
0
 40
0
 40
1
 40
1
 40
1
 40
1
 10
282.415402
 20
473.483694
 30
0.0
 10
282.415402
 20
470.619108
 30
0.0
 10
281.701861
 20
468.369108
 30
0.0
 10
280.274778
 20
466.733694
 30
0.0
  0
SPLINE
  5
27c
100
AcDbEntity
  8
Layer_1
 62
7
100
AcDbSpline
 70
8
 71
3
 72
8
 73
4
 74
0
 40
0
 40
0
 40
0
 40
0
 40
1
 40
1
 40
1
 40
1
 10
280.274778
 20
466.733694
 30
0.0
 10
278.847696
 20
465.108692
 30
0.0
 10
276.884154
 20
464.296190
 30
0.0
 10
274.384154
 20
464.296190
 30
0.0
  0
SPLINE
  5
27d
100
AcDbEntity
  8
Layer_1
 62
7
100
AcDbSpline
 70
8
 71
3
 72
8
 73
4
 74
0
 40
0
 40
0
 40
0
 40
0
 40
1
 40
1
 40
1
 40
1
 10
274.384154
 20
464.296190
 30
0.0
 10
271.873738
 20
464.296190
 30
0.0
 10
269.904986
 20
465.108692
 30
0.0
 10
268.477898
 20
466.733694
 30
0.0
  0
SPLINE
  5
27e
100
AcDbEntity
  8
Layer_1
 62
7
100
AcDbSpline
 70
8
 71
3
 72
8
 73
4
 74
0
 40
0
 40
0
 40
0
 40
0
 40
1
 40
1
 40
1
 40
1
 10
268.477898
 20
466.733694
 30
0.0
 10
267.061232
 20
468.369108
 30
0.0
 10
266.352898
 20
470.619108
 30
0.0
 10
266.352898
 20
473.483694
 30
0.0
  0
SPLINE
  5
27f
100
AcDbEntity
  8
Layer_1
 62
7
100
AcDbSpline
 70
8
 71
3
 72
8
 73
4
 74
0
 40
0
 40
0
 40
0
 40
0
 40
1
 40
1
 40
1
 40
1
 10
266.352898
 20
473.483694
 30
0.0
 10
266.352898
 20
476.358692
 30
0.0
 10
267.061232
 20
478.608692
 30
0.0
 10
268.477898
 20
480.233694
 30
0.0
  0
SPLINE
  5
280
100
AcDbEntity
  8
Layer_1
 62
7
100
AcDbSpline
 70
8
 71
3
 72
8
 73
4
 74
0
 40
0
 40
0
 40
0
 40
0
 40
1
 40
1
 40
1
 40
1
 10
268.477898
 20
480.233694
 30
0.0
 10
269.904986
 20
481.858692
 30
0.0
 10
271.873738
 20
482.671190
 30
0.0
 10
274.384154
 20
482.671190
 30
0.0
  0
LWPOLYLINE
  5
281
100
AcDbEntity
  8
Layer_1
 62
7
100
AcDbPolyline
 90
2
 70
1
 10
274.384154
 20
480.233694
 30
0.0
 10
274.384154
 20
480.233694
 30
0.0
  0
LWPOLYLINE
  5
282
100
AcDbEntity
  8
Layer_1
 62
7
100
AcDbPolyline
 90
2
 70
1
 10
274.384154
 20
482.671190
 30
0.0
 10
274.384154
 20
482.671190
 30
0.0
  0
LWPOLYLINE
  5
283
100
AcDbEntity
  8
Layer_1
 62
7
100
AcDbPolyline
 90
15
 70
1
 10
285.493530
 20
482.249318
 30
0.0
 10
288.368530
 20
482.249318
 30
0.0
 10
291.962274
 20
468.593070
 30
0.0
 10
295.540402
 20
482.249318
 30
0.0
 10
298.931026
 20
482.249318
 30
0.0
 10
302.524778
 20
468.593070
 30
0.0
 10
306.102898
 20
482.249318
 30
0.0
 10
308.977898
 20
482.249318
 30
0.0
 10
304.399778
 20
464.749318
 30
0.0
 10
301.009154
 20
464.749318
 30
0.0
 10
297.243530
 20
479.093070
 30
0.0
 10
293.462274
 20
464.749318
 30
0.0
 10
290.071650
 20
464.749318
 30
0.0
 10
285.493530
 20
482.249318
 30
0.0
 10
285.493530
 20
482.249318
 30
0.0
  0
SPLINE
  5
284
100
AcDbEntity
  8
Layer_1
 62
7
100
AcDbSpline
 70
8
 71
3
 72
8
 73
4
 74
0
 40
0
 40
0
 40
0
 40
0
 40
1
 40
1
 40
1
 40
1
 10
315.102898
 20
472.811814
 30
0.0
 10
315.227901
 20
470.832652
 30
0.0
 10
315.821653
 20
469.322236
 30
0.0
 10
316.884154
 20
468.280566
 30
0.0
  0
SPLINE
  5
285
100
AcDbEntity
  8
Layer_1
 62
7
100
AcDbSpline
 70
8
 71
3
 72
8
 73
4
 74
0
 40
0
 40
0
 40
0
 40
0
 40
1
 40
1
 40
1
 40
1
 10
316.884154
 20
468.280566
 30
0.0
 10
317.957072
 20
467.249318
 30
0.0
 10
319.446653
 20
466.733694
 30
0.0
 10
321.352898
 20
466.733694
 30
0.0
  0
SPLINE
  5
286
100
AcDbEntity
  8
Layer_1
 62
7
100
AcDbSpline
 70
8
 71
3
 72
8
 73
4
 74
0
 40
0
 40
0
 40
0
 40
0
 40
1
 40
1
 40
1
 40
1
 10
321.352898
 20
466.733694
 30
0.0
 10
322.457069
 20
466.733694
 30
0.0
 10
323.524778
 20
466.869110
 30
0.0
 10
324.556026
 20
467.139942
 30
0.0
  0
SPLINE
  5
287
100
AcDbEntity
  8
Layer_1
 62
7
100
AcDbSpline
 70
8
 71
3
 72
8
 73
4
 74
0
 40
0
 40
0
 40
0
 40
0
 40
1
 40
1
 40
1
 40
1
 10
324.556026
 20
467.139942
 30
0.0
 10
325.597696
 20
467.410774
 30
0.0
 10
326.628946
 20
467.817025
 30
0.0
 10
327.649778
 20
468.358694
 30
0.0
  0
LWPOLYLINE
  5
288
100
AcDbEntity
  8
Layer_1
 62
7
100
AcDbPolyline
 90
3
 70
1
 10
328.321650
 20
474.218070
 30
0.0
 10
328.321650
 20
472.811814
 30
0.0
 10
315.102898
 20
472.811814
 30
0.0
  0
SPLINE
  5
289
100
AcDbEntity
  8
Layer_1
 62
7
100
AcDbSpline
 70
8
 71
3
 72
8
 73
4
 74
0
 40
0
 40
0
 40
0
 40
0
 40
1
 40
1
 40
1
 40
1
 10
327.649778
 20
465.639942
 30
0.0
 10
326.618525
 20
465.202444
 30
0.0
 10
325.561232
 20
464.869110
 30
0.0
 10
324.477898
 20
464.639942
 30
0.0
  0
SPLINE
  5
28a
100
AcDbEntity
  8
Layer_1
 62
7
100
AcDbSpline
 70
8
 71
3
 72
8
 73
4
 74
0
 40
0
 40
0
 40
0
 40
0
 40
1
 40
1
 40
1
 40
1
 10
324.477898
 20
464.639942
 30
0.0
 10
323.394565
 20
464.410774
 30
0.0
 10
322.295608
 20
464.296190
 30
0.0
 10
321.181026
 20
464.296190
 30
0.0
  0
SPLINE
  5
28b
100
AcDbEntity
  8
Layer_1
 62
7
100
AcDbSpline
 70
8
 71
3
 72
8
 73
4
 74
0
 40
0
 40
0
 40
0
 40
0
 40
1
 40
1
 40
1
 40
1
 10
321.181026
 20
464.296190
 30
0.0
 10
318.389362
 20
464.296190
 30
0.0
 10
316.175821
 20
465.108692
 30
0.0
 10
314.540402
 20
466.733694
 30
0.0
  0
SPLINE
  5
28c
100
AcDbEntity
  8
Layer_1
 62
7
100
AcDbSpline
 70
8
 71
3
 72
8
 73
4
 74
0
 40
0
 40
0
 40
0
 40
0
 40
1
 40
1
 40
1
 40
1
 10
314.540402
 20
466.733694
 30
0.0
 10
312.915400
 20
468.358692
 30
0.0
 10
312.102898
 20
470.556606
 30
0.0
 10
312.102898
 20
473.327438
 30
0.0
  0
SPLINE
  5
28d
100
AcDbEntity
  8
Layer_1
 62
7
100
AcDbSpline
 70
8
 71
3
 72
8
 73
4
 74
0
 40
0
 40
0
 40
0
 40
0
 40
1
 40
1
 40
1
 40
1
 10
312.102898
 20
473.327438
 30
0.0
 10
312.102898
 20
476.192025
 30
0.0
 10
312.873733
 20
478.462860
 30
0.0
 10
314.415402
 20
480.139942
 30
0.0
  0
SPLINE
  5
28e
100
AcDbEntity
  8
Layer_1
 62
7
100
AcDbSpline
 70
8
 71
3
 72
8
 73
4
 74
0
 40
0
 40
0
 40
0
 40
0
 40
1
 40
1
 40
1
 40
1
 10
314.415402
 20
480.139942
 30
0.0
 10
315.967488
 20
481.827441
 30
0.0
 10
318.056029
 20
482.671190
 30
0.0
 10
320.681026
 20
482.671190
 30
0.0
  0
SPLINE
  5
28f
100
AcDbEntity
  8
Layer_1
 62
7
100
AcDbSpline
 70
8
 71
3
 72
8
 73
4
 74
0
 40
0
 40
0
 40
0
 40
0
 40
1
 40
1
 40
1
 40
1
 10
320.681026
 20
482.671190
 30
0.0
 10
323.035192
 20
482.671190
 30
0.0
 10
324.894568
 20
481.910774
 30
0.0
 10
326.259154
 20
480.389942
 30
0.0
  0
SPLINE
  5
290
100
AcDbEntity
  8
Layer_1
 62
7
100
AcDbSpline
 70
8
 71
3
 72
8
 73
4
 74
0
 40
0
 40
0
 40
0
 40
0
 40
1
 40
1
 40
1
 40
1
 10
326.259154
 20
480.389942
 30
0.0
 10
327.634152
 20
478.879526
 30
0.0
 10
328.321650
 20
476.822236
 30
0.0
 10
328.321650
 20
474.218070
 30
0.0
  0
LWPOLYLINE
  5
291
100
AcDbEntity
  8
Layer_1
 62
7
100
AcDbPolyline
 90
2
 70
1
 10
327.649778
 20
468.358694
 30
0.0
 10
327.649778
 20
465.639942
 30
0.0
  0
SPLINE
  5
292
100
AcDbEntity
  8
Layer_1
 62
7
100
AcDbSpline
 70
8
 71
3
 72
8
 73
4
 74
0
 40
0
 40
0
 40
0
 40
0
 40
1
 40
1
 40
1
 40
1
 10
325.446650
 20
475.061814
 30
0.0
 10
325.425797
 20
476.634732
 30
0.0
 10
324.983090
 20
477.889940
 30
0.0
 10
324.118530
 20
478.827438
 30
0.0
  0
SPLINE
  5
293
100
AcDbEntity
  8
Layer_1
 62
7
100
AcDbSpline
 70
8
 71
3
 72
8
 73
4
 74
0
 40
0
 40
0
 40
0
 40
0
 40
1
 40
1
 40
1
 40
1
 10
324.118530
 20
478.827438
 30
0.0
 10
323.264360
 20
479.764942
 30
0.0
 10
322.128941
 20
480.233694
 30
0.0
 10
320.712274
 20
480.233694
 30
0.0
  0
SPLINE
  5
294
100
AcDbEntity
  8
Layer_1
 62
7
100
AcDbSpline
 70
8
 71
3
 72
8
 73
4
 74
0
 40
0
 40
0
 40
0
 40
0
 40
1
 40
1
 40
1
 40
1
 10
320.712274
 20
480.233694
 30
0.0
 10
319.108109
 20
480.233694
 30
0.0
 10
317.821650
 20
479.780569
 30
0.0
 10
316.852898
 20
478.874318
 30
0.0
  0
SPLINE
  5
295
100
AcDbEntity
  8
Layer_1
 62
7
100
AcDbSpline
 70
8
 71
3
 72
8
 73
4
 74
0
 40
0
 40
0
 40
0
 40
0
 40
1
 40
1
 40
1
 40
1
 10
316.852898
 20
478.874318
 30
0.0
 10
315.894568
 20
477.968068
 30
0.0
 10
315.342485
 20
476.692025
 30
0.0
 10
315.196650
 20
475.046190
 30
0.0
  0
LWPOLYLINE
  5
296
100
AcDbEntity
  8
Layer_1
 62
7
100
AcDbPolyline
 90
2
 70
1
 10
328.321650
 20
474.218070
 30
0.0
 10
328.321650
 20
474.218070
 30
0.0
  0
SPLINE
  5
297
100
AcDbEntity
  8
Layer_1
 62
7
100
AcDbSpline
 70
8
 71
3
 72
8
 73
4
 74
0
 40
0
 40
0
 40
0
 40
0
 40
1
 40
1
 40
1
 40
1
 10
343.118530
 20
479.561814
 30
0.0
 10
342.795613
 20
479.749318
 30
0.0
 10
342.441445
 20
479.884737
 30
0.0
 10
342.056026
 20
479.968070
 30
0.0
  0
SPLINE
  5
298
100
AcDbEntity
  8
Layer_1
 62
7
100
AcDbSpline
 70
8
 71
3
 72
8
 73
4
 74
0
 40
0
 40
0
 40
0
 40
0
 40
1
 40
1
 40
1
 40
1
 10
342.056026
 20
479.968070
 30
0.0
 10
341.681029
 20
480.061820
 30
0.0
 10
341.264362
 20
480.108694
 30
0.0
 10
340.806026
 20
480.108694
 30
0.0
  0
SPLINE
  5
299
100
AcDbEntity
  8
Layer_1
 62
7
100
AcDbSpline
 70
8
 71
3
 72
8
 73
4
 74
0
 40
0
 40
0
 40
0
 40
0
 40
1
 40
1
 40
1
 40
1
 10
340.806026
 20
480.108694
 30
0.0
 10
339.181029
 20
480.108694
 30
0.0
 10
337.931029
 20
479.577444
 30
0.0
 10
337.056026
 20
478.514942
 30
0.0
  0
SPLINE
  5
29a
100
AcDbEntity
  8
Layer_1
 62
7
100
AcDbSpline
 70
8
 71
3
 72
8
 73
4
 74
0
 40
0
 40
0
 40
0
 40
0
 40
1
 40
1
 40
1
 40
1
 10
337.056026
 20
478.514942
 30
0.0
 10
336.191445
 20
477.462857
 30
0.0
 10
335.759154
 20
475.947233
 30
0.0
 10
335.759154
 20
473.968070
 30
0.0
  0
LWPOLYLINE
  5
29b
100
AcDbEntity
  8
Layer_1
 62
7
100
AcDbPolyline
 90
3
 70
1
 10
315.196650
 20
475.046190
 30
0.0
 10
325.446650
 20
475.061790
 30
0.0
 10
325.446650
 20
475.061814
 30
0.0
  0
SPLINE
  5
29c
100
AcDbEntity
  8
Layer_1
 62
7
100
AcDbSpline
 70
8
 71
3
 72
8
 73
4
 74
0
 40
0
 40
0
 40
0
 40
0
 40
1
 40
1
 40
1
 40
1
 10
335.759154
 20
479.530566
 30
0.0
 10
336.363320
 20
480.593068
 30
0.0
 10
337.149778
 20
481.379526
 30
0.0
 10
338.118530
 20
481.889942
 30
0.0
  0
SPLINE
  5
29d
100
AcDbEntity
  8
Layer_1
 62
7
100
AcDbSpline
 70
8
 71
3
 72
8
 73
4
 74
0
 40
0
 40
0
 40
0
 40
0
 40
1
 40
1
 40
1
 40
1
 10
338.118530
 20
481.889942
 30
0.0
 10
339.087277
 20
482.410774
 30
0.0
 10
340.264360
 20
482.671190
 30
0.0
 10
341.649778
 20
482.671190
 30
0.0
  0
SPLINE
  5
29e
100
AcDbEntity
  8
Layer_1
 62
7
100
AcDbSpline
 70
8
 71
3
 72
8
 73
4
 74
0
 40
0
 40
0
 40
0
 40
0
 40
1
 40
1
 40
1
 40
1
 10
341.649778
 20
482.671190
 30
0.0
 10
341.847693
 20
482.671190
 30
0.0
 10
342.066442
 20
482.655564
 30
0.0
 10
342.306026
 20
482.624310
 30
0.0
  0
SPLINE
  5
29f
100
AcDbEntity
  8
Layer_1
 62
7
100
AcDbSpline
 70
8
 71
3
 72
8
 73
4
 74
0
 40
0
 40
0
 40
0
 40
0
 40
1
 40
1
 40
1
 40
1
 10
342.306026
 20
482.624310
 30
0.0
 10
342.545610
 20
482.603457
 30
0.0
 10
342.811234
 20
482.566998
 30
0.0
 10
343.102898
 20
482.514934
 30
0.0
  0
LWPOLYLINE
  5
2a0
100
AcDbEntity
  8
Layer_1
 62
7
100
AcDbPolyline
 90
6
 70
1
 10
335.759154
 20
473.968070
 30
0.0
 10
335.759154
 20
464.749318
 30
0.0
 10
332.868530
 20
464.749318
 30
0.0
 10
332.868530
 20
482.249318
 30
0.0
 10
335.759154
 20
482.249318
 30
0.0
 10
335.759154
 20
479.530566
 30
0.0
  0
LWPOLYLINE
  5
2a1
100
AcDbEntity
  8
Layer_1
 62
7
100
AcDbPolyline
 90
3
 70
1
 10
343.102898
 20
482.514934
 30
0.0
 10
343.118498
 20
479.561806
 30
0.0
 10
343.118530
 20
479.561814
 30
0.0
  0
LWPOLYLINE
  5
2a2
100
AcDbEntity
  8
Layer_1
 62
7
100
AcDbPolyline
 90
6
 70
1
 10
346.368530
 20
468.718070
 30
0.0
 10
349.665402
 20
468.718070
 30
0.0
 10
349.665402
 20
464.749318
 30
0.0
 10
346.368530
 20
464.749318
 30
0.0
 10
346.368530
 20
468.718070
 30
0.0
 10
346.368530
 20
468.718070
 30
0.0
  0
SPLINE
  5
2a3
100
AcDbEntity
  8
Layer_1
 62
7
100
AcDbSpline
 70
8
 71
3
 72
8
 73
4
 74
0
 40
0
 40
0
 40
0
 40
0
 40
1
 40
1
 40
1
 40
1
 10
374.212274
 20
477.671190
 30
0.0
 10
372.795608
 20
477.671190
 30
0.0
 10
371.670608
 20
477.186817
 30
0.0
 10
370.837274
 20
476.218070
 30
0.0
  0
SPLINE
  5
2a4
100
AcDbEntity
  8
Layer_1
 62
7
100
AcDbSpline
 70
8
 71
3
 72
8
 73
4
 74
0
 40
0
 40
0
 40
0
 40
0
 40
1
 40
1
 40
1
 40
1
 10
370.837274
 20
476.218070
 30
0.0
 10
370.014357
 20
475.249318
 30
0.0
 10
369.602898
 20
473.921193
 30
0.0
 10
369.602898
 20
472.233694
 30
0.0
  0
SPLINE
  5
2a5
100
AcDbEntity
  8
Layer_1
 62
7
100
AcDbSpline
 70
8
 71
3
 72
8
 73
4
 74
0
 40
0
 40
0
 40
0
 40
0
 40
1
 40
1
 40
1
 40
1
 10
369.602898
 20
472.233694
 30
0.0
 10
369.602898
 20
470.556612
 30
0.0
 10
370.014357
 20
469.228486
 30
0.0
 10
370.837274
 20
468.249318
 30
0.0
  0
SPLINE
  5
2a6
100
AcDbEntity
  8
Layer_1
 62
7
100
AcDbSpline
 70
8
 71
3
 72
8
 73
4
 74
0
 40
0
 40
0
 40
0
 40
0
 40
1
 40
1
 40
1
 40
1
 10
370.837274
 20
468.249318
 30
0.0
 10
371.670608
 20
467.280566
 30
0.0
 10
372.795608
 20
466.796190
 30
0.0
 10
374.212274
 20
466.796190
 30
0.0
  0
SPLINE
  5
2a7
100
AcDbEntity
  8
Layer_1
 62
7
100
AcDbSpline
 70
8
 71
3
 72
8
 73
4
 74
0
 40
0
 40
0
 40
0
 40
0
 40
1
 40
1
 40
1
 40
1
 10
374.212274
 20
466.796190
 30
0.0
 10
375.628941
 20
466.796190
 30
0.0
 10
376.748733
 20
467.280566
 30
0.0
 10
377.571650
 20
468.249318
 30
0.0
  0
SPLINE
  5
2a8
100
AcDbEntity
  8
Layer_1
 62
7
100
AcDbSpline
 70
8
 71
3
 72
8
 73
4
 74
0
 40
0
 40
0
 40
0
 40
0
 40
1
 40
1
 40
1
 40
1
 10
377.571650
 20
468.249318
 30
0.0
 10
378.404984
 20
469.228486
 30
0.0
 10
378.821650
 20
470.556612
 30
0.0
 10
378.821650
 20
472.233694
 30
0.0
  0
SPLINE
  5
2a9
100
AcDbEntity
  8
Layer_1
 62
7
100
AcDbSpline
 70
8
 71
3
 72
8
 73
4
 74
0
 40
0
 40
0
 40
0
 40
0
 40
1
 40
1
 40
1
 40
1
 10
378.821650
 20
472.233694
 30
0.0
 10
378.821650
 20
473.921193
 30
0.0
 10
378.404984
 20
475.249318
 30
0.0
 10
377.571650
 20
476.218070
 30
0.0
  0
SPLINE
  5
2aa
100
AcDbEntity
  8
Layer_1
 62
7
100
AcDbSpline
 70
8
 71
3
 72
8
 73
4
 74
0
 40
0
 40
0
 40
0
 40
0
 40
1
 40
1
 40
1
 40
1
 10
377.571650
 20
476.218070
 30
0.0
 10
376.748733
 20
477.186817
 30
0.0
 10
375.628941
 20
477.671190
 30
0.0
 10
374.212274
 20
477.671190
 30
0.0
  0
LWPOLYLINE
  5
2ab
100
AcDbEntity
  8
Layer_1
 62
7
100
AcDbPolyline
 90
6
 70
1
 10
346.368530
 20
481.296190
 30
0.0
 10
349.665402
 20
481.296190
 30
0.0
 10
349.665402
 20
477.327438
 30
0.0
 10
346.368530
 20
477.327438
 30
0.0
 10
346.368530
 20
481.296190
 30
0.0
 10
346.368530
 20
481.296190
 30
0.0
  0
LWPOLYLINE
  5
2ac
100
AcDbEntity
  8
Layer_1
 62
7
100
AcDbPolyline
 90
2
 70
1
 10
374.212274
 20
477.671190
 30
0.0
 10
374.212274
 20
477.671190
 30
0.0
  0
SPLINE
  5
2ad
100
AcDbEntity
  8
Layer_1
 62
7
100
AcDbSpline
 70
8
 71
3
 72
8
 73
4
 74
0
 40
0
 40
0
 40
0
 40
0
 40
1
 40
1
 40
1
 40
1
 10
380.477898
 20
484.686814
 30
0.0
 10
379.686234
 20
485.061817
 30
0.0
 10
378.884152
 20
485.348276
 30
0.0
 10
378.071650
 20
485.546190
 30
0.0
  0
SPLINE
  5
2ae
100
AcDbEntity
  8
Layer_1
 62
7
100
AcDbSpline
 70
8
 71
3
 72
8
 73
4
 74
0
 40
0
 40
0
 40
0
 40
0
 40
1
 40
1
 40
1
 40
1
 10
378.071650
 20
485.546190
 30
0.0
 10
377.269570
 20
485.744110
 30
0.0
 10
376.472696
 20
485.843070
 30
0.0
 10
375.681026
 20
485.843070
 30
0.0
  0
SPLINE
  5
2af
100
AcDbEntity
  8
Layer_1
 62
7
100
AcDbSpline
 70
8
 71
3
 72
8
 73
4
 74
0
 40
0
 40
0
 40
0
 40
0
 40
1
 40
1
 40
1
 40
1
 10
375.681026
 20
485.843070
 30
0.0
 10
373.597693
 20
485.843070
 30
0.0
 10
372.003944
 20
485.139945
 30
0.0
 10
370.899778
 20
483.733694
 30
0.0
  0
SPLINE
  5
2b0
100
AcDbEntity
  8
Layer_1
 62
7
100
AcDbSpline
 70
8
 71
3
 72
8
 73
4
 74
0
 40
0
 40
0
 40
0
 40
0
 40
1
 40
1
 40
1
 40
1
 10
370.899778
 20
483.733694
 30
0.0
 10
369.806029
 20
482.327444
 30
0.0
 10
369.181029
 20
480.202444
 30
0.0
 10
369.024778
 20
477.358694
 30
0.0
  0
SPLINE
  5
2b1
100
AcDbEntity
  8
Layer_1
 62
7
100
AcDbSpline
 70
8
 71
3
 72
8
 73
4
 74
0
 40
0
 40
0
 40
0
 40
0
 40
1
 40
1
 40
1
 40
1
 10
369.024778
 20
477.358694
 30
0.0
 10
369.639360
 20
478.264945
 30
0.0
 10
370.410192
 20
478.957652
 30
0.0
 10
371.337274
 20
479.436814
 30
0.0
  0
SPLINE
  5
2b2
100
AcDbEntity
  8
Layer_1
 62
7
100
AcDbSpline
 70
8
 71
3
 72
8
 73
4
 74
0
 40
0
 40
0
 40
0
 40
0
 40
1
 40
1
 40
1
 40
1
 10
371.337274
 20
479.436814
 30
0.0
 10
372.264357
 20
479.926398
 30
0.0
 10
373.285192
 20
480.171190
 30
0.0
 10
374.399778
 20
480.171190
 30
0.0
  0
SPLINE
  5
2b3
100
AcDbEntity
  8
Layer_1
 62
7
100
AcDbSpline
 70
8
 71
3
 72
8
 73
4
 74
0
 40
0
 40
0
 40
0
 40
0
 40
1
 40
1
 40
1
 40
1
 10
374.399778
 20
480.171190
 30
0.0
 10
376.743528
 20
480.171190
 30
0.0
 10
378.592485
 20
479.457649
 30
0.0
 10
379.946650
 20
478.030566
 30
0.0
  0
SPLINE
  5
2b4
100
AcDbEntity
  8
Layer_1
 62
7
100
AcDbSpline
 70
8
 71
3
 72
8
 73
4
 74
0
 40
0
 40
0
 40
0
 40
0
 40
1
 40
1
 40
1
 40
1
 10
379.946650
 20
478.030566
 30
0.0
 10
381.311237
 20
476.613900
 30
0.0
 10
381.993530
 20
474.681609
 30
0.0
 10
381.993530
 20
472.233694
 30
0.0
  0
SPLINE
  5
2b5
100
AcDbEntity
  8
Layer_1
 62
7
100
AcDbSpline
 70
8
 71
3
 72
8
 73
4
 74
0
 40
0
 40
0
 40
0
 40
0
 40
1
 40
1
 40
1
 40
1
 10
381.993530
 20
472.233694
 30
0.0
 10
381.993530
 20
469.837860
 30
0.0
 10
381.285197
 20
467.915985
 30
0.0
 10
379.868530
 20
466.468070
 30
0.0
  0
SPLINE
  5
2b6
100
AcDbEntity
  8
Layer_1
 62
7
100
AcDbSpline
 70
8
 71
3
 72
8
 73
4
 74
0
 40
0
 40
0
 40
0
 40
0
 40
1
 40
1
 40
1
 40
1
 10
379.868530
 20
466.468070
 30
0.0
 10
378.451864
 20
465.020150
 30
0.0
 10
376.566445
 20
464.296190
 30
0.0
 10
374.212274
 20
464.296190
 30
0.0
  0
SPLINE
  5
2b7
100
AcDbEntity
  8
Layer_1
 62
7
100
AcDbSpline
 70
8
 71
3
 72
8
 73
4
 74
0
 40
0
 40
0
 40
0
 40
0
 40
1
 40
1
 40
1
 40
1
 10
374.212274
 20
464.296190
 30
0.0
 10
371.514360
 20
464.296190
 30
0.0
 10
369.451861
 20
465.327441
 30
0.0
 10
368.024778
 20
467.389942
 30
0.0
  0
SPLINE
  5
2b8
100
AcDbEntity
  8
Layer_1
 62
7
100
AcDbSpline
 70
8
 71
3
 72
8
 73
4
 74
0
 40
0
 40
0
 40
0
 40
0
 40
1
 40
1
 40
1
 40
1
 10
368.024778
 20
467.389942
 30
0.0
 10
366.597696
 20
469.462860
 30
0.0
 10
365.884154
 20
472.462860
 30
0.0
 10
365.884154
 20
476.389942
 30
0.0
  0
SPLINE
  5
2b9
100
AcDbEntity
  8
Layer_1
 62
7
100
AcDbSpline
 70
8
 71
3
 72
8
 73
4
 74
0
 40
0
 40
0
 40
0
 40
0
 40
1
 40
1
 40
1
 40
1
 10
365.884154
 20
476.389942
 30
0.0
 10
365.884154
 20
480.077441
 30
0.0
 10
366.759154
 20
483.014940
 30
0.0
 10
368.509154
 20
485.202438
 30
0.0
  0
SPLINE
  5
2ba
100
AcDbEntity
  8
Layer_1
 62
7
100
AcDbSpline
 70
8
 71
3
 72
8
 73
4
 74
0
 40
0
 40
0
 40
0
 40
0
 40
1
 40
1
 40
1
 40
1
 10
368.509154
 20
485.202438
 30
0.0
 10
370.259154
 20
487.400358
 30
0.0
 10
372.608112
 20
488.499318
 30
0.0
 10
375.556026
 20
488.499318
 30
0.0
  0
SPLINE
  5
2bb
100
AcDbEntity
  8
Layer_1
 62
7
100
AcDbSpline
 70
8
 71
3
 72
8
 73
4
 74
0
 40
0
 40
0
 40
0
 40
0
 40
1
 40
1
 40
1
 40
1
 10
375.556026
 20
488.499318
 30
0.0
 10
376.347696
 20
488.499318
 30
0.0
 10
377.144570
 20
488.421193
 30
0.0
 10
377.946650
 20
488.264942
 30
0.0
  0
SPLINE
  5
2bc
100
AcDbEntity
  8
Layer_1
 62
7
100
AcDbSpline
 70
8
 71
3
 72
8
 73
4
 74
0
 40
0
 40
0
 40
0
 40
0
 40
1
 40
1
 40
1
 40
1
 10
377.946650
 20
488.264942
 30
0.0
 10
378.759152
 20
488.108692
 30
0.0
 10
379.602901
 20
487.874316
 30
0.0
 10
380.477898
 20
487.561814
 30
0.0
  0
LWPOLYLINE
  5
2bd
100
AcDbEntity
  8
Layer_1
 62
7
100
AcDbPolyline
 90
2
 70
1
 10
380.477898
 20
487.561814
 30
0.0
 10
380.477898
 20
484.686814
 30
0.0
  0
SPLINE
  5
2be
100
AcDbEntity
  8
Layer_1
 62
7
100
AcDbSpline
 70
8
 71
3
 72
8
 73
4
 74
0
 40
0
 40
0
 40
0
 40
0
 40
1
 40
1
 40
1
 40
1
 10
394.196650
 20
485.999318
 30
0.0
 10
392.571653
 20
485.999318
 30
0.0
 10
391.347696
 20
485.197236
 30
0.0
 10
390.524778
 20
483.593070
 30
0.0
  0
SPLINE
  5
2bf
100
AcDbEntity
  8
Layer_1
 62
7
100
AcDbSpline
 70
8
 71
3
 72
8
 73
4
 74
0
 40
0
 40
0
 40
0
 40
0
 40
1
 40
1
 40
1
 40
1
 10
390.524778
 20
483.593070
 30
0.0
 10
389.712277
 20
481.999316
 30
0.0
 10
389.306026
 20
479.598273
 30
0.0
 10
389.306026
 20
476.389942
 30
0.0
  0
SPLINE
  5
2c0
100
AcDbEntity
  8
Layer_1
 62
7
100
AcDbSpline
 70
8
 71
3
 72
8
 73
4
 74
0
 40
0
 40
0
 40
0
 40
0
 40
1
 40
1
 40
1
 40
1
 10
389.306026
 20
476.389942
 30
0.0
 10
389.306026
 20
473.192028
 30
0.0
 10
389.712277
 20
470.790985
 30
0.0
 10
390.524778
 20
469.186814
 30
0.0
  0
SPLINE
  5
2c1
100
AcDbEntity
  8
Layer_1
 62
7
100
AcDbSpline
 70
8
 71
3
 72
8
 73
4
 74
0
 40
0
 40
0
 40
0
 40
0
 40
1
 40
1
 40
1
 40
1
 10
390.524778
 20
469.186814
 30
0.0
 10
391.347696
 20
467.593065
 30
0.0
 10
392.571653
 20
466.796190
 30
0.0
 10
394.196650
 20
466.796190
 30
0.0
  0
SPLINE
  5
2c2
100
AcDbEntity
  8
Layer_1
 62
7
100
AcDbSpline
 70
8
 71
3
 72
8
 73
4
 74
0
 40
0
 40
0
 40
0
 40
0
 40
1
 40
1
 40
1
 40
1
 10
394.196650
 20
466.796190
 30
0.0
 10
395.832069
 20
466.796190
 30
0.0
 10
397.056029
 20
467.593065
 30
0.0
 10
397.868530
 20
469.186814
 30
0.0
  0
SPLINE
  5
2c3
100
AcDbEntity
  8
Layer_1
 62
7
100
AcDbSpline
 70
8
 71
3
 72
8
 73
4
 74
0
 40
0
 40
0
 40
0
 40
0
 40
1
 40
1
 40
1
 40
1
 10
397.868530
 20
469.186814
 30
0.0
 10
398.691442
 20
470.790985
 30
0.0
 10
399.102898
 20
473.192028
 30
0.0
 10
399.102898
 20
476.389942
 30
0.0
  0
SPLINE
  5
2c4
100
AcDbEntity
  8
Layer_1
 62
7
100
AcDbSpline
 70
8
 71
3
 72
8
 73
4
 74
0
 40
0
 40
0
 40
0
 40
0
 40
1
 40
1
 40
1
 40
1
 10
399.102898
 20
476.389942
 30
0.0
 10
399.102898
 20
479.598273
 30
0.0
 10
398.691442
 20
481.999316
 30
0.0
 10
397.868530
 20
483.593070
 30
0.0
  0
SPLINE
  5
2c5
100
AcDbEntity
  8
Layer_1
 62
7
100
AcDbSpline
 70
8
 71
3
 72
8
 73
4
 74
0
 40
0
 40
0
 40
0
 40
0
 40
1
 40
1
 40
1
 40
1
 10
397.868530
 20
483.593070
 30
0.0
 10
397.056029
 20
485.197236
 30
0.0
 10
395.832069
 20
485.999318
 30
0.0
 10
394.196650
 20
485.999318
 30
0.0
  0
LWPOLYLINE
  5
2c6
100
AcDbEntity
  8
Layer_1
 62
7
100
AcDbPolyline
 90
2
 70
1
 10
380.477898
 20
487.561814
 30
0.0
 10
380.477898
 20
487.561814
 30
0.0
  0
SPLINE
  5
2c7
100
AcDbEntity
  8
Layer_1
 62
7
100
AcDbSpline
 70
8
 71
3
 72
8
 73
4
 74
0
 40
0
 40
0
 40
0
 40
0
 40
1
 40
1
 40
1
 40
1
 10
394.196650
 20
488.499318
 30
0.0
 10
396.811237
 20
488.499318
 30
0.0
 10
398.806029
 20
487.462860
 30
0.0
 10
400.181026
 20
485.389942
 30
0.0
  0
SPLINE
  5
2c8
100
AcDbEntity
  8
Layer_1
 62
7
100
AcDbSpline
 70
8
 71
3
 72
8
 73
4
 74
0
 40
0
 40
0
 40
0
 40
0
 40
1
 40
1
 40
1
 40
1
 10
400.181026
 20
485.389942
 30
0.0
 10
401.566445
 20
483.327441
 30
0.0
 10
402.259154
 20
480.327441
 30
0.0
 10
402.259154
 20
476.389942
 30
0.0
  0
SPLINE
  5
2c9
100
AcDbEntity
  8
Layer_1
 62
7
100
AcDbSpline
 70
8
 71
3
 72
8
 73
4
 74
0
 40
0
 40
0
 40
0
 40
0
 40
1
 40
1
 40
1
 40
1
 10
402.259154
 20
476.389942
 30
0.0
 10
402.259154
 20
472.462860
 30
0.0
 10
401.566445
 20
469.462860
 30
0.0
 10
400.181026
 20
467.389942
 30
0.0
  0
SPLINE
  5
2ca
100
AcDbEntity
  8
Layer_1
 62
7
100
AcDbSpline
 70
8
 71
3
 72
8
 73
4
 74
0
 40
0
 40
0
 40
0
 40
0
 40
1
 40
1
 40
1
 40
1
 10
400.181026
 20
467.389942
 30
0.0
 10
398.806029
 20
465.327441
 30
0.0
 10
396.811237
 20
464.296190
 30
0.0
 10
394.196650
 20
464.296190
 30
0.0
  0
SPLINE
  5
2cb
100
AcDbEntity
  8
Layer_1
 62
7
100
AcDbSpline
 70
8
 71
3
 72
8
 73
4
 74
0
 40
0
 40
0
 40
0
 40
0
 40
1
 40
1
 40
1
 40
1
 10
394.196650
 20
464.296190
 30
0.0
 10
391.582069
 20
464.296190
 30
0.0
 10
389.582069
 20
465.327441
 30
0.0
 10
388.196650
 20
467.389942
 30
0.0
  0
SPLINE
  5
2cc
100
AcDbEntity
  8
Layer_1
 62
7
100
AcDbSpline
 70
8
 71
3
 72
8
 73
4
 74
0
 40
0
 40
0
 40
0
 40
0
 40
1
 40
1
 40
1
 40
1
 10
388.196650
 20
467.389942
 30
0.0
 10
386.821653
 20
469.462860
 30
0.0
 10
386.134154
 20
472.462860
 30
0.0
 10
386.134154
 20
476.389942
 30
0.0
  0
SPLINE
  5
2cd
100
AcDbEntity
  8
Layer_1
 62
7
100
AcDbSpline
 70
8
 71
3
 72
8
 73
4
 74
0
 40
0
 40
0
 40
0
 40
0
 40
1
 40
1
 40
1
 40
1
 10
386.134154
 20
476.389942
 30
0.0
 10
386.134154
 20
480.327441
 30
0.0
 10
386.821653
 20
483.327441
 30
0.0
 10
388.196650
 20
485.389942
 30
0.0
  0
SPLINE
  5
2ce
100
AcDbEntity
  8
Layer_1
 62
7
100
AcDbSpline
 70
8
 71
3
 72
8
 73
4
 74
0
 40
0
 40
0
 40
0
 40
0
 40
1
 40
1
 40
1
 40
1
 10
388.196650
 20
485.389942
 30
0.0
 10
389.582069
 20
487.462860
 30
0.0
 10
391.582069
 20
488.499318
 30
0.0
 10
394.196650
 20
488.499318
 30
0.0
  0
LWPOLYLINE
  5
2cf
100
AcDbEntity
  8
Layer_1
 62
7
100
AcDbPolyline
 90
2
 70
1
 10
394.196650
 20
485.999318
 30
0.0
 10
394.196650
 20
485.999318
 30
0.0
  0
LWPOLYLINE
  5
2d0
100
AcDbEntity
  8
Layer_1
 62
7
100
AcDbPolyline
 90
2
 70
1
 10
394.196650
 20
488.499318
 30
0.0
 10
394.196650
 20
488.499318
 30
0.0
  0
LWPOLYLINE
  5
2d1
100
AcDbEntity
  8
Layer_1
 62
2
100
AcDbPolyline
 90
5
 70
1
 10
60.457135
 20
558.393268
 30
0.0
 10
209.028568
 20
558.393268
 30
0.0
 10
209.028568
 20
434.964692
 30
0.0
 10
60.457135
 20
434.964692
 30
0.0
 10
60.457135
 20
558.393268
 30
0.0
  0
LWPOLYLINE
  5
2d2
100
AcDbEntity
  8
Layer_1
 62
5
100
AcDbPolyline
 90
5
 70
1
 10
60.463759
 20
396.779988
 30
0.0
 10
214.013376
 20
396.779988
 30
0.0
 10
214.013376
 20
273.364660
 30
0.0
 10
60.463759
 20
273.364660
 30
0.0
 10
60.463759
 20
396.779988
 30
0.0
  0
LWPOLYLINE
  5
2d3
100
AcDbEntity
  8
Layer_1
 62
4
100
AcDbPolyline
 90
5
 70
1
 10
60.463759
 20
235.173308
 30
0.0
 10
214.013376
 20
235.173308
 30
0.0
 10
214.013376
 20
111.757980
 30
0.0
 10
60.463759
 20
111.757980
 30
0.0
 10
60.463759
 20
235.173308
 30
0.0
  0
LWPOLYLINE
  5
2d4
100
AcDbEntity
  8
Layer_1
 62
7
100
AcDbPolyline
 90
15
 70
1
 10
49.728125
 20
810.028165
 30
0.0
 10
54.431250
 20
810.028165
 30
0.0
 10
60.384375
 20
794.153165
 30
0.0
 10
66.368750
 20
810.028165
 30
0.0
 10
71.071875
 20
810.028165
 30
0.0
 10
71.071875
 20
786.700041
 30
0.0
 10
67.993750
 20
786.700041
 30
0.0
 10
67.993750
 20
807.184416
 30
0.0
 10
61.978125
 20
791.184416
 30
0.0
 10
58.806250
 20
791.184416
 30
0.0
 10
52.790625
 20
807.184416
 30
0.0
 10
52.790625
 20
786.700041
 30
0.0
 10
49.728125
 20
786.700041
 30
0.0
 10
49.728125
 20
810.028165
 30
0.0
 10
49.728125
 20
810.028165
 30
0.0
  0
SPLINE
  5
2d5
100
AcDbEntity
  8
Layer_1
 62
7
100
AcDbSpline
 70
8
 71
3
 72
8
 73
4
 74
0
 40
0
 40
0
 40
0
 40
0
 40
1
 40
1
 40
1
 40
1
 10
84.259376
 20
789.293791
 30
0.0
 10
87.478128
 20
789.293791
 30
0.0
 10
89.832293
 20
790.022958
 30
0.0
 10
91.321872
 20
791.481291
 30
0.0
  0
SPLINE
  5
2d6
100
AcDbEntity
  8
Layer_1
 62
7
100
AcDbSpline
 70
8
 71
3
 72
8
 73
4
 74
0
 40
0
 40
0
 40
0
 40
0
 40
1
 40
1
 40
1
 40
1
 10
91.321872
 20
791.481291
 30
0.0
 10
92.821872
 20
792.939624
 30
0.0
 10
93.571872
 20
795.241708
 30
0.0
 10
93.571872
 20
798.387541
 30
0.0
  0
SPLINE
  5
2d7
100
AcDbEntity
  8
Layer_1
 62
7
100
AcDbSpline
 70
8
 71
3
 72
8
 73
4
 74
0
 40
0
 40
0
 40
0
 40
0
 40
1
 40
1
 40
1
 40
1
 10
93.571872
 20
798.387541
 30
0.0
 10
93.571872
 20
801.512541
 30
0.0
 10
92.821872
 20
803.798999
 30
0.0
 10
91.321872
 20
805.246916
 30
0.0
  0
SPLINE
  5
2d8
100
AcDbEntity
  8
Layer_1
 62
7
100
AcDbSpline
 70
8
 71
3
 72
8
 73
4
 74
0
 40
0
 40
0
 40
0
 40
0
 40
1
 40
1
 40
1
 40
1
 10
91.321872
 20
805.246916
 30
0.0
 10
89.832293
 20
806.705249
 30
0.0
 10
87.478128
 20
807.434416
 30
0.0
 10
84.259376
 20
807.434416
 30
0.0
  0
LWPOLYLINE
  5
2d9
100
AcDbEntity
  8
Layer_1
 62
7
100
AcDbPolyline
 90
3
 70
1
 10
80.446872
 20
807.434416
 30
0.0
 10
80.446872
 20
789.293791
 30
0.0
 10
84.259376
 20
789.293791
 30
0.0
  0
LWPOLYLINE
  5
2da
100
AcDbEntity
  8
Layer_1
 62
7
100
AcDbPolyline
 90
3
 70
1
 10
84.259376
 20
807.434416
 30
0.0
 10
80.446872
 20
807.434416
 30
0.0
 10
80.446872
 20
807.434416
 30
0.0
  0
SPLINE
  5
2db
100
AcDbEntity
  8
Layer_1
 62
7
100
AcDbSpline
 70
8
 71
3
 72
8
 73
4
 74
0
 40
0
 40
0
 40
0
 40
0
 40
1
 40
1
 40
1
 40
1
 10
83.775000
 20
810.028165
 30
0.0
 10
88.295832
 20
810.028165
 30
0.0
 10
91.613541
 20
809.085457
 30
0.0
 10
93.728128
 20
807.200041
 30
0.0
  0
SPLINE
  5
2dc
100
AcDbEntity
  8
Layer_1
 62
7
100
AcDbSpline
 70
8
 71
3
 72
8
 73
4
 74
0
 40
0
 40
0
 40
0
 40
0
 40
1
 40
1
 40
1
 40
1
 10
93.728128
 20
807.200041
 30
0.0
 10
95.842709
 20
805.325041
 30
0.0
 10
96.900000
 20
802.387541
 30
0.0
 10
96.900000
 20
798.387541
 30
0.0
  0
SPLINE
  5
2dd
100
AcDbEntity
  8
Layer_1
 62
7
100
AcDbSpline
 70
8
 71
3
 72
8
 73
4
 74
0
 40
0
 40
0
 40
0
 40
0
 40
1
 40
1
 40
1
 40
1
 10
96.900000
 20
798.387541
 30
0.0
 10
96.900000
 20
794.366708
 30
0.0
 10
95.837501
 20
791.413582
 30
0.0
 10
93.712504
 20
789.528165
 30
0.0
  0
SPLINE
  5
2de
100
AcDbEntity
  8
Layer_1
 62
7
100
AcDbSpline
 70
8
 71
3
 72
8
 73
4
 74
0
 40
0
 40
0
 40
0
 40
0
 40
1
 40
1
 40
1
 40
1
 10
93.712504
 20
789.528165
 30
0.0
 10
91.587501
 20
787.642749
 30
0.0
 10
88.275000
 20
786.700041
 30
0.0
 10
83.775000
 20
786.700041
 30
0.0
  0
LWPOLYLINE
  5
2df
100
AcDbEntity
  8
Layer_1
 62
7
100
AcDbPolyline
 90
2
 70
1
 10
77.290625
 20
810.028165
 30
0.0
 10
83.775000
 20
810.028165
 30
0.0
  0
LWPOLYLINE
  5
2e0
100
AcDbEntity
  8
Layer_1
 62
7
100
AcDbPolyline
 90
4
 70
1
 10
83.775000
 20
786.700041
 30
0.0
 10
77.290625
 20
786.700041
 30
0.0
 10
77.290625
 20
810.028165
 30
0.0
 10
77.290625
 20
810.028165
 30
0.0
  0
LWPOLYLINE
  5
2e1
100
AcDbEntity
  8
Layer_1
 62
7
100
AcDbPolyline
 90
12
 70
1
 10
101.915624
 20
810.028165
 30
0.0
 10
115.321872
 20
810.028165
 30
0.0
 10
115.321872
 20
807.371916
 30
0.0
 10
105.071872
 20
807.371916
 30
0.0
 10
105.071872
 20
800.496916
 30
0.0
 10
114.321872
 20
800.496916
 30
0.0
 10
114.321872
 20
797.840665
 30
0.0
 10
105.071872
 20
797.840665
 30
0.0
 10
105.071872
 20
786.700041
 30
0.0
 10
101.915624
 20
786.700041
 30
0.0
 10
101.915624
 20
810.028165
 30
0.0
 10
101.915624
 20
810.028165
 30
0.0
  0
SPLINE
  5
2e2
100
AcDbEntity
  8
Layer_1
 62
7
100
AcDbSpline
 70
8
 71
3
 72
8
 73
4
 74
0
 40
0
 40
0
 40
0
 40
0
 40
1
 40
1
 40
1
 40
1
 10
130.853128
 20
790.059416
 30
0.0
 10
131.644792
 20
789.684416
 30
0.0
 10
132.446875
 20
789.397957
 30
0.0
 10
133.259376
 20
789.200041
 30
0.0
  0
SPLINE
  5
2e3
100
AcDbEntity
  8
Layer_1
 62
7
100
AcDbSpline
 70
8
 71
3
 72
8
 73
4
 74
0
 40
0
 40
0
 40
0
 40
0
 40
1
 40
1
 40
1
 40
1
 10
133.259376
 20
789.200041
 30
0.0
 10
134.071877
 20
789.002124
 30
0.0
 10
134.868752
 20
788.903165
 30
0.0
 10
135.650000
 20
788.903165
 30
0.0
  0
SPLINE
  5
2e4
100
AcDbEntity
  8
Layer_1
 62
7
100
AcDbSpline
 70
8
 71
3
 72
8
 73
4
 74
0
 40
0
 40
0
 40
0
 40
0
 40
1
 40
1
 40
1
 40
1
 10
135.650000
 20
788.903165
 30
0.0
 10
137.733333
 20
788.903165
 30
0.0
 10
139.321875
 20
789.601082
 30
0.0
 10
140.415624
 20
790.996916
 30
0.0
  0
SPLINE
  5
2e5
100
AcDbEntity
  8
Layer_1
 62
7
100
AcDbSpline
 70
8
 71
3
 72
8
 73
4
 74
0
 40
0
 40
0
 40
0
 40
0
 40
1
 40
1
 40
1
 40
1
 10
140.415624
 20
790.996916
 30
0.0
 10
141.519789
 20
792.403166
 30
0.0
 10
142.149997
 20
794.533374
 30
0.0
 10
142.306248
 20
797.387541
 30
0.0
  0
SPLINE
  5
2e6
100
AcDbEntity
  8
Layer_1
 62
7
100
AcDbSpline
 70
8
 71
3
 72
8
 73
4
 74
0
 40
0
 40
0
 40
0
 40
0
 40
1
 40
1
 40
1
 40
1
 10
142.306248
 20
797.387541
 30
0.0
 10
141.702083
 20
796.491708
 30
0.0
 10
140.936459
 20
795.804208
 30
0.0
 10
140.009376
 20
795.325041
 30
0.0
  0
SPLINE
  5
2e7
100
AcDbEntity
  8
Layer_1
 62
7
100
AcDbSpline
 70
8
 71
3
 72
8
 73
4
 74
0
 40
0
 40
0
 40
0
 40
0
 40
1
 40
1
 40
1
 40
1
 10
140.009376
 20
795.325041
 30
0.0
 10
139.082293
 20
794.845874
 30
0.0
 10
138.056251
 20
794.606291
 30
0.0
 10
136.931248
 20
794.606291
 30
0.0
  0
SPLINE
  5
2e8
100
AcDbEntity
  8
Layer_1
 62
7
100
AcDbSpline
 70
8
 71
3
 72
8
 73
4
 74
0
 40
0
 40
0
 40
0
 40
0
 40
1
 40
1
 40
1
 40
1
 10
136.931248
 20
794.606291
 30
0.0
 10
134.597915
 20
794.606291
 30
0.0
 10
132.748957
 20
795.309416
 30
0.0
 10
131.384376
 20
796.715665
 30
0.0
  0
SPLINE
  5
2e9
100
AcDbEntity
  8
Layer_1
 62
7
100
AcDbSpline
 70
8
 71
3
 72
8
 73
4
 74
0
 40
0
 40
0
 40
0
 40
0
 40
1
 40
1
 40
1
 40
1
 10
131.384376
 20
796.715665
 30
0.0
 10
130.030211
 20
798.132332
 30
0.0
 10
129.353128
 20
800.064624
 30
0.0
 10
129.353128
 20
802.512541
 30
0.0
  0
SPLINE
  5
2ea
100
AcDbEntity
  8
Layer_1
 62
7
100
AcDbSpline
 70
8
 71
3
 72
8
 73
4
 74
0
 40
0
 40
0
 40
0
 40
0
 40
1
 40
1
 40
1
 40
1
 10
129.353128
 20
802.512541
 30
0.0
 10
129.353128
 20
804.908374
 30
0.0
 10
130.061461
 20
806.830249
 30
0.0
 10
131.478128
 20
808.278165
 30
0.0
  0
SPLINE
  5
2eb
100
AcDbEntity
  8
Layer_1
 62
7
100
AcDbSpline
 70
8
 71
3
 72
8
 73
4
 74
0
 40
0
 40
0
 40
0
 40
0
 40
1
 40
1
 40
1
 40
1
 10
131.478128
 20
808.278165
 30
0.0
 10
132.894795
 20
809.726082
 30
0.0
 10
134.780211
 20
810.450041
 30
0.0
 10
137.134376
 20
810.450041
 30
0.0
  0
SPLINE
  5
2ec
100
AcDbEntity
  8
Layer_1
 62
7
100
AcDbSpline
 70
8
 71
3
 72
8
 73
4
 74
0
 40
0
 40
0
 40
0
 40
0
 40
1
 40
1
 40
1
 40
1
 10
137.134376
 20
810.450041
 30
0.0
 10
139.832291
 20
810.450041
 30
0.0
 10
141.889581
 20
809.413582
 30
0.0
 10
143.306248
 20
807.340665
 30
0.0
  0
SPLINE
  5
2ed
100
AcDbEntity
  8
Layer_1
 62
7
100
AcDbSpline
 70
8
 71
3
 72
8
 73
4
 74
0
 40
0
 40
0
 40
0
 40
0
 40
1
 40
1
 40
1
 40
1
 10
143.306248
 20
807.340665
 30
0.0
 10
144.733331
 20
805.278166
 30
0.0
 10
145.446872
 20
802.278166
 30
0.0
 10
145.446872
 20
798.340665
 30
0.0
  0
SPLINE
  5
2ee
100
AcDbEntity
  8
Layer_1
 62
7
100
AcDbSpline
 70
8
 71
3
 72
8
 73
4
 74
0
 40
0
 40
0
 40
0
 40
0
 40
1
 40
1
 40
1
 40
1
 10
145.446872
 20
798.340665
 30
0.0
 10
145.446872
 20
794.663582
 30
0.0
 10
144.571872
 20
791.726082
 30
0.0
 10
142.821872
 20
789.528165
 30
0.0
  0
SPLINE
  5
2ef
100
AcDbEntity
  8
Layer_1
 62
7
100
AcDbSpline
 70
8
 71
3
 72
8
 73
4
 74
0
 40
0
 40
0
 40
0
 40
0
 40
1
 40
1
 40
1
 40
1
 10
142.821872
 20
789.528165
 30
0.0
 10
141.082288
 20
787.340666
 30
0.0
 10
138.738539
 20
786.246916
 30
0.0
 10
135.790624
 20
786.246916
 30
0.0
  0
SPLINE
  5
2f0
100
AcDbEntity
  8
Layer_1
 62
7
100
AcDbSpline
 70
8
 71
3
 72
8
 73
4
 74
0
 40
0
 40
0
 40
0
 40
0
 40
1
 40
1
 40
1
 40
1
 10
135.790624
 20
786.246916
 30
0.0
 10
134.998960
 20
786.246916
 30
0.0
 10
134.196877
 20
786.325041
 30
0.0
 10
133.384376
 20
786.481291
 30
0.0
  0
SPLINE
  5
2f1
100
AcDbEntity
  8
Layer_1
 62
7
100
AcDbSpline
 70
8
 71
3
 72
8
 73
4
 74
0
 40
0
 40
0
 40
0
 40
0
 40
1
 40
1
 40
1
 40
1
 10
133.384376
 20
786.481291
 30
0.0
 10
132.571875
 20
786.637541
 30
0.0
 10
131.728125
 20
786.871916
 30
0.0
 10
130.853128
 20
787.184416
 30
0.0
  0
LWPOLYLINE
  5
2f2
100
AcDbEntity
  8
Layer_1
 62
7
100
AcDbPolyline
 90
2
 70
1
 10
130.853128
 20
787.184416
 30
0.0
 10
130.853128
 20
790.059416
 30
0.0
  0
SPLINE
  5
2f3
100
AcDbEntity
  8
Layer_1
 62
7
100
AcDbSpline
 70
8
 71
3
 72
8
 73
4
 74
0
 40
0
 40
0
 40
0
 40
0
 40
1
 40
1
 40
1
 40
1
 10
137.134376
 20
797.075041
 30
0.0
 10
138.551043
 20
797.075041
 30
0.0
 10
139.670835
 20
797.559416
 30
0.0
 10
140.493752
 20
798.528165
 30
0.0
  0
SPLINE
  5
2f4
100
AcDbEntity
  8
Layer_1
 62
7
100
AcDbSpline
 70
8
 71
3
 72
8
 73
4
 74
0
 40
0
 40
0
 40
0
 40
0
 40
1
 40
1
 40
1
 40
1
 10
140.493752
 20
798.528165
 30
0.0
 10
141.327085
 20
799.496916
 30
0.0
 10
141.743752
 20
800.825041
 30
0.0
 10
141.743752
 20
802.512541
 30
0.0
  0
SPLINE
  5
2f5
100
AcDbEntity
  8
Layer_1
 62
7
100
AcDbSpline
 70
8
 71
3
 72
8
 73
4
 74
0
 40
0
 40
0
 40
0
 40
0
 40
1
 40
1
 40
1
 40
1
 10
141.743752
 20
802.512541
 30
0.0
 10
141.743752
 20
804.189624
 30
0.0
 10
141.327085
 20
805.512541
 30
0.0
 10
140.493752
 20
806.481291
 30
0.0
  0
SPLINE
  5
2f6
100
AcDbEntity
  8
Layer_1
 62
7
100
AcDbSpline
 70
8
 71
3
 72
8
 73
4
 74
0
 40
0
 40
0
 40
0
 40
0
 40
1
 40
1
 40
1
 40
1
 10
140.493752
 20
806.481291
 30
0.0
 10
139.670835
 20
807.460457
 30
0.0
 10
138.551043
 20
807.950041
 30
0.0
 10
137.134376
 20
807.950041
 30
0.0
  0
SPLINE
  5
2f7
100
AcDbEntity
  8
Layer_1
 62
7
100
AcDbSpline
 70
8
 71
3
 72
8
 73
4
 74
0
 40
0
 40
0
 40
0
 40
0
 40
1
 40
1
 40
1
 40
1
 10
137.134376
 20
807.950041
 30
0.0
 10
135.717709
 20
807.950041
 30
0.0
 10
134.592709
 20
807.460457
 30
0.0
 10
133.759376
 20
806.481291
 30
0.0
  0
SPLINE
  5
2f8
100
AcDbEntity
  8
Layer_1
 62
7
100
AcDbSpline
 70
8
 71
3
 72
8
 73
4
 74
0
 40
0
 40
0
 40
0
 40
0
 40
1
 40
1
 40
1
 40
1
 10
133.759376
 20
806.481291
 30
0.0
 10
132.936459
 20
805.512541
 30
0.0
 10
132.525000
 20
804.189624
 30
0.0
 10
132.525000
 20
802.512541
 30
0.0
  0
SPLINE
  5
2f9
100
AcDbEntity
  8
Layer_1
 62
7
100
AcDbSpline
 70
8
 71
3
 72
8
 73
4
 74
0
 40
0
 40
0
 40
0
 40
0
 40
1
 40
1
 40
1
 40
1
 10
132.525000
 20
802.512541
 30
0.0
 10
132.525000
 20
800.825041
 30
0.0
 10
132.936459
 20
799.496916
 30
0.0
 10
133.759376
 20
798.528165
 30
0.0
  0
SPLINE
  5
2fa
100
AcDbEntity
  8
Layer_1
 62
7
100
AcDbSpline
 70
8
 71
3
 72
8
 73
4
 74
0
 40
0
 40
0
 40
0
 40
0
 40
1
 40
1
 40
1
 40
1
 10
133.759376
 20
798.528165
 30
0.0
 10
134.592709
 20
797.559416
 30
0.0
 10
135.717709
 20
797.075041
 30
0.0
 10
137.134376
 20
797.075041
 30
0.0
  0
LWPOLYLINE
  5
2fb
100
AcDbEntity
  8
Layer_1
 62
7
100
AcDbPolyline
 90
2
 70
1
 10
130.853128
 20
787.184416
 30
0.0
 10
130.853128
 20
787.184416
 30
0.0
  0
SPLINE
  5
2fc
100
AcDbEntity
  8
Layer_1
 62
7
100
AcDbSpline
 70
8
 71
3
 72
8
 73
4
 74
0
 40
0
 40
0
 40
0
 40
0
 40
1
 40
1
 40
1
 40
1
 10
174.540624
 20
800.840665
 30
0.0
 10
175.259376
 20
802.132332
 30
0.0
 10
176.118752
 20
803.085457
 30
0.0
 10
177.118752
 20
803.700041
 30
0.0
  0
SPLINE
  5
2fd
100
AcDbEntity
  8
Layer_1
 62
7
100
AcDbSpline
 70
8
 71
3
 72
8
 73
4
 74
0
 40
0
 40
0
 40
0
 40
0
 40
1
 40
1
 40
1
 40
1
 10
177.118752
 20
803.700041
 30
0.0
 10
178.118752
 20
804.314624
 30
0.0
 10
179.295835
 20
804.621916
 30
0.0
 10
180.650000
 20
804.621916
 30
0.0
  0
SPLINE
  5
2fe
100
AcDbEntity
  8
Layer_1
 62
7
100
AcDbSpline
 70
8
 71
3
 72
8
 73
4
 74
0
 40
0
 40
0
 40
0
 40
0
 40
1
 40
1
 40
1
 40
1
 10
180.650000
 20
804.621916
 30
0.0
 10
182.472917
 20
804.621916
 30
0.0
 10
183.879168
 20
803.981291
 30
0.0
 10
184.868752
 20
802.700041
 30
0.0
  0
SPLINE
  5
2ff
100
AcDbEntity
  8
Layer_1
 62
7
100
AcDbSpline
 70
8
 71
3
 72
8
 73
4
 74
0
 40
0
 40
0
 40
0
 40
0
 40
1
 40
1
 40
1
 40
1
 10
184.868752
 20
802.700041
 30
0.0
 10
185.858336
 20
801.429208
 30
0.0
 10
186.353128
 20
799.616708
 30
0.0
 10
186.353128
 20
797.262541
 30
0.0
  0
LWPOLYLINE
  5
300
100
AcDbEntity
  8
Layer_1
 62
7
100
AcDbPolyline
 90
2
 70
1
 10
137.134376
 20
797.075041
 30
0.0
 10
137.134376
 20
797.075041
 30
0.0
  0
SPLINE
  5
301
100
AcDbEntity
  8
Layer_1
 62
7
100
AcDbSpline
 70
8
 71
3
 72
8
 73
4
 74
0
 40
0
 40
0
 40
0
 40
0
 40
1
 40
1
 40
1
 40
1
 10
183.462496
 20
797.168791
 30
0.0
 10
183.462496
 20
798.845874
 30
0.0
 10
183.165621
 20
800.090666
 30
0.0
 10
182.571872
 20
800.903165
 30
0.0
  0
SPLINE
  5
302
100
AcDbEntity
  8
Layer_1
 62
7
100
AcDbSpline
 70
8
 71
3
 72
8
 73
4
 74
0
 40
0
 40
0
 40
0
 40
0
 40
1
 40
1
 40
1
 40
1
 10
182.571872
 20
800.903165
 30
0.0
 10
181.978123
 20
801.715666
 30
0.0
 10
181.071875
 20
802.121916
 30
0.0
 10
179.853128
 20
802.121916
 30
0.0
  0
SPLINE
  5
303
100
AcDbEntity
  8
Layer_1
 62
7
100
AcDbSpline
 70
8
 71
3
 72
8
 73
4
 74
0
 40
0
 40
0
 40
0
 40
0
 40
1
 40
1
 40
1
 40
1
 10
179.853128
 20
802.121916
 30
0.0
 10
178.363544
 20
802.121916
 30
0.0
 10
177.186459
 20
801.627124
 30
0.0
 10
176.321872
 20
800.637541
 30
0.0
  0
SPLINE
  5
304
100
AcDbEntity
  8
Layer_1
 62
7
100
AcDbSpline
 70
8
 71
3
 72
8
 73
4
 74
0
 40
0
 40
0
 40
0
 40
0
 40
1
 40
1
 40
1
 40
1
 10
176.321872
 20
800.637541
 30
0.0
 10
175.457291
 20
799.647957
 30
0.0
 10
175.025000
 20
798.298999
 30
0.0
 10
175.025000
 20
796.590665
 30
0.0
  0
LWPOLYLINE
  5
305
100
AcDbEntity
  8
Layer_1
 62
7
100
AcDbPolyline
 90
4
 70
1
 10
186.353128
 20
797.262541
 30
0.0
 10
186.353128
 20
786.700041
 30
0.0
 10
183.462496
 20
786.700041
 30
0.0
 10
183.462496
 20
797.168791
 30
0.0
  0
SPLINE
  5
306
100
AcDbEntity
  8
Layer_1
 62
7
100
AcDbSpline
 70
8
 71
3
 72
8
 73
4
 74
0
 40
0
 40
0
 40
0
 40
0
 40
1
 40
1
 40
1
 40
1
 10
172.134376
 20
797.168791
 30
0.0
 10
172.134376
 20
798.856291
 30
0.0
 10
171.837501
 20
800.101082
 30
0.0
 10
171.243752
 20
800.903165
 30
0.0
  0
SPLINE
  5
307
100
AcDbEntity
  8
Layer_1
 62
7
100
AcDbSpline
 70
8
 71
3
 72
8
 73
4
 74
0
 40
0
 40
0
 40
0
 40
0
 40
1
 40
1
 40
1
 40
1
 10
171.243752
 20
800.903165
 30
0.0
 10
170.650003
 20
801.715666
 30
0.0
 10
169.733336
 20
802.121916
 30
0.0
 10
168.493752
 20
802.121916
 30
0.0
  0
SPLINE
  5
308
100
AcDbEntity
  8
Layer_1
 62
7
100
AcDbSpline
 70
8
 71
3
 72
8
 73
4
 74
0
 40
0
 40
0
 40
0
 40
0
 40
1
 40
1
 40
1
 40
1
 10
168.493752
 20
802.121916
 30
0.0
 10
167.025000
 20
802.121916
 30
0.0
 10
165.858333
 20
801.621916
 30
0.0
 10
164.993752
 20
800.621916
 30
0.0
  0
SPLINE
  5
309
100
AcDbEntity
  8
Layer_1
 62
7
100
AcDbSpline
 70
8
 71
3
 72
8
 73
4
 74
0
 40
0
 40
0
 40
0
 40
0
 40
1
 40
1
 40
1
 40
1
 10
164.993752
 20
800.621916
 30
0.0
 10
164.129165
 20
799.632332
 30
0.0
 10
163.696872
 20
798.288582
 30
0.0
 10
163.696872
 20
796.590665
 30
0.0
  0
LWPOLYLINE
  5
30a
100
AcDbEntity
  8
Layer_1
 62
7
100
AcDbPolyline
 90
4
 70
1
 10
175.025000
 20
796.590665
 30
0.0
 10
175.025000
 20
786.700041
 30
0.0
 10
172.134376
 20
786.700041
 30
0.0
 10
172.134376
 20
797.168791
 30
0.0
  0
SPLINE
  5
30b
100
AcDbEntity
  8
Layer_1
 62
7
100
AcDbSpline
 70
8
 71
3
 72
8
 73
4
 74
0
 40
0
 40
0
 40
0
 40
0
 40
1
 40
1
 40
1
 40
1
 10
163.696872
 20
801.481291
 30
0.0
 10
164.353123
 20
802.554207
 30
0.0
 10
165.139581
 20
803.345874
 30
0.0
 10
166.056248
 20
803.856291
 30
0.0
  0
SPLINE
  5
30c
100
AcDbEntity
  8
Layer_1
 62
7
100
AcDbSpline
 70
8
 71
3
 72
8
 73
4
 74
0
 40
0
 40
0
 40
0
 40
0
 40
1
 40
1
 40
1
 40
1
 10
166.056248
 20
803.856291
 30
0.0
 10
166.972915
 20
804.366708
 30
0.0
 10
168.061456
 20
804.621916
 30
0.0
 10
169.321872
 20
804.621916
 30
0.0
  0
SPLINE
  5
30d
100
AcDbEntity
  8
Layer_1
 62
7
100
AcDbSpline
 70
8
 71
3
 72
8
 73
4
 74
0
 40
0
 40
0
 40
0
 40
0
 40
1
 40
1
 40
1
 40
1
 10
169.321872
 20
804.621916
 30
0.0
 10
170.592709
 20
804.621916
 30
0.0
 10
171.670835
 20
804.298999
 30
0.0
 10
172.556248
 20
803.653165
 30
0.0
  0
SPLINE
  5
30e
100
AcDbEntity
  8
Layer_1
 62
7
100
AcDbSpline
 70
8
 71
3
 72
8
 73
4
 74
0
 40
0
 40
0
 40
0
 40
0
 40
1
 40
1
 40
1
 40
1
 10
172.556248
 20
803.653165
 30
0.0
 10
173.452083
 20
803.007332
 30
0.0
 10
174.113541
 20
802.069832
 30
0.0
 10
174.540624
 20
800.840665
 30
0.0
  0
LWPOLYLINE
  5
30f
100
AcDbEntity
  8
Layer_1
 62
7
100
AcDbPolyline
 90
6
 70
1
 10
163.696872
 20
796.590665
 30
0.0
 10
163.696872
 20
786.700041
 30
0.0
 10
160.806248
 20
786.700041
 30
0.0
 10
160.806248
 20
804.200041
 30
0.0
 10
163.696872
 20
804.200041
 30
0.0
 10
163.696872
 20
801.481291
 30
0.0
  0
SPLINE
  5
310
100
AcDbEntity
  8
Layer_1
 62
7
100
AcDbSpline
 70
8
 71
3
 72
8
 73
4
 74
0
 40
0
 40
0
 40
0
 40
0
 40
1
 40
1
 40
1
 40
1
 10
205.665624
 20
800.840665
 30
0.0
 10
206.384376
 20
802.132332
 30
0.0
 10
207.243752
 20
803.085457
 30
0.0
 10
208.243752
 20
803.700041
 30
0.0
  0
SPLINE
  5
311
100
AcDbEntity
  8
Layer_1
 62
7
100
AcDbSpline
 70
8
 71
3
 72
8
 73
4
 74
0
 40
0
 40
0
 40
0
 40
0
 40
1
 40
1
 40
1
 40
1
 10
208.243752
 20
803.700041
 30
0.0
 10
209.243752
 20
804.314624
 30
0.0
 10
210.420835
 20
804.621916
 30
0.0
 10
211.775000
 20
804.621916
 30
0.0
  0
SPLINE
  5
312
100
AcDbEntity
  8
Layer_1
 62
7
100
AcDbSpline
 70
8
 71
3
 72
8
 73
4
 74
0
 40
0
 40
0
 40
0
 40
0
 40
1
 40
1
 40
1
 40
1
 10
211.775000
 20
804.621916
 30
0.0
 10
213.597917
 20
804.621916
 30
0.0
 10
215.004168
 20
803.981291
 30
0.0
 10
215.993752
 20
802.700041
 30
0.0
  0
SPLINE
  5
313
100
AcDbEntity
  8
Layer_1
 62
7
100
AcDbSpline
 70
8
 71
3
 72
8
 73
4
 74
0
 40
0
 40
0
 40
0
 40
0
 40
1
 40
1
 40
1
 40
1
 10
215.993752
 20
802.700041
 30
0.0
 10
216.983336
 20
801.429208
 30
0.0
 10
217.478128
 20
799.616708
 30
0.0
 10
217.478128
 20
797.262541
 30
0.0
  0
LWPOLYLINE
  5
314
100
AcDbEntity
  8
Layer_1
 62
7
100
AcDbPolyline
 90
2
 70
1
 10
174.540624
 20
800.840665
 30
0.0
 10
174.540624
 20
800.840665
 30
0.0
  0
SPLINE
  5
315
100
AcDbEntity
  8
Layer_1
 62
7
100
AcDbSpline
 70
8
 71
3
 72
8
 73
4
 74
0
 40
0
 40
0
 40
0
 40
0
 40
1
 40
1
 40
1
 40
1
 10
214.587496
 20
797.168791
 30
0.0
 10
214.587496
 20
798.845874
 30
0.0
 10
214.290621
 20
800.090666
 30
0.0
 10
213.696872
 20
800.903165
 30
0.0
  0
SPLINE
  5
316
100
AcDbEntity
  8
Layer_1
 62
7
100
AcDbSpline
 70
8
 71
3
 72
8
 73
4
 74
0
 40
0
 40
0
 40
0
 40
0
 40
1
 40
1
 40
1
 40
1
 10
213.696872
 20
800.903165
 30
0.0
 10
213.103123
 20
801.715666
 30
0.0
 10
212.196875
 20
802.121916
 30
0.0
 10
210.978128
 20
802.121916
 30
0.0
  0
SPLINE
  5
317
100
AcDbEntity
  8
Layer_1
 62
7
100
AcDbSpline
 70
8
 71
3
 72
8
 73
4
 74
0
 40
0
 40
0
 40
0
 40
0
 40
1
 40
1
 40
1
 40
1
 10
210.978128
 20
802.121916
 30
0.0
 10
209.488544
 20
802.121916
 30
0.0
 10
208.311459
 20
801.627124
 30
0.0
 10
207.446872
 20
800.637541
 30
0.0
  0
SPLINE
  5
318
100
AcDbEntity
  8
Layer_1
 62
7
100
AcDbSpline
 70
8
 71
3
 72
8
 73
4
 74
0
 40
0
 40
0
 40
0
 40
0
 40
1
 40
1
 40
1
 40
1
 10
207.446872
 20
800.637541
 30
0.0
 10
206.582291
 20
799.647957
 30
0.0
 10
206.150000
 20
798.298999
 30
0.0
 10
206.150000
 20
796.590665
 30
0.0
  0
LWPOLYLINE
  5
319
100
AcDbEntity
  8
Layer_1
 62
7
100
AcDbPolyline
 90
4
 70
1
 10
217.478128
 20
797.262541
 30
0.0
 10
217.478128
 20
786.700041
 30
0.0
 10
214.587496
 20
786.700041
 30
0.0
 10
214.587496
 20
797.168791
 30
0.0
  0
SPLINE
  5
31a
100
AcDbEntity
  8
Layer_1
 62
7
100
AcDbSpline
 70
8
 71
3
 72
8
 73
4
 74
0
 40
0
 40
0
 40
0
 40
0
 40
1
 40
1
 40
1
 40
1
 10
203.259376
 20
797.168791
 30
0.0
 10
203.259376
 20
798.856291
 30
0.0
 10
202.962501
 20
800.101082
 30
0.0
 10
202.368752
 20
800.903165
 30
0.0
  0
SPLINE
  5
31b
100
AcDbEntity
  8
Layer_1
 62
7
100
AcDbSpline
 70
8
 71
3
 72
8
 73
4
 74
0
 40
0
 40
0
 40
0
 40
0
 40
1
 40
1
 40
1
 40
1
 10
202.368752
 20
800.903165
 30
0.0
 10
201.775003
 20
801.715666
 30
0.0
 10
200.858336
 20
802.121916
 30
0.0
 10
199.618752
 20
802.121916
 30
0.0
  0
SPLINE
  5
31c
100
AcDbEntity
  8
Layer_1
 62
7
100
AcDbSpline
 70
8
 71
3
 72
8
 73
4
 74
0
 40
0
 40
0
 40
0
 40
0
 40
1
 40
1
 40
1
 40
1
 10
199.618752
 20
802.121916
 30
0.0
 10
198.150000
 20
802.121916
 30
0.0
 10
196.983333
 20
801.621916
 30
0.0
 10
196.118752
 20
800.621916
 30
0.0
  0
SPLINE
  5
31d
100
AcDbEntity
  8
Layer_1
 62
7
100
AcDbSpline
 70
8
 71
3
 72
8
 73
4
 74
0
 40
0
 40
0
 40
0
 40
0
 40
1
 40
1
 40
1
 40
1
 10
196.118752
 20
800.621916
 30
0.0
 10
195.254165
 20
799.632332
 30
0.0
 10
194.821872
 20
798.288582
 30
0.0
 10
194.821872
 20
796.590665
 30
0.0
  0
LWPOLYLINE
  5
31e
100
AcDbEntity
  8
Layer_1
 62
7
100
AcDbPolyline
 90
4
 70
1
 10
206.150000
 20
796.590665
 30
0.0
 10
206.150000
 20
786.700041
 30
0.0
 10
203.259376
 20
786.700041
 30
0.0
 10
203.259376
 20
797.168791
 30
0.0
  0
SPLINE
  5
31f
100
AcDbEntity
  8
Layer_1
 62
7
100
AcDbSpline
 70
8
 71
3
 72
8
 73
4
 74
0
 40
0
 40
0
 40
0
 40
0
 40
1
 40
1
 40
1
 40
1
 10
194.821872
 20
801.481291
 30
0.0
 10
195.478123
 20
802.554207
 30
0.0
 10
196.264581
 20
803.345874
 30
0.0
 10
197.181248
 20
803.856291
 30
0.0
  0
SPLINE
  5
320
100
AcDbEntity
  8
Layer_1
 62
7
100
AcDbSpline
 70
8
 71
3
 72
8
 73
4
 74
0
 40
0
 40
0
 40
0
 40
0
 40
1
 40
1
 40
1
 40
1
 10
197.181248
 20
803.856291
 30
0.0
 10
198.097915
 20
804.366708
 30
0.0
 10
199.186456
 20
804.621916
 30
0.0
 10
200.446872
 20
804.621916
 30
0.0
  0
SPLINE
  5
321
100
AcDbEntity
  8
Layer_1
 62
7
100
AcDbSpline
 70
8
 71
3
 72
8
 73
4
 74
0
 40
0
 40
0
 40
0
 40
0
 40
1
 40
1
 40
1
 40
1
 10
200.446872
 20
804.621916
 30
0.0
 10
201.717709
 20
804.621916
 30
0.0
 10
202.795835
 20
804.298999
 30
0.0
 10
203.681248
 20
803.653165
 30
0.0
  0
SPLINE
  5
322
100
AcDbEntity
  8
Layer_1
 62
7
100
AcDbSpline
 70
8
 71
3
 72
8
 73
4
 74
0
 40
0
 40
0
 40
0
 40
0
 40
1
 40
1
 40
1
 40
1
 10
203.681248
 20
803.653165
 30
0.0
 10
204.577083
 20
803.007332
 30
0.0
 10
205.238541
 20
802.069832
 30
0.0
 10
205.665624
 20
800.840665
 30
0.0
  0
LWPOLYLINE
  5
323
100
AcDbEntity
  8
Layer_1
 62
7
100
AcDbPolyline
 90
6
 70
1
 10
194.821872
 20
796.590665
 30
0.0
 10
194.821872
 20
786.700041
 30
0.0
 10
191.931248
 20
786.700041
 30
0.0
 10
191.931248
 20
804.200041
 30
0.0
 10
194.821872
 20
804.200041
 30
0.0
 10
194.821872
 20
801.481291
 30
0.0
  0
LWPOLYLINE
  5
324
100
AcDbEntity
  8
Layer_1
 62
7
100
AcDbPolyline
 90
2
 70
1
 10
205.665624
 20
800.840665
 30
0.0
 10
205.665624
 20
800.840665
 30
0.0
  0
SPLINE
  5
325
100
AcDbEntity
  8
Layer_1
 62
7
100
AcDbSpline
 70
8
 71
3
 72
8
 73
4
 74
0
 40
0
 40
0
 40
0
 40
0
 40
1
 40
1
 40
1
 40
1
 10
266.852406
 20
362.627004
 30
0.0
 10
265.654486
 20
363.199921
 30
0.0
 10
264.524278
 20
363.627004
 30
0.0
 10
263.461782
 20
363.908252
 30
0.0
  0
SPLINE
  5
326
100
AcDbEntity
  8
Layer_1
 62
7
100
AcDbSpline
 70
8
 71
3
 72
8
 73
4
 74
0
 40
0
 40
0
 40
0
 40
0
 40
1
 40
1
 40
1
 40
1
 10
263.461782
 20
363.908252
 30
0.0
 10
262.399280
 20
364.189500
 30
0.0
 10
261.373238
 20
364.330124
 30
0.0
 10
260.383654
 20
364.330124
 30
0.0
  0
SPLINE
  5
327
100
AcDbEntity
  8
Layer_1
 62
7
100
AcDbSpline
 70
8
 71
3
 72
8
 73
4
 74
0
 40
0
 40
0
 40
0
 40
0
 40
1
 40
1
 40
1
 40
1
 10
260.383654
 20
364.330124
 30
0.0
 10
258.664902
 20
364.330124
 30
0.0
 10
257.336776
 20
363.996790
 30
0.0
 10
256.399278
 20
363.330124
 30
0.0
  0
SPLINE
  5
328
100
AcDbEntity
  8
Layer_1
 62
7
100
AcDbSpline
 70
8
 71
3
 72
8
 73
4
 74
0
 40
0
 40
0
 40
0
 40
0
 40
1
 40
1
 40
1
 40
1
 10
256.399278
 20
363.330124
 30
0.0
 10
255.472195
 20
362.663457
 30
0.0
 10
255.008654
 20
361.715542
 30
0.0
 10
255.008654
 20
360.486380
 30
0.0
  0
SPLINE
  5
329
100
AcDbEntity
  8
Layer_1
 62
7
100
AcDbSpline
 70
8
 71
3
 72
8
 73
4
 74
0
 40
0
 40
0
 40
0
 40
0
 40
1
 40
1
 40
1
 40
1
 10
255.008654
 20
360.486380
 30
0.0
 10
255.008654
 20
359.455126
 30
0.0
 10
255.315944
 20
358.673876
 30
0.0
 10
255.930526
 20
358.142628
 30
0.0
  0
SPLINE
  5
32a
100
AcDbEntity
  8
Layer_1
 62
7
100
AcDbSpline
 70
8
 71
3
 72
8
 73
4
 74
0
 40
0
 40
0
 40
0
 40
0
 40
1
 40
1
 40
1
 40
1
 10
255.930526
 20
358.142628
 30
0.0
 10
256.555528
 20
357.621796
 30
0.0
 10
257.732614
 20
357.199921
 30
0.0
 10
259.461782
 20
356.877004
 30
0.0
  0
LWPOLYLINE
  5
32b
100
AcDbEntity
  8
Layer_1
 62
7
100
AcDbPolyline
 90
2
 70
1
 10
266.852406
 20
365.705124
 30
0.0
 10
266.852406
 20
362.627004
 30
0.0
  0
SPLINE
  5
32c
100
AcDbEntity
  8
Layer_1
 62
7
100
AcDbSpline
 70
8
 71
3
 72
8
 73
4
 74
0
 40
0
 40
0
 40
0
 40
0
 40
1
 40
1
 40
1
 40
1
 10
261.368030
 20
356.486380
 30
0.0
 10
263.722195
 20
356.038460
 30
0.0
 10
265.456571
 20
355.246793
 30
0.0
 10
266.571158
 20
354.111380
 30
0.0
  0
SPLINE
  5
32d
100
AcDbEntity
  8
Layer_1
 62
7
100
AcDbSpline
 70
8
 71
3
 72
8
 73
4
 74
0
 40
0
 40
0
 40
0
 40
0
 40
1
 40
1
 40
1
 40
1
 10
266.571158
 20
354.111380
 30
0.0
 10
267.696155
 20
352.986377
 30
0.0
 10
268.258654
 20
351.475958
 30
0.0
 10
268.258654
 20
349.580124
 30
0.0
  0
SPLINE
  5
32e
100
AcDbEntity
  8
Layer_1
 62
7
100
AcDbSpline
 70
8
 71
3
 72
8
 73
4
 74
0
 40
0
 40
0
 40
0
 40
0
 40
1
 40
1
 40
1
 40
1
 10
268.258654
 20
349.580124
 30
0.0
 10
268.258654
 20
347.319708
 30
0.0
 10
267.498238
 20
345.606166
 30
0.0
 10
265.977406
 20
344.439500
 30
0.0
  0
SPLINE
  5
32f
100
AcDbEntity
  8
Layer_1
 62
7
100
AcDbSpline
 70
8
 71
3
 72
8
 73
4
 74
0
 40
0
 40
0
 40
0
 40
0
 40
1
 40
1
 40
1
 40
1
 10
265.977406
 20
344.439500
 30
0.0
 10
264.466990
 20
343.272833
 30
0.0
 10
262.248240
 20
342.689500
 30
0.0
 10
259.321158
 20
342.689500
 30
0.0
  0
SPLINE
  5
330
100
AcDbEntity
  8
Layer_1
 62
7
100
AcDbSpline
 70
8
 71
3
 72
8
 73
4
 74
0
 40
0
 40
0
 40
0
 40
0
 40
1
 40
1
 40
1
 40
1
 10
259.321158
 20
342.689500
 30
0.0
 10
258.216987
 20
342.689500
 30
0.0
 10
257.039902
 20
342.814500
 30
0.0
 10
255.789902
 20
343.064500
 30
0.0
  0
SPLINE
  5
331
100
AcDbEntity
  8
Layer_1
 62
7
100
AcDbSpline
 70
8
 71
3
 72
8
 73
4
 74
0
 40
0
 40
0
 40
0
 40
0
 40
1
 40
1
 40
1
 40
1
 10
255.789902
 20
343.064500
 30
0.0
 10
254.550318
 20
343.314500
 30
0.0
 10
253.263859
 20
343.684292
 30
0.0
 10
251.930526
 20
344.173876
 30
0.0
  0
LWPOLYLINE
  5
332
100
AcDbEntity
  8
Layer_1
 62
7
100
AcDbPolyline
 90
2
 70
1
 10
259.461782
 20
356.877004
 30
0.0
 10
261.368030
 20
356.486380
 30
0.0
  0
SPLINE
  5
333
100
AcDbEntity
  8
Layer_1
 62
7
100
AcDbSpline
 70
8
 71
3
 72
8
 73
4
 74
0
 40
0
 40
0
 40
0
 40
0
 40
1
 40
1
 40
1
 40
1
 10
251.930526
 20
347.423876
 30
0.0
 10
253.211779
 20
346.705124
 30
0.0
 10
254.466990
 20
346.163457
 30
0.0
 10
255.696158
 20
345.798876
 30
0.0
  0
SPLINE
  5
334
100
AcDbEntity
  8
Layer_1
 62
7
100
AcDbSpline
 70
8
 71
3
 72
8
 73
4
 74
0
 40
0
 40
0
 40
0
 40
0
 40
1
 40
1
 40
1
 40
1
 10
255.696158
 20
345.798876
 30
0.0
 10
256.925320
 20
345.434294
 30
0.0
 10
258.133654
 20
345.252004
 30
0.0
 10
259.321158
 20
345.252004
 30
0.0
  0
SPLINE
  5
335
100
AcDbEntity
  8
Layer_1
 62
7
100
AcDbSpline
 70
8
 71
3
 72
8
 73
4
 74
0
 40
0
 40
0
 40
0
 40
0
 40
1
 40
1
 40
1
 40
1
 10
259.321158
 20
345.252004
 30
0.0
 10
261.123238
 20
345.252004
 30
0.0
 10
262.513862
 20
345.606169
 30
0.0
 10
263.493030
 20
346.314500
 30
0.0
  0
SPLINE
  5
336
100
AcDbEntity
  8
Layer_1
 62
7
100
AcDbSpline
 70
8
 71
3
 72
8
 73
4
 74
0
 40
0
 40
0
 40
0
 40
0
 40
1
 40
1
 40
1
 40
1
 10
263.493030
 20
346.314500
 30
0.0
 10
264.472198
 20
347.022836
 30
0.0
 10
264.961782
 20
348.033252
 30
0.0
 10
264.961782
 20
349.345748
 30
0.0
  0
SPLINE
  5
337
100
AcDbEntity
  8
Layer_1
 62
7
100
AcDbSpline
 70
8
 71
3
 72
8
 73
4
 74
0
 40
0
 40
0
 40
0
 40
0
 40
1
 40
1
 40
1
 40
1
 10
264.961782
 20
349.345748
 30
0.0
 10
264.961782
 20
350.491582
 30
0.0
 10
264.607614
 20
351.387417
 30
0.0
 10
263.899278
 20
352.033252
 30
0.0
  0
SPLINE
  5
338
100
AcDbEntity
  8
Layer_1
 62
7
100
AcDbSpline
 70
8
 71
3
 72
8
 73
4
 74
0
 40
0
 40
0
 40
0
 40
0
 40
1
 40
1
 40
1
 40
1
 10
263.899278
 20
352.033252
 30
0.0
 10
263.201363
 20
352.679086
 30
0.0
 10
262.050323
 20
353.163462
 30
0.0
 10
260.446158
 20
353.486380
 30
0.0
  0
LWPOLYLINE
  5
339
100
AcDbEntity
  8
Layer_1
 62
7
100
AcDbPolyline
 90
2
 70
1
 10
251.930526
 20
344.173876
 30
0.0
 10
251.930526
 20
347.423876
 30
0.0
  0
SPLINE
  5
33a
100
AcDbEntity
  8
Layer_1
 62
7
100
AcDbSpline
 70
8
 71
3
 72
8
 73
4
 74
0
 40
0
 40
0
 40
0
 40
0
 40
1
 40
1
 40
1
 40
1
 10
258.524278
 20
353.861380
 30
0.0
 10
256.170112
 20
354.330126
 30
0.0
 10
254.466987
 20
355.064500
 30
0.0
 10
253.414902
 20
356.064500
 30
0.0
  0
SPLINE
  5
33b
100
AcDbEntity
  8
Layer_1
 62
7
100
AcDbSpline
 70
8
 71
3
 72
8
 73
4
 74
0
 40
0
 40
0
 40
0
 40
0
 40
1
 40
1
 40
1
 40
1
 10
253.414902
 20
356.064500
 30
0.0
 10
252.362822
 20
357.064500
 30
0.0
 10
251.836782
 20
358.455126
 30
0.0
 10
251.836782
 20
360.236380
 30
0.0
  0
SPLINE
  5
33c
100
AcDbEntity
  8
Layer_1
 62
7
100
AcDbSpline
 70
8
 71
3
 72
8
 73
4
 74
0
 40
0
 40
0
 40
0
 40
0
 40
1
 40
1
 40
1
 40
1
 10
251.836782
 20
360.236380
 30
0.0
 10
251.836782
 20
362.298876
 30
0.0
 10
252.560739
 20
363.923876
 30
0.0
 10
254.008654
 20
365.111380
 30
0.0
  0
SPLINE
  5
33d
100
AcDbEntity
  8
Layer_1
 62
7
100
AcDbSpline
 70
8
 71
3
 72
8
 73
4
 74
0
 40
0
 40
0
 40
0
 40
0
 40
1
 40
1
 40
1
 40
1
 10
254.008654
 20
365.111380
 30
0.0
 10
255.466990
 20
366.298878
 30
0.0
 10
257.472198
 20
366.892628
 30
0.0
 10
260.024278
 20
366.892628
 30
0.0
  0
SPLINE
  5
33e
100
AcDbEntity
  8
Layer_1
 62
7
100
AcDbSpline
 70
8
 71
3
 72
8
 73
4
 74
0
 40
0
 40
0
 40
0
 40
0
 40
1
 40
1
 40
1
 40
1
 10
260.024278
 20
366.892628
 30
0.0
 10
261.118027
 20
366.892628
 30
0.0
 10
262.232611
 20
366.793668
 30
0.0
 10
263.368030
 20
366.595748
 30
0.0
  0
SPLINE
  5
33f
100
AcDbEntity
  8
Layer_1
 62
7
100
AcDbSpline
 70
8
 71
3
 72
8
 73
4
 74
0
 40
0
 40
0
 40
0
 40
0
 40
1
 40
1
 40
1
 40
1
 10
263.368030
 20
366.595748
 30
0.0
 10
264.503448
 20
366.397833
 30
0.0
 10
265.664907
 20
366.100958
 30
0.0
 10
266.852406
 20
365.705124
 30
0.0
  0
LWPOLYLINE
  5
340
100
AcDbEntity
  8
Layer_1
 62
7
100
AcDbPolyline
 90
2
 70
1
 10
260.446158
 20
353.486380
 30
0.0
 10
258.524278
 20
353.861380
 30
0.0
  0
LWPOLYLINE
  5
341
100
AcDbEntity
  8
Layer_1
 62
7
100
AcDbPolyline
 90
2
 70
1
 10
266.852406
 20
365.705124
 30
0.0
 10
266.852406
 20
365.705124
 30
0.0
  0
SPLINE
  5
342
100
AcDbEntity
  8
Layer_1
 62
7
100
AcDbSpline
 70
8
 71
3
 72
8
 73
4
 74
0
 40
0
 40
0
 40
0
 40
0
 40
1
 40
1
 40
1
 40
1
 10
275.899278
 20
357.986380
 30
0.0
 10
276.503443
 20
359.028044
 30
0.0
 10
277.263859
 20
359.798876
 30
0.0
 10
278.180526
 20
360.298876
 30
0.0
  0
SPLINE
  5
343
100
AcDbEntity
  8
Layer_1
 62
7
100
AcDbSpline
 70
8
 71
3
 72
8
 73
4
 74
0
 40
0
 40
0
 40
0
 40
0
 40
1
 40
1
 40
1
 40
1
 10
278.180526
 20
360.298876
 30
0.0
 10
279.107614
 20
360.809292
 30
0.0
 10
280.211782
 20
361.064500
 30
0.0
 10
281.493030
 20
361.064500
 30
0.0
  0
SPLINE
  5
344
100
AcDbEntity
  8
Layer_1
 62
7
100
AcDbSpline
 70
8
 71
3
 72
8
 73
4
 74
0
 40
0
 40
0
 40
0
 40
0
 40
1
 40
1
 40
1
 40
1
 10
281.493030
 20
361.064500
 30
0.0
 10
283.618027
 20
361.064500
 30
0.0
 10
285.341984
 20
360.220750
 30
0.0
 10
286.664902
 20
358.533252
 30
0.0
  0
SPLINE
  5
345
100
AcDbEntity
  8
Layer_1
 62
7
100
AcDbSpline
 70
8
 71
3
 72
8
 73
4
 74
0
 40
0
 40
0
 40
0
 40
0
 40
1
 40
1
 40
1
 40
1
 10
286.664902
 20
358.533252
 30
0.0
 10
287.998235
 20
356.845753
 30
0.0
 10
288.664902
 20
354.627004
 30
0.0
 10
288.664902
 20
351.877004
 30
0.0
  0
SPLINE
  5
346
100
AcDbEntity
  8
Layer_1
 62
7
100
AcDbSpline
 70
8
 71
3
 72
8
 73
4
 74
0
 40
0
 40
0
 40
0
 40
0
 40
1
 40
1
 40
1
 40
1
 10
288.664902
 20
351.877004
 30
0.0
 10
288.664902
 20
349.127004
 30
0.0
 10
287.998235
 20
346.908252
 30
0.0
 10
286.664902
 20
345.220748
 30
0.0
  0
SPLINE
  5
347
100
AcDbEntity
  8
Layer_1
 62
7
100
AcDbSpline
 70
8
 71
3
 72
8
 73
4
 74
0
 40
0
 40
0
 40
0
 40
0
 40
1
 40
1
 40
1
 40
1
 10
286.664902
 20
345.220748
 30
0.0
 10
285.341984
 20
343.533249
 30
0.0
 10
283.618027
 20
342.689500
 30
0.0
 10
281.493030
 20
342.689500
 30
0.0
  0
SPLINE
  5
348
100
AcDbEntity
  8
Layer_1
 62
7
100
AcDbSpline
 70
8
 71
3
 72
8
 73
4
 74
0
 40
0
 40
0
 40
0
 40
0
 40
1
 40
1
 40
1
 40
1
 10
281.493030
 20
342.689500
 30
0.0
 10
280.211782
 20
342.689500
 30
0.0
 10
279.107614
 20
342.939500
 30
0.0
 10
278.180526
 20
343.439500
 30
0.0
  0
SPLINE
  5
349
100
AcDbEntity
  8
Layer_1
 62
7
100
AcDbSpline
 70
8
 71
3
 72
8
 73
4
 74
0
 40
0
 40
0
 40
0
 40
0
 40
1
 40
1
 40
1
 40
1
 10
278.180526
 20
343.439500
 30
0.0
 10
277.263859
 20
343.949916
 30
0.0
 10
276.503443
 20
344.725958
 30
0.0
 10
275.899278
 20
345.767628
 30
0.0
  0
LWPOLYLINE
  5
34a
100
AcDbEntity
  8
Layer_1
 62
7
100
AcDbPolyline
 90
6
 70
1
 10
275.899278
 20
345.767628
 30
0.0
 10
275.899278
 20
336.486380
 30
0.0
 10
273.008654
 20
336.486380
 30
0.0
 10
273.008654
 20
360.642628
 30
0.0
 10
275.899278
 20
360.642628
 30
0.0
 10
275.899278
 20
357.986380
 30
0.0
  0
SPLINE
  5
34b
100
AcDbEntity
  8
Layer_1
 62
7
100
AcDbSpline
 70
8
 71
3
 72
8
 73
4
 74
0
 40
0
 40
0
 40
0
 40
0
 40
1
 40
1
 40
1
 40
1
 10
285.680526
 20
351.877004
 30
0.0
 10
285.680526
 20
353.991585
 30
0.0
 10
285.243027
 20
355.647833
 30
0.0
 10
284.368030
 20
356.845748
 30
0.0
  0
SPLINE
  5
34c
100
AcDbEntity
  8
Layer_1
 62
7
100
AcDbSpline
 70
8
 71
3
 72
8
 73
4
 74
0
 40
0
 40
0
 40
0
 40
0
 40
1
 40
1
 40
1
 40
1
 10
284.368030
 20
356.845748
 30
0.0
 10
283.503448
 20
358.054084
 30
0.0
 10
282.310739
 20
358.658252
 30
0.0
 10
280.789902
 20
358.658252
 30
0.0
  0
SPLINE
  5
34d
100
AcDbEntity
  8
Layer_1
 62
7
100
AcDbSpline
 70
8
 71
3
 72
8
 73
4
 74
0
 40
0
 40
0
 40
0
 40
0
 40
1
 40
1
 40
1
 40
1
 10
280.789902
 20
358.658252
 30
0.0
 10
279.269070
 20
358.658252
 30
0.0
 10
278.071155
 20
358.054084
 30
0.0
 10
277.196158
 20
356.845748
 30
0.0
  0
SPLINE
  5
34e
100
AcDbEntity
  8
Layer_1
 62
7
100
AcDbSpline
 70
8
 71
3
 72
8
 73
4
 74
0
 40
0
 40
0
 40
0
 40
0
 40
1
 40
1
 40
1
 40
1
 10
277.196158
 20
356.845748
 30
0.0
 10
276.331571
 20
355.647833
 30
0.0
 10
275.899278
 20
353.991585
 30
0.0
 10
275.899278
 20
351.877004
 30
0.0
  0
SPLINE
  5
34f
100
AcDbEntity
  8
Layer_1
 62
7
100
AcDbSpline
 70
8
 71
3
 72
8
 73
4
 74
0
 40
0
 40
0
 40
0
 40
0
 40
1
 40
1
 40
1
 40
1
 10
275.899278
 20
351.877004
 30
0.0
 10
275.899278
 20
349.762417
 30
0.0
 10
276.331571
 20
348.100958
 30
0.0
 10
277.196158
 20
346.892628
 30
0.0
  0
SPLINE
  5
350
100
AcDbEntity
  8
Layer_1
 62
7
100
AcDbSpline
 70
8
 71
3
 72
8
 73
4
 74
0
 40
0
 40
0
 40
0
 40
0
 40
1
 40
1
 40
1
 40
1
 10
277.196158
 20
346.892628
 30
0.0
 10
278.071155
 20
345.694708
 30
0.0
 10
279.269070
 20
345.095748
 30
0.0
 10
280.789902
 20
345.095748
 30
0.0
  0
SPLINE
  5
351
100
AcDbEntity
  8
Layer_1
 62
7
100
AcDbSpline
 70
8
 71
3
 72
8
 73
4
 74
0
 40
0
 40
0
 40
0
 40
0
 40
1
 40
1
 40
1
 40
1
 10
280.789902
 20
345.095748
 30
0.0
 10
282.310739
 20
345.095748
 30
0.0
 10
283.503448
 20
345.694708
 30
0.0
 10
284.368030
 20
346.892628
 30
0.0
  0
SPLINE
  5
352
100
AcDbEntity
  8
Layer_1
 62
7
100
AcDbSpline
 70
8
 71
3
 72
8
 73
4
 74
0
 40
0
 40
0
 40
0
 40
0
 40
1
 40
1
 40
1
 40
1
 10
284.368030
 20
346.892628
 30
0.0
 10
285.243027
 20
348.100958
 30
0.0
 10
285.680526
 20
349.762417
 30
0.0
 10
285.680526
 20
351.877004
 30
0.0
  0
LWPOLYLINE
  5
353
100
AcDbEntity
  8
Layer_1
 62
7
100
AcDbPolyline
 90
2
 70
1
 10
275.899278
 20
345.767628
 30
0.0
 10
275.899278
 20
345.767628
 30
0.0
  0
LWPOLYLINE
  5
354
100
AcDbEntity
  8
Layer_1
 62
7
100
AcDbPolyline
 90
2
 70
1
 10
285.680526
 20
351.877004
 30
0.0
 10
285.680526
 20
351.877004
 30
0.0
  0
SPLINE
  5
355
100
AcDbEntity
  8
Layer_1
 62
7
100
AcDbSpline
 70
8
 71
3
 72
8
 73
4
 74
0
 40
0
 40
0
 40
0
 40
0
 40
1
 40
1
 40
1
 40
1
 10
295.180526
 20
351.205124
 30
0.0
 10
295.305528
 20
349.225961
 30
0.0
 10
295.899280
 20
347.715545
 30
0.0
 10
296.961782
 20
346.673876
 30
0.0
  0
SPLINE
  5
356
100
AcDbEntity
  8
Layer_1
 62
7
100
AcDbSpline
 70
8
 71
3
 72
8
 73
4
 74
0
 40
0
 40
0
 40
0
 40
0
 40
1
 40
1
 40
1
 40
1
 10
296.961782
 20
346.673876
 30
0.0
 10
298.034699
 20
345.642628
 30
0.0
 10
299.524280
 20
345.127004
 30
0.0
 10
301.430526
 20
345.127004
 30
0.0
  0
SPLINE
  5
357
100
AcDbEntity
  8
Layer_1
 62
7
100
AcDbSpline
 70
8
 71
3
 72
8
 73
4
 74
0
 40
0
 40
0
 40
0
 40
0
 40
1
 40
1
 40
1
 40
1
 10
301.430526
 20
345.127004
 30
0.0
 10
302.534696
 20
345.127004
 30
0.0
 10
303.602406
 20
345.262420
 30
0.0
 10
304.633654
 20
345.533252
 30
0.0
  0
SPLINE
  5
358
100
AcDbEntity
  8
Layer_1
 62
7
100
AcDbSpline
 70
8
 71
3
 72
8
 73
4
 74
0
 40
0
 40
0
 40
0
 40
0
 40
1
 40
1
 40
1
 40
1
 10
304.633654
 20
345.533252
 30
0.0
 10
305.675323
 20
345.804084
 30
0.0
 10
306.706574
 20
346.210334
 30
0.0
 10
307.727406
 20
346.752004
 30
0.0
  0
LWPOLYLINE
  5
359
100
AcDbEntity
  8
Layer_1
 62
7
100
AcDbPolyline
 90
3
 70
1
 10
308.399278
 20
352.611380
 30
0.0
 10
308.399278
 20
351.205124
 30
0.0
 10
295.180526
 20
351.205124
 30
0.0
  0
SPLINE
  5
35a
100
AcDbEntity
  8
Layer_1
 62
7
100
AcDbSpline
 70
8
 71
3
 72
8
 73
4
 74
0
 40
0
 40
0
 40
0
 40
0
 40
1
 40
1
 40
1
 40
1
 10
307.727406
 20
344.033252
 30
0.0
 10
306.696152
 20
343.595753
 30
0.0
 10
305.638859
 20
343.262420
 30
0.0
 10
304.555526
 20
343.033252
 30
0.0
  0
SPLINE
  5
35b
100
AcDbEntity
  8
Layer_1
 62
7
100
AcDbSpline
 70
8
 71
3
 72
8
 73
4
 74
0
 40
0
 40
0
 40
0
 40
0
 40
1
 40
1
 40
1
 40
1
 10
304.555526
 20
343.033252
 30
0.0
 10
303.472192
 20
342.804084
 30
0.0
 10
302.373235
 20
342.689500
 30
0.0
 10
301.258654
 20
342.689500
 30
0.0
  0
SPLINE
  5
35c
100
AcDbEntity
  8
Layer_1
 62
7
100
AcDbSpline
 70
8
 71
3
 72
8
 73
4
 74
0
 40
0
 40
0
 40
0
 40
0
 40
1
 40
1
 40
1
 40
1
 10
301.258654
 20
342.689500
 30
0.0
 10
298.466990
 20
342.689500
 30
0.0
 10
296.253448
 20
343.502001
 30
0.0
 10
294.618030
 20
345.127004
 30
0.0
  0
SPLINE
  5
35d
100
AcDbEntity
  8
Layer_1
 62
7
100
AcDbSpline
 70
8
 71
3
 72
8
 73
4
 74
0
 40
0
 40
0
 40
0
 40
0
 40
1
 40
1
 40
1
 40
1
 10
294.618030
 20
345.127004
 30
0.0
 10
292.993027
 20
346.752001
 30
0.0
 10
292.180526
 20
348.949916
 30
0.0
 10
292.180526
 20
351.720748
 30
0.0
  0
SPLINE
  5
35e
100
AcDbEntity
  8
Layer_1
 62
7
100
AcDbSpline
 70
8
 71
3
 72
8
 73
4
 74
0
 40
0
 40
0
 40
0
 40
0
 40
1
 40
1
 40
1
 40
1
 10
292.180526
 20
351.720748
 30
0.0
 10
292.180526
 20
354.585334
 30
0.0
 10
292.951360
 20
356.856169
 30
0.0
 10
294.493030
 20
358.533252
 30
0.0
  0
SPLINE
  5
35f
100
AcDbEntity
  8
Layer_1
 62
7
100
AcDbSpline
 70
8
 71
3
 72
8
 73
4
 74
0
 40
0
 40
0
 40
0
 40
0
 40
1
 40
1
 40
1
 40
1
 10
294.493030
 20
358.533252
 30
0.0
 10
296.045115
 20
360.220750
 30
0.0
 10
298.133656
 20
361.064500
 30
0.0
 10
300.758654
 20
361.064500
 30
0.0
  0
SPLINE
  5
360
100
AcDbEntity
  8
Layer_1
 62
7
100
AcDbSpline
 70
8
 71
3
 72
8
 73
4
 74
0
 40
0
 40
0
 40
0
 40
0
 40
1
 40
1
 40
1
 40
1
 10
300.758654
 20
361.064500
 30
0.0
 10
303.112819
 20
361.064500
 30
0.0
 10
304.972195
 20
360.304084
 30
0.0
 10
306.336782
 20
358.783252
 30
0.0
  0
SPLINE
  5
361
100
AcDbEntity
  8
Layer_1
 62
7
100
AcDbSpline
 70
8
 71
3
 72
8
 73
4
 74
0
 40
0
 40
0
 40
0
 40
0
 40
1
 40
1
 40
1
 40
1
 10
306.336782
 20
358.783252
 30
0.0
 10
307.711779
 20
357.272836
 30
0.0
 10
308.399278
 20
355.215545
 30
0.0
 10
308.399278
 20
352.611380
 30
0.0
  0
LWPOLYLINE
  5
362
100
AcDbEntity
  8
Layer_1
 62
7
100
AcDbPolyline
 90
2
 70
1
 10
307.727406
 20
346.752004
 30
0.0
 10
307.727406
 20
344.033252
 30
0.0
  0
SPLINE
  5
363
100
AcDbEntity
  8
Layer_1
 62
7
100
AcDbSpline
 70
8
 71
3
 72
8
 73
4
 74
0
 40
0
 40
0
 40
0
 40
0
 40
1
 40
1
 40
1
 40
1
 10
305.524278
 20
353.455124
 30
0.0
 10
305.503424
 20
355.028041
 30
0.0
 10
305.060718
 20
356.283249
 30
0.0
 10
304.196158
 20
357.220748
 30
0.0
  0
SPLINE
  5
364
100
AcDbEntity
  8
Layer_1
 62
7
100
AcDbSpline
 70
8
 71
3
 72
8
 73
4
 74
0
 40
0
 40
0
 40
0
 40
0
 40
1
 40
1
 40
1
 40
1
 10
304.196158
 20
357.220748
 30
0.0
 10
303.341987
 20
358.158252
 30
0.0
 10
302.206568
 20
358.627004
 30
0.0
 10
300.789902
 20
358.627004
 30
0.0
  0
SPLINE
  5
365
100
AcDbEntity
  8
Layer_1
 62
7
100
AcDbSpline
 70
8
 71
3
 72
8
 73
4
 74
0
 40
0
 40
0
 40
0
 40
0
 40
1
 40
1
 40
1
 40
1
 10
300.789902
 20
358.627004
 30
0.0
 10
299.185736
 20
358.627004
 30
0.0
 10
297.899278
 20
358.173878
 30
0.0
 10
296.930526
 20
357.267628
 30
0.0
  0
SPLINE
  5
366
100
AcDbEntity
  8
Layer_1
 62
7
100
AcDbSpline
 70
8
 71
3
 72
8
 73
4
 74
0
 40
0
 40
0
 40
0
 40
0
 40
1
 40
1
 40
1
 40
1
 10
296.930526
 20
357.267628
 30
0.0
 10
295.972195
 20
356.361377
 30
0.0
 10
295.420112
 20
355.085334
 30
0.0
 10
295.274278
 20
353.439500
 30
0.0
  0
LWPOLYLINE
  5
367
100
AcDbEntity
  8
Layer_1
 62
7
100
AcDbPolyline
 90
2
 70
1
 10
308.399278
 20
352.611380
 30
0.0
 10
308.399278
 20
352.611380
 30
0.0
  0
LWPOLYLINE
  5
368
100
AcDbEntity
  8
Layer_1
 62
7
100
AcDbPolyline
 90
3
 70
1
 10
295.274278
 20
353.439500
 30
0.0
 10
305.524278
 20
353.455100
 30
0.0
 10
305.524278
 20
353.455124
 30
0.0
  0
SPLINE
  5
369
100
AcDbEntity
  8
Layer_1
 62
7
100
AcDbSpline
 70
8
 71
3
 72
8
 73
4
 74
0
 40
0
 40
0
 40
0
 40
0
 40
1
 40
1
 40
1
 40
1
 10
314.805526
 20
351.205124
 30
0.0
 10
314.930528
 20
349.225961
 30
0.0
 10
315.524280
 20
347.715545
 30
0.0
 10
316.586782
 20
346.673876
 30
0.0
  0
SPLINE
  5
36a
100
AcDbEntity
  8
Layer_1
 62
7
100
AcDbSpline
 70
8
 71
3
 72
8
 73
4
 74
0
 40
0
 40
0
 40
0
 40
0
 40
1
 40
1
 40
1
 40
1
 10
316.586782
 20
346.673876
 30
0.0
 10
317.659699
 20
345.642628
 30
0.0
 10
319.149280
 20
345.127004
 30
0.0
 10
321.055526
 20
345.127004
 30
0.0
  0
SPLINE
  5
36b
100
AcDbEntity
  8
Layer_1
 62
7
100
AcDbSpline
 70
8
 71
3
 72
8
 73
4
 74
0
 40
0
 40
0
 40
0
 40
0
 40
1
 40
1
 40
1
 40
1
 10
321.055526
 20
345.127004
 30
0.0
 10
322.159696
 20
345.127004
 30
0.0
 10
323.227406
 20
345.262420
 30
0.0
 10
324.258654
 20
345.533252
 30
0.0
  0
SPLINE
  5
36c
100
AcDbEntity
  8
Layer_1
 62
7
100
AcDbSpline
 70
8
 71
3
 72
8
 73
4
 74
0
 40
0
 40
0
 40
0
 40
0
 40
1
 40
1
 40
1
 40
1
 10
324.258654
 20
345.533252
 30
0.0
 10
325.300323
 20
345.804084
 30
0.0
 10
326.331574
 20
346.210334
 30
0.0
 10
327.352406
 20
346.752004
 30
0.0
  0
LWPOLYLINE
  5
36d
100
AcDbEntity
  8
Layer_1
 62
7
100
AcDbPolyline
 90
3
 70
1
 10
328.024278
 20
352.611380
 30
0.0
 10
328.024278
 20
351.205124
 30
0.0
 10
314.805526
 20
351.205124
 30
0.0
  0
SPLINE
  5
36e
100
AcDbEntity
  8
Layer_1
 62
7
100
AcDbSpline
 70
8
 71
3
 72
8
 73
4
 74
0
 40
0
 40
0
 40
0
 40
0
 40
1
 40
1
 40
1
 40
1
 10
327.352406
 20
344.033252
 30
0.0
 10
326.321152
 20
343.595753
 30
0.0
 10
325.263859
 20
343.262420
 30
0.0
 10
324.180526
 20
343.033252
 30
0.0
  0
SPLINE
  5
36f
100
AcDbEntity
  8
Layer_1
 62
7
100
AcDbSpline
 70
8
 71
3
 72
8
 73
4
 74
0
 40
0
 40
0
 40
0
 40
0
 40
1
 40
1
 40
1
 40
1
 10
324.180526
 20
343.033252
 30
0.0
 10
323.097192
 20
342.804084
 30
0.0
 10
321.998235
 20
342.689500
 30
0.0
 10
320.883654
 20
342.689500
 30
0.0
  0
SPLINE
  5
370
100
AcDbEntity
  8
Layer_1
 62
7
100
AcDbSpline
 70
8
 71
3
 72
8
 73
4
 74
0
 40
0
 40
0
 40
0
 40
0
 40
1
 40
1
 40
1
 40
1
 10
320.883654
 20
342.689500
 30
0.0
 10
318.091990
 20
342.689500
 30
0.0
 10
315.878448
 20
343.502001
 30
0.0
 10
314.243030
 20
345.127004
 30
0.0
  0
SPLINE
  5
371
100
AcDbEntity
  8
Layer_1
 62
7
100
AcDbSpline
 70
8
 71
3
 72
8
 73
4
 74
0
 40
0
 40
0
 40
0
 40
0
 40
1
 40
1
 40
1
 40
1
 10
314.243030
 20
345.127004
 30
0.0
 10
312.618027
 20
346.752001
 30
0.0
 10
311.805526
 20
348.949916
 30
0.0
 10
311.805526
 20
351.720748
 30
0.0
  0
SPLINE
  5
372
100
AcDbEntity
  8
Layer_1
 62
7
100
AcDbSpline
 70
8
 71
3
 72
8
 73
4
 74
0
 40
0
 40
0
 40
0
 40
0
 40
1
 40
1
 40
1
 40
1
 10
311.805526
 20
351.720748
 30
0.0
 10
311.805526
 20
354.585334
 30
0.0
 10
312.576360
 20
356.856169
 30
0.0
 10
314.118030
 20
358.533252
 30
0.0
  0
SPLINE
  5
373
100
AcDbEntity
  8
Layer_1
 62
7
100
AcDbSpline
 70
8
 71
3
 72
8
 73
4
 74
0
 40
0
 40
0
 40
0
 40
0
 40
1
 40
1
 40
1
 40
1
 10
314.118030
 20
358.533252
 30
0.0
 10
315.670115
 20
360.220750
 30
0.0
 10
317.758656
 20
361.064500
 30
0.0
 10
320.383654
 20
361.064500
 30
0.0
  0
SPLINE
  5
374
100
AcDbEntity
  8
Layer_1
 62
7
100
AcDbSpline
 70
8
 71
3
 72
8
 73
4
 74
0
 40
0
 40
0
 40
0
 40
0
 40
1
 40
1
 40
1
 40
1
 10
320.383654
 20
361.064500
 30
0.0
 10
322.737819
 20
361.064500
 30
0.0
 10
324.597195
 20
360.304084
 30
0.0
 10
325.961782
 20
358.783252
 30
0.0
  0
SPLINE
  5
375
100
AcDbEntity
  8
Layer_1
 62
7
100
AcDbSpline
 70
8
 71
3
 72
8
 73
4
 74
0
 40
0
 40
0
 40
0
 40
0
 40
1
 40
1
 40
1
 40
1
 10
325.961782
 20
358.783252
 30
0.0
 10
327.336779
 20
357.272836
 30
0.0
 10
328.024278
 20
355.215545
 30
0.0
 10
328.024278
 20
352.611380
 30
0.0
  0
LWPOLYLINE
  5
376
100
AcDbEntity
  8
Layer_1
 62
7
100
AcDbPolyline
 90
2
 70
1
 10
327.352406
 20
346.752004
 30
0.0
 10
327.352406
 20
344.033252
 30
0.0
  0
SPLINE
  5
377
100
AcDbEntity
  8
Layer_1
 62
7
100
AcDbSpline
 70
8
 71
3
 72
8
 73
4
 74
0
 40
0
 40
0
 40
0
 40
0
 40
1
 40
1
 40
1
 40
1
 10
325.149278
 20
353.455124
 30
0.0
 10
325.128424
 20
355.028041
 30
0.0
 10
324.685718
 20
356.283249
 30
0.0
 10
323.821158
 20
357.220748
 30
0.0
  0
SPLINE
  5
378
100
AcDbEntity
  8
Layer_1
 62
7
100
AcDbSpline
 70
8
 71
3
 72
8
 73
4
 74
0
 40
0
 40
0
 40
0
 40
0
 40
1
 40
1
 40
1
 40
1
 10
323.821158
 20
357.220748
 30
0.0
 10
322.966987
 20
358.158252
 30
0.0
 10
321.831568
 20
358.627004
 30
0.0
 10
320.414902
 20
358.627004
 30
0.0
  0
SPLINE
  5
379
100
AcDbEntity
  8
Layer_1
 62
7
100
AcDbSpline
 70
8
 71
3
 72
8
 73
4
 74
0
 40
0
 40
0
 40
0
 40
0
 40
1
 40
1
 40
1
 40
1
 10
320.414902
 20
358.627004
 30
0.0
 10
318.810736
 20
358.627004
 30
0.0
 10
317.524278
 20
358.173878
 30
0.0
 10
316.555526
 20
357.267628
 30
0.0
  0
SPLINE
  5
37a
100
AcDbEntity
  8
Layer_1
 62
7
100
AcDbSpline
 70
8
 71
3
 72
8
 73
4
 74
0
 40
0
 40
0
 40
0
 40
0
 40
1
 40
1
 40
1
 40
1
 10
316.555526
 20
357.267628
 30
0.0
 10
315.597195
 20
356.361377
 30
0.0
 10
315.045112
 20
355.085334
 30
0.0
 10
314.899278
 20
353.439500
 30
0.0
  0
LWPOLYLINE
  5
37b
100
AcDbEntity
  8
Layer_1
 62
7
100
AcDbPolyline
 90
2
 70
1
 10
328.024278
 20
352.611380
 30
0.0
 10
328.024278
 20
352.611380
 30
0.0
  0
LWPOLYLINE
  5
37c
100
AcDbEntity
  8
Layer_1
 62
7
100
AcDbPolyline
 90
3
 70
1
 10
314.899278
 20
353.439500
 30
0.0
 10
325.149278
 20
353.455100
 30
0.0
 10
325.149278
 20
353.455124
 30
0.0
  0
SPLINE
  5
37d
100
AcDbEntity
  8
Layer_1
 62
7
100
AcDbSpline
 70
8
 71
3
 72
8
 73
4
 74
0
 40
0
 40
0
 40
0
 40
0
 40
1
 40
1
 40
1
 40
1
 10
344.196158
 20
345.767628
 30
0.0
 10
343.591987
 20
344.725958
 30
0.0
 10
342.826360
 20
343.949916
 30
0.0
 10
341.899278
 20
343.439500
 30
0.0
  0
SPLINE
  5
37e
100
AcDbEntity
  8
Layer_1
 62
7
100
AcDbSpline
 70
8
 71
3
 72
8
 73
4
 74
0
 40
0
 40
0
 40
0
 40
0
 40
1
 40
1
 40
1
 40
1
 10
341.899278
 20
343.439500
 30
0.0
 10
340.982611
 20
342.939500
 30
0.0
 10
339.878446
 20
342.689500
 30
0.0
 10
338.586782
 20
342.689500
 30
0.0
  0
SPLINE
  5
37f
100
AcDbEntity
  8
Layer_1
 62
7
100
AcDbSpline
 70
8
 71
3
 72
8
 73
4
 74
0
 40
0
 40
0
 40
0
 40
0
 40
1
 40
1
 40
1
 40
1
 10
338.586782
 20
342.689500
 30
0.0
 10
336.472195
 20
342.689500
 30
0.0
 10
334.748235
 20
343.533249
 30
0.0
 10
333.414902
 20
345.220748
 30
0.0
  0
SPLINE
  5
380
100
AcDbEntity
  8
Layer_1
 62
7
100
AcDbSpline
 70
8
 71
3
 72
8
 73
4
 74
0
 40
0
 40
0
 40
0
 40
0
 40
1
 40
1
 40
1
 40
1
 10
333.414902
 20
345.220748
 30
0.0
 10
332.091984
 20
346.908252
 30
0.0
 10
331.430526
 20
349.127004
 30
0.0
 10
331.430526
 20
351.877004
 30
0.0
  0
SPLINE
  5
381
100
AcDbEntity
  8
Layer_1
 62
7
100
AcDbSpline
 70
8
 71
3
 72
8
 73
4
 74
0
 40
0
 40
0
 40
0
 40
0
 40
1
 40
1
 40
1
 40
1
 10
331.430526
 20
351.877004
 30
0.0
 10
331.430526
 20
354.627004
 30
0.0
 10
332.091984
 20
356.845753
 30
0.0
 10
333.414902
 20
358.533252
 30
0.0
  0
SPLINE
  5
382
100
AcDbEntity
  8
Layer_1
 62
7
100
AcDbSpline
 70
8
 71
3
 72
8
 73
4
 74
0
 40
0
 40
0
 40
0
 40
0
 40
1
 40
1
 40
1
 40
1
 10
333.414902
 20
358.533252
 30
0.0
 10
334.748235
 20
360.220750
 30
0.0
 10
336.472195
 20
361.064500
 30
0.0
 10
338.586782
 20
361.064500
 30
0.0
  0
SPLINE
  5
383
100
AcDbEntity
  8
Layer_1
 62
7
100
AcDbSpline
 70
8
 71
3
 72
8
 73
4
 74
0
 40
0
 40
0
 40
0
 40
0
 40
1
 40
1
 40
1
 40
1
 10
338.586782
 20
361.064500
 30
0.0
 10
339.878446
 20
361.064500
 30
0.0
 10
340.982611
 20
360.809292
 30
0.0
 10
341.899278
 20
360.298876
 30
0.0
  0
SPLINE
  5
384
100
AcDbEntity
  8
Layer_1
 62
7
100
AcDbSpline
 70
8
 71
3
 72
8
 73
4
 74
0
 40
0
 40
0
 40
0
 40
0
 40
1
 40
1
 40
1
 40
1
 10
341.899278
 20
360.298876
 30
0.0
 10
342.826360
 20
359.798876
 30
0.0
 10
343.591987
 20
359.028044
 30
0.0
 10
344.196158
 20
357.986380
 30
0.0
  0
LWPOLYLINE
  5
385
100
AcDbEntity
  8
Layer_1
 62
7
100
AcDbPolyline
 90
6
 70
1
 10
344.196158
 20
357.986380
 30
0.0
 10
344.196158
 20
367.455124
 30
0.0
 10
347.071158
 20
367.455124
 30
0.0
 10
347.071158
 20
343.142628
 30
0.0
 10
344.196158
 20
343.142628
 30
0.0
 10
344.196158
 20
345.767628
 30
0.0
  0
SPLINE
  5
386
100
AcDbEntity
  8
Layer_1
 62
7
100
AcDbSpline
 70
8
 71
3
 72
8
 73
4
 74
0
 40
0
 40
0
 40
0
 40
0
 40
1
 40
1
 40
1
 40
1
 10
334.399278
 20
351.877004
 30
0.0
 10
334.399278
 20
349.762417
 30
0.0
 10
334.831571
 20
348.100958
 30
0.0
 10
335.696158
 20
346.892628
 30
0.0
  0
SPLINE
  5
387
100
AcDbEntity
  8
Layer_1
 62
7
100
AcDbSpline
 70
8
 71
3
 72
8
 73
4
 74
0
 40
0
 40
0
 40
0
 40
0
 40
1
 40
1
 40
1
 40
1
 10
335.696158
 20
346.892628
 30
0.0
 10
336.571155
 20
345.694708
 30
0.0
 10
337.769070
 20
345.095748
 30
0.0
 10
339.289902
 20
345.095748
 30
0.0
  0
SPLINE
  5
388
100
AcDbEntity
  8
Layer_1
 62
7
100
AcDbSpline
 70
8
 71
3
 72
8
 73
4
 74
0
 40
0
 40
0
 40
0
 40
0
 40
1
 40
1
 40
1
 40
1
 10
339.289902
 20
345.095748
 30
0.0
 10
340.810739
 20
345.095748
 30
0.0
 10
342.008656
 20
345.694708
 30
0.0
 10
342.883654
 20
346.892628
 30
0.0
  0
SPLINE
  5
389
100
AcDbEntity
  8
Layer_1
 62
7
100
AcDbSpline
 70
8
 71
3
 72
8
 73
4
 74
0
 40
0
 40
0
 40
0
 40
0
 40
1
 40
1
 40
1
 40
1
 10
342.883654
 20
346.892628
 30
0.0
 10
343.758656
 20
348.100958
 30
0.0
 10
344.196158
 20
349.762417
 30
0.0
 10
344.196158
 20
351.877004
 30
0.0
  0
SPLINE
  5
38a
100
AcDbEntity
  8
Layer_1
 62
7
100
AcDbSpline
 70
8
 71
3
 72
8
 73
4
 74
0
 40
0
 40
0
 40
0
 40
0
 40
1
 40
1
 40
1
 40
1
 10
344.196158
 20
351.877004
 30
0.0
 10
344.196158
 20
353.991585
 30
0.0
 10
343.758656
 20
355.647833
 30
0.0
 10
342.883654
 20
356.845748
 30
0.0
  0
SPLINE
  5
38b
100
AcDbEntity
  8
Layer_1
 62
7
100
AcDbSpline
 70
8
 71
3
 72
8
 73
4
 74
0
 40
0
 40
0
 40
0
 40
0
 40
1
 40
1
 40
1
 40
1
 10
342.883654
 20
356.845748
 30
0.0
 10
342.008656
 20
358.054084
 30
0.0
 10
340.810739
 20
358.658252
 30
0.0
 10
339.289902
 20
358.658252
 30
0.0
  0
SPLINE
  5
38c
100
AcDbEntity
  8
Layer_1
 62
7
100
AcDbSpline
 70
8
 71
3
 72
8
 73
4
 74
0
 40
0
 40
0
 40
0
 40
0
 40
1
 40
1
 40
1
 40
1
 10
339.289902
 20
358.658252
 30
0.0
 10
337.769070
 20
358.658252
 30
0.0
 10
336.571155
 20
358.054084
 30
0.0
 10
335.696158
 20
356.845748
 30
0.0
  0
SPLINE
  5
38d
100
AcDbEntity
  8
Layer_1
 62
7
100
AcDbSpline
 70
8
 71
3
 72
8
 73
4
 74
0
 40
0
 40
0
 40
0
 40
0
 40
1
 40
1
 40
1
 40
1
 10
335.696158
 20
356.845748
 30
0.0
 10
334.831571
 20
355.647833
 30
0.0
 10
334.399278
 20
353.991585
 30
0.0
 10
334.399278
 20
351.877004
 30
0.0
  0
LWPOLYLINE
  5
38e
100
AcDbEntity
  8
Layer_1
 62
7
100
AcDbPolyline
 90
2
 70
1
 10
344.196158
 20
357.986380
 30
0.0
 10
344.196158
 20
357.986380
 30
0.0
  0
LWPOLYLINE
  5
38f
100
AcDbEntity
  8
Layer_1
 62
7
100
AcDbPolyline
 90
2
 70
1
 10
334.399278
 20
351.877004
 30
0.0
 10
334.399278
 20
351.877004
 30
0.0
  0
LWPOLYLINE
  5
390
100
AcDbEntity
  8
Layer_1
 62
7
100
AcDbPolyline
 90
6
 70
1
 10
353.727406
 20
347.111380
 30
0.0
 10
357.024278
 20
347.111380
 30
0.0
 10
357.024278
 20
343.142628
 30
0.0
 10
353.727406
 20
343.142628
 30
0.0
 10
353.727406
 20
347.111380
 30
0.0
 10
353.727406
 20
347.111380
 30
0.0
  0
LWPOLYLINE
  5
391
100
AcDbEntity
  8
Layer_1
 62
7
100
AcDbPolyline
 90
6
 70
1
 10
353.727406
 20
359.689500
 30
0.0
 10
357.024278
 20
359.689500
 30
0.0
 10
357.024278
 20
355.720748
 30
0.0
 10
353.727406
 20
355.720748
 30
0.0
 10
353.727406
 20
359.689500
 30
0.0
 10
353.727406
 20
359.689500
 30
0.0
  0
SPLINE
  5
392
100
AcDbEntity
  8
Layer_1
 62
7
100
AcDbSpline
 70
8
 71
3
 72
8
 73
4
 74
0
 40
0
 40
0
 40
0
 40
0
 40
1
 40
1
 40
1
 40
1
 10
377.321158
 20
358.095748
 30
0.0
 10
377.779488
 20
358.251998
 30
0.0
 10
378.237822
 20
358.366582
 30
0.0
 10
378.696158
 20
358.439500
 30
0.0
  0
SPLINE
  5
393
100
AcDbEntity
  8
Layer_1
 62
7
100
AcDbSpline
 70
8
 71
3
 72
8
 73
4
 74
0
 40
0
 40
0
 40
0
 40
0
 40
1
 40
1
 40
1
 40
1
 10
378.696158
 20
358.439500
 30
0.0
 10
379.154488
 20
358.522833
 30
0.0
 10
379.612822
 20
358.564500
 30
0.0
 10
380.071158
 20
358.564500
 30
0.0
  0
SPLINE
  5
394
100
AcDbEntity
  8
Layer_1
 62
7
100
AcDbSpline
 70
8
 71
3
 72
8
 73
4
 74
0
 40
0
 40
0
 40
0
 40
0
 40
1
 40
1
 40
1
 40
1
 10
380.071158
 20
358.564500
 30
0.0
 10
382.675323
 20
358.564500
 30
0.0
 10
384.737822
 20
357.850958
 30
0.0
 10
386.258654
 20
356.423876
 30
0.0
  0
SPLINE
  5
395
100
AcDbEntity
  8
Layer_1
 62
7
100
AcDbSpline
 70
8
 71
3
 72
8
 73
4
 74
0
 40
0
 40
0
 40
0
 40
0
 40
1
 40
1
 40
1
 40
1
 10
386.258654
 20
356.423876
 30
0.0
 10
387.779486
 20
354.996793
 30
0.0
 10
388.539902
 20
353.064502
 30
0.0
 10
388.539902
 20
350.627004
 30
0.0
  0
SPLINE
  5
396
100
AcDbEntity
  8
Layer_1
 62
7
100
AcDbSpline
 70
8
 71
3
 72
8
 73
4
 74
0
 40
0
 40
0
 40
0
 40
0
 40
1
 40
1
 40
1
 40
1
 10
388.539902
 20
350.627004
 30
0.0
 10
388.539902
 20
348.116588
 30
0.0
 10
387.758654
 20
346.163462
 30
0.0
 10
386.196158
 20
344.767628
 30
0.0
  0
SPLINE
  5
397
100
AcDbEntity
  8
Layer_1
 62
7
100
AcDbSpline
 70
8
 71
3
 72
8
 73
4
 74
0
 40
0
 40
0
 40
0
 40
0
 40
1
 40
1
 40
1
 40
1
 10
386.196158
 20
344.767628
 30
0.0
 10
384.633656
 20
343.382209
 30
0.0
 10
382.430531
 20
342.689500
 30
0.0
 10
379.586782
 20
342.689500
 30
0.0
  0
SPLINE
  5
398
100
AcDbEntity
  8
Layer_1
 62
7
100
AcDbSpline
 70
8
 71
3
 72
8
 73
4
 74
0
 40
0
 40
0
 40
0
 40
0
 40
1
 40
1
 40
1
 40
1
 10
379.586782
 20
342.689500
 30
0.0
 10
378.607614
 20
342.689500
 30
0.0
 10
377.607614
 20
342.772833
 30
0.0
 10
376.586782
 20
342.939500
 30
0.0
  0
SPLINE
  5
399
100
AcDbEntity
  8
Layer_1
 62
7
100
AcDbSpline
 70
8
 71
3
 72
8
 73
4
 74
0
 40
0
 40
0
 40
0
 40
0
 40
1
 40
1
 40
1
 40
1
 10
376.586782
 20
342.939500
 30
0.0
 10
375.576366
 20
343.106166
 30
0.0
 10
374.529491
 20
343.356166
 30
0.0
 10
373.446158
 20
343.689500
 30
0.0
  0
LWPOLYLINE
  5
39a
100
AcDbEntity
  8
Layer_1
 62
7
100
AcDbPolyline
 90
5
 70
1
 10
374.430526
 20
366.470748
 30
0.0
 10
386.821158
 20
366.470748
 30
0.0
 10
386.821158
 20
363.814500
 30
0.0
 10
377.321158
 20
363.814500
 30
0.0
 10
377.321158
 20
358.095748
 30
0.0
  0
SPLINE
  5
39b
100
AcDbEntity
  8
Layer_1
 62
7
100
AcDbSpline
 70
8
 71
3
 72
8
 73
4
 74
0
 40
0
 40
0
 40
0
 40
0
 40
1
 40
1
 40
1
 40
1
 10
373.446158
 20
346.861380
 30
0.0
 10
374.383656
 20
346.350958
 30
0.0
 10
375.352406
 20
345.970748
 30
0.0
 10
376.352406
 20
345.720748
 30
0.0
  0
SPLINE
  5
39c
100
AcDbEntity
  8
Layer_1
 62
7
100
AcDbSpline
 70
8
 71
3
 72
8
 73
4
 74
0
 40
0
 40
0
 40
0
 40
0
 40
1
 40
1
 40
1
 40
1
 10
376.352406
 20
345.720748
 30
0.0
 10
377.352406
 20
345.470748
 30
0.0
 10
378.409696
 20
345.345748
 30
0.0
 10
379.524278
 20
345.345748
 30
0.0
  0
SPLINE
  5
39d
100
AcDbEntity
  8
Layer_1
 62
7
100
AcDbSpline
 70
8
 71
3
 72
8
 73
4
 74
0
 40
0
 40
0
 40
0
 40
0
 40
1
 40
1
 40
1
 40
1
 10
379.524278
 20
345.345748
 30
0.0
 10
381.326363
 20
345.345748
 30
0.0
 10
382.753446
 20
345.819708
 30
0.0
 10
383.805526
 20
346.767628
 30
0.0
  0
SPLINE
  5
39e
100
AcDbEntity
  8
Layer_1
 62
7
100
AcDbSpline
 70
8
 71
3
 72
8
 73
4
 74
0
 40
0
 40
0
 40
0
 40
0
 40
1
 40
1
 40
1
 40
1
 10
383.805526
 20
346.767628
 30
0.0
 10
384.857611
 20
347.715542
 30
0.0
 10
385.383654
 20
349.002001
 30
0.0
 10
385.383654
 20
350.627004
 30
0.0
  0
SPLINE
  5
39f
100
AcDbEntity
  8
Layer_1
 62
7
100
AcDbSpline
 70
8
 71
3
 72
8
 73
4
 74
0
 40
0
 40
0
 40
0
 40
0
 40
1
 40
1
 40
1
 40
1
 10
385.383654
 20
350.627004
 30
0.0
 10
385.383654
 20
352.252001
 30
0.0
 10
384.857611
 20
353.538460
 30
0.0
 10
383.805526
 20
354.486380
 30
0.0
  0
SPLINE
  5
3a0
100
AcDbEntity
  8
Layer_1
 62
7
100
AcDbSpline
 70
8
 71
3
 72
8
 73
4
 74
0
 40
0
 40
0
 40
0
 40
0
 40
1
 40
1
 40
1
 40
1
 10
383.805526
 20
354.486380
 30
0.0
 10
382.753446
 20
355.434294
 30
0.0
 10
381.326363
 20
355.908252
 30
0.0
 10
379.524278
 20
355.908252
 30
0.0
  0
SPLINE
  5
3a1
100
AcDbEntity
  8
Layer_1
 62
7
100
AcDbSpline
 70
8
 71
3
 72
8
 73
4
 74
0
 40
0
 40
0
 40
0
 40
0
 40
1
 40
1
 40
1
 40
1
 10
379.524278
 20
355.908252
 30
0.0
 10
378.680528
 20
355.908252
 30
0.0
 10
377.836779
 20
355.814502
 30
0.0
 10
376.993030
 20
355.627004
 30
0.0
  0
SPLINE
  5
3a2
100
AcDbEntity
  8
Layer_1
 62
7
100
AcDbSpline
 70
8
 71
3
 72
8
 73
4
 74
0
 40
0
 40
0
 40
0
 40
0
 40
1
 40
1
 40
1
 40
1
 10
376.993030
 20
355.627004
 30
0.0
 10
376.159696
 20
355.439500
 30
0.0
 10
375.305528
 20
355.147833
 30
0.0
 10
374.430526
 20
354.752004
 30
0.0
  0
LWPOLYLINE
  5
3a3
100
AcDbEntity
  8
Layer_1
 62
7
100
AcDbPolyline
 90
2
 70
1
 10
373.446158
 20
343.689500
 30
0.0
 10
373.446158
 20
346.861380
 30
0.0
  0
LWPOLYLINE
  5
3a4
100
AcDbEntity
  8
Layer_1
 62
7
100
AcDbPolyline
 90
3
 70
1
 10
374.430526
 20
354.752004
 30
0.0
 10
374.430526
 20
366.470748
 30
0.0
 10
374.430526
 20
366.470748
 30
0.0
  0
SPLINE
  5
3a5
100
AcDbEntity
  8
Layer_1
 62
7
100
AcDbSpline
 70
8
 71
3
 72
8
 73
4
 74
0
 40
0
 40
0
 40
0
 40
0
 40
1
 40
1
 40
1
 40
1
 10
259.993030
 20
315.111380
 30
0.0
 10
261.461782
 20
315.111380
 30
0.0
 10
262.597198
 20
315.491588
 30
0.0
 10
263.399278
 20
316.252004
 30
0.0
  0
SPLINE
  5
3a6
100
AcDbEntity
  8
Layer_1
 62
7
100
AcDbSpline
 70
8
 71
3
 72
8
 73
4
 74
0
 40
0
 40
0
 40
0
 40
0
 40
1
 40
1
 40
1
 40
1
 10
263.399278
 20
316.252004
 30
0.0
 10
264.201363
 20
317.012420
 30
0.0
 10
264.602406
 20
318.095753
 30
0.0
 10
264.602406
 20
319.502004
 30
0.0
  0
SPLINE
  5
3a7
100
AcDbEntity
  8
Layer_1
 62
7
100
AcDbSpline
 70
8
 71
3
 72
8
 73
4
 74
0
 40
0
 40
0
 40
0
 40
0
 40
1
 40
1
 40
1
 40
1
 10
264.602406
 20
319.502004
 30
0.0
 10
264.602406
 20
320.897833
 30
0.0
 10
264.201363
 20
321.975958
 30
0.0
 10
263.399278
 20
322.736380
 30
0.0
  0
SPLINE
  5
3a8
100
AcDbEntity
  8
Layer_1
 62
7
100
AcDbSpline
 70
8
 71
3
 72
8
 73
4
 74
0
 40
0
 40
0
 40
0
 40
0
 40
1
 40
1
 40
1
 40
1
 10
263.399278
 20
322.736380
 30
0.0
 10
262.597198
 20
323.496796
 30
0.0
 10
261.461782
 20
323.877004
 30
0.0
 10
259.993030
 20
323.877004
 30
0.0
  0
LWPOLYLINE
  5
3a9
100
AcDbEntity
  8
Layer_1
 62
7
100
AcDbPolyline
 90
3
 70
1
 10
256.024278
 20
323.877004
 30
0.0
 10
256.024278
 20
315.111380
 30
0.0
 10
259.993030
 20
315.111380
 30
0.0
  0
LWPOLYLINE
  5
3aa
100
AcDbEntity
  8
Layer_1
 62
7
100
AcDbPolyline
 90
3
 70
1
 10
259.993030
 20
323.877004
 30
0.0
 10
256.024278
 20
323.877004
 30
0.0
 10
256.024278
 20
323.877004
 30
0.0
  0
SPLINE
  5
3ab
100
AcDbEntity
  8
Layer_1
 62
7
100
AcDbSpline
 70
8
 71
3
 72
8
 73
4
 74
0
 40
0
 40
0
 40
0
 40
0
 40
1
 40
1
 40
1
 40
1
 10
259.993030
 20
326.470748
 30
0.0
 10
262.607611
 20
326.470748
 30
0.0
 10
264.581568
 20
325.876998
 30
0.0
 10
265.914902
 20
324.689500
 30
0.0
  0
SPLINE
  5
3ac
100
AcDbEntity
  8
Layer_1
 62
7
100
AcDbSpline
 70
8
 71
3
 72
8
 73
4
 74
0
 40
0
 40
0
 40
0
 40
0
 40
1
 40
1
 40
1
 40
1
 10
265.914902
 20
324.689500
 30
0.0
 10
267.258651
 20
323.512417
 30
0.0
 10
267.930526
 20
321.783252
 30
0.0
 10
267.930526
 20
319.502004
 30
0.0
  0
SPLINE
  5
3ad
100
AcDbEntity
  8
Layer_1
 62
7
100
AcDbSpline
 70
8
 71
3
 72
8
 73
4
 74
0
 40
0
 40
0
 40
0
 40
0
 40
1
 40
1
 40
1
 40
1
 10
267.930526
 20
319.502004
 30
0.0
 10
267.930526
 20
317.199918
 30
0.0
 10
267.258651
 20
315.460334
 30
0.0
 10
265.914902
 20
314.283252
 30
0.0
  0
SPLINE
  5
3ae
100
AcDbEntity
  8
Layer_1
 62
7
100
AcDbSpline
 70
8
 71
3
 72
8
 73
4
 74
0
 40
0
 40
0
 40
0
 40
0
 40
1
 40
1
 40
1
 40
1
 10
265.914902
 20
314.283252
 30
0.0
 10
264.581568
 20
313.106169
 30
0.0
 10
262.607611
 20
312.517628
 30
0.0
 10
259.993030
 20
312.517628
 30
0.0
  0
LWPOLYLINE
  5
3af
100
AcDbEntity
  8
Layer_1
 62
7
100
AcDbPolyline
 90
2
 70
1
 10
252.868030
 20
326.470748
 30
0.0
 10
259.993030
 20
326.470748
 30
0.0
  0
SPLINE
  5
3b0
100
AcDbEntity
  8
Layer_1
 62
7
100
AcDbSpline
 70
8
 71
3
 72
8
 73
4
 74
0
 40
0
 40
0
 40
0
 40
0
 40
1
 40
1
 40
1
 40
1
 10
277.711782
 20
318.627004
 30
0.0
 10
276.170112
 20
318.627004
 30
0.0
 10
274.951360
 20
318.022836
 30
0.0
 10
274.055526
 20
316.814500
 30
0.0
  0
SPLINE
  5
3b1
100
AcDbEntity
  8
Layer_1
 62
7
100
AcDbSpline
 70
8
 71
3
 72
8
 73
4
 74
0
 40
0
 40
0
 40
0
 40
0
 40
1
 40
1
 40
1
 40
1
 10
274.055526
 20
316.814500
 30
0.0
 10
273.159696
 20
315.616585
 30
0.0
 10
272.711782
 20
313.970753
 30
0.0
 10
272.711782
 20
311.877004
 30
0.0
  0
SPLINE
  5
3b2
100
AcDbEntity
  8
Layer_1
 62
7
100
AcDbSpline
 70
8
 71
3
 72
8
 73
4
 74
0
 40
0
 40
0
 40
0
 40
0
 40
1
 40
1
 40
1
 40
1
 10
272.711782
 20
311.877004
 30
0.0
 10
272.711782
 20
309.783254
 30
0.0
 10
273.154488
 20
308.132212
 30
0.0
 10
274.039902
 20
306.923876
 30
0.0
  0
SPLINE
  5
3b3
100
AcDbEntity
  8
Layer_1
 62
7
100
AcDbSpline
 70
8
 71
3
 72
8
 73
4
 74
0
 40
0
 40
0
 40
0
 40
0
 40
1
 40
1
 40
1
 40
1
 10
274.039902
 20
306.923876
 30
0.0
 10
274.935736
 20
305.725961
 30
0.0
 10
276.159696
 20
305.127004
 30
0.0
 10
277.711782
 20
305.127004
 30
0.0
  0
SPLINE
  5
3b4
100
AcDbEntity
  8
Layer_1
 62
7
100
AcDbSpline
 70
8
 71
3
 72
8
 73
4
 74
0
 40
0
 40
0
 40
0
 40
0
 40
1
 40
1
 40
1
 40
1
 10
277.711782
 20
305.127004
 30
0.0
 10
279.243030
 20
305.127004
 30
0.0
 10
280.456571
 20
305.731169
 30
0.0
 10
281.352406
 20
306.939500
 30
0.0
  0
SPLINE
  5
3b5
100
AcDbEntity
  8
Layer_1
 62
7
100
AcDbSpline
 70
8
 71
3
 72
8
 73
4
 74
0
 40
0
 40
0
 40
0
 40
0
 40
1
 40
1
 40
1
 40
1
 10
281.352406
 20
306.939500
 30
0.0
 10
282.248240
 20
308.147836
 30
0.0
 10
282.696158
 20
309.793670
 30
0.0
 10
282.696158
 20
311.877004
 30
0.0
  0
SPLINE
  5
3b6
100
AcDbEntity
  8
Layer_1
 62
7
100
AcDbSpline
 70
8
 71
3
 72
8
 73
4
 74
0
 40
0
 40
0
 40
0
 40
0
 40
1
 40
1
 40
1
 40
1
 10
282.696158
 20
311.877004
 30
0.0
 10
282.696158
 20
313.949921
 30
0.0
 10
282.248240
 20
315.590545
 30
0.0
 10
281.352406
 20
316.798876
 30
0.0
  0
SPLINE
  5
3b7
100
AcDbEntity
  8
Layer_1
 62
7
100
AcDbSpline
 70
8
 71
3
 72
8
 73
4
 74
0
 40
0
 40
0
 40
0
 40
0
 40
1
 40
1
 40
1
 40
1
 10
281.352406
 20
316.798876
 30
0.0
 10
280.456571
 20
318.017628
 30
0.0
 10
279.243030
 20
318.627004
 30
0.0
 10
277.711782
 20
318.627004
 30
0.0
  0
LWPOLYLINE
  5
3b8
100
AcDbEntity
  8
Layer_1
 62
7
100
AcDbPolyline
 90
6
 70
1
 10
259.993030
 20
312.517628
 30
0.0
 10
256.024278
 20
312.517628
 30
0.0
 10
256.024278
 20
303.142628
 30
0.0
 10
252.868030
 20
303.142628
 30
0.0
 10
252.868030
 20
326.470748
 30
0.0
 10
252.868030
 20
326.470748
 30
0.0
  0
SPLINE
  5
3b9
100
AcDbEntity
  8
Layer_1
 62
7
100
AcDbSpline
 70
8
 71
3
 72
8
 73
4
 74
0
 40
0
 40
0
 40
0
 40
0
 40
1
 40
1
 40
1
 40
1
 10
277.711782
 20
321.064500
 30
0.0
 10
280.211782
 20
321.064500
 30
0.0
 10
282.175323
 20
320.252001
 30
0.0
 10
283.602406
 20
318.627004
 30
0.0
  0
SPLINE
  5
3ba
100
AcDbEntity
  8
Layer_1
 62
7
100
AcDbSpline
 70
8
 71
3
 72
8
 73
4
 74
0
 40
0
 40
0
 40
0
 40
0
 40
1
 40
1
 40
1
 40
1
 10
283.602406
 20
318.627004
 30
0.0
 10
285.029488
 20
317.002001
 30
0.0
 10
285.743030
 20
314.752001
 30
0.0
 10
285.743030
 20
311.877004
 30
0.0
  0
SPLINE
  5
3bb
100
AcDbEntity
  8
Layer_1
 62
7
100
AcDbSpline
 70
8
 71
3
 72
8
 73
4
 74
0
 40
0
 40
0
 40
0
 40
0
 40
1
 40
1
 40
1
 40
1
 10
285.743030
 20
311.877004
 30
0.0
 10
285.743030
 20
309.012417
 30
0.0
 10
285.029488
 20
306.762417
 30
0.0
 10
283.602406
 20
305.127004
 30
0.0
  0
SPLINE
  5
3bc
100
AcDbEntity
  8
Layer_1
 62
7
100
AcDbSpline
 70
8
 71
3
 72
8
 73
4
 74
0
 40
0
 40
0
 40
0
 40
0
 40
1
 40
1
 40
1
 40
1
 10
283.602406
 20
305.127004
 30
0.0
 10
282.175323
 20
303.502001
 30
0.0
 10
280.211782
 20
302.689500
 30
0.0
 10
277.711782
 20
302.689500
 30
0.0
  0
SPLINE
  5
3bd
100
AcDbEntity
  8
Layer_1
 62
7
100
AcDbSpline
 70
8
 71
3
 72
8
 73
4
 74
0
 40
0
 40
0
 40
0
 40
0
 40
1
 40
1
 40
1
 40
1
 10
277.711782
 20
302.689500
 30
0.0
 10
275.201366
 20
302.689500
 30
0.0
 10
273.232614
 20
303.502001
 30
0.0
 10
271.805526
 20
305.127004
 30
0.0
  0
SPLINE
  5
3be
100
AcDbEntity
  8
Layer_1
 62
7
100
AcDbSpline
 70
8
 71
3
 72
8
 73
4
 74
0
 40
0
 40
0
 40
0
 40
0
 40
1
 40
1
 40
1
 40
1
 10
271.805526
 20
305.127004
 30
0.0
 10
270.388859
 20
306.762417
 30
0.0
 10
269.680526
 20
309.012417
 30
0.0
 10
269.680526
 20
311.877004
 30
0.0
  0
SPLINE
  5
3bf
100
AcDbEntity
  8
Layer_1
 62
7
100
AcDbSpline
 70
8
 71
3
 72
8
 73
4
 74
0
 40
0
 40
0
 40
0
 40
0
 40
1
 40
1
 40
1
 40
1
 10
269.680526
 20
311.877004
 30
0.0
 10
269.680526
 20
314.752001
 30
0.0
 10
270.388859
 20
317.002001
 30
0.0
 10
271.805526
 20
318.627004
 30
0.0
  0
SPLINE
  5
3c0
100
AcDbEntity
  8
Layer_1
 62
7
100
AcDbSpline
 70
8
 71
3
 72
8
 73
4
 74
0
 40
0
 40
0
 40
0
 40
0
 40
1
 40
1
 40
1
 40
1
 10
271.805526
 20
318.627004
 30
0.0
 10
273.232614
 20
320.252001
 30
0.0
 10
275.201366
 20
321.064500
 30
0.0
 10
277.711782
 20
321.064500
 30
0.0
  0
LWPOLYLINE
  5
3c1
100
AcDbEntity
  8
Layer_1
 62
7
100
AcDbPolyline
 90
2
 70
1
 10
277.711782
 20
318.627004
 30
0.0
 10
277.711782
 20
318.627004
 30
0.0
  0
LWPOLYLINE
  5
3c2
100
AcDbEntity
  8
Layer_1
 62
7
100
AcDbPolyline
 90
2
 70
1
 10
277.711782
 20
321.064500
 30
0.0
 10
277.711782
 20
321.064500
 30
0.0
  0
LWPOLYLINE
  5
3c3
100
AcDbEntity
  8
Layer_1
 62
7
100
AcDbPolyline
 90
15
 70
1
 10
288.821158
 20
320.642628
 30
0.0
 10
291.696158
 20
320.642628
 30
0.0
 10
295.289902
 20
306.986380
 30
0.0
 10
298.868030
 20
320.642628
 30
0.0
 10
302.258654
 20
320.642628
 30
0.0
 10
305.852406
 20
306.986380
 30
0.0
 10
309.430526
 20
320.642628
 30
0.0
 10
312.305526
 20
320.642628
 30
0.0
 10
307.727406
 20
303.142628
 30
0.0
 10
304.336782
 20
303.142628
 30
0.0
 10
300.571158
 20
317.486380
 30
0.0
 10
296.789902
 20
303.142628
 30
0.0
 10
293.399278
 20
303.142628
 30
0.0
 10
288.821158
 20
320.642628
 30
0.0
 10
288.821158
 20
320.642628
 30
0.0
  0
SPLINE
  5
3c4
100
AcDbEntity
  8
Layer_1
 62
7
100
AcDbSpline
 70
8
 71
3
 72
8
 73
4
 74
0
 40
0
 40
0
 40
0
 40
0
 40
1
 40
1
 40
1
 40
1
 10
318.430526
 20
311.205124
 30
0.0
 10
318.555528
 20
309.225961
 30
0.0
 10
319.149280
 20
307.715545
 30
0.0
 10
320.211782
 20
306.673876
 30
0.0
  0
SPLINE
  5
3c5
100
AcDbEntity
  8
Layer_1
 62
7
100
AcDbSpline
 70
8
 71
3
 72
8
 73
4
 74
0
 40
0
 40
0
 40
0
 40
0
 40
1
 40
1
 40
1
 40
1
 10
320.211782
 20
306.673876
 30
0.0
 10
321.284699
 20
305.642628
 30
0.0
 10
322.774280
 20
305.127004
 30
0.0
 10
324.680526
 20
305.127004
 30
0.0
  0
SPLINE
  5
3c6
100
AcDbEntity
  8
Layer_1
 62
7
100
AcDbSpline
 70
8
 71
3
 72
8
 73
4
 74
0
 40
0
 40
0
 40
0
 40
0
 40
1
 40
1
 40
1
 40
1
 10
324.680526
 20
305.127004
 30
0.0
 10
325.784696
 20
305.127004
 30
0.0
 10
326.852406
 20
305.262420
 30
0.0
 10
327.883654
 20
305.533252
 30
0.0
  0
SPLINE
  5
3c7
100
AcDbEntity
  8
Layer_1
 62
7
100
AcDbSpline
 70
8
 71
3
 72
8
 73
4
 74
0
 40
0
 40
0
 40
0
 40
0
 40
1
 40
1
 40
1
 40
1
 10
327.883654
 20
305.533252
 30
0.0
 10
328.925323
 20
305.804084
 30
0.0
 10
329.956574
 20
306.210334
 30
0.0
 10
330.977406
 20
306.752004
 30
0.0
  0
LWPOLYLINE
  5
3c8
100
AcDbEntity
  8
Layer_1
 62
7
100
AcDbPolyline
 90
3
 70
1
 10
331.649278
 20
312.611380
 30
0.0
 10
331.649278
 20
311.205124
 30
0.0
 10
318.430526
 20
311.205124
 30
0.0
  0
SPLINE
  5
3c9
100
AcDbEntity
  8
Layer_1
 62
7
100
AcDbSpline
 70
8
 71
3
 72
8
 73
4
 74
0
 40
0
 40
0
 40
0
 40
0
 40
1
 40
1
 40
1
 40
1
 10
330.977406
 20
304.033252
 30
0.0
 10
329.946152
 20
303.595753
 30
0.0
 10
328.888859
 20
303.262420
 30
0.0
 10
327.805526
 20
303.033252
 30
0.0
  0
SPLINE
  5
3ca
100
AcDbEntity
  8
Layer_1
 62
7
100
AcDbSpline
 70
8
 71
3
 72
8
 73
4
 74
0
 40
0
 40
0
 40
0
 40
0
 40
1
 40
1
 40
1
 40
1
 10
327.805526
 20
303.033252
 30
0.0
 10
326.722192
 20
302.804084
 30
0.0
 10
325.623235
 20
302.689500
 30
0.0
 10
324.508654
 20
302.689500
 30
0.0
  0
SPLINE
  5
3cb
100
AcDbEntity
  8
Layer_1
 62
7
100
AcDbSpline
 70
8
 71
3
 72
8
 73
4
 74
0
 40
0
 40
0
 40
0
 40
0
 40
1
 40
1
 40
1
 40
1
 10
324.508654
 20
302.689500
 30
0.0
 10
321.716990
 20
302.689500
 30
0.0
 10
319.503448
 20
303.502001
 30
0.0
 10
317.868030
 20
305.127004
 30
0.0
  0
SPLINE
  5
3cc
100
AcDbEntity
  8
Layer_1
 62
7
100
AcDbSpline
 70
8
 71
3
 72
8
 73
4
 74
0
 40
0
 40
0
 40
0
 40
0
 40
1
 40
1
 40
1
 40
1
 10
317.868030
 20
305.127004
 30
0.0
 10
316.243027
 20
306.752001
 30
0.0
 10
315.430526
 20
308.949916
 30
0.0
 10
315.430526
 20
311.720748
 30
0.0
  0
SPLINE
  5
3cd
100
AcDbEntity
  8
Layer_1
 62
7
100
AcDbSpline
 70
8
 71
3
 72
8
 73
4
 74
0
 40
0
 40
0
 40
0
 40
0
 40
1
 40
1
 40
1
 40
1
 10
315.430526
 20
311.720748
 30
0.0
 10
315.430526
 20
314.585334
 30
0.0
 10
316.201360
 20
316.856169
 30
0.0
 10
317.743030
 20
318.533252
 30
0.0
  0
SPLINE
  5
3ce
100
AcDbEntity
  8
Layer_1
 62
7
100
AcDbSpline
 70
8
 71
3
 72
8
 73
4
 74
0
 40
0
 40
0
 40
0
 40
0
 40
1
 40
1
 40
1
 40
1
 10
317.743030
 20
318.533252
 30
0.0
 10
319.295115
 20
320.220750
 30
0.0
 10
321.383656
 20
321.064500
 30
0.0
 10
324.008654
 20
321.064500
 30
0.0
  0
SPLINE
  5
3cf
100
AcDbEntity
  8
Layer_1
 62
7
100
AcDbSpline
 70
8
 71
3
 72
8
 73
4
 74
0
 40
0
 40
0
 40
0
 40
0
 40
1
 40
1
 40
1
 40
1
 10
324.008654
 20
321.064500
 30
0.0
 10
326.362819
 20
321.064500
 30
0.0
 10
328.222195
 20
320.304084
 30
0.0
 10
329.586782
 20
318.783252
 30
0.0
  0
SPLINE
  5
3d0
100
AcDbEntity
  8
Layer_1
 62
7
100
AcDbSpline
 70
8
 71
3
 72
8
 73
4
 74
0
 40
0
 40
0
 40
0
 40
0
 40
1
 40
1
 40
1
 40
1
 10
329.586782
 20
318.783252
 30
0.0
 10
330.961779
 20
317.272836
 30
0.0
 10
331.649278
 20
315.215545
 30
0.0
 10
331.649278
 20
312.611380
 30
0.0
  0
LWPOLYLINE
  5
3d1
100
AcDbEntity
  8
Layer_1
 62
7
100
AcDbPolyline
 90
2
 70
1
 10
330.977406
 20
306.752004
 30
0.0
 10
330.977406
 20
304.033252
 30
0.0
  0
SPLINE
  5
3d2
100
AcDbEntity
  8
Layer_1
 62
7
100
AcDbSpline
 70
8
 71
3
 72
8
 73
4
 74
0
 40
0
 40
0
 40
0
 40
0
 40
1
 40
1
 40
1
 40
1
 10
328.774278
 20
313.455124
 30
0.0
 10
328.753424
 20
315.028041
 30
0.0
 10
328.310718
 20
316.283249
 30
0.0
 10
327.446158
 20
317.220748
 30
0.0
  0
SPLINE
  5
3d3
100
AcDbEntity
  8
Layer_1
 62
7
100
AcDbSpline
 70
8
 71
3
 72
8
 73
4
 74
0
 40
0
 40
0
 40
0
 40
0
 40
1
 40
1
 40
1
 40
1
 10
327.446158
 20
317.220748
 30
0.0
 10
326.591987
 20
318.158252
 30
0.0
 10
325.456568
 20
318.627004
 30
0.0
 10
324.039902
 20
318.627004
 30
0.0
  0
SPLINE
  5
3d4
100
AcDbEntity
  8
Layer_1
 62
7
100
AcDbSpline
 70
8
 71
3
 72
8
 73
4
 74
0
 40
0
 40
0
 40
0
 40
0
 40
1
 40
1
 40
1
 40
1
 10
324.039902
 20
318.627004
 30
0.0
 10
322.435736
 20
318.627004
 30
0.0
 10
321.149278
 20
318.173878
 30
0.0
 10
320.180526
 20
317.267628
 30
0.0
  0
SPLINE
  5
3d5
100
AcDbEntity
  8
Layer_1
 62
7
100
AcDbSpline
 70
8
 71
3
 72
8
 73
4
 74
0
 40
0
 40
0
 40
0
 40
0
 40
1
 40
1
 40
1
 40
1
 10
320.180526
 20
317.267628
 30
0.0
 10
319.222195
 20
316.361377
 30
0.0
 10
318.670112
 20
315.085334
 30
0.0
 10
318.524278
 20
313.439500
 30
0.0
  0
LWPOLYLINE
  5
3d6
100
AcDbEntity
  8
Layer_1
 62
7
100
AcDbPolyline
 90
2
 70
1
 10
331.649278
 20
312.611380
 30
0.0
 10
331.649278
 20
312.611380
 30
0.0
  0
SPLINE
  5
3d7
100
AcDbEntity
  8
Layer_1
 62
7
100
AcDbSpline
 70
8
 71
3
 72
8
 73
4
 74
0
 40
0
 40
0
 40
0
 40
0
 40
1
 40
1
 40
1
 40
1
 10
346.446158
 20
317.955124
 30
0.0
 10
346.123240
 20
318.142628
 30
0.0
 10
345.769072
 20
318.278046
 30
0.0
 10
345.383654
 20
318.361380
 30
0.0
  0
SPLINE
  5
3d8
100
AcDbEntity
  8
Layer_1
 62
7
100
AcDbSpline
 70
8
 71
3
 72
8
 73
4
 74
0
 40
0
 40
0
 40
0
 40
0
 40
1
 40
1
 40
1
 40
1
 10
345.383654
 20
318.361380
 30
0.0
 10
345.008656
 20
318.455129
 30
0.0
 10
344.591990
 20
318.502004
 30
0.0
 10
344.133654
 20
318.502004
 30
0.0
  0
SPLINE
  5
3d9
100
AcDbEntity
  8
Layer_1
 62
7
100
AcDbSpline
 70
8
 71
3
 72
8
 73
4
 74
0
 40
0
 40
0
 40
0
 40
0
 40
1
 40
1
 40
1
 40
1
 10
344.133654
 20
318.502004
 30
0.0
 10
342.508656
 20
318.502004
 30
0.0
 10
341.258656
 20
317.970753
 30
0.0
 10
340.383654
 20
316.908252
 30
0.0
  0
SPLINE
  5
3da
100
AcDbEntity
  8
Layer_1
 62
7
100
AcDbSpline
 70
8
 71
3
 72
8
 73
4
 74
0
 40
0
 40
0
 40
0
 40
0
 40
1
 40
1
 40
1
 40
1
 10
340.383654
 20
316.908252
 30
0.0
 10
339.519072
 20
315.856166
 30
0.0
 10
339.086782
 20
314.340542
 30
0.0
 10
339.086782
 20
312.361380
 30
0.0
  0
LWPOLYLINE
  5
3db
100
AcDbEntity
  8
Layer_1
 62
7
100
AcDbPolyline
 90
3
 70
1
 10
318.524278
 20
313.439500
 30
0.0
 10
328.774278
 20
313.455100
 30
0.0
 10
328.774278
 20
313.455124
 30
0.0
  0
SPLINE
  5
3dc
100
AcDbEntity
  8
Layer_1
 62
7
100
AcDbSpline
 70
8
 71
3
 72
8
 73
4
 74
0
 40
0
 40
0
 40
0
 40
0
 40
1
 40
1
 40
1
 40
1
 10
339.086782
 20
317.923876
 30
0.0
 10
339.690947
 20
318.986377
 30
0.0
 10
340.477406
 20
319.772836
 30
0.0
 10
341.446158
 20
320.283252
 30
0.0
  0
SPLINE
  5
3dd
100
AcDbEntity
  8
Layer_1
 62
7
100
AcDbSpline
 70
8
 71
3
 72
8
 73
4
 74
0
 40
0
 40
0
 40
0
 40
0
 40
1
 40
1
 40
1
 40
1
 10
341.446158
 20
320.283252
 30
0.0
 10
342.414904
 20
320.804084
 30
0.0
 10
343.591987
 20
321.064500
 30
0.0
 10
344.977406
 20
321.064500
 30
0.0
  0
SPLINE
  5
3de
100
AcDbEntity
  8
Layer_1
 62
7
100
AcDbSpline
 70
8
 71
3
 72
8
 73
4
 74
0
 40
0
 40
0
 40
0
 40
0
 40
1
 40
1
 40
1
 40
1
 10
344.977406
 20
321.064500
 30
0.0
 10
345.175320
 20
321.064500
 30
0.0
 10
345.394070
 20
321.048873
 30
0.0
 10
345.633654
 20
321.017620
 30
0.0
  0
SPLINE
  5
3df
100
AcDbEntity
  8
Layer_1
 62
7
100
AcDbSpline
 70
8
 71
3
 72
8
 73
4
 74
0
 40
0
 40
0
 40
0
 40
0
 40
1
 40
1
 40
1
 40
1
 10
345.633654
 20
321.017620
 30
0.0
 10
345.873238
 20
320.996766
 30
0.0
 10
346.138862
 20
320.960308
 30
0.0
 10
346.430526
 20
320.908244
 30
0.0
  0
LWPOLYLINE
  5
3e0
100
AcDbEntity
  8
Layer_1
 62
7
100
AcDbPolyline
 90
6
 70
1
 10
339.086782
 20
312.361380
 30
0.0
 10
339.086782
 20
303.142628
 30
0.0
 10
336.196158
 20
303.142628
 30
0.0
 10
336.196158
 20
320.642628
 30
0.0
 10
339.086782
 20
320.642628
 30
0.0
 10
339.086782
 20
317.923876
 30
0.0
  0
LWPOLYLINE
  5
3e1
100
AcDbEntity
  8
Layer_1
 62
7
100
AcDbPolyline
 90
3
 70
1
 10
346.430526
 20
320.908244
 30
0.0
 10
346.446126
 20
317.955116
 30
0.0
 10
346.446158
 20
317.955124
 30
0.0
  0
LWPOLYLINE
  5
3e2
100
AcDbEntity
  8
Layer_1
 62
7
100
AcDbPolyline
 90
6
 70
1
 10
349.696158
 20
307.111380
 30
0.0
 10
352.993030
 20
307.111380
 30
0.0
 10
352.993030
 20
303.142628
 30
0.0
 10
349.696158
 20
303.142628
 30
0.0
 10
349.696158
 20
307.111380
 30
0.0
 10
349.696158
 20
307.111380
 30
0.0
  0
LWPOLYLINE
  5
3e3
100
AcDbEntity
  8
Layer_1
 62
7
100
AcDbPolyline
 90
6
 70
1
 10
349.696158
 20
319.689500
 30
0.0
 10
352.993030
 20
319.689500
 30
0.0
 10
352.993030
 20
315.720748
 30
0.0
 10
349.696158
 20
315.720748
 30
0.0
 10
349.696158
 20
319.689500
 30
0.0
 10
349.696158
 20
319.689500
 30
0.0
  0
SPLINE
  5
3e4
100
AcDbEntity
  8
Layer_1
 62
7
100
AcDbSpline
 70
8
 71
3
 72
8
 73
4
 74
0
 40
0
 40
0
 40
0
 40
0
 40
1
 40
1
 40
1
 40
1
 10
373.321158
 20
318.095748
 30
0.0
 10
373.779488
 20
318.251998
 30
0.0
 10
374.237822
 20
318.366582
 30
0.0
 10
374.696158
 20
318.439500
 30
0.0
  0
SPLINE
  5
3e5
100
AcDbEntity
  8
Layer_1
 62
7
100
AcDbSpline
 70
8
 71
3
 72
8
 73
4
 74
0
 40
0
 40
0
 40
0
 40
0
 40
1
 40
1
 40
1
 40
1
 10
374.696158
 20
318.439500
 30
0.0
 10
375.154488
 20
318.522833
 30
0.0
 10
375.612822
 20
318.564500
 30
0.0
 10
376.071158
 20
318.564500
 30
0.0
  0
SPLINE
  5
3e6
100
AcDbEntity
  8
Layer_1
 62
7
100
AcDbSpline
 70
8
 71
3
 72
8
 73
4
 74
0
 40
0
 40
0
 40
0
 40
0
 40
1
 40
1
 40
1
 40
1
 10
376.071158
 20
318.564500
 30
0.0
 10
378.675323
 20
318.564500
 30
0.0
 10
380.737822
 20
317.850958
 30
0.0
 10
382.258654
 20
316.423876
 30
0.0
  0
SPLINE
  5
3e7
100
AcDbEntity
  8
Layer_1
 62
7
100
AcDbSpline
 70
8
 71
3
 72
8
 73
4
 74
0
 40
0
 40
0
 40
0
 40
0
 40
1
 40
1
 40
1
 40
1
 10
382.258654
 20
316.423876
 30
0.0
 10
383.779486
 20
314.996793
 30
0.0
 10
384.539902
 20
313.064502
 30
0.0
 10
384.539902
 20
310.627004
 30
0.0
  0
SPLINE
  5
3e8
100
AcDbEntity
  8
Layer_1
 62
7
100
AcDbSpline
 70
8
 71
3
 72
8
 73
4
 74
0
 40
0
 40
0
 40
0
 40
0
 40
1
 40
1
 40
1
 40
1
 10
384.539902
 20
310.627004
 30
0.0
 10
384.539902
 20
308.116588
 30
0.0
 10
383.758654
 20
306.163462
 30
0.0
 10
382.196158
 20
304.767628
 30
0.0
  0
SPLINE
  5
3e9
100
AcDbEntity
  8
Layer_1
 62
7
100
AcDbSpline
 70
8
 71
3
 72
8
 73
4
 74
0
 40
0
 40
0
 40
0
 40
0
 40
1
 40
1
 40
1
 40
1
 10
382.196158
 20
304.767628
 30
0.0
 10
380.633656
 20
303.382209
 30
0.0
 10
378.430531
 20
302.689500
 30
0.0
 10
375.586782
 20
302.689500
 30
0.0
  0
SPLINE
  5
3ea
100
AcDbEntity
  8
Layer_1
 62
7
100
AcDbSpline
 70
8
 71
3
 72
8
 73
4
 74
0
 40
0
 40
0
 40
0
 40
0
 40
1
 40
1
 40
1
 40
1
 10
375.586782
 20
302.689500
 30
0.0
 10
374.607614
 20
302.689500
 30
0.0
 10
373.607614
 20
302.772833
 30
0.0
 10
372.586782
 20
302.939500
 30
0.0
  0
SPLINE
  5
3eb
100
AcDbEntity
  8
Layer_1
 62
7
100
AcDbSpline
 70
8
 71
3
 72
8
 73
4
 74
0
 40
0
 40
0
 40
0
 40
0
 40
1
 40
1
 40
1
 40
1
 10
372.586782
 20
302.939500
 30
0.0
 10
371.576366
 20
303.106166
 30
0.0
 10
370.529491
 20
303.356166
 30
0.0
 10
369.446158
 20
303.689500
 30
0.0
  0
LWPOLYLINE
  5
3ec
100
AcDbEntity
  8
Layer_1
 62
7
100
AcDbPolyline
 90
5
 70
1
 10
370.430526
 20
326.470748
 30
0.0
 10
382.821158
 20
326.470748
 30
0.0
 10
382.821158
 20
323.814500
 30
0.0
 10
373.321158
 20
323.814500
 30
0.0
 10
373.321158
 20
318.095748
 30
0.0
  0
SPLINE
  5
3ed
100
AcDbEntity
  8
Layer_1
 62
7
100
AcDbSpline
 70
8
 71
3
 72
8
 73
4
 74
0
 40
0
 40
0
 40
0
 40
0
 40
1
 40
1
 40
1
 40
1
 10
369.446158
 20
306.861380
 30
0.0
 10
370.383656
 20
306.350958
 30
0.0
 10
371.352406
 20
305.970748
 30
0.0
 10
372.352406
 20
305.720748
 30
0.0
  0
SPLINE
  5
3ee
100
AcDbEntity
  8
Layer_1
 62
7
100
AcDbSpline
 70
8
 71
3
 72
8
 73
4
 74
0
 40
0
 40
0
 40
0
 40
0
 40
1
 40
1
 40
1
 40
1
 10
372.352406
 20
305.720748
 30
0.0
 10
373.352406
 20
305.470748
 30
0.0
 10
374.409696
 20
305.345748
 30
0.0
 10
375.524278
 20
305.345748
 30
0.0
  0
SPLINE
  5
3ef
100
AcDbEntity
  8
Layer_1
 62
7
100
AcDbSpline
 70
8
 71
3
 72
8
 73
4
 74
0
 40
0
 40
0
 40
0
 40
0
 40
1
 40
1
 40
1
 40
1
 10
375.524278
 20
305.345748
 30
0.0
 10
377.326363
 20
305.345748
 30
0.0
 10
378.753446
 20
305.819708
 30
0.0
 10
379.805526
 20
306.767628
 30
0.0
  0
SPLINE
  5
3f0
100
AcDbEntity
  8
Layer_1
 62
7
100
AcDbSpline
 70
8
 71
3
 72
8
 73
4
 74
0
 40
0
 40
0
 40
0
 40
0
 40
1
 40
1
 40
1
 40
1
 10
379.805526
 20
306.767628
 30
0.0
 10
380.857611
 20
307.715542
 30
0.0
 10
381.383654
 20
309.002001
 30
0.0
 10
381.383654
 20
310.627004
 30
0.0
  0
SPLINE
  5
3f1
100
AcDbEntity
  8
Layer_1
 62
7
100
AcDbSpline
 70
8
 71
3
 72
8
 73
4
 74
0
 40
0
 40
0
 40
0
 40
0
 40
1
 40
1
 40
1
 40
1
 10
381.383654
 20
310.627004
 30
0.0
 10
381.383654
 20
312.252001
 30
0.0
 10
380.857611
 20
313.538460
 30
0.0
 10
379.805526
 20
314.486380
 30
0.0
  0
SPLINE
  5
3f2
100
AcDbEntity
  8
Layer_1
 62
7
100
AcDbSpline
 70
8
 71
3
 72
8
 73
4
 74
0
 40
0
 40
0
 40
0
 40
0
 40
1
 40
1
 40
1
 40
1
 10
379.805526
 20
314.486380
 30
0.0
 10
378.753446
 20
315.434294
 30
0.0
 10
377.326363
 20
315.908252
 30
0.0
 10
375.524278
 20
315.908252
 30
0.0
  0
SPLINE
  5
3f3
100
AcDbEntity
  8
Layer_1
 62
7
100
AcDbSpline
 70
8
 71
3
 72
8
 73
4
 74
0
 40
0
 40
0
 40
0
 40
0
 40
1
 40
1
 40
1
 40
1
 10
375.524278
 20
315.908252
 30
0.0
 10
374.680528
 20
315.908252
 30
0.0
 10
373.836779
 20
315.814502
 30
0.0
 10
372.993030
 20
315.627004
 30
0.0
  0
SPLINE
  5
3f4
100
AcDbEntity
  8
Layer_1
 62
7
100
AcDbSpline
 70
8
 71
3
 72
8
 73
4
 74
0
 40
0
 40
0
 40
0
 40
0
 40
1
 40
1
 40
1
 40
1
 10
372.993030
 20
315.627004
 30
0.0
 10
372.159696
 20
315.439500
 30
0.0
 10
371.305528
 20
315.147833
 30
0.0
 10
370.430526
 20
314.752004
 30
0.0
  0
LWPOLYLINE
  5
3f5
100
AcDbEntity
  8
Layer_1
 62
7
100
AcDbPolyline
 90
2
 70
1
 10
369.446158
 20
303.689500
 30
0.0
 10
369.446158
 20
306.861380
 30
0.0
  0
SPLINE
  5
3f6
100
AcDbEntity
  8
Layer_1
 62
7
100
AcDbSpline
 70
8
 71
3
 72
8
 73
4
 74
0
 40
0
 40
0
 40
0
 40
0
 40
1
 40
1
 40
1
 40
1
 10
397.524278
 20
324.392628
 30
0.0
 10
395.899280
 20
324.392628
 30
0.0
 10
394.675323
 20
323.590545
 30
0.0
 10
393.852406
 20
321.986380
 30
0.0
  0
SPLINE
  5
3f7
100
AcDbEntity
  8
Layer_1
 62
7
100
AcDbSpline
 70
8
 71
3
 72
8
 73
4
 74
0
 40
0
 40
0
 40
0
 40
0
 40
1
 40
1
 40
1
 40
1
 10
393.852406
 20
321.986380
 30
0.0
 10
393.039904
 20
320.392625
 30
0.0
 10
392.633654
 20
317.991582
 30
0.0
 10
392.633654
 20
314.783252
 30
0.0
  0
SPLINE
  5
3f8
100
AcDbEntity
  8
Layer_1
 62
7
100
AcDbSpline
 70
8
 71
3
 72
8
 73
4
 74
0
 40
0
 40
0
 40
0
 40
0
 40
1
 40
1
 40
1
 40
1
 10
392.633654
 20
314.783252
 30
0.0
 10
392.633654
 20
311.585337
 30
0.0
 10
393.039904
 20
309.184294
 30
0.0
 10
393.852406
 20
307.580124
 30
0.0
  0
SPLINE
  5
3f9
100
AcDbEntity
  8
Layer_1
 62
7
100
AcDbSpline
 70
8
 71
3
 72
8
 73
4
 74
0
 40
0
 40
0
 40
0
 40
0
 40
1
 40
1
 40
1
 40
1
 10
393.852406
 20
307.580124
 30
0.0
 10
394.675323
 20
305.986374
 30
0.0
 10
395.899280
 20
305.189500
 30
0.0
 10
397.524278
 20
305.189500
 30
0.0
  0
SPLINE
  5
3fa
100
AcDbEntity
  8
Layer_1
 62
7
100
AcDbSpline
 70
8
 71
3
 72
8
 73
4
 74
0
 40
0
 40
0
 40
0
 40
0
 40
1
 40
1
 40
1
 40
1
 10
397.524278
 20
305.189500
 30
0.0
 10
399.159696
 20
305.189500
 30
0.0
 10
400.383656
 20
305.986374
 30
0.0
 10
401.196158
 20
307.580124
 30
0.0
  0
SPLINE
  5
3fb
100
AcDbEntity
  8
Layer_1
 62
7
100
AcDbSpline
 70
8
 71
3
 72
8
 73
4
 74
0
 40
0
 40
0
 40
0
 40
0
 40
1
 40
1
 40
1
 40
1
 10
401.196158
 20
307.580124
 30
0.0
 10
402.019070
 20
309.184294
 30
0.0
 10
402.430526
 20
311.585337
 30
0.0
 10
402.430526
 20
314.783252
 30
0.0
  0
SPLINE
  5
3fc
100
AcDbEntity
  8
Layer_1
 62
7
100
AcDbSpline
 70
8
 71
3
 72
8
 73
4
 74
0
 40
0
 40
0
 40
0
 40
0
 40
1
 40
1
 40
1
 40
1
 10
402.430526
 20
314.783252
 30
0.0
 10
402.430526
 20
317.991582
 30
0.0
 10
402.019070
 20
320.392625
 30
0.0
 10
401.196158
 20
321.986380
 30
0.0
  0
SPLINE
  5
3fd
100
AcDbEntity
  8
Layer_1
 62
7
100
AcDbSpline
 70
8
 71
3
 72
8
 73
4
 74
0
 40
0
 40
0
 40
0
 40
0
 40
1
 40
1
 40
1
 40
1
 10
401.196158
 20
321.986380
 30
0.0
 10
400.383656
 20
323.590545
 30
0.0
 10
399.159696
 20
324.392628
 30
0.0
 10
397.524278
 20
324.392628
 30
0.0
  0
LWPOLYLINE
  5
3fe
100
AcDbEntity
  8
Layer_1
 62
7
100
AcDbPolyline
 90
3
 70
1
 10
370.430526
 20
314.752004
 30
0.0
 10
370.430526
 20
326.470748
 30
0.0
 10
370.430526
 20
326.470748
 30
0.0
  0
SPLINE
  5
3ff
100
AcDbEntity
  8
Layer_1
 62
7
100
AcDbSpline
 70
8
 71
3
 72
8
 73
4
 74
0
 40
0
 40
0
 40
0
 40
0
 40
1
 40
1
 40
1
 40
1
 10
397.524278
 20
326.892628
 30
0.0
 10
400.138864
 20
326.892628
 30
0.0
 10
402.133656
 20
325.856169
 30
0.0
 10
403.508654
 20
323.783252
 30
0.0
  0
SPLINE
  5
400
100
AcDbEntity
  8
Layer_1
 62
7
100
AcDbSpline
 70
8
 71
3
 72
8
 73
4
 74
0
 40
0
 40
0
 40
0
 40
0
 40
1
 40
1
 40
1
 40
1
 10
403.508654
 20
323.783252
 30
0.0
 10
404.894072
 20
321.720750
 30
0.0
 10
405.586782
 20
318.720750
 30
0.0
 10
405.586782
 20
314.783252
 30
0.0
  0
SPLINE
  5
401
100
AcDbEntity
  8
Layer_1
 62
7
100
AcDbSpline
 70
8
 71
3
 72
8
 73
4
 74
0
 40
0
 40
0
 40
0
 40
0
 40
1
 40
1
 40
1
 40
1
 10
405.586782
 20
314.783252
 30
0.0
 10
405.586782
 20
310.856169
 30
0.0
 10
404.894072
 20
307.856169
 30
0.0
 10
403.508654
 20
305.783252
 30
0.0
  0
SPLINE
  5
402
100
AcDbEntity
  8
Layer_1
 62
7
100
AcDbSpline
 70
8
 71
3
 72
8
 73
4
 74
0
 40
0
 40
0
 40
0
 40
0
 40
1
 40
1
 40
1
 40
1
 10
403.508654
 20
305.783252
 30
0.0
 10
402.133656
 20
303.720750
 30
0.0
 10
400.138864
 20
302.689500
 30
0.0
 10
397.524278
 20
302.689500
 30
0.0
  0
SPLINE
  5
403
100
AcDbEntity
  8
Layer_1
 62
7
100
AcDbSpline
 70
8
 71
3
 72
8
 73
4
 74
0
 40
0
 40
0
 40
0
 40
0
 40
1
 40
1
 40
1
 40
1
 10
397.524278
 20
302.689500
 30
0.0
 10
394.909696
 20
302.689500
 30
0.0
 10
392.909696
 20
303.720750
 30
0.0
 10
391.524278
 20
305.783252
 30
0.0
  0
SPLINE
  5
404
100
AcDbEntity
  8
Layer_1
 62
7
100
AcDbSpline
 70
8
 71
3
 72
8
 73
4
 74
0
 40
0
 40
0
 40
0
 40
0
 40
1
 40
1
 40
1
 40
1
 10
391.524278
 20
305.783252
 30
0.0
 10
390.149280
 20
307.856169
 30
0.0
 10
389.461782
 20
310.856169
 30
0.0
 10
389.461782
 20
314.783252
 30
0.0
  0
SPLINE
  5
405
100
AcDbEntity
  8
Layer_1
 62
7
100
AcDbSpline
 70
8
 71
3
 72
8
 73
4
 74
0
 40
0
 40
0
 40
0
 40
0
 40
1
 40
1
 40
1
 40
1
 10
389.461782
 20
314.783252
 30
0.0
 10
389.461782
 20
318.720750
 30
0.0
 10
390.149280
 20
321.720750
 30
0.0
 10
391.524278
 20
323.783252
 30
0.0
  0
SPLINE
  5
406
100
AcDbEntity
  8
Layer_1
 62
7
100
AcDbSpline
 70
8
 71
3
 72
8
 73
4
 74
0
 40
0
 40
0
 40
0
 40
0
 40
1
 40
1
 40
1
 40
1
 10
391.524278
 20
323.783252
 30
0.0
 10
392.909696
 20
325.856169
 30
0.0
 10
394.909696
 20
326.892628
 30
0.0
 10
397.524278
 20
326.892628
 30
0.0
  0
LWPOLYLINE
  5
407
100
AcDbEntity
  8
Layer_1
 62
7
100
AcDbPolyline
 90
2
 70
1
 10
397.524278
 20
324.392628
 30
0.0
 10
397.524278
 20
324.392628
 30
0.0
  0
LWPOLYLINE
  5
408
100
AcDbEntity
  8
Layer_1
 62
7
100
AcDbPolyline
 90
2
 70
1
 10
397.524278
 20
326.892628
 30
0.0
 10
397.524278
 20
326.892628
 30
0.0
  0
SPLINE
  5
409
100
AcDbEntity
  8
Layer_1
 62
7
100
AcDbSpline
 70
8
 71
3
 72
8
 73
4
 74
0
 40
0
 40
0
 40
0
 40
0
 40
1
 40
1
 40
1
 40
1
 10
251.878082
 20
201.020332
 30
0.0
 10
250.680162
 20
201.593249
 30
0.0
 10
249.549954
 20
202.020332
 30
0.0
 10
248.487458
 20
202.301580
 30
0.0
  0
SPLINE
  5
40a
100
AcDbEntity
  8
Layer_1
 62
7
100
AcDbSpline
 70
8
 71
3
 72
8
 73
4
 74
0
 40
0
 40
0
 40
0
 40
0
 40
1
 40
1
 40
1
 40
1
 10
248.487458
 20
202.301580
 30
0.0
 10
247.424956
 20
202.582828
 30
0.0
 10
246.398914
 20
202.723452
 30
0.0
 10
245.409330
 20
202.723452
 30
0.0
  0
SPLINE
  5
40b
100
AcDbEntity
  8
Layer_1
 62
7
100
AcDbSpline
 70
8
 71
3
 72
8
 73
4
 74
0
 40
0
 40
0
 40
0
 40
0
 40
1
 40
1
 40
1
 40
1
 10
245.409330
 20
202.723452
 30
0.0
 10
243.690578
 20
202.723452
 30
0.0
 10
242.362452
 20
202.390118
 30
0.0
 10
241.424954
 20
201.723452
 30
0.0
  0
SPLINE
  5
40c
100
AcDbEntity
  8
Layer_1
 62
7
100
AcDbSpline
 70
8
 71
3
 72
8
 73
4
 74
0
 40
0
 40
0
 40
0
 40
0
 40
1
 40
1
 40
1
 40
1
 10
241.424954
 20
201.723452
 30
0.0
 10
240.497871
 20
201.056785
 30
0.0
 10
240.034330
 20
200.108870
 30
0.0
 10
240.034330
 20
198.879708
 30
0.0
  0
SPLINE
  5
40d
100
AcDbEntity
  8
Layer_1
 62
7
100
AcDbSpline
 70
8
 71
3
 72
8
 73
4
 74
0
 40
0
 40
0
 40
0
 40
0
 40
1
 40
1
 40
1
 40
1
 10
240.034330
 20
198.879708
 30
0.0
 10
240.034330
 20
197.848454
 30
0.0
 10
240.341620
 20
197.067204
 30
0.0
 10
240.956202
 20
196.535956
 30
0.0
  0
SPLINE
  5
40e
100
AcDbEntity
  8
Layer_1
 62
7
100
AcDbSpline
 70
8
 71
3
 72
8
 73
4
 74
0
 40
0
 40
0
 40
0
 40
0
 40
1
 40
1
 40
1
 40
1
 10
240.956202
 20
196.535956
 30
0.0
 10
241.581204
 20
196.015124
 30
0.0
 10
242.758290
 20
195.593249
 30
0.0
 10
244.487458
 20
195.270332
 30
0.0
  0
LWPOLYLINE
  5
40f
100
AcDbEntity
  8
Layer_1
 62
7
100
AcDbPolyline
 90
2
 70
1
 10
251.878082
 20
204.098452
 30
0.0
 10
251.878082
 20
201.020332
 30
0.0
  0
SPLINE
  5
410
100
AcDbEntity
  8
Layer_1
 62
7
100
AcDbSpline
 70
8
 71
3
 72
8
 73
4
 74
0
 40
0
 40
0
 40
0
 40
0
 40
1
 40
1
 40
1
 40
1
 10
246.393706
 20
194.879708
 30
0.0
 10
248.747871
 20
194.431788
 30
0.0
 10
250.482247
 20
193.640121
 30
0.0
 10
251.596834
 20
192.504708
 30
0.0
  0
SPLINE
  5
411
100
AcDbEntity
  8
Layer_1
 62
7
100
AcDbSpline
 70
8
 71
3
 72
8
 73
4
 74
0
 40
0
 40
0
 40
0
 40
0
 40
1
 40
1
 40
1
 40
1
 10
251.596834
 20
192.504708
 30
0.0
 10
252.721831
 20
191.379705
 30
0.0
 10
253.284330
 20
189.869286
 30
0.0
 10
253.284330
 20
187.973452
 30
0.0
  0
SPLINE
  5
412
100
AcDbEntity
  8
Layer_1
 62
7
100
AcDbSpline
 70
8
 71
3
 72
8
 73
4
 74
0
 40
0
 40
0
 40
0
 40
0
 40
1
 40
1
 40
1
 40
1
 10
253.284330
 20
187.973452
 30
0.0
 10
253.284330
 20
185.713036
 30
0.0
 10
252.523914
 20
183.999494
 30
0.0
 10
251.003082
 20
182.832828
 30
0.0
  0
SPLINE
  5
413
100
AcDbEntity
  8
Layer_1
 62
7
100
AcDbSpline
 70
8
 71
3
 72
8
 73
4
 74
0
 40
0
 40
0
 40
0
 40
0
 40
1
 40
1
 40
1
 40
1
 10
251.003082
 20
182.832828
 30
0.0
 10
249.492666
 20
181.666161
 30
0.0
 10
247.273916
 20
181.082828
 30
0.0
 10
244.346834
 20
181.082828
 30
0.0
  0
SPLINE
  5
414
100
AcDbEntity
  8
Layer_1
 62
7
100
AcDbSpline
 70
8
 71
3
 72
8
 73
4
 74
0
 40
0
 40
0
 40
0
 40
0
 40
1
 40
1
 40
1
 40
1
 10
244.346834
 20
181.082828
 30
0.0
 10
243.242663
 20
181.082828
 30
0.0
 10
242.065578
 20
181.207828
 30
0.0
 10
240.815578
 20
181.457828
 30
0.0
  0
SPLINE
  5
415
100
AcDbEntity
  8
Layer_1
 62
7
100
AcDbSpline
 70
8
 71
3
 72
8
 73
4
 74
0
 40
0
 40
0
 40
0
 40
0
 40
1
 40
1
 40
1
 40
1
 10
240.815578
 20
181.457828
 30
0.0
 10
239.575994
 20
181.707828
 30
0.0
 10
238.289535
 20
182.077620
 30
0.0
 10
236.956202
 20
182.567204
 30
0.0
  0
LWPOLYLINE
  5
416
100
AcDbEntity
  8
Layer_1
 62
7
100
AcDbPolyline
 90
2
 70
1
 10
244.487458
 20
195.270332
 30
0.0
 10
246.393706
 20
194.879708
 30
0.0
  0
SPLINE
  5
417
100
AcDbEntity
  8
Layer_1
 62
7
100
AcDbSpline
 70
8
 71
3
 72
8
 73
4
 74
0
 40
0
 40
0
 40
0
 40
0
 40
1
 40
1
 40
1
 40
1
 10
236.956202
 20
185.817204
 30
0.0
 10
238.237455
 20
185.098452
 30
0.0
 10
239.492666
 20
184.556785
 30
0.0
 10
240.721834
 20
184.192204
 30
0.0
  0
SPLINE
  5
418
100
AcDbEntity
  8
Layer_1
 62
7
100
AcDbSpline
 70
8
 71
3
 72
8
 73
4
 74
0
 40
0
 40
0
 40
0
 40
0
 40
1
 40
1
 40
1
 40
1
 10
240.721834
 20
184.192204
 30
0.0
 10
241.950996
 20
183.827622
 30
0.0
 10
243.159330
 20
183.645332
 30
0.0
 10
244.346834
 20
183.645332
 30
0.0
  0
SPLINE
  5
419
100
AcDbEntity
  8
Layer_1
 62
7
100
AcDbSpline
 70
8
 71
3
 72
8
 73
4
 74
0
 40
0
 40
0
 40
0
 40
0
 40
1
 40
1
 40
1
 40
1
 10
244.346834
 20
183.645332
 30
0.0
 10
246.148914
 20
183.645332
 30
0.0
 10
247.539538
 20
183.999497
 30
0.0
 10
248.518706
 20
184.707828
 30
0.0
  0
SPLINE
  5
41a
100
AcDbEntity
  8
Layer_1
 62
7
100
AcDbSpline
 70
8
 71
3
 72
8
 73
4
 74
0
 40
0
 40
0
 40
0
 40
0
 40
1
 40
1
 40
1
 40
1
 10
248.518706
 20
184.707828
 30
0.0
 10
249.497874
 20
185.416164
 30
0.0
 10
249.987458
 20
186.426580
 30
0.0
 10
249.987458
 20
187.739076
 30
0.0
  0
SPLINE
  5
41b
100
AcDbEntity
  8
Layer_1
 62
7
100
AcDbSpline
 70
8
 71
3
 72
8
 73
4
 74
0
 40
0
 40
0
 40
0
 40
0
 40
1
 40
1
 40
1
 40
1
 10
249.987458
 20
187.739076
 30
0.0
 10
249.987458
 20
188.884910
 30
0.0
 10
249.633290
 20
189.780745
 30
0.0
 10
248.924954
 20
190.426580
 30
0.0
  0
SPLINE
  5
41c
100
AcDbEntity
  8
Layer_1
 62
7
100
AcDbSpline
 70
8
 71
3
 72
8
 73
4
 74
0
 40
0
 40
0
 40
0
 40
0
 40
1
 40
1
 40
1
 40
1
 10
248.924954
 20
190.426580
 30
0.0
 10
248.227039
 20
191.072414
 30
0.0
 10
247.075999
 20
191.556790
 30
0.0
 10
245.471834
 20
191.879708
 30
0.0
  0
LWPOLYLINE
  5
41d
100
AcDbEntity
  8
Layer_1
 62
7
100
AcDbPolyline
 90
2
 70
1
 10
236.956202
 20
182.567204
 30
0.0
 10
236.956202
 20
185.817204
 30
0.0
  0
SPLINE
  5
41e
100
AcDbEntity
  8
Layer_1
 62
7
100
AcDbSpline
 70
8
 71
3
 72
8
 73
4
 74
0
 40
0
 40
0
 40
0
 40
0
 40
1
 40
1
 40
1
 40
1
 10
243.549954
 20
192.254708
 30
0.0
 10
241.195788
 20
192.723454
 30
0.0
 10
239.492663
 20
193.457828
 30
0.0
 10
238.440578
 20
194.457828
 30
0.0
  0
SPLINE
  5
41f
100
AcDbEntity
  8
Layer_1
 62
7
100
AcDbSpline
 70
8
 71
3
 72
8
 73
4
 74
0
 40
0
 40
0
 40
0
 40
0
 40
1
 40
1
 40
1
 40
1
 10
238.440578
 20
194.457828
 30
0.0
 10
237.388498
 20
195.457828
 30
0.0
 10
236.862458
 20
196.848454
 30
0.0
 10
236.862458
 20
198.629708
 30
0.0
  0
SPLINE
  5
420
100
AcDbEntity
  8
Layer_1
 62
7
100
AcDbSpline
 70
8
 71
3
 72
8
 73
4
 74
0
 40
0
 40
0
 40
0
 40
0
 40
1
 40
1
 40
1
 40
1
 10
236.862458
 20
198.629708
 30
0.0
 10
236.862458
 20
200.692204
 30
0.0
 10
237.586415
 20
202.317204
 30
0.0
 10
239.034330
 20
203.504708
 30
0.0
  0
SPLINE
  5
421
100
AcDbEntity
  8
Layer_1
 62
7
100
AcDbSpline
 70
8
 71
3
 72
8
 73
4
 74
0
 40
0
 40
0
 40
0
 40
0
 40
1
 40
1
 40
1
 40
1
 10
239.034330
 20
203.504708
 30
0.0
 10
240.492666
 20
204.692206
 30
0.0
 10
242.497874
 20
205.285956
 30
0.0
 10
245.049954
 20
205.285956
 30
0.0
  0
SPLINE
  5
422
100
AcDbEntity
  8
Layer_1
 62
7
100
AcDbSpline
 70
8
 71
3
 72
8
 73
4
 74
0
 40
0
 40
0
 40
0
 40
0
 40
1
 40
1
 40
1
 40
1
 10
245.049954
 20
205.285956
 30
0.0
 10
246.143703
 20
205.285956
 30
0.0
 10
247.258287
 20
205.186996
 30
0.0
 10
248.393706
 20
204.989076
 30
0.0
  0
SPLINE
  5
423
100
AcDbEntity
  8
Layer_1
 62
7
100
AcDbSpline
 70
8
 71
3
 72
8
 73
4
 74
0
 40
0
 40
0
 40
0
 40
0
 40
1
 40
1
 40
1
 40
1
 10
248.393706
 20
204.989076
 30
0.0
 10
249.529124
 20
204.791161
 30
0.0
 10
250.690583
 20
204.494286
 30
0.0
 10
251.878082
 20
204.098452
 30
0.0
  0
LWPOLYLINE
  5
424
100
AcDbEntity
  8
Layer_1
 62
7
100
AcDbPolyline
 90
2
 70
1
 10
245.471834
 20
191.879708
 30
0.0
 10
243.549954
 20
192.254708
 30
0.0
  0
LWPOLYLINE
  5
425
100
AcDbEntity
  8
Layer_1
 62
7
100
AcDbPolyline
 90
2
 70
1
 10
251.878082
 20
204.098452
 30
0.0
 10
251.878082
 20
204.098452
 30
0.0
  0
SPLINE
  5
426
100
AcDbEntity
  8
Layer_1
 62
7
100
AcDbSpline
 70
8
 71
3
 72
8
 73
4
 74
0
 40
0
 40
0
 40
0
 40
0
 40
1
 40
1
 40
1
 40
1
 10
260.924954
 20
196.379708
 30
0.0
 10
261.529119
 20
197.421372
 30
0.0
 10
262.289535
 20
198.192204
 30
0.0
 10
263.206202
 20
198.692204
 30
0.0
  0
SPLINE
  5
427
100
AcDbEntity
  8
Layer_1
 62
7
100
AcDbSpline
 70
8
 71
3
 72
8
 73
4
 74
0
 40
0
 40
0
 40
0
 40
0
 40
1
 40
1
 40
1
 40
1
 10
263.206202
 20
198.692204
 30
0.0
 10
264.133290
 20
199.202620
 30
0.0
 10
265.237458
 20
199.457828
 30
0.0
 10
266.518706
 20
199.457828
 30
0.0
  0
SPLINE
  5
428
100
AcDbEntity
  8
Layer_1
 62
7
100
AcDbSpline
 70
8
 71
3
 72
8
 73
4
 74
0
 40
0
 40
0
 40
0
 40
0
 40
1
 40
1
 40
1
 40
1
 10
266.518706
 20
199.457828
 30
0.0
 10
268.643703
 20
199.457828
 30
0.0
 10
270.367660
 20
198.614078
 30
0.0
 10
271.690578
 20
196.926580
 30
0.0
  0
SPLINE
  5
429
100
AcDbEntity
  8
Layer_1
 62
7
100
AcDbSpline
 70
8
 71
3
 72
8
 73
4
 74
0
 40
0
 40
0
 40
0
 40
0
 40
1
 40
1
 40
1
 40
1
 10
271.690578
 20
196.926580
 30
0.0
 10
273.023911
 20
195.239081
 30
0.0
 10
273.690578
 20
193.020332
 30
0.0
 10
273.690578
 20
190.270332
 30
0.0
  0
SPLINE
  5
42a
100
AcDbEntity
  8
Layer_1
 62
7
100
AcDbSpline
 70
8
 71
3
 72
8
 73
4
 74
0
 40
0
 40
0
 40
0
 40
0
 40
1
 40
1
 40
1
 40
1
 10
273.690578
 20
190.270332
 30
0.0
 10
273.690578
 20
187.520332
 30
0.0
 10
273.023911
 20
185.301580
 30
0.0
 10
271.690578
 20
183.614076
 30
0.0
  0
SPLINE
  5
42b
100
AcDbEntity
  8
Layer_1
 62
7
100
AcDbSpline
 70
8
 71
3
 72
8
 73
4
 74
0
 40
0
 40
0
 40
0
 40
0
 40
1
 40
1
 40
1
 40
1
 10
271.690578
 20
183.614076
 30
0.0
 10
270.367660
 20
181.926577
 30
0.0
 10
268.643703
 20
181.082828
 30
0.0
 10
266.518706
 20
181.082828
 30
0.0
  0
SPLINE
  5
42c
100
AcDbEntity
  8
Layer_1
 62
7
100
AcDbSpline
 70
8
 71
3
 72
8
 73
4
 74
0
 40
0
 40
0
 40
0
 40
0
 40
1
 40
1
 40
1
 40
1
 10
266.518706
 20
181.082828
 30
0.0
 10
265.237458
 20
181.082828
 30
0.0
 10
264.133290
 20
181.332828
 30
0.0
 10
263.206202
 20
181.832828
 30
0.0
  0
SPLINE
  5
42d
100
AcDbEntity
  8
Layer_1
 62
7
100
AcDbSpline
 70
8
 71
3
 72
8
 73
4
 74
0
 40
0
 40
0
 40
0
 40
0
 40
1
 40
1
 40
1
 40
1
 10
263.206202
 20
181.832828
 30
0.0
 10
262.289535
 20
182.343244
 30
0.0
 10
261.529119
 20
183.119286
 30
0.0
 10
260.924954
 20
184.160956
 30
0.0
  0
LWPOLYLINE
  5
42e
100
AcDbEntity
  8
Layer_1
 62
7
100
AcDbPolyline
 90
6
 70
1
 10
260.924954
 20
184.160956
 30
0.0
 10
260.924954
 20
174.879708
 30
0.0
 10
258.034330
 20
174.879708
 30
0.0
 10
258.034330
 20
199.035956
 30
0.0
 10
260.924954
 20
199.035956
 30
0.0
 10
260.924954
 20
196.379708
 30
0.0
  0
SPLINE
  5
42f
100
AcDbEntity
  8
Layer_1
 62
7
100
AcDbSpline
 70
8
 71
3
 72
8
 73
4
 74
0
 40
0
 40
0
 40
0
 40
0
 40
1
 40
1
 40
1
 40
1
 10
270.706202
 20
190.270332
 30
0.0
 10
270.706202
 20
192.384913
 30
0.0
 10
270.268703
 20
194.041161
 30
0.0
 10
269.393706
 20
195.239076
 30
0.0
  0
SPLINE
  5
430
100
AcDbEntity
  8
Layer_1
 62
7
100
AcDbSpline
 70
8
 71
3
 72
8
 73
4
 74
0
 40
0
 40
0
 40
0
 40
0
 40
1
 40
1
 40
1
 40
1
 10
269.393706
 20
195.239076
 30
0.0
 10
268.529124
 20
196.447412
 30
0.0
 10
267.336415
 20
197.051580
 30
0.0
 10
265.815578
 20
197.051580
 30
0.0
  0
SPLINE
  5
431
100
AcDbEntity
  8
Layer_1
 62
7
100
AcDbSpline
 70
8
 71
3
 72
8
 73
4
 74
0
 40
0
 40
0
 40
0
 40
0
 40
1
 40
1
 40
1
 40
1
 10
265.815578
 20
197.051580
 30
0.0
 10
264.294746
 20
197.051580
 30
0.0
 10
263.096831
 20
196.447412
 30
0.0
 10
262.221834
 20
195.239076
 30
0.0
  0
SPLINE
  5
432
100
AcDbEntity
  8
Layer_1
 62
7
100
AcDbSpline
 70
8
 71
3
 72
8
 73
4
 74
0
 40
0
 40
0
 40
0
 40
0
 40
1
 40
1
 40
1
 40
1
 10
262.221834
 20
195.239076
 30
0.0
 10
261.357247
 20
194.041161
 30
0.0
 10
260.924954
 20
192.384913
 30
0.0
 10
260.924954
 20
190.270332
 30
0.0
  0
SPLINE
  5
433
100
AcDbEntity
  8
Layer_1
 62
7
100
AcDbSpline
 70
8
 71
3
 72
8
 73
4
 74
0
 40
0
 40
0
 40
0
 40
0
 40
1
 40
1
 40
1
 40
1
 10
260.924954
 20
190.270332
 30
0.0
 10
260.924954
 20
188.155745
 30
0.0
 10
261.357247
 20
186.494286
 30
0.0
 10
262.221834
 20
185.285956
 30
0.0
  0
SPLINE
  5
434
100
AcDbEntity
  8
Layer_1
 62
7
100
AcDbSpline
 70
8
 71
3
 72
8
 73
4
 74
0
 40
0
 40
0
 40
0
 40
0
 40
1
 40
1
 40
1
 40
1
 10
262.221834
 20
185.285956
 30
0.0
 10
263.096831
 20
184.088036
 30
0.0
 10
264.294746
 20
183.489076
 30
0.0
 10
265.815578
 20
183.489076
 30
0.0
  0
SPLINE
  5
435
100
AcDbEntity
  8
Layer_1
 62
7
100
AcDbSpline
 70
8
 71
3
 72
8
 73
4
 74
0
 40
0
 40
0
 40
0
 40
0
 40
1
 40
1
 40
1
 40
1
 10
265.815578
 20
183.489076
 30
0.0
 10
267.336415
 20
183.489076
 30
0.0
 10
268.529124
 20
184.088036
 30
0.0
 10
269.393706
 20
185.285956
 30
0.0
  0
SPLINE
  5
436
100
AcDbEntity
  8
Layer_1
 62
7
100
AcDbSpline
 70
8
 71
3
 72
8
 73
4
 74
0
 40
0
 40
0
 40
0
 40
0
 40
1
 40
1
 40
1
 40
1
 10
269.393706
 20
185.285956
 30
0.0
 10
270.268703
 20
186.494286
 30
0.0
 10
270.706202
 20
188.155745
 30
0.0
 10
270.706202
 20
190.270332
 30
0.0
  0
LWPOLYLINE
  5
437
100
AcDbEntity
  8
Layer_1
 62
7
100
AcDbPolyline
 90
2
 70
1
 10
260.924954
 20
184.160956
 30
0.0
 10
260.924954
 20
184.160956
 30
0.0
  0
LWPOLYLINE
  5
438
100
AcDbEntity
  8
Layer_1
 62
7
100
AcDbPolyline
 90
2
 70
1
 10
270.706202
 20
190.270332
 30
0.0
 10
270.706202
 20
190.270332
 30
0.0
  0
SPLINE
  5
439
100
AcDbEntity
  8
Layer_1
 62
7
100
AcDbSpline
 70
8
 71
3
 72
8
 73
4
 74
0
 40
0
 40
0
 40
0
 40
0
 40
1
 40
1
 40
1
 40
1
 10
280.206202
 20
189.598452
 30
0.0
 10
280.331204
 20
187.619289
 30
0.0
 10
280.924956
 20
186.108873
 30
0.0
 10
281.987458
 20
185.067204
 30
0.0
  0
SPLINE
  5
43a
100
AcDbEntity
  8
Layer_1
 62
7
100
AcDbSpline
 70
8
 71
3
 72
8
 73
4
 74
0
 40
0
 40
0
 40
0
 40
0
 40
1
 40
1
 40
1
 40
1
 10
281.987458
 20
185.067204
 30
0.0
 10
283.060375
 20
184.035956
 30
0.0
 10
284.549956
 20
183.520332
 30
0.0
 10
286.456202
 20
183.520332
 30
0.0
  0
SPLINE
  5
43b
100
AcDbEntity
  8
Layer_1
 62
7
100
AcDbSpline
 70
8
 71
3
 72
8
 73
4
 74
0
 40
0
 40
0
 40
0
 40
0
 40
1
 40
1
 40
1
 40
1
 10
286.456202
 20
183.520332
 30
0.0
 10
287.560372
 20
183.520332
 30
0.0
 10
288.628082
 20
183.655748
 30
0.0
 10
289.659330
 20
183.926580
 30
0.0
  0
SPLINE
  5
43c
100
AcDbEntity
  8
Layer_1
 62
7
100
AcDbSpline
 70
8
 71
3
 72
8
 73
4
 74
0
 40
0
 40
0
 40
0
 40
0
 40
1
 40
1
 40
1
 40
1
 10
289.659330
 20
183.926580
 30
0.0
 10
290.700999
 20
184.197412
 30
0.0
 10
291.732250
 20
184.603662
 30
0.0
 10
292.753082
 20
185.145332
 30
0.0
  0
LWPOLYLINE
  5
43d
100
AcDbEntity
  8
Layer_1
 62
7
100
AcDbPolyline
 90
3
 70
1
 10
293.424954
 20
191.004708
 30
0.0
 10
293.424954
 20
189.598452
 30
0.0
 10
280.206202
 20
189.598452
 30
0.0
  0
SPLINE
  5
43e
100
AcDbEntity
  8
Layer_1
 62
7
100
AcDbSpline
 70
8
 71
3
 72
8
 73
4
 74
0
 40
0
 40
0
 40
0
 40
0
 40
1
 40
1
 40
1
 40
1
 10
292.753082
 20
182.426580
 30
0.0
 10
291.721828
 20
181.989081
 30
0.0
 10
290.664535
 20
181.655748
 30
0.0
 10
289.581202
 20
181.426580
 30
0.0
  0
SPLINE
  5
43f
100
AcDbEntity
  8
Layer_1
 62
7
100
AcDbSpline
 70
8
 71
3
 72
8
 73
4
 74
0
 40
0
 40
0
 40
0
 40
0
 40
1
 40
1
 40
1
 40
1
 10
289.581202
 20
181.426580
 30
0.0
 10
288.497868
 20
181.197412
 30
0.0
 10
287.398911
 20
181.082828
 30
0.0
 10
286.284330
 20
181.082828
 30
0.0
  0
SPLINE
  5
440
100
AcDbEntity
  8
Layer_1
 62
7
100
AcDbSpline
 70
8
 71
3
 72
8
 73
4
 74
0
 40
0
 40
0
 40
0
 40
0
 40
1
 40
1
 40
1
 40
1
 10
286.284330
 20
181.082828
 30
0.0
 10
283.492666
 20
181.082828
 30
0.0
 10
281.279124
 20
181.895329
 30
0.0
 10
279.643706
 20
183.520332
 30
0.0
  0
SPLINE
  5
441
100
AcDbEntity
  8
Layer_1
 62
7
100
AcDbSpline
 70
8
 71
3
 72
8
 73
4
 74
0
 40
0
 40
0
 40
0
 40
0
 40
1
 40
1
 40
1
 40
1
 10
279.643706
 20
183.520332
 30
0.0
 10
278.018703
 20
185.145329
 30
0.0
 10
277.206202
 20
187.343244
 30
0.0
 10
277.206202
 20
190.114076
 30
0.0
  0
SPLINE
  5
442
100
AcDbEntity
  8
Layer_1
 62
7
100
AcDbSpline
 70
8
 71
3
 72
8
 73
4
 74
0
 40
0
 40
0
 40
0
 40
0
 40
1
 40
1
 40
1
 40
1
 10
277.206202
 20
190.114076
 30
0.0
 10
277.206202
 20
192.978662
 30
0.0
 10
277.977036
 20
195.249497
 30
0.0
 10
279.518706
 20
196.926580
 30
0.0
  0
SPLINE
  5
443
100
AcDbEntity
  8
Layer_1
 62
7
100
AcDbSpline
 70
8
 71
3
 72
8
 73
4
 74
0
 40
0
 40
0
 40
0
 40
0
 40
1
 40
1
 40
1
 40
1
 10
279.518706
 20
196.926580
 30
0.0
 10
281.070791
 20
198.614078
 30
0.0
 10
283.159332
 20
199.457828
 30
0.0
 10
285.784330
 20
199.457828
 30
0.0
  0
SPLINE
  5
444
100
AcDbEntity
  8
Layer_1
 62
7
100
AcDbSpline
 70
8
 71
3
 72
8
 73
4
 74
0
 40
0
 40
0
 40
0
 40
0
 40
1
 40
1
 40
1
 40
1
 10
285.784330
 20
199.457828
 30
0.0
 10
288.138495
 20
199.457828
 30
0.0
 10
289.997871
 20
198.697412
 30
0.0
 10
291.362458
 20
197.176580
 30
0.0
  0
SPLINE
  5
445
100
AcDbEntity
  8
Layer_1
 62
7
100
AcDbSpline
 70
8
 71
3
 72
8
 73
4
 74
0
 40
0
 40
0
 40
0
 40
0
 40
1
 40
1
 40
1
 40
1
 10
291.362458
 20
197.176580
 30
0.0
 10
292.737455
 20
195.666164
 30
0.0
 10
293.424954
 20
193.608873
 30
0.0
 10
293.424954
 20
191.004708
 30
0.0
  0
LWPOLYLINE
  5
446
100
AcDbEntity
  8
Layer_1
 62
7
100
AcDbPolyline
 90
2
 70
1
 10
292.753082
 20
185.145332
 30
0.0
 10
292.753082
 20
182.426580
 30
0.0
  0
SPLINE
  5
447
100
AcDbEntity
  8
Layer_1
 62
7
100
AcDbSpline
 70
8
 71
3
 72
8
 73
4
 74
0
 40
0
 40
0
 40
0
 40
0
 40
1
 40
1
 40
1
 40
1
 10
290.549954
 20
191.848452
 30
0.0
 10
290.529100
 20
193.421369
 30
0.0
 10
290.086394
 20
194.676577
 30
0.0
 10
289.221834
 20
195.614076
 30
0.0
  0
SPLINE
  5
448
100
AcDbEntity
  8
Layer_1
 62
7
100
AcDbSpline
 70
8
 71
3
 72
8
 73
4
 74
0
 40
0
 40
0
 40
0
 40
0
 40
1
 40
1
 40
1
 40
1
 10
289.221834
 20
195.614076
 30
0.0
 10
288.367663
 20
196.551580
 30
0.0
 10
287.232244
 20
197.020332
 30
0.0
 10
285.815578
 20
197.020332
 30
0.0
  0
SPLINE
  5
449
100
AcDbEntity
  8
Layer_1
 62
7
100
AcDbSpline
 70
8
 71
3
 72
8
 73
4
 74
0
 40
0
 40
0
 40
0
 40
0
 40
1
 40
1
 40
1
 40
1
 10
285.815578
 20
197.020332
 30
0.0
 10
284.211412
 20
197.020332
 30
0.0
 10
282.924954
 20
196.567206
 30
0.0
 10
281.956202
 20
195.660956
 30
0.0
  0
SPLINE
  5
44a
100
AcDbEntity
  8
Layer_1
 62
7
100
AcDbSpline
 70
8
 71
3
 72
8
 73
4
 74
0
 40
0
 40
0
 40
0
 40
0
 40
1
 40
1
 40
1
 40
1
 10
281.956202
 20
195.660956
 30
0.0
 10
280.997871
 20
194.754705
 30
0.0
 10
280.445788
 20
193.478662
 30
0.0
 10
280.299954
 20
191.832828
 30
0.0
  0
LWPOLYLINE
  5
44b
100
AcDbEntity
  8
Layer_1
 62
7
100
AcDbPolyline
 90
2
 70
1
 10
293.424954
 20
191.004708
 30
0.0
 10
293.424954
 20
191.004708
 30
0.0
  0
LWPOLYLINE
  5
44c
100
AcDbEntity
  8
Layer_1
 62
7
100
AcDbPolyline
 90
3
 70
1
 10
280.299954
 20
191.832828
 30
0.0
 10
290.549954
 20
191.848428
 30
0.0
 10
290.549954
 20
191.848452
 30
0.0
  0
SPLINE
  5
44d
100
AcDbEntity
  8
Layer_1
 62
7
100
AcDbSpline
 70
8
 71
3
 72
8
 73
4
 74
0
 40
0
 40
0
 40
0
 40
0
 40
1
 40
1
 40
1
 40
1
 10
299.831202
 20
189.598452
 30
0.0
 10
299.956204
 20
187.619289
 30
0.0
 10
300.549956
 20
186.108873
 30
0.0
 10
301.612458
 20
185.067204
 30
0.0
  0
SPLINE
  5
44e
100
AcDbEntity
  8
Layer_1
 62
7
100
AcDbSpline
 70
8
 71
3
 72
8
 73
4
 74
0
 40
0
 40
0
 40
0
 40
0
 40
1
 40
1
 40
1
 40
1
 10
301.612458
 20
185.067204
 30
0.0
 10
302.685375
 20
184.035956
 30
0.0
 10
304.174956
 20
183.520332
 30
0.0
 10
306.081202
 20
183.520332
 30
0.0
  0
SPLINE
  5
44f
100
AcDbEntity
  8
Layer_1
 62
7
100
AcDbSpline
 70
8
 71
3
 72
8
 73
4
 74
0
 40
0
 40
0
 40
0
 40
0
 40
1
 40
1
 40
1
 40
1
 10
306.081202
 20
183.520332
 30
0.0
 10
307.185372
 20
183.520332
 30
0.0
 10
308.253082
 20
183.655748
 30
0.0
 10
309.284330
 20
183.926580
 30
0.0
  0
SPLINE
  5
450
100
AcDbEntity
  8
Layer_1
 62
7
100
AcDbSpline
 70
8
 71
3
 72
8
 73
4
 74
0
 40
0
 40
0
 40
0
 40
0
 40
1
 40
1
 40
1
 40
1
 10
309.284330
 20
183.926580
 30
0.0
 10
310.325999
 20
184.197412
 30
0.0
 10
311.357250
 20
184.603662
 30
0.0
 10
312.378082
 20
185.145332
 30
0.0
  0
LWPOLYLINE
  5
451
100
AcDbEntity
  8
Layer_1
 62
7
100
AcDbPolyline
 90
3
 70
1
 10
313.049954
 20
191.004708
 30
0.0
 10
313.049954
 20
189.598452
 30
0.0
 10
299.831202
 20
189.598452
 30
0.0
  0
SPLINE
  5
452
100
AcDbEntity
  8
Layer_1
 62
7
100
AcDbSpline
 70
8
 71
3
 72
8
 73
4
 74
0
 40
0
 40
0
 40
0
 40
0
 40
1
 40
1
 40
1
 40
1
 10
312.378082
 20
182.426580
 30
0.0
 10
311.346828
 20
181.989081
 30
0.0
 10
310.289535
 20
181.655748
 30
0.0
 10
309.206202
 20
181.426580
 30
0.0
  0
SPLINE
  5
453
100
AcDbEntity
  8
Layer_1
 62
7
100
AcDbSpline
 70
8
 71
3
 72
8
 73
4
 74
0
 40
0
 40
0
 40
0
 40
0
 40
1
 40
1
 40
1
 40
1
 10
309.206202
 20
181.426580
 30
0.0
 10
308.122868
 20
181.197412
 30
0.0
 10
307.023911
 20
181.082828
 30
0.0
 10
305.909330
 20
181.082828
 30
0.0
  0
SPLINE
  5
454
100
AcDbEntity
  8
Layer_1
 62
7
100
AcDbSpline
 70
8
 71
3
 72
8
 73
4
 74
0
 40
0
 40
0
 40
0
 40
0
 40
1
 40
1
 40
1
 40
1
 10
305.909330
 20
181.082828
 30
0.0
 10
303.117666
 20
181.082828
 30
0.0
 10
300.904124
 20
181.895329
 30
0.0
 10
299.268706
 20
183.520332
 30
0.0
  0
SPLINE
  5
455
100
AcDbEntity
  8
Layer_1
 62
7
100
AcDbSpline
 70
8
 71
3
 72
8
 73
4
 74
0
 40
0
 40
0
 40
0
 40
0
 40
1
 40
1
 40
1
 40
1
 10
299.268706
 20
183.520332
 30
0.0
 10
297.643703
 20
185.145329
 30
0.0
 10
296.831202
 20
187.343244
 30
0.0
 10
296.831202
 20
190.114076
 30
0.0
  0
SPLINE
  5
456
100
AcDbEntity
  8
Layer_1
 62
7
100
AcDbSpline
 70
8
 71
3
 72
8
 73
4
 74
0
 40
0
 40
0
 40
0
 40
0
 40
1
 40
1
 40
1
 40
1
 10
296.831202
 20
190.114076
 30
0.0
 10
296.831202
 20
192.978662
 30
0.0
 10
297.602036
 20
195.249497
 30
0.0
 10
299.143706
 20
196.926580
 30
0.0
  0
SPLINE
  5
457
100
AcDbEntity
  8
Layer_1
 62
7
100
AcDbSpline
 70
8
 71
3
 72
8
 73
4
 74
0
 40
0
 40
0
 40
0
 40
0
 40
1
 40
1
 40
1
 40
1
 10
299.143706
 20
196.926580
 30
0.0
 10
300.695791
 20
198.614078
 30
0.0
 10
302.784332
 20
199.457828
 30
0.0
 10
305.409330
 20
199.457828
 30
0.0
  0
SPLINE
  5
458
100
AcDbEntity
  8
Layer_1
 62
7
100
AcDbSpline
 70
8
 71
3
 72
8
 73
4
 74
0
 40
0
 40
0
 40
0
 40
0
 40
1
 40
1
 40
1
 40
1
 10
305.409330
 20
199.457828
 30
0.0
 10
307.763495
 20
199.457828
 30
0.0
 10
309.622871
 20
198.697412
 30
0.0
 10
310.987458
 20
197.176580
 30
0.0
  0
SPLINE
  5
459
100
AcDbEntity
  8
Layer_1
 62
7
100
AcDbSpline
 70
8
 71
3
 72
8
 73
4
 74
0
 40
0
 40
0
 40
0
 40
0
 40
1
 40
1
 40
1
 40
1
 10
310.987458
 20
197.176580
 30
0.0
 10
312.362455
 20
195.666164
 30
0.0
 10
313.049954
 20
193.608873
 30
0.0
 10
313.049954
 20
191.004708
 30
0.0
  0
LWPOLYLINE
  5
45a
100
AcDbEntity
  8
Layer_1
 62
7
100
AcDbPolyline
 90
2
 70
1
 10
312.378082
 20
185.145332
 30
0.0
 10
312.378082
 20
182.426580
 30
0.0
  0
SPLINE
  5
45b
100
AcDbEntity
  8
Layer_1
 62
7
100
AcDbSpline
 70
8
 71
3
 72
8
 73
4
 74
0
 40
0
 40
0
 40
0
 40
0
 40
1
 40
1
 40
1
 40
1
 10
310.174954
 20
191.848452
 30
0.0
 10
310.154100
 20
193.421369
 30
0.0
 10
309.711394
 20
194.676577
 30
0.0
 10
308.846834
 20
195.614076
 30
0.0
  0
SPLINE
  5
45c
100
AcDbEntity
  8
Layer_1
 62
7
100
AcDbSpline
 70
8
 71
3
 72
8
 73
4
 74
0
 40
0
 40
0
 40
0
 40
0
 40
1
 40
1
 40
1
 40
1
 10
308.846834
 20
195.614076
 30
0.0
 10
307.992663
 20
196.551580
 30
0.0
 10
306.857244
 20
197.020332
 30
0.0
 10
305.440578
 20
197.020332
 30
0.0
  0
SPLINE
  5
45d
100
AcDbEntity
  8
Layer_1
 62
7
100
AcDbSpline
 70
8
 71
3
 72
8
 73
4
 74
0
 40
0
 40
0
 40
0
 40
0
 40
1
 40
1
 40
1
 40
1
 10
305.440578
 20
197.020332
 30
0.0
 10
303.836412
 20
197.020332
 30
0.0
 10
302.549954
 20
196.567206
 30
0.0
 10
301.581202
 20
195.660956
 30
0.0
  0
SPLINE
  5
45e
100
AcDbEntity
  8
Layer_1
 62
7
100
AcDbSpline
 70
8
 71
3
 72
8
 73
4
 74
0
 40
0
 40
0
 40
0
 40
0
 40
1
 40
1
 40
1
 40
1
 10
301.581202
 20
195.660956
 30
0.0
 10
300.622871
 20
194.754705
 30
0.0
 10
300.070788
 20
193.478662
 30
0.0
 10
299.924954
 20
191.832828
 30
0.0
  0
LWPOLYLINE
  5
45f
100
AcDbEntity
  8
Layer_1
 62
7
100
AcDbPolyline
 90
2
 70
1
 10
313.049954
 20
191.004708
 30
0.0
 10
313.049954
 20
191.004708
 30
0.0
  0
LWPOLYLINE
  5
460
100
AcDbEntity
  8
Layer_1
 62
7
100
AcDbPolyline
 90
3
 70
1
 10
299.924954
 20
191.832828
 30
0.0
 10
310.174954
 20
191.848428
 30
0.0
 10
310.174954
 20
191.848452
 30
0.0
  0
SPLINE
  5
461
100
AcDbEntity
  8
Layer_1
 62
7
100
AcDbSpline
 70
8
 71
3
 72
8
 73
4
 74
0
 40
0
 40
0
 40
0
 40
0
 40
1
 40
1
 40
1
 40
1
 10
329.221834
 20
184.160956
 30
0.0
 10
328.617663
 20
183.119286
 30
0.0
 10
327.852036
 20
182.343244
 30
0.0
 10
326.924954
 20
181.832828
 30
0.0
  0
SPLINE
  5
462
100
AcDbEntity
  8
Layer_1
 62
7
100
AcDbSpline
 70
8
 71
3
 72
8
 73
4
 74
0
 40
0
 40
0
 40
0
 40
0
 40
1
 40
1
 40
1
 40
1
 10
326.924954
 20
181.832828
 30
0.0
 10
326.008287
 20
181.332828
 30
0.0
 10
324.904122
 20
181.082828
 30
0.0
 10
323.612458
 20
181.082828
 30
0.0
  0
SPLINE
  5
463
100
AcDbEntity
  8
Layer_1
 62
7
100
AcDbSpline
 70
8
 71
3
 72
8
 73
4
 74
0
 40
0
 40
0
 40
0
 40
0
 40
1
 40
1
 40
1
 40
1
 10
323.612458
 20
181.082828
 30
0.0
 10
321.497871
 20
181.082828
 30
0.0
 10
319.773911
 20
181.926577
 30
0.0
 10
318.440578
 20
183.614076
 30
0.0
  0
SPLINE
  5
464
100
AcDbEntity
  8
Layer_1
 62
7
100
AcDbSpline
 70
8
 71
3
 72
8
 73
4
 74
0
 40
0
 40
0
 40
0
 40
0
 40
1
 40
1
 40
1
 40
1
 10
318.440578
 20
183.614076
 30
0.0
 10
317.117660
 20
185.301580
 30
0.0
 10
316.456202
 20
187.520332
 30
0.0
 10
316.456202
 20
190.270332
 30
0.0
  0
SPLINE
  5
465
100
AcDbEntity
  8
Layer_1
 62
7
100
AcDbSpline
 70
8
 71
3
 72
8
 73
4
 74
0
 40
0
 40
0
 40
0
 40
0
 40
1
 40
1
 40
1
 40
1
 10
316.456202
 20
190.270332
 30
0.0
 10
316.456202
 20
193.020332
 30
0.0
 10
317.117660
 20
195.239081
 30
0.0
 10
318.440578
 20
196.926580
 30
0.0
  0
SPLINE
  5
466
100
AcDbEntity
  8
Layer_1
 62
7
100
AcDbSpline
 70
8
 71
3
 72
8
 73
4
 74
0
 40
0
 40
0
 40
0
 40
0
 40
1
 40
1
 40
1
 40
1
 10
318.440578
 20
196.926580
 30
0.0
 10
319.773911
 20
198.614078
 30
0.0
 10
321.497871
 20
199.457828
 30
0.0
 10
323.612458
 20
199.457828
 30
0.0
  0
SPLINE
  5
467
100
AcDbEntity
  8
Layer_1
 62
7
100
AcDbSpline
 70
8
 71
3
 72
8
 73
4
 74
0
 40
0
 40
0
 40
0
 40
0
 40
1
 40
1
 40
1
 40
1
 10
323.612458
 20
199.457828
 30
0.0
 10
324.904122
 20
199.457828
 30
0.0
 10
326.008287
 20
199.202620
 30
0.0
 10
326.924954
 20
198.692204
 30
0.0
  0
SPLINE
  5
468
100
AcDbEntity
  8
Layer_1
 62
7
100
AcDbSpline
 70
8
 71
3
 72
8
 73
4
 74
0
 40
0
 40
0
 40
0
 40
0
 40
1
 40
1
 40
1
 40
1
 10
326.924954
 20
198.692204
 30
0.0
 10
327.852036
 20
198.192204
 30
0.0
 10
328.617663
 20
197.421372
 30
0.0
 10
329.221834
 20
196.379708
 30
0.0
  0
LWPOLYLINE
  5
469
100
AcDbEntity
  8
Layer_1
 62
7
100
AcDbPolyline
 90
6
 70
1
 10
329.221834
 20
196.379708
 30
0.0
 10
329.221834
 20
205.848452
 30
0.0
 10
332.096834
 20
205.848452
 30
0.0
 10
332.096834
 20
181.535956
 30
0.0
 10
329.221834
 20
181.535956
 30
0.0
 10
329.221834
 20
184.160956
 30
0.0
  0
SPLINE
  5
46a
100
AcDbEntity
  8
Layer_1
 62
7
100
AcDbSpline
 70
8
 71
3
 72
8
 73
4
 74
0
 40
0
 40
0
 40
0
 40
0
 40
1
 40
1
 40
1
 40
1
 10
319.424954
 20
190.270332
 30
0.0
 10
319.424954
 20
188.155745
 30
0.0
 10
319.857247
 20
186.494286
 30
0.0
 10
320.721834
 20
185.285956
 30
0.0
  0
SPLINE
  5
46b
100
AcDbEntity
  8
Layer_1
 62
7
100
AcDbSpline
 70
8
 71
3
 72
8
 73
4
 74
0
 40
0
 40
0
 40
0
 40
0
 40
1
 40
1
 40
1
 40
1
 10
320.721834
 20
185.285956
 30
0.0
 10
321.596831
 20
184.088036
 30
0.0
 10
322.794746
 20
183.489076
 30
0.0
 10
324.315578
 20
183.489076
 30
0.0
  0
SPLINE
  5
46c
100
AcDbEntity
  8
Layer_1
 62
7
100
AcDbSpline
 70
8
 71
3
 72
8
 73
4
 74
0
 40
0
 40
0
 40
0
 40
0
 40
1
 40
1
 40
1
 40
1
 10
324.315578
 20
183.489076
 30
0.0
 10
325.836415
 20
183.489076
 30
0.0
 10
327.034332
 20
184.088036
 30
0.0
 10
327.909330
 20
185.285956
 30
0.0
  0
SPLINE
  5
46d
100
AcDbEntity
  8
Layer_1
 62
7
100
AcDbSpline
 70
8
 71
3
 72
8
 73
4
 74
0
 40
0
 40
0
 40
0
 40
0
 40
1
 40
1
 40
1
 40
1
 10
327.909330
 20
185.285956
 30
0.0
 10
328.784332
 20
186.494286
 30
0.0
 10
329.221834
 20
188.155745
 30
0.0
 10
329.221834
 20
190.270332
 30
0.0
  0
SPLINE
  5
46e
100
AcDbEntity
  8
Layer_1
 62
7
100
AcDbSpline
 70
8
 71
3
 72
8
 73
4
 74
0
 40
0
 40
0
 40
0
 40
0
 40
1
 40
1
 40
1
 40
1
 10
329.221834
 20
190.270332
 30
0.0
 10
329.221834
 20
192.384913
 30
0.0
 10
328.784332
 20
194.041161
 30
0.0
 10
327.909330
 20
195.239076
 30
0.0
  0
SPLINE
  5
46f
100
AcDbEntity
  8
Layer_1
 62
7
100
AcDbSpline
 70
8
 71
3
 72
8
 73
4
 74
0
 40
0
 40
0
 40
0
 40
0
 40
1
 40
1
 40
1
 40
1
 10
327.909330
 20
195.239076
 30
0.0
 10
327.034332
 20
196.447412
 30
0.0
 10
325.836415
 20
197.051580
 30
0.0
 10
324.315578
 20
197.051580
 30
0.0
  0
SPLINE
  5
470
100
AcDbEntity
  8
Layer_1
 62
7
100
AcDbSpline
 70
8
 71
3
 72
8
 73
4
 74
0
 40
0
 40
0
 40
0
 40
0
 40
1
 40
1
 40
1
 40
1
 10
324.315578
 20
197.051580
 30
0.0
 10
322.794746
 20
197.051580
 30
0.0
 10
321.596831
 20
196.447412
 30
0.0
 10
320.721834
 20
195.239076
 30
0.0
  0
SPLINE
  5
471
100
AcDbEntity
  8
Layer_1
 62
7
100
AcDbSpline
 70
8
 71
3
 72
8
 73
4
 74
0
 40
0
 40
0
 40
0
 40
0
 40
1
 40
1
 40
1
 40
1
 10
320.721834
 20
195.239076
 30
0.0
 10
319.857247
 20
194.041161
 30
0.0
 10
319.424954
 20
192.384913
 30
0.0
 10
319.424954
 20
190.270332
 30
0.0
  0
LWPOLYLINE
  5
472
100
AcDbEntity
  8
Layer_1
 62
7
100
AcDbPolyline
 90
2
 70
1
 10
329.221834
 20
196.379708
 30
0.0
 10
329.221834
 20
196.379708
 30
0.0
  0
LWPOLYLINE
  5
473
100
AcDbEntity
  8
Layer_1
 62
7
100
AcDbPolyline
 90
2
 70
1
 10
319.424954
 20
190.270332
 30
0.0
 10
319.424954
 20
190.270332
 30
0.0
  0
LWPOLYLINE
  5
474
100
AcDbEntity
  8
Layer_1
 62
7
100
AcDbPolyline
 90
6
 70
1
 10
338.753082
 20
185.504708
 30
0.0
 10
342.049954
 20
185.504708
 30
0.0
 10
342.049954
 20
181.535956
 30
0.0
 10
338.753082
 20
181.535956
 30
0.0
 10
338.753082
 20
185.504708
 30
0.0
 10
338.753082
 20
185.504708
 30
0.0
  0
LWPOLYLINE
  5
475
100
AcDbEntity
  8
Layer_1
 62
7
100
AcDbPolyline
 90
6
 70
1
 10
338.753082
 20
198.082828
 30
0.0
 10
342.049954
 20
198.082828
 30
0.0
 10
342.049954
 20
194.114076
 30
0.0
 10
338.753082
 20
194.114076
 30
0.0
 10
338.753082
 20
198.082828
 30
0.0
 10
338.753082
 20
198.082828
 30
0.0
  0
SPLINE
  5
476
100
AcDbEntity
  8
Layer_1
 62
7
100
AcDbSpline
 70
8
 71
3
 72
8
 73
4
 74
0
 40
0
 40
0
 40
0
 40
0
 40
1
 40
1
 40
1
 40
1
 10
362.346834
 20
196.489076
 30
0.0
 10
362.805164
 20
196.645326
 30
0.0
 10
363.263498
 20
196.759910
 30
0.0
 10
363.721834
 20
196.832828
 30
0.0
  0
SPLINE
  5
477
100
AcDbEntity
  8
Layer_1
 62
7
100
AcDbSpline
 70
8
 71
3
 72
8
 73
4
 74
0
 40
0
 40
0
 40
0
 40
0
 40
1
 40
1
 40
1
 40
1
 10
363.721834
 20
196.832828
 30
0.0
 10
364.180164
 20
196.916161
 30
0.0
 10
364.638498
 20
196.957828
 30
0.0
 10
365.096834
 20
196.957828
 30
0.0
  0
SPLINE
  5
478
100
AcDbEntity
  8
Layer_1
 62
7
100
AcDbSpline
 70
8
 71
3
 72
8
 73
4
 74
0
 40
0
 40
0
 40
0
 40
0
 40
1
 40
1
 40
1
 40
1
 10
365.096834
 20
196.957828
 30
0.0
 10
367.700999
 20
196.957828
 30
0.0
 10
369.763498
 20
196.244286
 30
0.0
 10
371.284330
 20
194.817204
 30
0.0
  0
SPLINE
  5
479
100
AcDbEntity
  8
Layer_1
 62
7
100
AcDbSpline
 70
8
 71
3
 72
8
 73
4
 74
0
 40
0
 40
0
 40
0
 40
0
 40
1
 40
1
 40
1
 40
1
 10
371.284330
 20
194.817204
 30
0.0
 10
372.805162
 20
193.390121
 30
0.0
 10
373.565578
 20
191.457830
 30
0.0
 10
373.565578
 20
189.020332
 30
0.0
  0
SPLINE
  5
47a
100
AcDbEntity
  8
Layer_1
 62
7
100
AcDbSpline
 70
8
 71
3
 72
8
 73
4
 74
0
 40
0
 40
0
 40
0
 40
0
 40
1
 40
1
 40
1
 40
1
 10
373.565578
 20
189.020332
 30
0.0
 10
373.565578
 20
186.509916
 30
0.0
 10
372.784330
 20
184.556790
 30
0.0
 10
371.221834
 20
183.160956
 30
0.0
  0
SPLINE
  5
47b
100
AcDbEntity
  8
Layer_1
 62
7
100
AcDbSpline
 70
8
 71
3
 72
8
 73
4
 74
0
 40
0
 40
0
 40
0
 40
0
 40
1
 40
1
 40
1
 40
1
 10
371.221834
 20
183.160956
 30
0.0
 10
369.659332
 20
181.775537
 30
0.0
 10
367.456207
 20
181.082828
 30
0.0
 10
364.612458
 20
181.082828
 30
0.0
  0
SPLINE
  5
47c
100
AcDbEntity
  8
Layer_1
 62
7
100
AcDbSpline
 70
8
 71
3
 72
8
 73
4
 74
0
 40
0
 40
0
 40
0
 40
0
 40
1
 40
1
 40
1
 40
1
 10
364.612458
 20
181.082828
 30
0.0
 10
363.633290
 20
181.082828
 30
0.0
 10
362.633290
 20
181.166161
 30
0.0
 10
361.612458
 20
181.332828
 30
0.0
  0
SPLINE
  5
47d
100
AcDbEntity
  8
Layer_1
 62
7
100
AcDbSpline
 70
8
 71
3
 72
8
 73
4
 74
0
 40
0
 40
0
 40
0
 40
0
 40
1
 40
1
 40
1
 40
1
 10
361.612458
 20
181.332828
 30
0.0
 10
360.602042
 20
181.499494
 30
0.0
 10
359.555167
 20
181.749494
 30
0.0
 10
358.471834
 20
182.082828
 30
0.0
  0
LWPOLYLINE
  5
47e
100
AcDbEntity
  8
Layer_1
 62
7
100
AcDbPolyline
 90
5
 70
1
 10
359.456202
 20
204.864076
 30
0.0
 10
371.846834
 20
204.864076
 30
0.0
 10
371.846834
 20
202.207828
 30
0.0
 10
362.346834
 20
202.207828
 30
0.0
 10
362.346834
 20
196.489076
 30
0.0
  0
SPLINE
  5
47f
100
AcDbEntity
  8
Layer_1
 62
7
100
AcDbSpline
 70
8
 71
3
 72
8
 73
4
 74
0
 40
0
 40
0
 40
0
 40
0
 40
1
 40
1
 40
1
 40
1
 10
358.471834
 20
185.254708
 30
0.0
 10
359.409332
 20
184.744286
 30
0.0
 10
360.378082
 20
184.364076
 30
0.0
 10
361.378082
 20
184.114076
 30
0.0
  0
SPLINE
  5
480
100
AcDbEntity
  8
Layer_1
 62
7
100
AcDbSpline
 70
8
 71
3
 72
8
 73
4
 74
0
 40
0
 40
0
 40
0
 40
0
 40
1
 40
1
 40
1
 40
1
 10
361.378082
 20
184.114076
 30
0.0
 10
362.378082
 20
183.864076
 30
0.0
 10
363.435372
 20
183.739076
 30
0.0
 10
364.549954
 20
183.739076
 30
0.0
  0
SPLINE
  5
481
100
AcDbEntity
  8
Layer_1
 62
7
100
AcDbSpline
 70
8
 71
3
 72
8
 73
4
 74
0
 40
0
 40
0
 40
0
 40
0
 40
1
 40
1
 40
1
 40
1
 10
364.549954
 20
183.739076
 30
0.0
 10
366.352039
 20
183.739076
 30
0.0
 10
367.779122
 20
184.213036
 30
0.0
 10
368.831202
 20
185.160956
 30
0.0
  0
SPLINE
  5
482
100
AcDbEntity
  8
Layer_1
 62
7
100
AcDbSpline
 70
8
 71
3
 72
8
 73
4
 74
0
 40
0
 40
0
 40
0
 40
0
 40
1
 40
1
 40
1
 40
1
 10
368.831202
 20
185.160956
 30
0.0
 10
369.883287
 20
186.108870
 30
0.0
 10
370.409330
 20
187.395329
 30
0.0
 10
370.409330
 20
189.020332
 30
0.0
  0
SPLINE
  5
483
100
AcDbEntity
  8
Layer_1
 62
7
100
AcDbSpline
 70
8
 71
3
 72
8
 73
4
 74
0
 40
0
 40
0
 40
0
 40
0
 40
1
 40
1
 40
1
 40
1
 10
370.409330
 20
189.020332
 30
0.0
 10
370.409330
 20
190.645329
 30
0.0
 10
369.883287
 20
191.931788
 30
0.0
 10
368.831202
 20
192.879708
 30
0.0
  0
SPLINE
  5
484
100
AcDbEntity
  8
Layer_1
 62
7
100
AcDbSpline
 70
8
 71
3
 72
8
 73
4
 74
0
 40
0
 40
0
 40
0
 40
0
 40
1
 40
1
 40
1
 40
1
 10
368.831202
 20
192.879708
 30
0.0
 10
367.779122
 20
193.827622
 30
0.0
 10
366.352039
 20
194.301580
 30
0.0
 10
364.549954
 20
194.301580
 30
0.0
  0
SPLINE
  5
485
100
AcDbEntity
  8
Layer_1
 62
7
100
AcDbSpline
 70
8
 71
3
 72
8
 73
4
 74
0
 40
0
 40
0
 40
0
 40
0
 40
1
 40
1
 40
1
 40
1
 10
364.549954
 20
194.301580
 30
0.0
 10
363.706204
 20
194.301580
 30
0.0
 10
362.862455
 20
194.207830
 30
0.0
 10
362.018706
 20
194.020332
 30
0.0
  0
SPLINE
  5
486
100
AcDbEntity
  8
Layer_1
 62
7
100
AcDbSpline
 70
8
 71
3
 72
8
 73
4
 74
0
 40
0
 40
0
 40
0
 40
0
 40
1
 40
1
 40
1
 40
1
 10
362.018706
 20
194.020332
 30
0.0
 10
361.185372
 20
193.832828
 30
0.0
 10
360.331204
 20
193.541161
 30
0.0
 10
359.456202
 20
193.145332
 30
0.0
  0
LWPOLYLINE
  5
487
100
AcDbEntity
  8
Layer_1
 62
7
100
AcDbPolyline
 90
2
 70
1
 10
358.471834
 20
182.082828
 30
0.0
 10
358.471834
 20
185.254708
 30
0.0
  0
LWPOLYLINE
  5
488
100
AcDbEntity
  8
Layer_1
 62
7
100
AcDbPolyline
 90
3
 70
1
 10
359.456202
 20
193.145332
 30
0.0
 10
359.456202
 20
204.864076
 30
0.0
 10
359.456202
 20
204.864076
 30
0.0
  0
SPLINE
  5
489
100
AcDbEntity
  8
Layer_1
 62
7
100
AcDbSpline
 70
8
 71
3
 72
8
 73
4
 74
0
 40
0
 40
0
 40
0
 40
0
 40
1
 40
1
 40
1
 40
1
 10
245.018706
 20
153.504708
 30
0.0
 10
246.487458
 20
153.504708
 30
0.0
 10
247.622874
 20
153.884916
 30
0.0
 10
248.424954
 20
154.645332
 30
0.0
  0
SPLINE
  5
48a
100
AcDbEntity
  8
Layer_1
 62
7
100
AcDbSpline
 70
8
 71
3
 72
8
 73
4
 74
0
 40
0
 40
0
 40
0
 40
0
 40
1
 40
1
 40
1
 40
1
 10
248.424954
 20
154.645332
 30
0.0
 10
249.227039
 20
155.405748
 30
0.0
 10
249.628082
 20
156.489081
 30
0.0
 10
249.628082
 20
157.895332
 30
0.0
  0
SPLINE
  5
48b
100
AcDbEntity
  8
Layer_1
 62
7
100
AcDbSpline
 70
8
 71
3
 72
8
 73
4
 74
0
 40
0
 40
0
 40
0
 40
0
 40
1
 40
1
 40
1
 40
1
 10
249.628082
 20
157.895332
 30
0.0
 10
249.628082
 20
159.291161
 30
0.0
 10
249.227039
 20
160.369286
 30
0.0
 10
248.424954
 20
161.129708
 30
0.0
  0
SPLINE
  5
48c
100
AcDbEntity
  8
Layer_1
 62
7
100
AcDbSpline
 70
8
 71
3
 72
8
 73
4
 74
0
 40
0
 40
0
 40
0
 40
0
 40
1
 40
1
 40
1
 40
1
 10
248.424954
 20
161.129708
 30
0.0
 10
247.622874
 20
161.890124
 30
0.0
 10
246.487458
 20
162.270332
 30
0.0
 10
245.018706
 20
162.270332
 30
0.0
  0
LWPOLYLINE
  5
48d
100
AcDbEntity
  8
Layer_1
 62
7
100
AcDbPolyline
 90
3
 70
1
 10
241.049954
 20
162.270332
 30
0.0
 10
241.049954
 20
153.504708
 30
0.0
 10
245.018706
 20
153.504708
 30
0.0
  0
LWPOLYLINE
  5
48e
100
AcDbEntity
  8
Layer_1
 62
7
100
AcDbPolyline
 90
3
 70
1
 10
245.018706
 20
162.270332
 30
0.0
 10
241.049954
 20
162.270332
 30
0.0
 10
241.049954
 20
162.270332
 30
0.0
  0
SPLINE
  5
48f
100
AcDbEntity
  8
Layer_1
 62
7
100
AcDbSpline
 70
8
 71
3
 72
8
 73
4
 74
0
 40
0
 40
0
 40
0
 40
0
 40
1
 40
1
 40
1
 40
1
 10
245.018706
 20
164.864076
 30
0.0
 10
247.633287
 20
164.864076
 30
0.0
 10
249.607244
 20
164.270326
 30
0.0
 10
250.940578
 20
163.082828
 30
0.0
  0
SPLINE
  5
490
100
AcDbEntity
  8
Layer_1
 62
7
100
AcDbSpline
 70
8
 71
3
 72
8
 73
4
 74
0
 40
0
 40
0
 40
0
 40
0
 40
1
 40
1
 40
1
 40
1
 10
250.940578
 20
163.082828
 30
0.0
 10
252.284327
 20
161.905745
 30
0.0
 10
252.956202
 20
160.176580
 30
0.0
 10
252.956202
 20
157.895332
 30
0.0
  0
SPLINE
  5
491
100
AcDbEntity
  8
Layer_1
 62
7
100
AcDbSpline
 70
8
 71
3
 72
8
 73
4
 74
0
 40
0
 40
0
 40
0
 40
0
 40
1
 40
1
 40
1
 40
1
 10
252.956202
 20
157.895332
 30
0.0
 10
252.956202
 20
155.593246
 30
0.0
 10
252.284327
 20
153.853662
 30
0.0
 10
250.940578
 20
152.676580
 30
0.0
  0
SPLINE
  5
492
100
AcDbEntity
  8
Layer_1
 62
7
100
AcDbSpline
 70
8
 71
3
 72
8
 73
4
 74
0
 40
0
 40
0
 40
0
 40
0
 40
1
 40
1
 40
1
 40
1
 10
250.940578
 20
152.676580
 30
0.0
 10
249.607244
 20
151.499497
 30
0.0
 10
247.633287
 20
150.910956
 30
0.0
 10
245.018706
 20
150.910956
 30
0.0
  0
LWPOLYLINE
  5
493
100
AcDbEntity
  8
Layer_1
 62
7
100
AcDbPolyline
 90
2
 70
1
 10
237.893706
 20
164.864076
 30
0.0
 10
245.018706
 20
164.864076
 30
0.0
  0
SPLINE
  5
494
100
AcDbEntity
  8
Layer_1
 62
7
100
AcDbSpline
 70
8
 71
3
 72
8
 73
4
 74
0
 40
0
 40
0
 40
0
 40
0
 40
1
 40
1
 40
1
 40
1
 10
262.737458
 20
157.020332
 30
0.0
 10
261.195788
 20
157.020332
 30
0.0
 10
259.977036
 20
156.416164
 30
0.0
 10
259.081202
 20
155.207828
 30
0.0
  0
SPLINE
  5
495
100
AcDbEntity
  8
Layer_1
 62
7
100
AcDbSpline
 70
8
 71
3
 72
8
 73
4
 74
0
 40
0
 40
0
 40
0
 40
0
 40
1
 40
1
 40
1
 40
1
 10
259.081202
 20
155.207828
 30
0.0
 10
258.185372
 20
154.009913
 30
0.0
 10
257.737458
 20
152.364081
 30
0.0
 10
257.737458
 20
150.270332
 30
0.0
  0
SPLINE
  5
496
100
AcDbEntity
  8
Layer_1
 62
7
100
AcDbSpline
 70
8
 71
3
 72
8
 73
4
 74
0
 40
0
 40
0
 40
0
 40
0
 40
1
 40
1
 40
1
 40
1
 10
257.737458
 20
150.270332
 30
0.0
 10
257.737458
 20
148.176582
 30
0.0
 10
258.180164
 20
146.525540
 30
0.0
 10
259.065578
 20
145.317204
 30
0.0
  0
SPLINE
  5
497
100
AcDbEntity
  8
Layer_1
 62
7
100
AcDbSpline
 70
8
 71
3
 72
8
 73
4
 74
0
 40
0
 40
0
 40
0
 40
0
 40
1
 40
1
 40
1
 40
1
 10
259.065578
 20
145.317204
 30
0.0
 10
259.961412
 20
144.119289
 30
0.0
 10
261.185372
 20
143.520332
 30
0.0
 10
262.737458
 20
143.520332
 30
0.0
  0
SPLINE
  5
498
100
AcDbEntity
  8
Layer_1
 62
7
100
AcDbSpline
 70
8
 71
3
 72
8
 73
4
 74
0
 40
0
 40
0
 40
0
 40
0
 40
1
 40
1
 40
1
 40
1
 10
262.737458
 20
143.520332
 30
0.0
 10
264.268706
 20
143.520332
 30
0.0
 10
265.482247
 20
144.124497
 30
0.0
 10
266.378082
 20
145.332828
 30
0.0
  0
SPLINE
  5
499
100
AcDbEntity
  8
Layer_1
 62
7
100
AcDbSpline
 70
8
 71
3
 72
8
 73
4
 74
0
 40
0
 40
0
 40
0
 40
0
 40
1
 40
1
 40
1
 40
1
 10
266.378082
 20
145.332828
 30
0.0
 10
267.273916
 20
146.541164
 30
0.0
 10
267.721834
 20
148.186998
 30
0.0
 10
267.721834
 20
150.270332
 30
0.0
  0
SPLINE
  5
49a
100
AcDbEntity
  8
Layer_1
 62
7
100
AcDbSpline
 70
8
 71
3
 72
8
 73
4
 74
0
 40
0
 40
0
 40
0
 40
0
 40
1
 40
1
 40
1
 40
1
 10
267.721834
 20
150.270332
 30
0.0
 10
267.721834
 20
152.343249
 30
0.0
 10
267.273916
 20
153.983873
 30
0.0
 10
266.378082
 20
155.192204
 30
0.0
  0
SPLINE
  5
49b
100
AcDbEntity
  8
Layer_1
 62
7
100
AcDbSpline
 70
8
 71
3
 72
8
 73
4
 74
0
 40
0
 40
0
 40
0
 40
0
 40
1
 40
1
 40
1
 40
1
 10
266.378082
 20
155.192204
 30
0.0
 10
265.482247
 20
156.410956
 30
0.0
 10
264.268706
 20
157.020332
 30
0.0
 10
262.737458
 20
157.020332
 30
0.0
  0
LWPOLYLINE
  5
49c
100
AcDbEntity
  8
Layer_1
 62
7
100
AcDbPolyline
 90
6
 70
1
 10
245.018706
 20
150.910956
 30
0.0
 10
241.049954
 20
150.910956
 30
0.0
 10
241.049954
 20
141.535956
 30
0.0
 10
237.893706
 20
141.535956
 30
0.0
 10
237.893706
 20
164.864076
 30
0.0
 10
237.893706
 20
164.864076
 30
0.0
  0
SPLINE
  5
49d
100
AcDbEntity
  8
Layer_1
 62
7
100
AcDbSpline
 70
8
 71
3
 72
8
 73
4
 74
0
 40
0
 40
0
 40
0
 40
0
 40
1
 40
1
 40
1
 40
1
 10
262.737458
 20
159.457828
 30
0.0
 10
265.237458
 20
159.457828
 30
0.0
 10
267.200999
 20
158.645329
 30
0.0
 10
268.628082
 20
157.020332
 30
0.0
  0
SPLINE
  5
49e
100
AcDbEntity
  8
Layer_1
 62
7
100
AcDbSpline
 70
8
 71
3
 72
8
 73
4
 74
0
 40
0
 40
0
 40
0
 40
0
 40
1
 40
1
 40
1
 40
1
 10
268.628082
 20
157.020332
 30
0.0
 10
270.055164
 20
155.395329
 30
0.0
 10
270.768706
 20
153.145329
 30
0.0
 10
270.768706
 20
150.270332
 30
0.0
  0
SPLINE
  5
49f
100
AcDbEntity
  8
Layer_1
 62
7
100
AcDbSpline
 70
8
 71
3
 72
8
 73
4
 74
0
 40
0
 40
0
 40
0
 40
0
 40
1
 40
1
 40
1
 40
1
 10
270.768706
 20
150.270332
 30
0.0
 10
270.768706
 20
147.405745
 30
0.0
 10
270.055164
 20
145.155745
 30
0.0
 10
268.628082
 20
143.520332
 30
0.0
  0
SPLINE
  5
4a0
100
AcDbEntity
  8
Layer_1
 62
7
100
AcDbSpline
 70
8
 71
3
 72
8
 73
4
 74
0
 40
0
 40
0
 40
0
 40
0
 40
1
 40
1
 40
1
 40
1
 10
268.628082
 20
143.520332
 30
0.0
 10
267.200999
 20
141.895329
 30
0.0
 10
265.237458
 20
141.082828
 30
0.0
 10
262.737458
 20
141.082828
 30
0.0
  0
SPLINE
  5
4a1
100
AcDbEntity
  8
Layer_1
 62
7
100
AcDbSpline
 70
8
 71
3
 72
8
 73
4
 74
0
 40
0
 40
0
 40
0
 40
0
 40
1
 40
1
 40
1
 40
1
 10
262.737458
 20
141.082828
 30
0.0
 10
260.227042
 20
141.082828
 30
0.0
 10
258.258290
 20
141.895329
 30
0.0
 10
256.831202
 20
143.520332
 30
0.0
  0
SPLINE
  5
4a2
100
AcDbEntity
  8
Layer_1
 62
7
100
AcDbSpline
 70
8
 71
3
 72
8
 73
4
 74
0
 40
0
 40
0
 40
0
 40
0
 40
1
 40
1
 40
1
 40
1
 10
256.831202
 20
143.520332
 30
0.0
 10
255.414535
 20
145.155745
 30
0.0
 10
254.706202
 20
147.405745
 30
0.0
 10
254.706202
 20
150.270332
 30
0.0
  0
SPLINE
  5
4a3
100
AcDbEntity
  8
Layer_1
 62
7
100
AcDbSpline
 70
8
 71
3
 72
8
 73
4
 74
0
 40
0
 40
0
 40
0
 40
0
 40
1
 40
1
 40
1
 40
1
 10
254.706202
 20
150.270332
 30
0.0
 10
254.706202
 20
153.145329
 30
0.0
 10
255.414535
 20
155.395329
 30
0.0
 10
256.831202
 20
157.020332
 30
0.0
  0
SPLINE
  5
4a4
100
AcDbEntity
  8
Layer_1
 62
7
100
AcDbSpline
 70
8
 71
3
 72
8
 73
4
 74
0
 40
0
 40
0
 40
0
 40
0
 40
1
 40
1
 40
1
 40
1
 10
256.831202
 20
157.020332
 30
0.0
 10
258.258290
 20
158.645329
 30
0.0
 10
260.227042
 20
159.457828
 30
0.0
 10
262.737458
 20
159.457828
 30
0.0
  0
LWPOLYLINE
  5
4a5
100
AcDbEntity
  8
Layer_1
 62
7
100
AcDbPolyline
 90
2
 70
1
 10
262.737458
 20
157.020332
 30
0.0
 10
262.737458
 20
157.020332
 30
0.0
  0
LWPOLYLINE
  5
4a6
100
AcDbEntity
  8
Layer_1
 62
7
100
AcDbPolyline
 90
2
 70
1
 10
262.737458
 20
159.457828
 30
0.0
 10
262.737458
 20
159.457828
 30
0.0
  0
LWPOLYLINE
  5
4a7
100
AcDbEntity
  8
Layer_1
 62
7
100
AcDbPolyline
 90
15
 70
1
 10
273.846834
 20
159.035956
 30
0.0
 10
276.721834
 20
159.035956
 30
0.0
 10
280.315578
 20
145.379708
 30
0.0
 10
283.893706
 20
159.035956
 30
0.0
 10
287.284330
 20
159.035956
 30
0.0
 10
290.878082
 20
145.379708
 30
0.0
 10
294.456202
 20
159.035956
 30
0.0
 10
297.331202
 20
159.035956
 30
0.0
 10
292.753082
 20
141.535956
 30
0.0
 10
289.362458
 20
141.535956
 30
0.0
 10
285.596834
 20
155.879708
 30
0.0
 10
281.815578
 20
141.535956
 30
0.0
 10
278.424954
 20
141.535956
 30
0.0
 10
273.846834
 20
159.035956
 30
0.0
 10
273.846834
 20
159.035956
 30
0.0
  0
SPLINE
  5
4a8
100
AcDbEntity
  8
Layer_1
 62
7
100
AcDbSpline
 70
8
 71
3
 72
8
 73
4
 74
0
 40
0
 40
0
 40
0
 40
0
 40
1
 40
1
 40
1
 40
1
 10
303.456202
 20
149.598452
 30
0.0
 10
303.581204
 20
147.619289
 30
0.0
 10
304.174956
 20
146.108873
 30
0.0
 10
305.237458
 20
145.067204
 30
0.0
  0
SPLINE
  5
4a9
100
AcDbEntity
  8
Layer_1
 62
7
100
AcDbSpline
 70
8
 71
3
 72
8
 73
4
 74
0
 40
0
 40
0
 40
0
 40
0
 40
1
 40
1
 40
1
 40
1
 10
305.237458
 20
145.067204
 30
0.0
 10
306.310375
 20
144.035956
 30
0.0
 10
307.799956
 20
143.520332
 30
0.0
 10
309.706202
 20
143.520332
 30
0.0
  0
SPLINE
  5
4aa
100
AcDbEntity
  8
Layer_1
 62
7
100
AcDbSpline
 70
8
 71
3
 72
8
 73
4
 74
0
 40
0
 40
0
 40
0
 40
0
 40
1
 40
1
 40
1
 40
1
 10
309.706202
 20
143.520332
 30
0.0
 10
310.810372
 20
143.520332
 30
0.0
 10
311.878082
 20
143.655748
 30
0.0
 10
312.909330
 20
143.926580
 30
0.0
  0
SPLINE
  5
4ab
100
AcDbEntity
  8
Layer_1
 62
7
100
AcDbSpline
 70
8
 71
3
 72
8
 73
4
 74
0
 40
0
 40
0
 40
0
 40
0
 40
1
 40
1
 40
1
 40
1
 10
312.909330
 20
143.926580
 30
0.0
 10
313.950999
 20
144.197412
 30
0.0
 10
314.982250
 20
144.603662
 30
0.0
 10
316.003082
 20
145.145332
 30
0.0
  0
LWPOLYLINE
  5
4ac
100
AcDbEntity
  8
Layer_1
 62
7
100
AcDbPolyline
 90
3
 70
1
 10
316.674954
 20
151.004708
 30
0.0
 10
316.674954
 20
149.598452
 30
0.0
 10
303.456202
 20
149.598452
 30
0.0
  0
SPLINE
  5
4ad
100
AcDbEntity
  8
Layer_1
 62
7
100
AcDbSpline
 70
8
 71
3
 72
8
 73
4
 74
0
 40
0
 40
0
 40
0
 40
0
 40
1
 40
1
 40
1
 40
1
 10
316.003082
 20
142.426580
 30
0.0
 10
314.971828
 20
141.989081
 30
0.0
 10
313.914535
 20
141.655748
 30
0.0
 10
312.831202
 20
141.426580
 30
0.0
  0
SPLINE
  5
4ae
100
AcDbEntity
  8
Layer_1
 62
7
100
AcDbSpline
 70
8
 71
3
 72
8
 73
4
 74
0
 40
0
 40
0
 40
0
 40
0
 40
1
 40
1
 40
1
 40
1
 10
312.831202
 20
141.426580
 30
0.0
 10
311.747868
 20
141.197412
 30
0.0
 10
310.648911
 20
141.082828
 30
0.0
 10
309.534330
 20
141.082828
 30
0.0
  0
SPLINE
  5
4af
100
AcDbEntity
  8
Layer_1
 62
7
100
AcDbSpline
 70
8
 71
3
 72
8
 73
4
 74
0
 40
0
 40
0
 40
0
 40
0
 40
1
 40
1
 40
1
 40
1
 10
309.534330
 20
141.082828
 30
0.0
 10
306.742666
 20
141.082828
 30
0.0
 10
304.529124
 20
141.895329
 30
0.0
 10
302.893706
 20
143.520332
 30
0.0
  0
SPLINE
  5
4b0
100
AcDbEntity
  8
Layer_1
 62
7
100
AcDbSpline
 70
8
 71
3
 72
8
 73
4
 74
0
 40
0
 40
0
 40
0
 40
0
 40
1
 40
1
 40
1
 40
1
 10
302.893706
 20
143.520332
 30
0.0
 10
301.268703
 20
145.145329
 30
0.0
 10
300.456202
 20
147.343244
 30
0.0
 10
300.456202
 20
150.114076
 30
0.0
  0
SPLINE
  5
4b1
100
AcDbEntity
  8
Layer_1
 62
7
100
AcDbSpline
 70
8
 71
3
 72
8
 73
4
 74
0
 40
0
 40
0
 40
0
 40
0
 40
1
 40
1
 40
1
 40
1
 10
300.456202
 20
150.114076
 30
0.0
 10
300.456202
 20
152.978662
 30
0.0
 10
301.227036
 20
155.249497
 30
0.0
 10
302.768706
 20
156.926580
 30
0.0
  0
SPLINE
  5
4b2
100
AcDbEntity
  8
Layer_1
 62
7
100
AcDbSpline
 70
8
 71
3
 72
8
 73
4
 74
0
 40
0
 40
0
 40
0
 40
0
 40
1
 40
1
 40
1
 40
1
 10
302.768706
 20
156.926580
 30
0.0
 10
304.320791
 20
158.614078
 30
0.0
 10
306.409332
 20
159.457828
 30
0.0
 10
309.034330
 20
159.457828
 30
0.0
  0
SPLINE
  5
4b3
100
AcDbEntity
  8
Layer_1
 62
7
100
AcDbSpline
 70
8
 71
3
 72
8
 73
4
 74
0
 40
0
 40
0
 40
0
 40
0
 40
1
 40
1
 40
1
 40
1
 10
309.034330
 20
159.457828
 30
0.0
 10
311.388495
 20
159.457828
 30
0.0
 10
313.247871
 20
158.697412
 30
0.0
 10
314.612458
 20
157.176580
 30
0.0
  0
SPLINE
  5
4b4
100
AcDbEntity
  8
Layer_1
 62
7
100
AcDbSpline
 70
8
 71
3
 72
8
 73
4
 74
0
 40
0
 40
0
 40
0
 40
0
 40
1
 40
1
 40
1
 40
1
 10
314.612458
 20
157.176580
 30
0.0
 10
315.987455
 20
155.666164
 30
0.0
 10
316.674954
 20
153.608873
 30
0.0
 10
316.674954
 20
151.004708
 30
0.0
  0
LWPOLYLINE
  5
4b5
100
AcDbEntity
  8
Layer_1
 62
7
100
AcDbPolyline
 90
2
 70
1
 10
316.003082
 20
145.145332
 30
0.0
 10
316.003082
 20
142.426580
 30
0.0
  0
SPLINE
  5
4b6
100
AcDbEntity
  8
Layer_1
 62
7
100
AcDbSpline
 70
8
 71
3
 72
8
 73
4
 74
0
 40
0
 40
0
 40
0
 40
0
 40
1
 40
1
 40
1
 40
1
 10
313.799954
 20
151.848452
 30
0.0
 10
313.779100
 20
153.421369
 30
0.0
 10
313.336394
 20
154.676577
 30
0.0
 10
312.471834
 20
155.614076
 30
0.0
  0
SPLINE
  5
4b7
100
AcDbEntity
  8
Layer_1
 62
7
100
AcDbSpline
 70
8
 71
3
 72
8
 73
4
 74
0
 40
0
 40
0
 40
0
 40
0
 40
1
 40
1
 40
1
 40
1
 10
312.471834
 20
155.614076
 30
0.0
 10
311.617663
 20
156.551580
 30
0.0
 10
310.482244
 20
157.020332
 30
0.0
 10
309.065578
 20
157.020332
 30
0.0
  0
SPLINE
  5
4b8
100
AcDbEntity
  8
Layer_1
 62
7
100
AcDbSpline
 70
8
 71
3
 72
8
 73
4
 74
0
 40
0
 40
0
 40
0
 40
0
 40
1
 40
1
 40
1
 40
1
 10
309.065578
 20
157.020332
 30
0.0
 10
307.461412
 20
157.020332
 30
0.0
 10
306.174954
 20
156.567206
 30
0.0
 10
305.206202
 20
155.660956
 30
0.0
  0
SPLINE
  5
4b9
100
AcDbEntity
  8
Layer_1
 62
7
100
AcDbSpline
 70
8
 71
3
 72
8
 73
4
 74
0
 40
0
 40
0
 40
0
 40
0
 40
1
 40
1
 40
1
 40
1
 10
305.206202
 20
155.660956
 30
0.0
 10
304.247871
 20
154.754705
 30
0.0
 10
303.695788
 20
153.478662
 30
0.0
 10
303.549954
 20
151.832828
 30
0.0
  0
LWPOLYLINE
  5
4ba
100
AcDbEntity
  8
Layer_1
 62
7
100
AcDbPolyline
 90
2
 70
1
 10
316.674954
 20
151.004708
 30
0.0
 10
316.674954
 20
151.004708
 30
0.0
  0
SPLINE
  5
4bb
100
AcDbEntity
  8
Layer_1
 62
7
100
AcDbSpline
 70
8
 71
3
 72
8
 73
4
 74
0
 40
0
 40
0
 40
0
 40
0
 40
1
 40
1
 40
1
 40
1
 10
331.471834
 20
156.348452
 30
0.0
 10
331.148916
 20
156.535956
 30
0.0
 10
330.794748
 20
156.671374
 30
0.0
 10
330.409330
 20
156.754708
 30
0.0
  0
SPLINE
  5
4bc
100
AcDbEntity
  8
Layer_1
 62
7
100
AcDbSpline
 70
8
 71
3
 72
8
 73
4
 74
0
 40
0
 40
0
 40
0
 40
0
 40
1
 40
1
 40
1
 40
1
 10
330.409330
 20
156.754708
 30
0.0
 10
330.034332
 20
156.848457
 30
0.0
 10
329.617666
 20
156.895332
 30
0.0
 10
329.159330
 20
156.895332
 30
0.0
  0
SPLINE
  5
4bd
100
AcDbEntity
  8
Layer_1
 62
7
100
AcDbSpline
 70
8
 71
3
 72
8
 73
4
 74
0
 40
0
 40
0
 40
0
 40
0
 40
1
 40
1
 40
1
 40
1
 10
329.159330
 20
156.895332
 30
0.0
 10
327.534332
 20
156.895332
 30
0.0
 10
326.284332
 20
156.364081
 30
0.0
 10
325.409330
 20
155.301580
 30
0.0
  0
SPLINE
  5
4be
100
AcDbEntity
  8
Layer_1
 62
7
100
AcDbSpline
 70
8
 71
3
 72
8
 73
4
 74
0
 40
0
 40
0
 40
0
 40
0
 40
1
 40
1
 40
1
 40
1
 10
325.409330
 20
155.301580
 30
0.0
 10
324.544748
 20
154.249494
 30
0.0
 10
324.112458
 20
152.733870
 30
0.0
 10
324.112458
 20
150.754708
 30
0.0
  0
LWPOLYLINE
  5
4bf
100
AcDbEntity
  8
Layer_1
 62
7
100
AcDbPolyline
 90
3
 70
1
 10
303.549954
 20
151.832828
 30
0.0
 10
313.799954
 20
151.848428
 30
0.0
 10
313.799954
 20
151.848452
 30
0.0
  0
SPLINE
  5
4c0
100
AcDbEntity
  8
Layer_1
 62
7
100
AcDbSpline
 70
8
 71
3
 72
8
 73
4
 74
0
 40
0
 40
0
 40
0
 40
0
 40
1
 40
1
 40
1
 40
1
 10
324.112458
 20
156.317204
 30
0.0
 10
324.716623
 20
157.379705
 30
0.0
 10
325.503082
 20
158.166164
 30
0.0
 10
326.471834
 20
158.676580
 30
0.0
  0
SPLINE
  5
4c1
100
AcDbEntity
  8
Layer_1
 62
7
100
AcDbSpline
 70
8
 71
3
 72
8
 73
4
 74
0
 40
0
 40
0
 40
0
 40
0
 40
1
 40
1
 40
1
 40
1
 10
326.471834
 20
158.676580
 30
0.0
 10
327.440580
 20
159.197412
 30
0.0
 10
328.617663
 20
159.457828
 30
0.0
 10
330.003082
 20
159.457828
 30
0.0
  0
SPLINE
  5
4c2
100
AcDbEntity
  8
Layer_1
 62
7
100
AcDbSpline
 70
8
 71
3
 72
8
 73
4
 74
0
 40
0
 40
0
 40
0
 40
0
 40
1
 40
1
 40
1
 40
1
 10
330.003082
 20
159.457828
 30
0.0
 10
330.200996
 20
159.457828
 30
0.0
 10
330.419746
 20
159.442201
 30
0.0
 10
330.659330
 20
159.410948
 30
0.0
  0
SPLINE
  5
4c3
100
AcDbEntity
  8
Layer_1
 62
7
100
AcDbSpline
 70
8
 71
3
 72
8
 73
4
 74
0
 40
0
 40
0
 40
0
 40
0
 40
1
 40
1
 40
1
 40
1
 10
330.659330
 20
159.410948
 30
0.0
 10
330.898914
 20
159.390094
 30
0.0
 10
331.164538
 20
159.353636
 30
0.0
 10
331.456202
 20
159.301572
 30
0.0
  0
LWPOLYLINE
  5
4c4
100
AcDbEntity
  8
Layer_1
 62
7
100
AcDbPolyline
 90
6
 70
1
 10
324.112458
 20
150.754708
 30
0.0
 10
324.112458
 20
141.535956
 30
0.0
 10
321.221834
 20
141.535956
 30
0.0
 10
321.221834
 20
159.035956
 30
0.0
 10
324.112458
 20
159.035956
 30
0.0
 10
324.112458
 20
156.317204
 30
0.0
  0
LWPOLYLINE
  5
4c5
100
AcDbEntity
  8
Layer_1
 62
7
100
AcDbPolyline
 90
3
 70
1
 10
331.456202
 20
159.301572
 30
0.0
 10
331.471802
 20
156.348444
 30
0.0
 10
331.471834
 20
156.348452
 30
0.0
  0
LWPOLYLINE
  5
4c6
100
AcDbEntity
  8
Layer_1
 62
7
100
AcDbPolyline
 90
6
 70
1
 10
334.721834
 20
145.504708
 30
0.0
 10
338.018706
 20
145.504708
 30
0.0
 10
338.018706
 20
141.535956
 30
0.0
 10
334.721834
 20
141.535956
 30
0.0
 10
334.721834
 20
145.504708
 30
0.0
 10
334.721834
 20
145.504708
 30
0.0
  0
SPLINE
  5
4c7
100
AcDbEntity
  8
Layer_1
 62
7
100
AcDbSpline
 70
8
 71
3
 72
8
 73
4
 74
0
 40
0
 40
0
 40
0
 40
0
 40
1
 40
1
 40
1
 40
1
 10
362.565578
 20
154.457828
 30
0.0
 10
361.148911
 20
154.457828
 30
0.0
 10
360.023911
 20
153.973454
 30
0.0
 10
359.190578
 20
153.004708
 30
0.0
  0
SPLINE
  5
4c8
100
AcDbEntity
  8
Layer_1
 62
7
100
AcDbSpline
 70
8
 71
3
 72
8
 73
4
 74
0
 40
0
 40
0
 40
0
 40
0
 40
1
 40
1
 40
1
 40
1
 10
359.190578
 20
153.004708
 30
0.0
 10
358.367660
 20
152.035956
 30
0.0
 10
357.956202
 20
150.707830
 30
0.0
 10
357.956202
 20
149.020332
 30
0.0
  0
SPLINE
  5
4c9
100
AcDbEntity
  8
Layer_1
 62
7
100
AcDbSpline
 70
8
 71
3
 72
8
 73
4
 74
0
 40
0
 40
0
 40
0
 40
0
 40
1
 40
1
 40
1
 40
1
 10
357.956202
 20
149.020332
 30
0.0
 10
357.956202
 20
147.343249
 30
0.0
 10
358.367660
 20
146.015124
 30
0.0
 10
359.190578
 20
145.035956
 30
0.0
  0
SPLINE
  5
4ca
100
AcDbEntity
  8
Layer_1
 62
7
100
AcDbSpline
 70
8
 71
3
 72
8
 73
4
 74
0
 40
0
 40
0
 40
0
 40
0
 40
1
 40
1
 40
1
 40
1
 10
359.190578
 20
145.035956
 30
0.0
 10
360.023911
 20
144.067204
 30
0.0
 10
361.148911
 20
143.582828
 30
0.0
 10
362.565578
 20
143.582828
 30
0.0
  0
SPLINE
  5
4cb
100
AcDbEntity
  8
Layer_1
 62
7
100
AcDbSpline
 70
8
 71
3
 72
8
 73
4
 74
0
 40
0
 40
0
 40
0
 40
0
 40
1
 40
1
 40
1
 40
1
 10
362.565578
 20
143.582828
 30
0.0
 10
363.982244
 20
143.582828
 30
0.0
 10
365.102036
 20
144.067204
 30
0.0
 10
365.924954
 20
145.035956
 30
0.0
  0
SPLINE
  5
4cc
100
AcDbEntity
  8
Layer_1
 62
7
100
AcDbSpline
 70
8
 71
3
 72
8
 73
4
 74
0
 40
0
 40
0
 40
0
 40
0
 40
1
 40
1
 40
1
 40
1
 10
365.924954
 20
145.035956
 30
0.0
 10
366.758287
 20
146.015124
 30
0.0
 10
367.174954
 20
147.343249
 30
0.0
 10
367.174954
 20
149.020332
 30
0.0
  0
SPLINE
  5
4cd
100
AcDbEntity
  8
Layer_1
 62
7
100
AcDbSpline
 70
8
 71
3
 72
8
 73
4
 74
0
 40
0
 40
0
 40
0
 40
0
 40
1
 40
1
 40
1
 40
1
 10
367.174954
 20
149.020332
 30
0.0
 10
367.174954
 20
150.707830
 30
0.0
 10
366.758287
 20
152.035956
 30
0.0
 10
365.924954
 20
153.004708
 30
0.0
  0
SPLINE
  5
4ce
100
AcDbEntity
  8
Layer_1
 62
7
100
AcDbSpline
 70
8
 71
3
 72
8
 73
4
 74
0
 40
0
 40
0
 40
0
 40
0
 40
1
 40
1
 40
1
 40
1
 10
365.924954
 20
153.004708
 30
0.0
 10
365.102036
 20
153.973454
 30
0.0
 10
363.982244
 20
154.457828
 30
0.0
 10
362.565578
 20
154.457828
 30
0.0
  0
LWPOLYLINE
  5
4cf
100
AcDbEntity
  8
Layer_1
 62
7
100
AcDbPolyline
 90
6
 70
1
 10
334.721834
 20
158.082828
 30
0.0
 10
338.018706
 20
158.082828
 30
0.0
 10
338.018706
 20
154.114076
 30
0.0
 10
334.721834
 20
154.114076
 30
0.0
 10
334.721834
 20
158.082828
 30
0.0
 10
334.721834
 20
158.082828
 30
0.0
  0
LWPOLYLINE
  5
4d0
100
AcDbEntity
  8
Layer_1
 62
7
100
AcDbPolyline
 90
2
 70
1
 10
362.565578
 20
154.457828
 30
0.0
 10
362.565578
 20
154.457828
 30
0.0
  0
SPLINE
  5
4d1
100
AcDbEntity
  8
Layer_1
 62
7
100
AcDbSpline
 70
8
 71
3
 72
8
 73
4
 74
0
 40
0
 40
0
 40
0
 40
0
 40
1
 40
1
 40
1
 40
1
 10
368.831202
 20
161.473452
 30
0.0
 10
368.039538
 20
161.848454
 30
0.0
 10
367.237455
 20
162.134913
 30
0.0
 10
366.424954
 20
162.332828
 30
0.0
  0
SPLINE
  5
4d2
100
AcDbEntity
  8
Layer_1
 62
7
100
AcDbSpline
 70
8
 71
3
 72
8
 73
4
 74
0
 40
0
 40
0
 40
0
 40
0
 40
1
 40
1
 40
1
 40
1
 10
366.424954
 20
162.332828
 30
0.0
 10
365.622874
 20
162.530748
 30
0.0
 10
364.825999
 20
162.629708
 30
0.0
 10
364.034330
 20
162.629708
 30
0.0
  0
SPLINE
  5
4d3
100
AcDbEntity
  8
Layer_1
 62
7
100
AcDbSpline
 70
8
 71
3
 72
8
 73
4
 74
0
 40
0
 40
0
 40
0
 40
0
 40
1
 40
1
 40
1
 40
1
 10
364.034330
 20
162.629708
 30
0.0
 10
361.950996
 20
162.629708
 30
0.0
 10
360.357247
 20
161.926582
 30
0.0
 10
359.253082
 20
160.520332
 30
0.0
  0
SPLINE
  5
4d4
100
AcDbEntity
  8
Layer_1
 62
7
100
AcDbSpline
 70
8
 71
3
 72
8
 73
4
 74
0
 40
0
 40
0
 40
0
 40
0
 40
1
 40
1
 40
1
 40
1
 10
359.253082
 20
160.520332
 30
0.0
 10
358.159332
 20
159.114081
 30
0.0
 10
357.534332
 20
156.989081
 30
0.0
 10
357.378082
 20
154.145332
 30
0.0
  0
SPLINE
  5
4d5
100
AcDbEntity
  8
Layer_1
 62
7
100
AcDbSpline
 70
8
 71
3
 72
8
 73
4
 74
0
 40
0
 40
0
 40
0
 40
0
 40
1
 40
1
 40
1
 40
1
 10
357.378082
 20
154.145332
 30
0.0
 10
357.992663
 20
155.051582
 30
0.0
 10
358.763495
 20
155.744289
 30
0.0
 10
359.690578
 20
156.223452
 30
0.0
  0
SPLINE
  5
4d6
100
AcDbEntity
  8
Layer_1
 62
7
100
AcDbSpline
 70
8
 71
3
 72
8
 73
4
 74
0
 40
0
 40
0
 40
0
 40
0
 40
1
 40
1
 40
1
 40
1
 10
359.690578
 20
156.223452
 30
0.0
 10
360.617660
 20
156.713036
 30
0.0
 10
361.638495
 20
156.957828
 30
0.0
 10
362.753082
 20
156.957828
 30
0.0
  0
SPLINE
  5
4d7
100
AcDbEntity
  8
Layer_1
 62
7
100
AcDbSpline
 70
8
 71
3
 72
8
 73
4
 74
0
 40
0
 40
0
 40
0
 40
0
 40
1
 40
1
 40
1
 40
1
 10
362.753082
 20
156.957828
 30
0.0
 10
365.096831
 20
156.957828
 30
0.0
 10
366.945788
 20
156.244286
 30
0.0
 10
368.299954
 20
154.817204
 30
0.0
  0
SPLINE
  5
4d8
100
AcDbEntity
  8
Layer_1
 62
7
100
AcDbSpline
 70
8
 71
3
 72
8
 73
4
 74
0
 40
0
 40
0
 40
0
 40
0
 40
1
 40
1
 40
1
 40
1
 10
368.299954
 20
154.817204
 30
0.0
 10
369.664540
 20
153.400537
 30
0.0
 10
370.346834
 20
151.468246
 30
0.0
 10
370.346834
 20
149.020332
 30
0.0
  0
SPLINE
  5
4d9
100
AcDbEntity
  8
Layer_1
 62
7
100
AcDbSpline
 70
8
 71
3
 72
8
 73
4
 74
0
 40
0
 40
0
 40
0
 40
0
 40
1
 40
1
 40
1
 40
1
 10
370.346834
 20
149.020332
 30
0.0
 10
370.346834
 20
146.624497
 30
0.0
 10
369.638500
 20
144.702622
 30
0.0
 10
368.221834
 20
143.254708
 30
0.0
  0
SPLINE
  5
4da
100
AcDbEntity
  8
Layer_1
 62
7
100
AcDbSpline
 70
8
 71
3
 72
8
 73
4
 74
0
 40
0
 40
0
 40
0
 40
0
 40
1
 40
1
 40
1
 40
1
 10
368.221834
 20
143.254708
 30
0.0
 10
366.805167
 20
141.806788
 30
0.0
 10
364.919748
 20
141.082828
 30
0.0
 10
362.565578
 20
141.082828
 30
0.0
  0
SPLINE
  5
4db
100
AcDbEntity
  8
Layer_1
 62
7
100
AcDbSpline
 70
8
 71
3
 72
8
 73
4
 74
0
 40
0
 40
0
 40
0
 40
0
 40
1
 40
1
 40
1
 40
1
 10
362.565578
 20
141.082828
 30
0.0
 10
359.867663
 20
141.082828
 30
0.0
 10
357.805164
 20
142.114078
 30
0.0
 10
356.378082
 20
144.176580
 30
0.0
  0
SPLINE
  5
4dc
100
AcDbEntity
  8
Layer_1
 62
7
100
AcDbSpline
 70
8
 71
3
 72
8
 73
4
 74
0
 40
0
 40
0
 40
0
 40
0
 40
1
 40
1
 40
1
 40
1
 10
356.378082
 20
144.176580
 30
0.0
 10
354.950999
 20
146.249497
 30
0.0
 10
354.237458
 20
149.249497
 30
0.0
 10
354.237458
 20
153.176580
 30
0.0
  0
SPLINE
  5
4dd
100
AcDbEntity
  8
Layer_1
 62
7
100
AcDbSpline
 70
8
 71
3
 72
8
 73
4
 74
0
 40
0
 40
0
 40
0
 40
0
 40
1
 40
1
 40
1
 40
1
 10
354.237458
 20
153.176580
 30
0.0
 10
354.237458
 20
156.864078
 30
0.0
 10
355.112458
 20
159.801577
 30
0.0
 10
356.862458
 20
161.989076
 30
0.0
  0
SPLINE
  5
4de
100
AcDbEntity
  8
Layer_1
 62
7
100
AcDbSpline
 70
8
 71
3
 72
8
 73
4
 74
0
 40
0
 40
0
 40
0
 40
0
 40
1
 40
1
 40
1
 40
1
 10
356.862458
 20
161.989076
 30
0.0
 10
358.612458
 20
164.186996
 30
0.0
 10
360.961415
 20
165.285956
 30
0.0
 10
363.909330
 20
165.285956
 30
0.0
  0
SPLINE
  5
4df
100
AcDbEntity
  8
Layer_1
 62
7
100
AcDbSpline
 70
8
 71
3
 72
8
 73
4
 74
0
 40
0
 40
0
 40
0
 40
0
 40
1
 40
1
 40
1
 40
1
 10
363.909330
 20
165.285956
 30
0.0
 10
364.700999
 20
165.285956
 30
0.0
 10
365.497874
 20
165.207830
 30
0.0
 10
366.299954
 20
165.051580
 30
0.0
  0
SPLINE
  5
4e0
100
AcDbEntity
  8
Layer_1
 62
7
100
AcDbSpline
 70
8
 71
3
 72
8
 73
4
 74
0
 40
0
 40
0
 40
0
 40
0
 40
1
 40
1
 40
1
 40
1
 10
366.299954
 20
165.051580
 30
0.0
 10
367.112455
 20
164.895329
 30
0.0
 10
367.956204
 20
164.660953
 30
0.0
 10
368.831202
 20
164.348452
 30
0.0
  0
LWPOLYLINE
  5
4e1
100
AcDbEntity
  8
Layer_1
 62
7
100
AcDbPolyline
 90
2
 70
1
 10
368.831202
 20
164.348452
 30
0.0
 10
368.831202
 20
161.473452
 30
0.0
  0
SPLINE
  5
4e2
100
AcDbEntity
  8
Layer_1
 62
7
100
AcDbSpline
 70
8
 71
3
 72
8
 73
4
 74
0
 40
0
 40
0
 40
0
 40
0
 40
1
 40
1
 40
1
 40
1
 10
382.549954
 20
162.785956
 30
0.0
 10
380.924956
 20
162.785956
 30
0.0
 10
379.700999
 20
161.983873
 30
0.0
 10
378.878082
 20
160.379708
 30
0.0
  0
SPLINE
  5
4e3
100
AcDbEntity
  8
Layer_1
 62
7
100
AcDbSpline
 70
8
 71
3
 72
8
 73
4
 74
0
 40
0
 40
0
 40
0
 40
0
 40
1
 40
1
 40
1
 40
1
 10
378.878082
 20
160.379708
 30
0.0
 10
378.065580
 20
158.785953
 30
0.0
 10
377.659330
 20
156.384910
 30
0.0
 10
377.659330
 20
153.176580
 30
0.0
  0
SPLINE
  5
4e4
100
AcDbEntity
  8
Layer_1
 62
7
100
AcDbSpline
 70
8
 71
3
 72
8
 73
4
 74
0
 40
0
 40
0
 40
0
 40
0
 40
1
 40
1
 40
1
 40
1
 10
377.659330
 20
153.176580
 30
0.0
 10
377.659330
 20
149.978665
 30
0.0
 10
378.065580
 20
147.577622
 30
0.0
 10
378.878082
 20
145.973452
 30
0.0
  0
SPLINE
  5
4e5
100
AcDbEntity
  8
Layer_1
 62
7
100
AcDbSpline
 70
8
 71
3
 72
8
 73
4
 74
0
 40
0
 40
0
 40
0
 40
0
 40
1
 40
1
 40
1
 40
1
 10
378.878082
 20
145.973452
 30
0.0
 10
379.700999
 20
144.379702
 30
0.0
 10
380.924956
 20
143.582828
 30
0.0
 10
382.549954
 20
143.582828
 30
0.0
  0
SPLINE
  5
4e6
100
AcDbEntity
  8
Layer_1
 62
7
100
AcDbSpline
 70
8
 71
3
 72
8
 73
4
 74
0
 40
0
 40
0
 40
0
 40
0
 40
1
 40
1
 40
1
 40
1
 10
382.549954
 20
143.582828
 30
0.0
 10
384.185372
 20
143.582828
 30
0.0
 10
385.409332
 20
144.379702
 30
0.0
 10
386.221834
 20
145.973452
 30
0.0
  0
SPLINE
  5
4e7
100
AcDbEntity
  8
Layer_1
 62
7
100
AcDbSpline
 70
8
 71
3
 72
8
 73
4
 74
0
 40
0
 40
0
 40
0
 40
0
 40
1
 40
1
 40
1
 40
1
 10
386.221834
 20
145.973452
 30
0.0
 10
387.044746
 20
147.577622
 30
0.0
 10
387.456202
 20
149.978665
 30
0.0
 10
387.456202
 20
153.176580
 30
0.0
  0
SPLINE
  5
4e8
100
AcDbEntity
  8
Layer_1
 62
7
100
AcDbSpline
 70
8
 71
3
 72
8
 73
4
 74
0
 40
0
 40
0
 40
0
 40
0
 40
1
 40
1
 40
1
 40
1
 10
387.456202
 20
153.176580
 30
0.0
 10
387.456202
 20
156.384910
 30
0.0
 10
387.044746
 20
158.785953
 30
0.0
 10
386.221834
 20
160.379708
 30
0.0
  0
SPLINE
  5
4e9
100
AcDbEntity
  8
Layer_1
 62
7
100
AcDbSpline
 70
8
 71
3
 72
8
 73
4
 74
0
 40
0
 40
0
 40
0
 40
0
 40
1
 40
1
 40
1
 40
1
 10
386.221834
 20
160.379708
 30
0.0
 10
385.409332
 20
161.983873
 30
0.0
 10
384.185372
 20
162.785956
 30
0.0
 10
382.549954
 20
162.785956
 30
0.0
  0
LWPOLYLINE
  5
4ea
100
AcDbEntity
  8
Layer_1
 62
7
100
AcDbPolyline
 90
2
 70
1
 10
368.831202
 20
164.348452
 30
0.0
 10
368.831202
 20
164.348452
 30
0.0
  0
SPLINE
  5
4eb
100
AcDbEntity
  8
Layer_1
 62
7
100
AcDbSpline
 70
8
 71
3
 72
8
 73
4
 74
0
 40
0
 40
0
 40
0
 40
0
 40
1
 40
1
 40
1
 40
1
 10
382.549954
 20
165.285956
 30
0.0
 10
385.164540
 20
165.285956
 30
0.0
 10
387.159332
 20
164.249497
 30
0.0
 10
388.534330
 20
162.176580
 30
0.0
  0
SPLINE
  5
4ec
100
AcDbEntity
  8
Layer_1
 62
7
100
AcDbSpline
 70
8
 71
3
 72
8
 73
4
 74
0
 40
0
 40
0
 40
0
 40
0
 40
1
 40
1
 40
1
 40
1
 10
388.534330
 20
162.176580
 30
0.0
 10
389.919748
 20
160.114078
 30
0.0
 10
390.612458
 20
157.114078
 30
0.0
 10
390.612458
 20
153.176580
 30
0.0
  0
SPLINE
  5
4ed
100
AcDbEntity
  8
Layer_1
 62
7
100
AcDbSpline
 70
8
 71
3
 72
8
 73
4
 74
0
 40
0
 40
0
 40
0
 40
0
 40
1
 40
1
 40
1
 40
1
 10
390.612458
 20
153.176580
 30
0.0
 10
390.612458
 20
149.249497
 30
0.0
 10
389.919748
 20
146.249497
 30
0.0
 10
388.534330
 20
144.176580
 30
0.0
  0
SPLINE
  5
4ee
100
AcDbEntity
  8
Layer_1
 62
7
100
AcDbSpline
 70
8
 71
3
 72
8
 73
4
 74
0
 40
0
 40
0
 40
0
 40
0
 40
1
 40
1
 40
1
 40
1
 10
388.534330
 20
144.176580
 30
0.0
 10
387.159332
 20
142.114078
 30
0.0
 10
385.164540
 20
141.082828
 30
0.0
 10
382.549954
 20
141.082828
 30
0.0
  0
SPLINE
  5
4ef
100
AcDbEntity
  8
Layer_1
 62
7
100
AcDbSpline
 70
8
 71
3
 72
8
 73
4
 74
0
 40
0
 40
0
 40
0
 40
0
 40
1
 40
1
 40
1
 40
1
 10
382.549954
 20
141.082828
 30
0.0
 10
379.935372
 20
141.082828
 30
0.0
 10
377.935372
 20
142.114078
 30
0.0
 10
376.549954
 20
144.176580
 30
0.0
  0
SPLINE
  5
4f0
100
AcDbEntity
  8
Layer_1
 62
7
100
AcDbSpline
 70
8
 71
3
 72
8
 73
4
 74
0
 40
0
 40
0
 40
0
 40
0
 40
1
 40
1
 40
1
 40
1
 10
376.549954
 20
144.176580
 30
0.0
 10
375.174956
 20
146.249497
 30
0.0
 10
374.487458
 20
149.249497
 30
0.0
 10
374.487458
 20
153.176580
 30
0.0
  0
SPLINE
  5
4f1
100
AcDbEntity
  8
Layer_1
 62
7
100
AcDbSpline
 70
8
 71
3
 72
8
 73
4
 74
0
 40
0
 40
0
 40
0
 40
0
 40
1
 40
1
 40
1
 40
1
 10
374.487458
 20
153.176580
 30
0.0
 10
374.487458
 20
157.114078
 30
0.0
 10
375.174956
 20
160.114078
 30
0.0
 10
376.549954
 20
162.176580
 30
0.0
  0
SPLINE
  5
4f2
100
AcDbEntity
  8
Layer_1
 62
7
100
AcDbSpline
 70
8
 71
3
 72
8
 73
4
 74
0
 40
0
 40
0
 40
0
 40
0
 40
1
 40
1
 40
1
 40
1
 10
376.549954
 20
162.176580
 30
0.0
 10
377.935372
 20
164.249497
 30
0.0
 10
379.935372
 20
165.285956
 30
0.0
 10
382.549954
 20
165.285956
 30
0.0
  0
LWPOLYLINE
  5
4f3
100
AcDbEntity
  8
Layer_1
 62
7
100
AcDbPolyline
 90
2
 70
1
 10
382.549954
 20
162.785956
 30
0.0
 10
382.549954
 20
162.785956
 30
0.0
  0
LWPOLYLINE
  5
4f4
100
AcDbEntity
  8
Layer_1
 62
7
100
AcDbPolyline
 90
2
 70
1
 10
382.549954
 20
165.285956
 30
0.0
 10
382.549954
 20
165.285956
 30
0.0
  0
ENDSEC
  0
SECTION
  2
OBJECTS
  0
DICTIONARY
  5
C
330
0
100
AcDbDictionary
  3
ACAD_GROUP
350
D
  3
ACAD_MLINESTYLE
350
17
  0
DICTIONARY
  5
D
330
C
100
AcDbDictionary
  0
DICTIONARY
  5
1A
330
C
100
AcDbDictionary
  0
DICTIONARY
  5
17
330
C
100
AcDbDictionary
  3
STANDARD
350
18
  0
DICTIONARY
  5
19
330
C
100
AcDbDictionary
  0
ENDSEC
  0
EOF
