  0
SECTION
  2
HEADER
  9
$ACADVER
  1
AC1014
  9
$HANDSEED
  5
FFFF
  9
$MEASUREMENT
 70
     1
  0
ENDSEC
  0
SECTION
  2
TABLES
  0
TABLE
  2
VPORT
  5
8
330
0
100
AcDbSymbolTable
 70
     4
  0
VPORT
  5
2E
330
8
100
AcDbSymbolTableRecord
100
AcDbViewportTableRecord
  2
*ACTIVE
 70
     0
 10
0.0
 20
0.0
 11
1.0
 21
1.0
 12
210.0
 22
148.5
 13
0.0
 23
0.0
 14
10.0
 24
10.0
 15
10.0
 25
10.0
 16
0.0
 26
0.0
 36
1.0
 17
0.0
 27
0.0
 37
0.0
 40
341.0
 41
1.24
 42
50.0
 43
0.0
 44
0.0
 50
0.0
 51
0.0
 71
     0
 72
   100
 73
     1
 74
     3
 75
     0
 76
     0
 77
     0
 78
     0
  0
ENDTAB
  0
TABLE
  2
LTYPE
  5
5
330
0
100
AcDbSymbolTable
 70
     1
  0
LTYPE
  5
14
330
5
100
AcDbSymbolTableRecord
100
AcDbLinetypeTableRecord
  2
BYBLOCK
 70
     0
  3

 72
    65
 73
     0
 40
0.0
  0
LTYPE
  5
15
330
5
100
AcDbSymbolTableRecord
100
AcDbLinetypeTableRecord
  2
BYLAYER
 70
     0
  3

 72
    65
 73
     0
 40
0.0
  0
LTYPE
  5
16
330
5
100
AcDbSymbolTableRecord
100
AcDbLinetypeTableRecord
  2
CONTINUOUS
 70
     0
  3
Solid line
 72
    65
 73
     0
 40
0.0
  0
ENDTAB
  0
TABLE
  2
LAYER
  5
2
100
AcDbSymbolTable
 70
2
  0
LAYER
  5
50
100
AcDbSymbolTableRecord
100
AcDbLayerTableRecord
  2
0
 70
0
  6
CONTINUOUS
  0
LAYER
  5
51
100
AcDbSymbolTableRecord
100
AcDbLayerTableRecord
  2
Layer_1
 70
0
  6
CONTINUOUS
  0
ENDTAB
  0
TABLE
  2
STYLE
  5
3
330
0
100
AcDbSymbolTable
 70
     1
  0
STYLE
  5
11
330
3
100
AcDbSymbolTableRecord
100
AcDbTextStyleTableRecord
  2
STANDARD
 70
     0
 40
0.0
 41
1.0
 50
0.0
 71
     0
 42
2.5
  3
txt
  4

  0
ENDTAB
  0
TABLE
  2
VIEW
  5
6
330
0
100
AcDbSymbolTable
 70
     0
  0
ENDTAB
  0
TABLE
  2
UCS
  5
7
330
0
100
AcDbSymbolTable
 70
     0
  0
ENDTAB
  0
TABLE
  2
APPID
  5
9
330
0
100
AcDbSymbolTable
 70
     2
  0
APPID
  5
12
330
9
100
AcDbSymbolTableRecord
100
AcDbRegAppTableRecord
  2
ACAD
 70
     0
  0
ENDTAB
  0
TABLE
  2
DIMSTYLE
  5
A
330
0
100
AcDbSymbolTable
 70
     1
  0
DIMSTYLE
105
27
330
A
100
AcDbSymbolTableRecord
100
AcDbDimStyleTableRecord
  2
ISO-25
 70
     0
  3

  4

  5

  6

  7

 40
1.0
 41
2.5
 42
0.625
 43
3.75
 44
1.25
 45
0.0
 46
0.0
 47
0.0
 48
0.0
140
2.5
141
2.5
142
0.0
143
0.03937007874016
144
1.0
145
0.0
146
1.0
147
0.625
 71
     0
 72
     0
 73
     0
 74
     0
 75
     0
 76
     0
 77
     1
 78
     8
170
     0
171
     3
172
     1
173
     0
174
     0
175
     0
176
     0
177
     0
178
     0
270
     2
271
     2
272
     2
273
     2
274
     3
340
11
275
     0
280
     0
281
     0
282
     0
283
     0
284
     8
285
     0
286
     0
287
     3
288
     0
  0
ENDTAB
  0
TABLE
  2
BLOCK_RECORD
  5
1
330
0
100
AcDbSymbolTable
 70
     1
  0
BLOCK_RECORD
  5
1F
330
1
100
AcDbSymbolTableRecord
100
AcDbBlockTableRecord
  2
*MODEL_SPACE
  0
BLOCK_RECORD
  5
1B
330
1
100
AcDbSymbolTableRecord
100
AcDbBlockTableRecord
  2
*PAPER_SPACE
  0
ENDTAB
  0
ENDSEC
  0
SECTION
  2
BLOCKS
  0
BLOCK
  5
20
330
1F
100
AcDbEntity
  8
0
100
AcDbBlockBegin
  2
*MODEL_SPACE
 70
     0
 10
0.0
 20
0.0
 30
0.0
  3
*MODEL_SPACE
  1

  0
ENDBLK
  5
21
330
1F
100
AcDbEntity
  8
0
100
AcDbBlockEnd
  0
BLOCK
  5
1C
330
1B
100
AcDbEntity
 67
     1
  8
0
100
AcDbBlockBegin
  2
*PAPER_SPACE
  1

  0
ENDBLK
  5
1D
330
1B
100
AcDbEntity
 67
     1
  8
0
100
AcDbBlockEnd
  0
ENDSEC
  0
SECTION
  2
ENTITIES
  0
LWPOLYLINE
  5
100
100
AcDbEntity
  8
Layer_1
 62
7
100
AcDbPolyline
 90
3
 70
1
 10
688.514639
 20
1104.731847
 30
0.0
 10
688.514639
 20
1096.228430
 30
0.0
 10
688.551239
 20
1096.228430
 30
0.0
  0
SPLINE
  5
101
100
AcDbEntity
  8
Layer_1
 62
7
100
AcDbSpline
 70
8
 71
3
 72
8
 73
4
 74
0
 40
0
 40
0
 40
0
 40
0
 40
1
 40
1
 40
1
 40
1
 10
1077.420406
 20
1095.431577
 30
0.0
 10
1077.342406
 20
1095.606845
 30
0.0
 10
1077.218656
 20
1095.879657
 30
0.0
 10
1077.167056
 20
1095.995540
 30
0.0
  0
SPLINE
  5
102
100
AcDbEntity
  8
Layer_1
 62
7
100
AcDbSpline
 70
8
 71
3
 72
8
 73
4
 74
0
 40
0
 40
0
 40
0
 40
0
 40
1
 40
1
 40
1
 40
1
 10
1077.167056
 20
1095.995540
 30
0.0
 10
1076.999131
 20
1096.536162
 30
0.0
 10
1076.928481
 20
1096.752867
 30
0.0
 10
1076.860906
 20
1096.963805
 30
0.0
  0
LWPOLYLINE
  5
103
100
AcDbEntity
  8
Layer_1
 62
7
100
AcDbPolyline
 90
37
 70
0
 10
745.306633
 20
1104.236727
 30
0.0
 10
745.306633
 20
1095.731847
 30
0.0
 10
697.056141
 20
1095.731847
 30
0.0
 10
697.185051
 20
1065.082918
 30
0.0
 10
688.681634
 20
1065.046318
 30
0.0
 10
688.848621
 20
1025.363698
 30
0.0
 10
697.352039
 20
1025.398873
 30
0.0
 10
697.520496
 20
985.713321
 30
0.0
 10
689.017079
 20
985.678146
 30
0.0
 10
689.184074
 20
945.992602
 30
0.0
 10
697.687491
 20
946.029202
 30
0.0
 10
697.812006
 20
916.459867
 30
0.0
 10
745.108881
 20
916.319242
 30
0.0
 10
745.082481
 20
907.814362
 30
0.0
 10
801.773360
 20
907.645905
 30
0.0
 10
801.799610
 20
916.150785
 30
0.0
 10
858.493459
 20
915.982327
 30
0.0
 10
858.467209
 20
907.477447
 30
0.0
 10
915.159633
 20
907.307527
 30
0.0
 10
915.185883
 20
915.812407
 30
0.0
 10
971.878308
 20
915.643950
 30
0.0
 10
971.852058
 20
907.139070
 30
0.0
 10
1028.545907
 20
906.970612
 30
0.0
 10
1028.572157
 20
915.475492
 30
0.0
 10
1076.860756
 20
915.331942
 30
0.0
 10
1076.834506
 20
906.305572
 30
0.0
 10
1085.364256
 20
906.305572
 30
0.0
 10
1076.860906
 20
906.331972
 30
0.0
 10
1076.979556
 20
946.017517
 30
0.0
 10
1085.364256
 20
945.991117
 30
0.0
 10
1085.364256
 20
985.675199
 30
0.0
 10
1077.096706
 20
985.701599
 30
0.0
 10
1077.213931
 20
1025.385681
 30
0.0
 10
1085.364256
 20
1025.362281
 30
0.0
 10
1085.364256
 20
1065.047825
 30
0.0
 10
1077.331081
 20
1065.071225
 30
0.0
 10
1077.420406
 20
1095.431577
 30
0.0
  0
SPLINE
  5
104
100
AcDbEntity
  8
Layer_1
 62
7
100
AcDbSpline
 70
8
 71
3
 72
8
 73
4
 74
0
 40
0
 40
0
 40
0
 40
0
 40
1
 40
1
 40
1
 40
1
 10
689.323236
 20
912.964762
 30
0.0
 10
688.987656
 20
912.587017
 30
0.0
 10
688.656569
 20
912.172732
 30
0.0
 10
688.530756
 20
911.893957
 30
0.0
  0
SPLINE
  5
105
100
AcDbEntity
  8
Layer_1
 62
7
100
AcDbSpline
 70
8
 71
3
 72
8
 73
4
 74
0
 40
0
 40
0
 40
0
 40
0
 40
1
 40
1
 40
1
 40
1
 10
688.530756
 20
911.893957
 30
0.0
 10
688.523256
 20
911.877982
 30
0.0
 10
688.521456
 20
911.860282
 30
0.0
 10
688.514631
 20
911.844157
 30
0.0
  0
LWPOLYLINE
  5
106
100
AcDbEntity
  8
Layer_1
 62
7
100
AcDbPolyline
 90
13
 70
0
 10
1076.860906
 20
1096.963805
 30
0.0
 10
1076.860906
 20
1095.731870
 30
0.0
 10
1028.771507
 20
1095.731870
 30
0.0
 10
1028.771507
 20
1104.236750
 30
0.0
 10
972.079158
 20
1104.236750
 30
0.0
 10
972.079158
 20
1095.731870
 30
0.0
 10
915.385308
 20
1095.731870
 30
0.0
 10
915.385308
 20
1104.236750
 30
0.0
 10
858.692884
 20
1104.236750
 30
0.0
 10
858.692884
 20
1095.731870
 30
0.0
 10
802.000535
 20
1095.731870
 30
0.0
 10
802.000535
 20
1104.236750
 30
0.0
 10
745.306633
 20
1104.236727
 30
0.0
  0
SPLINE
  5
107
100
AcDbEntity
  8
Layer_1
 62
7
100
AcDbSpline
 70
8
 71
3
 72
8
 73
4
 74
0
 40
0
 40
0
 40
0
 40
0
 40
1
 40
1
 40
1
 40
1
 10
688.514631
 20
911.559982
 30
0.0
 10
688.786544
 20
911.863230
 30
0.0
 10
689.062836
 20
912.163312
 30
0.0
 10
689.326154
 20
912.472582
 30
0.0
  0
LWPOLYLINE
  5
108
100
AcDbEntity
  8
Layer_1
 62
7
100
AcDbPolyline
 90
2
 70
0
 10
688.514631
 20
911.844157
 30
0.0
 10
688.514631
 20
911.559982
 30
0.0
  0
LWPOLYLINE
  5
109
100
AcDbEntity
  8
Layer_1
 62
7
100
AcDbPolyline
 90
2
 70
0
 10
689.326154
 20
912.472582
 30
0.0
 10
689.323236
 20
912.964762
 30
0.0
  0
SPLINE
  5
10a
100
AcDbEntity
  8
Layer_1
 62
7
100
AcDbSpline
 70
8
 71
3
 72
8
 73
4
 74
0
 40
0
 40
0
 40
0
 40
0
 40
1
 40
1
 40
1
 40
1
 10
688.514639
 20
909.167895
 30
0.0
 10
688.524539
 20
909.168555
 30
0.0
 10
688.534439
 20
909.170145
 30
0.0
 10
688.543964
 20
909.170895
 30
0.0
  0
SPLINE
  5
10b
100
AcDbEntity
  8
Layer_1
 62
7
100
AcDbSpline
 70
8
 71
3
 72
8
 73
4
 74
0
 40
0
 40
0
 40
0
 40
0
 40
1
 40
1
 40
1
 40
1
 10
688.543964
 20
909.170895
 30
0.0
 10
688.535189
 20
909.187995
 30
0.0
 10
688.523939
 20
909.206370
 30
0.0
 10
688.514639
 20
909.223620
 30
0.0
  0
LWPOLYLINE
  5
10c
100
AcDbEntity
  8
Layer_1
 62
7
100
AcDbPolyline
 90
2
 70
0
 10
688.514639
 20
909.223545
 30
0.0
 10
688.514639
 20
909.167895
 30
0.0
  0
LWPOLYLINE
  5
10d
100
AcDbEntity
  8
Layer_1
 62
7
100
AcDbPolyline
 90
1
 70
1
 10
688.514639
 20
909.223620
 30
0.0
  0
LWPOLYLINE
  5
10e
100
AcDbEntity
  8
Layer_1
 62
7
100
AcDbPolyline
 90
44
 70
1
 10
1093.107798
 20
497.622869
 30
0.0
 10
1101.611169
 20
497.656318
 30
0.0
 10
1101.577720
 20
506.159688
 30
0.0
 10
1126.140038
 20
506.256066
 30
0.0
 10
1126.173487
 20
497.752696
 30
0.0
 10
1159.245014
 20
497.882523
 30
0.0
 10
1159.211565
 20
506.385893
 30
0.0
 10
1192.283093
 20
506.515720
 30
0.0
 10
1192.316542
 20
498.012378
 30
0.0
 10
1225.388069
 20
498.142205
 30
0.0
 10
1225.354620
 20
506.645575
 30
0.0
 10
1258.426120
 20
506.775402
 30
0.0
 10
1258.459569
 20
498.272032
 30
0.0
 10
1291.531096
 20
498.401858
 30
0.0
 10
1291.375191
 20
538.087124
 30
0.0
 10
1282.871820
 20
538.053676
 30
0.0
 10
1282.715915
 20
577.737442
 30
0.0
 10
1291.219257
 20
577.770891
 30
0.0
 10
1291.063351
 20
617.456129
 30
0.0
 10
1282.559981
 20
617.422680
 30
0.0
 10
1282.404076
 20
657.107946
 30
0.0
 10
1290.907446
 20
657.141395
 30
0.0
 10
1290.751540
 20
696.825184
 30
0.0
 10
1257.680013
 20
696.695357
 30
0.0
 10
1257.713461
 20
688.190542
 30
0.0
 10
1224.641962
 20
688.060715
 30
0.0
 10
1224.608513
 20
696.565502
 30
0.0
 10
1191.536986
 20
696.435676
 30
0.0
 10
1191.570435
 20
687.930860
 30
0.0
 10
1158.498907
 20
687.801033
 30
0.0
 10
1158.465458
 20
696.305849
 30
0.0
 10
1125.393931
 20
696.176022
 30
0.0
 10
1125.427380
 20
687.671235
 30
0.0
 10
1100.865061
 20
687.574857
 30
0.0
 10
1100.831613
 20
696.079644
 30
0.0
 10
1092.328271
 20
696.046195
 30
0.0
 10
1092.484176
 20
656.362406
 30
0.0
 10
1100.987546
 20
656.395855
 30
0.0
 10
1101.143452
 20
616.710617
 30
0.0
 10
1092.640110
 20
616.677168
 30
0.0
 10
1092.796016
 20
576.991930
 30
0.0
 10
1101.299386
 20
577.025379
 30
0.0
 10
1101.455291
 20
537.341613
 30
0.0
 10
1092.951950
 20
537.308164
 30
0.0
  0
LWPOLYLINE
  5
10f
100
AcDbEntity
  8
Layer_1
 62
7
100
AcDbPolyline
 90
52
 70
1
 10
696.792869
 20
899.978060
 30
0.0
 10
696.792869
 20
891.473187
 30
0.0
 10
688.287997
 20
891.473187
 30
0.0
 10
688.287997
 20
866.910698
 30
0.0
 10
696.792869
 20
866.910698
 30
0.0
 10
696.792869
 20
833.838915
 30
0.0
 10
688.287997
 20
833.838915
 30
0.0
 10
688.287997
 20
800.767162
 30
0.0
 10
696.792869
 20
800.767162
 30
0.0
 10
696.792869
 20
767.695380
 30
0.0
 10
688.287997
 20
767.695380
 30
0.0
 10
688.287997
 20
734.623597
 30
0.0
 10
696.792869
 20
734.623597
 30
0.0
 10
696.792869
 20
701.551814
 30
0.0
 10
745.081455
 20
701.551814
 30
0.0
 10
745.081455
 20
710.056715
 30
0.0
 10
801.775304
 20
710.056715
 30
0.0
 10
801.775304
 20
701.551814
 30
0.0
 10
858.467679
 20
701.551814
 30
0.0
 10
858.467679
 20
710.056715
 30
0.0
 10
915.160054
 20
710.056715
 30
0.0
 10
915.160054
 20
701.551814
 30
0.0
 10
971.853902
 20
701.551814
 30
0.0
 10
971.853902
 20
710.056715
 30
0.0
 10
1028.546306
 20
710.056715
 30
0.0
 10
1028.546306
 20
701.551814
 30
0.0
 10
1076.635644
 20
701.551814
 30
0.0
 10
1076.635644
 20
734.623597
 30
0.0
 10
1085.139071
 20
734.623597
 30
0.0
 10
1085.139071
 20
767.695380
 30
0.0
 10
1076.635644
 20
767.695380
 30
0.0
 10
1076.635644
 20
800.767162
 30
0.0
 10
1085.139071
 20
800.767162
 30
0.0
 10
1085.139071
 20
833.838915
 30
0.0
 10
1076.635644
 20
833.838915
 30
0.0
 10
1076.635644
 20
866.910698
 30
0.0
 10
1085.139071
 20
866.910698
 30
0.0
 10
1085.139071
 20
891.473187
 30
0.0
 10
1076.635644
 20
891.473187
 30
0.0
 10
1076.635644
 20
899.978060
 30
0.0
 10
1028.546306
 20
899.978060
 30
0.0
 10
1028.546306
 20
891.473187
 30
0.0
 10
971.853902
 20
891.473187
 30
0.0
 10
971.853902
 20
899.978060
 30
0.0
 10
915.160054
 20
899.978060
 30
0.0
 10
915.160054
 20
891.473187
 30
0.0
 10
858.467679
 20
891.473187
 30
0.0
 10
858.467679
 20
899.978060
 30
0.0
 10
801.775304
 20
899.978060
 30
0.0
 10
801.775304
 20
891.473187
 30
0.0
 10
745.081455
 20
891.473187
 30
0.0
 10
745.081455
 20
899.978060
 30
0.0
  0
LWPOLYLINE
  5
110
100
AcDbEntity
  8
Layer_1
 62
7
100
AcDbPolyline
 90
4
 70
1
 10
688.289054
 20
696.046307
 30
0.0
 10
688.289054
 20
687.542890
 30
0.0
 10
688.325676
 20
687.542890
 30
0.0
 10
688.289054
 20
696.046307
 30
0.0
  0
SPLINE
  5
111
100
AcDbEntity
  8
Layer_1
 62
7
100
AcDbSpline
 70
8
 71
3
 72
8
 73
4
 74
0
 40
0
 40
0
 40
0
 40
0
 40
1
 40
1
 40
1
 40
1
 10
1077.199186
 20
687.471107
 30
0.0
 10
1077.009886
 20
687.577772
 30
0.0
 10
1076.822911
 20
687.688217
 30
0.0
 10
1076.635261
 20
687.797770
 30
0.0
  0
LWPOLYLINE
  5
112
100
AcDbEntity
  8
Layer_1
 62
7
100
AcDbPolyline
 90
37
 70
0
 10
745.081048
 20
695.551187
 30
0.0
 10
745.081048
 20
687.046307
 30
0.0
 10
696.830556
 20
687.046307
 30
0.0
 10
696.959466
 20
656.397378
 30
0.0
 10
688.456049
 20
656.360755
 30
0.0
 10
688.623036
 20
616.678143
 30
0.0
 10
697.126454
 20
616.713296
 30
0.0
 10
697.294911
 20
577.027751
 30
0.0
 10
688.791494
 20
576.992599
 30
0.0
 10
688.958489
 20
537.307047
 30
0.0
 10
697.461906
 20
537.343669
 30
0.0
 10
697.586414
 20
507.774335
 30
0.0
 10
744.883288
 20
507.633710
 30
0.0
 10
744.858388
 20
499.128830
 30
0.0
 10
801.549290
 20
498.961835
 30
0.0
 10
801.574190
 20
507.466715
 30
0.0
 10
858.268039
 20
507.298257
 30
0.0
 10
858.243139
 20
498.793377
 30
0.0
 10
914.935563
 20
498.621987
 30
0.0
 10
914.960463
 20
507.126875
 30
0.0
 10
971.652813
 20
506.959880
 30
0.0
 10
971.627913
 20
498.455000
 30
0.0
 10
1028.321762
 20
498.286542
 30
0.0
 10
1028.346662
 20
506.791422
 30
0.0
 10
1076.635261
 20
506.647872
 30
0.0
 10
1076.610361
 20
497.621502
 30
0.0
 10
1085.140111
 20
497.621502
 30
0.0
 10
1076.636686
 20
497.646402
 30
0.0
 10
1076.755336
 20
537.331954
 30
0.0
 10
1085.140111
 20
537.307047
 30
0.0
 10
1085.140111
 20
576.989666
 30
0.0
 10
1076.872561
 20
577.016029
 30
0.0
 10
1076.989711
 20
616.700111
 30
0.0
 10
1085.140111
 20
616.676673
 30
0.0
 10
1085.140111
 20
656.362225
 30
0.0
 10
1077.106936
 20
656.385663
 30
0.0
 10
1077.199186
 20
687.471107
 30
0.0
  0
SPLINE
  5
113
100
AcDbEntity
  8
Layer_1
 62
7
100
AcDbSpline
 70
8
 71
3
 72
8
 73
4
 74
0
 40
0
 40
0
 40
0
 40
0
 40
1
 40
1
 40
1
 40
1
 10
886.713889
 20
646.440835
 30
0.0
 10
899.870507
 20
646.440988
 30
0.0
 10
912.488308
 20
641.214606
 30
0.0
 10
921.791436
 20
631.911466
 30
0.0
  0
SPLINE
  5
114
100
AcDbEntity
  8
Layer_1
 62
7
100
AcDbSpline
 70
8
 71
3
 72
8
 73
4
 74
0
 40
0
 40
0
 40
0
 40
0
 40
1
 40
1
 40
1
 40
1
 10
921.791436
 20
631.911466
 30
0.0
 10
931.094564
 20
622.608326
 30
0.0
 10
936.320932
 20
609.990519
 30
0.0
 10
936.320763
 20
596.833901
 30
0.0
  0
SPLINE
  5
115
100
AcDbEntity
  8
Layer_1
 62
7
100
AcDbSpline
 70
8
 71
3
 72
8
 73
4
 74
0
 40
0
 40
0
 40
0
 40
0
 40
1
 40
1
 40
1
 40
1
 10
936.320763
 20
596.833901
 30
0.0
 10
936.320930
 20
583.677284
 30
0.0
 10
931.094562
 20
571.059479
 30
0.0
 10
921.791433
 20
561.756341
 30
0.0
  0
SPLINE
  5
116
100
AcDbEntity
  8
Layer_1
 62
7
100
AcDbSpline
 70
8
 71
3
 72
8
 73
4
 74
0
 40
0
 40
0
 40
0
 40
0
 40
1
 40
1
 40
1
 40
1
 10
921.791433
 20
561.756341
 30
0.0
 10
912.488305
 20
552.453203
 30
0.0
 10
899.870506
 20
547.226821
 30
0.0
 10
886.713889
 20
547.226974
 30
0.0
  0
SPLINE
  5
117
100
AcDbEntity
  8
Layer_1
 62
7
100
AcDbSpline
 70
8
 71
3
 72
8
 73
4
 74
0
 40
0
 40
0
 40
0
 40
0
 40
1
 40
1
 40
1
 40
1
 10
886.713889
 20
547.226974
 30
0.0
 10
859.317144
 20
547.227402
 30
0.0
 10
837.108017
 20
569.437156
 30
0.0
 10
837.108364
 20
596.833901
 30
0.0
  0
SPLINE
  5
118
100
AcDbEntity
  8
Layer_1
 62
7
100
AcDbSpline
 70
8
 71
3
 72
8
 73
4
 74
0
 40
0
 40
0
 40
0
 40
0
 40
1
 40
1
 40
1
 40
1
 10
837.108364
 20
596.833901
 30
0.0
 10
837.108013
 20
624.230649
 30
0.0
 10
859.317141
 20
646.440408
 30
0.0
 10
886.713889
 20
646.440835
 30
0.0
  0
LWPOLYLINE
  5
119
100
AcDbEntity
  8
Layer_1
 62
7
100
AcDbPolyline
 90
14
 70
0
 10
1076.635261
 20
687.797770
 30
0.0
 10
1076.635261
 20
687.046307
 30
0.0
 10
1028.545862
 20
687.046307
 30
0.0
 10
1028.545862
 20
695.551187
 30
0.0
 10
971.853513
 20
695.551187
 30
0.0
 10
971.853513
 20
687.046307
 30
0.0
 10
915.159663
 20
687.046307
 30
0.0
 10
915.159663
 20
695.551187
 30
0.0
 10
858.467239
 20
695.551187
 30
0.0
 10
858.467239
 20
687.046307
 30
0.0
 10
801.774890
 20
687.046307
 30
0.0
 10
801.774890
 20
695.551187
 30
0.0
 10
745.081048
 20
695.551187
 30
0.0
 10
745.081048
 20
695.551187
 30
0.0
  0
LWPOLYLINE
  5
11a
100
AcDbEntity
  8
Layer_1
 62
7
100
AcDbPolyline
 90
1
 70
1
 10
886.713889
 20
646.440835
 30
0.0
  0
SPLINE
  5
11b
100
AcDbEntity
  8
Layer_1
 62
7
100
AcDbSpline
 70
8
 71
3
 72
8
 73
4
 74
0
 40
0
 40
0
 40
0
 40
0
 40
1
 40
1
 40
1
 40
1
 10
692.967764
 20
497.640545
 30
0.0
 10
692.968176
 20
497.634545
 30
0.0
 10
692.968439
 20
497.627877
 30
0.0
 10
692.969226
 20
497.621502
 30
0.0
  0
LWPOLYLINE
  5
11c
100
AcDbEntity
  8
Layer_1
 62
7
100
AcDbPolyline
 90
2
 70
0
 10
696.763176
 20
497.656655
 30
0.0
 10
692.967764
 20
497.640545
 30
0.0
  0
LWPOLYLINE
  5
11d
100
AcDbEntity
  8
Layer_1
 62
7
100
AcDbPolyline
 90
4
 70
0
 10
692.969226
 20
497.621502
 30
0.0
 10
696.763176
 20
497.621502
 30
0.0
 10
696.763176
 20
497.656655
 30
0.0
 10
696.763176
 20
497.656655
 30
0.0
  0
LWPOLYLINE
  5
11e
100
AcDbEntity
  8
Layer_1
 62
7
100
AcDbPolyline
 90
44
 70
1
 10
480.817644
 20
906.390986
 30
0.0
 10
489.321014
 20
906.424435
 30
0.0
 10
489.287565
 20
914.927805
 30
0.0
 10
513.849883
 20
915.024183
 30
0.0
 10
513.883332
 20
906.520813
 30
0.0
 10
546.954860
 20
906.650640
 30
0.0
 10
546.921411
 20
915.154010
 30
0.0
 10
579.992939
 20
915.283837
 30
0.0
 10
580.026387
 20
906.780495
 30
0.0
 10
613.097915
 20
906.910322
 30
0.0
 10
613.064466
 20
915.413692
 30
0.0
 10
646.135965
 20
915.543519
 30
0.0
 10
646.169414
 20
907.040149
 30
0.0
 10
679.240942
 20
907.169975
 30
0.0
 10
679.085036
 20
946.855239
 30
0.0
 10
670.581666
 20
946.821790
 30
0.0
 10
670.425761
 20
986.505557
 30
0.0
 10
678.929102
 20
986.539005
 30
0.0
 10
678.773197
 20
1026.224243
 30
0.0
 10
670.269827
 20
1026.190794
 30
0.0
 10
670.113921
 20
1065.876060
 30
0.0
 10
678.617291
 20
1065.909509
 30
0.0
 10
678.461386
 20
1105.593301
 30
0.0
 10
645.389858
 20
1105.463475
 30
0.0
 10
645.423307
 20
1096.958659
 30
0.0
 10
612.351808
 20
1096.828832
 30
0.0
 10
612.318359
 20
1105.333620
 30
0.0
 10
579.246832
 20
1105.203793
 30
0.0
 10
579.280280
 20
1096.698977
 30
0.0
 10
546.208753
 20
1096.569150
 30
0.0
 10
546.175304
 20
1105.073966
 30
0.0
 10
513.103776
 20
1104.944139
 30
0.0
 10
513.137225
 20
1096.439352
 30
0.0
 10
488.574907
 20
1096.342974
 30
0.0
 10
488.541458
 20
1104.847761
 30
0.0
 10
480.038117
 20
1104.814312
 30
0.0
 10
480.194022
 20
1065.130520
 30
0.0
 10
488.697392
 20
1065.163969
 30
0.0
 10
488.853298
 20
1025.478731
 30
0.0
 10
480.349956
 20
1025.445283
 30
0.0
 10
480.505861
 20
985.760045
 30
0.0
 10
489.009232
 20
985.793494
 30
0.0
 10
489.165137
 20
946.109727
 30
0.0
 10
480.661795
 20
946.076278
 30
0.0
  0
LWPOLYLINE
  5
11f
100
AcDbEntity
  8
Layer_1
 62
7
100
AcDbPolyline
 90
52
 70
1
 10
696.567969
 20
488.292661
 30
0.0
 10
696.567969
 20
479.787789
 30
0.0
 10
688.063096
 20
479.787789
 30
0.0
 10
688.063096
 20
455.225301
 30
0.0
 10
696.567969
 20
455.225301
 30
0.0
 10
696.567969
 20
422.153518
 30
0.0
 10
688.063096
 20
422.153518
 30
0.0
 10
688.063096
 20
389.081764
 30
0.0
 10
696.567969
 20
389.081764
 30
0.0
 10
696.567969
 20
356.009981
 30
0.0
 10
688.063096
 20
356.009981
 30
0.0
 10
688.063096
 20
322.938198
 30
0.0
 10
696.567969
 20
322.938198
 30
0.0
 10
696.567969
 20
289.866416
 30
0.0
 10
744.856554
 20
289.866416
 30
0.0
 10
744.856554
 20
298.371317
 30
0.0
 10
801.550403
 20
298.371317
 30
0.0
 10
801.550403
 20
289.866416
 30
0.0
 10
858.242778
 20
289.866416
 30
0.0
 10
858.242778
 20
298.371317
 30
0.0
 10
914.935153
 20
298.371317
 30
0.0
 10
914.935153
 20
289.866416
 30
0.0
 10
971.629002
 20
289.866416
 30
0.0
 10
971.629002
 20
298.371317
 30
0.0
 10
1028.321405
 20
298.371317
 30
0.0
 10
1028.321405
 20
289.866416
 30
0.0
 10
1076.410743
 20
289.866416
 30
0.0
 10
1076.410743
 20
322.938198
 30
0.0
 10
1084.914170
 20
322.938198
 30
0.0
 10
1084.914170
 20
356.009981
 30
0.0
 10
1076.410743
 20
356.009981
 30
0.0
 10
1076.410743
 20
389.081764
 30
0.0
 10
1084.914170
 20
389.081764
 30
0.0
 10
1084.914170
 20
422.153518
 30
0.0
 10
1076.410743
 20
422.153518
 30
0.0
 10
1076.410743
 20
455.225301
 30
0.0
 10
1084.914170
 20
455.225301
 30
0.0
 10
1084.914170
 20
479.787789
 30
0.0
 10
1076.410743
 20
479.787789
 30
0.0
 10
1076.410743
 20
488.292661
 30
0.0
 10
1028.321405
 20
488.292661
 30
0.0
 10
1028.321405
 20
479.787789
 30
0.0
 10
971.629002
 20
479.787789
 30
0.0
 10
971.629002
 20
488.292661
 30
0.0
 10
914.935153
 20
488.292661
 30
0.0
 10
914.935153
 20
479.787789
 30
0.0
 10
858.242778
 20
479.787789
 30
0.0
 10
858.242778
 20
488.292661
 30
0.0
 10
801.550403
 20
488.292661
 30
0.0
 10
801.550403
 20
479.787789
 30
0.0
 10
744.856554
 20
479.787789
 30
0.0
 10
744.856554
 20
488.292661
 30
0.0
  0
ENDSEC
  0
SECTION
  2
OBJECTS
  0
DICTIONARY
  5
C
330
0
100
AcDbDictionary
  3
ACAD_GROUP
350
D
  3
ACAD_MLINESTYLE
350
17
  0
DICTIONARY
  5
D
330
C
100
AcDbDictionary
  0
DICTIONARY
  5
1A
330
C
100
AcDbDictionary
  0
DICTIONARY
  5
17
330
C
100
AcDbDictionary
  3
STANDARD
350
18
  0
DICTIONARY
  5
19
330
C
100
AcDbDictionary
  0
ENDSEC
  0
EOF
