  0
SECTION
  2
HEADER
  9
$ANGBASE
  50
0.0
  9
$ANGDIR
  70
  1
  9
$MEASUREMENT
  70
0
  0
ENDSEC
  0
SECTION
  2
TABLES
  0
TABLE
  2
LTYPE
  70
1
  0
LTYPE
  2
CONTINUOUS
  70
0
  3
Solid line
  72
65
  73
0
  40
0.0
  0
ENDTAB
  0
TABLE
  2
STYLE
  70
4
  0
STYLE
  2
KICAD
  70
0
  40
0
  41
1
  42
1
  50
0
  71
0
  3
isocp.shx
  0
STYLE
  2
KICADB
  70
0
  40
0
  41
1
  42
1
  50
0
  71
0
  3
isocp.shx
  0
STYLE
  2
KICADI
  70
0
  40
0
  41
1
  42
1
  50
15
  71
0
  3
isocp.shx
  0
STYLE
  2
KICADBI
  70
0
  40
0
  41
1
  42
1
  50
15
  71
0
  3
isocp.shx
  0
ENDTAB
  0
TABLE
  2
LAYER
  70
30
  0
LAYER
  2
BLACK
  70
0
  62
7
  6
CONTINUOUS
  0
LAYER
  2
GRAY1
  70
0
  62
251
  6
CONTINUOUS
  0
LAYER
  2
GRAY2
  70
0
  62
8
  6
CONTINUOUS
  0
LAYER
  2
GRAY3
  70
0
  62
9
  6
CONTINUOUS
  0
LAYER
  2
WHITE
  70
0
  62
7
  6
CONTINUOUS
  0
LAYER
  2
LYELLOW
  70
0
  62
51
  6
CONTINUOUS
  0
LAYER
  2
BLUE1
  70
0
  62
178
  6
CONTINUOUS
  0
LAYER
  2
GREEN1
  70
0
  62
98
  6
CONTINUOUS
  0
LAYER
  2
CYAN1
  70
0
  62
138
  6
CONTINUOUS
  0
LAYER
  2
RED1
  70
0
  62
18
  6
CONTINUOUS
  0
LAYER
  2
MAGENTA1
  70
0
  62
228
  6
CONTINUOUS
  0
LAYER
  2
BROWN1
  70
0
  62
58
  6
CONTINUOUS
  0
LAYER
  2
BLUE2
  70
0
  62
5
  6
CONTINUOUS
  0
LAYER
  2
GREEN2
  70
0
  62
3
  6
CONTINUOUS
  0
LAYER
  2
CYAN2
  70
0
  62
4
  6
CONTINUOUS
  0
LAYER
  2
RED2
  70
0
  62
1
  6
CONTINUOUS
  0
LAYER
  2
MAGENTA2
  70
0
  62
6
  6
CONTINUOUS
  0
LAYER
  2
BROWN2
  70
0
  62
54
  6
CONTINUOUS
  0
LAYER
  2
BLUE3
  70
0
  62
171
  6
CONTINUOUS
  0
LAYER
  2
GREEN3
  70
0
  62
91
  6
CONTINUOUS
  0
LAYER
  2
CYAN3
  70
0
  62
131
  6
CONTINUOUS
  0
LAYER
  2
RED3
  70
0
  62
11
  6
CONTINUOUS
  0
LAYER
  2
MAGENTA3
  70
0
  62
221
  6
CONTINUOUS
  0
LAYER
  2
YELLOW3
  70
0
  62
2
  6
CONTINUOUS
  0
LAYER
  2
BLUE4
  70
0
  62
5
  6
CONTINUOUS
  0
LAYER
  2
GREEN4
  70
0
  62
3
  6
CONTINUOUS
  0
LAYER
  2
CYAN4
  70
0
  62
4
  6
CONTINUOUS
  0
LAYER
  2
RED4
  70
0
  62
1
  6
CONTINUOUS
  0
LAYER
  2
MAGENTA4
  70
0
  62
6
  6
CONTINUOUS
  0
LAYER
  2
YELLOW4
  70
0
  62
2
  6
CONTINUOUS
  0
ENDTAB
  0
ENDSEC
  0
SECTION
  2
ENTITIES
0
LINE
8
Black
10
121.43
20
-77.366
11
121.916
21
-77.366
0
LINE
8
Black
10
121.916
20
-77.366
11
121.92
21
-77.3668
0
LINE
8
Black
10
121.92
20
-77.3668
11
121.925
21
-77.3664
0
LINE
8
Black
10
121.925
20
-77.3664
11
121.937
21
-77.3698
0
LINE
8
Black
10
121.937
20
-77.3698
11
121.95
21
-77.372
0
LINE
8
Black
10
121.95
20
-77.372
11
121.954
21
-77.3742
0
LINE
8
Black
10
121.954
20
-77.3742
11
121.958
21
-77.3754
0
LINE
8
Black
10
121.958
20
-77.3754
11
121.969
21
-77.3829
0
LINE
8
Black
10
121.969
20
-77.3829
11
121.97
21
-77.3833
0
LINE
8
Black
10
121.97
20
-77.3833
11
121.97
21
-77.3834
0
LINE
8
Black
10
121.97
20
-77.3834
11
121.97
21
-77.3836
0
LINE
8
Black
10
121.97
20
-77.3836
11
121.98
21
-77.3894
0
LINE
8
Black
10
121.98
20
-77.3894
11
121.983
21
-77.3928
0
LINE
8
Black
10
121.983
20
-77.3928
11
121.987
21
-77.3953
0
LINE
8
Black
10
121.987
20
-77.3953
11
121.991
21
-77.3993
0
LINE
8
Black
10
121.991
20
-77.3993
11
121.993
21
-77.4029
0
LINE
8
Black
10
121.993
20
-77.4029
11
121.997
21
-77.4057
0
LINE
8
Black
10
121.997
20
-77.4057
11
122.002
21
-77.4158
0
LINE
8
Black
10
122.002
20
-77.4158
11
122.003
21
-77.416
0
LINE
8
Black
10
122.003
20
-77.416
11
122.003
21
-77.4163
0
LINE
8
Black
10
122.003
20
-77.4163
11
122.003
21
-77.417
0
LINE
8
Black
10
122.003
20
-77.417
11
122.011
21
-77.4277
0
LINE
8
Black
10
122.011
20
-77.4277
11
122.012
21
-77.432
0
LINE
8
Black
10
122.012
20
-77.432
11
122.014
21
-77.4358
0
LINE
8
Black
10
122.014
20
-77.4358
11
122.016
21
-77.4487
0
LINE
8
Black
10
122.016
20
-77.4487
11
122.02
21
-77.4613
0
LINE
8
Black
10
122.02
20
-77.4613
11
122.019
21
-77.4657
0
LINE
8
Black
10
122.019
20
-77.4657
11
122.02
21
-77.47
0
LINE
8
Black
10
122.02
20
-77.47
11
122.02
21
-84.582
0
LINE
8
Black
10
122.02
20
-84.582
11
122.019
21
-84.5863
0
LINE
8
Black
10
122.019
20
-84.5863
11
122.02
21
-84.5907
0
LINE
8
Black
10
122.02
20
-84.5907
11
122.016
21
-84.6033
0
LINE
8
Black
10
122.016
20
-84.6033
11
122.014
21
-84.6162
0
LINE
8
Black
10
122.014
20
-84.6162
11
122.012
21
-84.62
0
LINE
8
Black
10
122.012
20
-84.62
11
122.011
21
-84.6243
0
LINE
8
Black
10
122.011
20
-84.6243
11
122.003
21
-84.635
0
LINE
8
Black
10
122.003
20
-84.635
11
121.997
21
-84.6463
0
LINE
8
Black
10
121.997
20
-84.6463
11
121.993
21
-84.6491
0
LINE
8
Black
10
121.993
20
-84.6491
11
121.991
21
-84.6527
0
LINE
8
Black
10
121.991
20
-84.6527
11
119.923
21
-86.7207
0
LINE
8
Black
10
119.923
20
-86.7207
11
119.919
21
-86.7232
0
LINE
8
Black
10
119.919
20
-86.7232
11
119.916
21
-86.7266
0
LINE
8
Black
10
119.916
20
-86.7266
11
119.905
21
-86.7331
0
LINE
8
Black
10
119.905
20
-86.7331
11
119.894
21
-86.7406
0
LINE
8
Black
10
119.894
20
-86.7406
11
119.89
21
-86.7418
0
LINE
8
Black
10
119.89
20
-86.7418
11
119.886
21
-86.744
0
LINE
8
Black
10
119.886
20
-86.744
11
119.873
21
-86.7462
0
LINE
8
Black
10
119.873
20
-86.7462
11
119.861
21
-86.7496
0
LINE
8
Black
10
119.861
20
-86.7496
11
119.856
21
-86.7492
0
LINE
8
Black
10
119.856
20
-86.7492
11
119.852
21
-86.75
0
LINE
8
Black
10
119.852
20
-86.75
11
118.1
21
-86.75
0
LINE
8
Black
10
118.1
20
-86.75
11
118.1
21
-87.15
0
LINE
8
Black
10
118.1
20
-87.15
11
114.95
21
-87.15
0
LINE
8
Black
10
114.95
20
-87.15
11
114.95
21
-86.75
0
LINE
8
Black
10
114.95
20
-86.75
11
114.559
21
-86.75
0
LINE
8
Black
10
114.559
20
-86.75
11
114.4
21
-86.9094
0
LINE
8
Black
10
114.4
20
-86.9094
11
114.4
21
-106.639
0
LINE
8
Black
10
114.4
20
-106.639
11
117.611
21
-109.849
0
LINE
8
Black
10
117.611
20
-109.849
11
117.613
21
-109.853
0
LINE
8
Black
10
117.613
20
-109.853
11
117.617
21
-109.856
0
LINE
8
Black
10
117.617
20
-109.856
11
117.623
21
-109.867
0
LINE
8
Black
10
117.623
20
-109.867
11
117.631
21
-109.878
0
LINE
8
Black
10
117.631
20
-109.878
11
117.632
21
-109.882
0
LINE
8
Black
10
117.632
20
-109.882
11
117.634
21
-109.886
0
LINE
8
Black
10
117.634
20
-109.886
11
117.636
21
-109.899
0
LINE
8
Black
10
117.636
20
-109.899
11
117.64
21
-109.911
0
LINE
8
Black
10
117.64
20
-109.911
11
117.639
21
-109.916
0
LINE
8
Black
10
117.639
20
-109.916
11
117.64
21
-109.92
0
LINE
8
Black
10
117.64
20
-109.92
11
117.64
21
-112.265
0
LINE
8
Black
10
117.64
20
-112.265
11
117.672
21
-112.265
0
LINE
8
Black
10
117.672
20
-112.265
11
117.921
21
-112.355
0
LINE
8
Black
10
117.921
20
-112.355
11
118.124
21
-112.526
0
LINE
8
Black
10
118.124
20
-112.526
11
118.256
21
-112.755
0
LINE
8
Black
10
118.256
20
-112.755
11
118.302
21
-113.015
0
LINE
8
Black
10
118.302
20
-113.015
11
118.302
21
-114.985
0
LINE
8
Black
10
118.302
20
-114.985
11
118.256
21
-115.245
0
LINE
8
Black
10
118.256
20
-115.245
11
118.124
21
-115.474
0
LINE
8
Black
10
118.124
20
-115.474
11
117.921
21
-115.645
0
LINE
8
Black
10
117.921
20
-115.645
11
117.672
21
-115.735
0
LINE
8
Black
10
117.672
20
-115.735
11
117.408
21
-115.735
0
LINE
8
Black
10
117.408
20
-115.735
11
117.159
21
-115.645
0
LINE
8
Black
10
117.159
20
-115.645
11
116.956
21
-115.474
0
LINE
8
Black
10
116.956
20
-115.474
11
116.824
21
-115.245
0
LINE
8
Black
10
116.824
20
-115.245
11
116.778
21
-114.985
0
LINE
8
Black
10
116.778
20
-114.985
11
116.778
21
-113.015
0
LINE
8
Black
10
116.778
20
-113.015
11
116.824
21
-112.755
0
LINE
8
Black
10
116.824
20
-112.755
11
116.956
21
-112.526
0
LINE
8
Black
10
116.956
20
-112.526
11
117.159
21
-112.355
0
LINE
8
Black
10
117.159
20
-112.355
11
117.408
21
-112.265
0
LINE
8
Black
10
117.408
20
-112.265
11
117.44
21
-112.265
0
LINE
8
Black
10
117.44
20
-112.265
11
117.44
21
-109.961
0
LINE
8
Black
10
117.44
20
-109.961
11
114.229
21
-106.751
0
LINE
8
Black
10
114.229
20
-106.751
11
114.227
21
-106.747
0
LINE
8
Black
10
114.227
20
-106.747
11
114.223
21
-106.744
0
LINE
8
Black
10
114.223
20
-106.744
11
114.217
21
-106.733
0
LINE
8
Black
10
114.217
20
-106.733
11
114.209
21
-106.722
0
LINE
8
Black
10
114.209
20
-106.722
11
114.208
21
-106.718
0
LINE
8
Black
10
114.208
20
-106.718
11
114.206
21
-106.714
0
LINE
8
Black
10
114.206
20
-106.714
11
114.204
21
-106.701
0
LINE
8
Black
10
114.204
20
-106.701
11
114.2
21
-106.689
0
LINE
8
Black
10
114.2
20
-106.689
11
114.201
21
-106.684
0
LINE
8
Black
10
114.201
20
-106.684
11
114.2
21
-106.68
0
LINE
8
Black
10
114.2
20
-106.68
11
114.2
21
-86.868
0
LINE
8
Black
10
114.2
20
-86.868
11
114.201
21
-86.8637
0
LINE
8
Black
10
114.201
20
-86.8637
11
114.2
21
-86.8593
0
LINE
8
Black
10
114.2
20
-86.8593
11
114.204
21
-86.8467
0
LINE
8
Black
10
114.204
20
-86.8467
11
114.206
21
-86.8338
0
LINE
8
Black
10
114.206
20
-86.8338
11
114.208
21
-86.83
0
LINE
8
Black
10
114.208
20
-86.83
11
114.209
21
-86.8257
0
LINE
8
Black
10
114.209
20
-86.8257
11
114.217
21
-86.815
0
LINE
8
Black
10
114.217
20
-86.815
11
114.223
21
-86.8037
0
LINE
8
Black
10
114.223
20
-86.8037
11
114.227
21
-86.8009
0
LINE
8
Black
10
114.227
20
-86.8009
11
114.229
21
-86.7973
0
LINE
8
Black
10
114.229
20
-86.7973
11
114.447
21
-86.5793
0
LINE
8
Black
10
114.447
20
-86.5793
11
114.451
21
-86.5768
0
LINE
8
Black
10
114.451
20
-86.5768
11
114.454
21
-86.5734
0
LINE
8
Black
10
114.454
20
-86.5734
11
114.465
21
-86.5669
0
LINE
8
Black
10
114.465
20
-86.5669
11
114.476
21
-86.5594
0
LINE
8
Black
10
114.476
20
-86.5594
11
114.48
21
-86.5582
0
LINE
8
Black
10
114.48
20
-86.5582
11
114.484
21
-86.556
0
LINE
8
Black
10
114.484
20
-86.556
11
114.497
21
-86.5538
0
LINE
8
Black
10
114.497
20
-86.5538
11
114.509
21
-86.5504
0
LINE
8
Black
10
114.509
20
-86.5504
11
114.514
21
-86.5508
0
LINE
8
Black
10
114.514
20
-86.5508
11
114.518
21
-86.55
0
LINE
8
Black
10
114.518
20
-86.55
11
114.95
21
-86.55
0
LINE
8
Black
10
114.95
20
-86.55
11
114.95
21
-86.15
0
LINE
8
Black
10
114.95
20
-86.15
11
118.1
21
-86.15
0
LINE
8
Black
10
118.1
20
-86.15
11
118.1
21
-86.55
0
LINE
8
Black
10
118.1
20
-86.55
11
119.811
21
-86.55
0
LINE
8
Black
10
119.811
20
-86.55
11
121.82
21
-84.5406
0
LINE
8
Black
10
121.82
20
-84.5406
11
121.82
21
-77.566
0
LINE
8
Black
10
121.82
20
-77.566
11
121.43
21
-77.566
0
LINE
8
Black
10
121.43
20
-77.566
11
121.43
21
-77.841
0
LINE
8
Black
10
121.43
20
-77.841
11
119.93
21
-77.841
0
LINE
8
Black
10
119.93
20
-77.841
11
119.93
21
-77.091
0
LINE
8
Black
10
119.93
20
-77.091
11
121.43
21
-77.091
0
LINE
8
Black
10
121.43
20
-77.091
11
121.43
21
-77.366
0
LINE
8
Black
10
121.43
20
-78.941
11
120.78
21
-78.941
0
LINE
8
Black
10
120.78
20
-78.941
11
120.78
21
-82.266
0
LINE
8
Black
10
120.78
20
-82.266
11
120.779
21
-82.2703
0
LINE
8
Black
10
120.779
20
-82.2703
11
120.78
21
-82.2747
0
LINE
8
Black
10
120.78
20
-82.2747
11
120.776
21
-82.2873
0
LINE
8
Black
10
120.776
20
-82.2873
11
120.774
21
-82.3002
0
LINE
8
Black
10
120.774
20
-82.3002
11
120.772
21
-82.304
0
LINE
8
Black
10
120.772
20
-82.304
11
120.771
21
-82.3083
0
LINE
8
Black
10
120.771
20
-82.3083
11
120.763
21
-82.319
0
LINE
8
Black
10
120.763
20
-82.319
11
120.757
21
-82.3303
0
LINE
8
Black
10
120.757
20
-82.3303
11
120.753
21
-82.3331
0
LINE
8
Black
10
120.753
20
-82.3331
11
120.751
21
-82.3367
0
LINE
8
Black
10
120.751
20
-82.3367
11
118.907
21
-84.1807
0
LINE
8
Black
10
118.907
20
-84.1807
11
118.903
21
-84.1832
0
LINE
8
Black
10
118.903
20
-84.1832
11
118.9
21
-84.1866
0
LINE
8
Black
10
118.9
20
-84.1866
11
118.889
21
-84.1931
0
LINE
8
Black
10
118.889
20
-84.1931
11
118.878
21
-84.2006
0
LINE
8
Black
10
118.878
20
-84.2006
11
118.874
21
-84.2018
0
LINE
8
Black
10
118.874
20
-84.2018
11
118.87
21
-84.204
0
LINE
8
Black
10
118.87
20
-84.204
11
118.857
21
-84.2062
0
LINE
8
Black
10
118.857
20
-84.2062
11
118.845
21
-84.2096
0
LINE
8
Black
10
118.845
20
-84.2096
11
118.84
21
-84.2092
0
LINE
8
Black
10
118.84
20
-84.2092
11
118.836
21
-84.21
0
LINE
8
Black
10
118.836
20
-84.21
11
118.1
21
-84.21
0
LINE
8
Black
10
118.1
20
-84.21
11
118.1
21
-84.61
0
LINE
8
Black
10
118.1
20
-84.61
11
114.95
21
-84.61
0
LINE
8
Black
10
114.95
20
-84.61
11
114.95
21
-84.21
0
LINE
8
Black
10
114.95
20
-84.21
11
114.559
21
-84.21
0
LINE
8
Black
10
114.559
20
-84.21
11
113.638
21
-85.1314
0
LINE
8
Black
10
113.638
20
-85.1314
11
113.638
21
-109.941
0
LINE
8
Black
10
113.638
20
-109.941
11
115.071
21
-111.373
0
LINE
8
Black
10
115.071
20
-111.373
11
115.073
21
-111.377
0
LINE
8
Black
10
115.073
20
-111.377
11
115.077
21
-111.38
0
LINE
8
Black
10
115.077
20
-111.38
11
115.083
21
-111.391
0
LINE
8
Black
10
115.083
20
-111.391
11
115.091
21
-111.402
0
LINE
8
Black
10
115.091
20
-111.402
11
115.092
21
-111.406
0
LINE
8
Black
10
115.092
20
-111.406
11
115.094
21
-111.41
0
LINE
8
Black
10
115.094
20
-111.41
11
115.096
21
-111.423
0
LINE
8
Black
10
115.096
20
-111.423
11
115.1
21
-111.435
0
LINE
8
Black
10
115.1
20
-111.435
11
115.099
21
-111.44
0
LINE
8
Black
10
115.099
20
-111.44
11
115.1
21
-111.444
0
LINE
8
Black
10
115.1
20
-111.444
11
115.1
21
-112.265
0
LINE
8
Black
10
115.1
20
-112.265
11
115.132
21
-112.265
0
LINE
8
Black
10
115.132
20
-112.265
11
115.381
21
-112.355
0
LINE
8
Black
10
115.381
20
-112.355
11
115.584
21
-112.526
0
LINE
8
Black
10
115.584
20
-112.526
11
115.716
21
-112.755
0
LINE
8
Black
10
115.716
20
-112.755
11
115.762
21
-113.015
0
LINE
8
Black
10
115.762
20
-113.015
11
115.762
21
-114.985
0
LINE
8
Black
10
115.762
20
-114.985
11
115.716
21
-115.245
0
LINE
8
Black
10
115.716
20
-115.245
11
115.584
21
-115.474
0
LINE
8
Black
10
115.584
20
-115.474
11
115.381
21
-115.645
0
LINE
8
Black
10
115.381
20
-115.645
11
115.132
21
-115.735
0
LINE
8
Black
10
115.132
20
-115.735
11
114.868
21
-115.735
0
LINE
8
Black
10
114.868
20
-115.735
11
114.619
21
-115.645
0
LINE
8
Black
10
114.619
20
-115.645
11
114.416
21
-115.474
0
LINE
8
Black
10
114.416
20
-115.474
11
114.284
21
-115.245
0
LINE
8
Black
10
114.284
20
-115.245
11
114.238
21
-114.985
0
LINE
8
Black
10
114.238
20
-114.985
11
114.238
21
-113.015
0
LINE
8
Black
10
114.238
20
-113.015
11
114.284
21
-112.755
0
LINE
8
Black
10
114.284
20
-112.755
11
114.416
21
-112.526
0
LINE
8
Black
10
114.416
20
-112.526
11
114.619
21
-112.355
0
LINE
8
Black
10
114.619
20
-112.355
11
114.868
21
-112.265
0
LINE
8
Black
10
114.868
20
-112.265
11
114.9
21
-112.265
0
LINE
8
Black
10
114.9
20
-112.265
11
114.9
21
-111.485
0
LINE
8
Black
10
114.9
20
-111.485
11
113.467
21
-110.053
0
LINE
8
Black
10
113.467
20
-110.053
11
113.465
21
-110.049
0
LINE
8
Black
10
113.465
20
-110.049
11
113.461
21
-110.046
0
LINE
8
Black
10
113.461
20
-110.046
11
113.455
21
-110.035
0
LINE
8
Black
10
113.455
20
-110.035
11
113.447
21
-110.024
0
LINE
8
Black
10
113.447
20
-110.024
11
113.446
21
-110.02
0
LINE
8
Black
10
113.446
20
-110.02
11
113.444
21
-110.016
0
LINE
8
Black
10
113.444
20
-110.016
11
113.442
21
-110.003
0
LINE
8
Black
10
113.442
20
-110.003
11
113.438
21
-109.991
0
LINE
8
Black
10
113.438
20
-109.991
11
113.439
21
-109.986
0
LINE
8
Black
10
113.439
20
-109.986
11
113.438
21
-109.982
0
LINE
8
Black
10
113.438
20
-109.982
11
113.438
21
-85.09
0
LINE
8
Black
10
113.438
20
-85.09
11
113.439
21
-85.0857
0
LINE
8
Black
10
113.439
20
-85.0857
11
113.438
21
-85.0813
0
LINE
8
Black
10
113.438
20
-85.0813
11
113.442
21
-85.0687
0
LINE
8
Black
10
113.442
20
-85.0687
11
113.444
21
-85.0558
0
LINE
8
Black
10
113.444
20
-85.0558
11
113.446
21
-85.052
0
LINE
8
Black
10
113.446
20
-85.052
11
113.447
21
-85.0477
0
LINE
8
Black
10
113.447
20
-85.0477
11
113.455
21
-85.037
0
LINE
8
Black
10
113.455
20
-85.037
11
113.461
21
-85.0257
0
LINE
8
Black
10
113.461
20
-85.0257
11
113.465
21
-85.0229
0
LINE
8
Black
10
113.465
20
-85.0229
11
113.467
21
-85.0193
0
LINE
8
Black
10
113.467
20
-85.0193
11
114.447
21
-84.0393
0
LINE
8
Black
10
114.447
20
-84.0393
11
114.451
21
-84.0368
0
LINE
8
Black
10
114.451
20
-84.0368
11
114.454
21
-84.0334
0
LINE
8
Black
10
114.454
20
-84.0334
11
114.465
21
-84.0269
0
LINE
8
Black
10
114.465
20
-84.0269
11
114.476
21
-84.0194
0
LINE
8
Black
10
114.476
20
-84.0194
11
114.48
21
-84.0182
0
LINE
8
Black
10
114.48
20
-84.0182
11
114.484
21
-84.016
0
LINE
8
Black
10
114.484
20
-84.016
11
114.497
21
-84.0138
0
LINE
8
Black
10
114.497
20
-84.0138
11
114.509
21
-84.0104
0
LINE
8
Black
10
114.509
20
-84.0104
11
114.514
21
-84.0108
0
LINE
8
Black
10
114.514
20
-84.0108
11
114.518
21
-84.01
0
LINE
8
Black
10
114.518
20
-84.01
11
114.95
21
-84.01
0
LINE
8
Black
10
114.95
20
-84.01
11
114.95
21
-83.61
0
LINE
8
Black
10
114.95
20
-83.61
11
118.1
21
-83.61
0
LINE
8
Black
10
118.1
20
-83.61
11
118.1
21
-84.01
0
LINE
8
Black
10
118.1
20
-84.01
11
118.795
21
-84.01
0
LINE
8
Black
10
118.795
20
-84.01
11
120.58
21
-82.2246
0
LINE
8
Black
10
120.58
20
-82.2246
11
120.58
21
-78.941
0
LINE
8
Black
10
120.58
20
-78.941
11
119.93
21
-78.941
0
LINE
8
Black
10
119.93
20
-78.941
11
119.93
21
-78.191
0
LINE
8
Black
10
119.93
20
-78.191
11
121.43
21
-78.191
0
LINE
8
Black
10
121.43
20
-78.191
11
121.43
21
-78.941
0
LINE
8
Black
10
107.43
20
-71.241
11
105.93
21
-71.241
0
LINE
8
Black
10
105.93
20
-71.241
11
105.93
21
-70.966
0
LINE
8
Black
10
105.93
20
-70.966
11
105.197
21
-70.966
0
LINE
8
Black
10
105.197
20
-70.966
11
102.208
21
-73.9554
0
LINE
8
Black
10
102.208
20
-73.9554
11
102.208
21
-95.9706
0
LINE
8
Black
10
102.208
20
-95.9706
11
108.027
21
-101.79
0
LINE
8
Black
10
108.027
20
-101.79
11
109.9
21
-101.79
0
LINE
8
Black
10
109.9
20
-101.79
11
109.9
21
-101.39
0
LINE
8
Black
10
109.9
20
-101.39
11
113.05
21
-101.39
0
LINE
8
Black
10
113.05
20
-101.39
11
113.05
21
-102.39
0
LINE
8
Black
10
113.05
20
-102.39
11
112.116
21
-102.39
0
LINE
8
Black
10
112.116
20
-102.39
11
112.531
21
-102.804
0
LINE
8
Black
10
112.531
20
-102.804
11
112.533
21
-102.808
0
LINE
8
Black
10
112.533
20
-102.808
11
112.537
21
-102.811
0
LINE
8
Black
10
112.537
20
-102.811
11
112.543
21
-102.822
0
LINE
8
Black
10
112.543
20
-102.822
11
112.551
21
-102.833
0
LINE
8
Black
10
112.551
20
-102.833
11
112.552
21
-102.837
0
LINE
8
Black
10
112.552
20
-102.837
11
112.554
21
-102.841
0
LINE
8
Black
10
112.554
20
-102.841
11
112.556
21
-102.854
0
LINE
8
Black
10
112.556
20
-102.854
11
112.56
21
-102.866
0
LINE
8
Black
10
112.56
20
-102.866
11
112.559
21
-102.871
0
LINE
8
Black
10
112.559
20
-102.871
11
112.56
21
-102.875
0
LINE
8
Black
10
112.56
20
-102.875
11
112.56
21
-112.265
0
LINE
8
Black
10
112.56
20
-112.265
11
112.592
21
-112.265
0
LINE
8
Black
10
112.592
20
-112.265
11
112.841
21
-112.355
0
LINE
8
Black
10
112.841
20
-112.355
11
113.044
21
-112.526
0
LINE
8
Black
10
113.044
20
-112.526
11
113.176
21
-112.755
0
LINE
8
Black
10
113.176
20
-112.755
11
113.222
21
-113.015
0
LINE
8
Black
10
113.222
20
-113.015
11
113.222
21
-114.985
0
LINE
8
Black
10
113.222
20
-114.985
11
113.176
21
-115.245
0
LINE
8
Black
10
113.176
20
-115.245
11
113.044
21
-115.474
0
LINE
8
Black
10
113.044
20
-115.474
11
112.841
21
-115.645
0
LINE
8
Black
10
112.841
20
-115.645
11
112.592
21
-115.735
0
LINE
8
Black
10
112.592
20
-115.735
11
112.328
21
-115.735
0
LINE
8
Black
10
112.328
20
-115.735
11
112.079
21
-115.645
0
LINE
8
Black
10
112.079
20
-115.645
11
111.876
21
-115.474
0
LINE
8
Black
10
111.876
20
-115.474
11
111.744
21
-115.245
0
LINE
8
Black
10
111.744
20
-115.245
11
111.698
21
-114.985
0
LINE
8
Black
10
111.698
20
-114.985
11
111.698
21
-113.015
0
LINE
8
Black
10
111.698
20
-113.015
11
111.744
21
-112.755
0
LINE
8
Black
10
111.744
20
-112.755
11
111.876
21
-112.526
0
LINE
8
Black
10
111.876
20
-112.526
11
112.079
21
-112.355
0
LINE
8
Black
10
112.079
20
-112.355
11
112.328
21
-112.265
0
LINE
8
Black
10
112.328
20
-112.265
11
112.36
21
-112.265
0
LINE
8
Black
10
112.36
20
-112.265
11
112.36
21
-102.916
0
LINE
8
Black
10
112.36
20
-102.916
11
111.834
21
-102.39
0
LINE
8
Black
10
111.834
20
-102.39
11
109.9
21
-102.39
0
LINE
8
Black
10
109.9
20
-102.39
11
109.9
21
-101.99
0
LINE
8
Black
10
109.9
20
-101.99
11
107.986
21
-101.99
0
LINE
8
Black
10
107.986
20
-101.99
11
107.982
21
-101.989
0
LINE
8
Black
10
107.982
20
-101.989
11
107.977
21
-101.99
0
LINE
8
Black
10
107.977
20
-101.99
11
107.965
21
-101.986
0
LINE
8
Black
10
107.965
20
-101.986
11
107.952
21
-101.984
0
LINE
8
Black
10
107.952
20
-101.984
11
107.948
21
-101.982
0
LINE
8
Black
10
107.948
20
-101.982
11
107.944
21
-101.981
0
LINE
8
Black
10
107.944
20
-101.981
11
107.933
21
-101.973
0
LINE
8
Black
10
107.933
20
-101.973
11
107.922
21
-101.967
0
LINE
8
Black
10
107.922
20
-101.967
11
107.919
21
-101.963
0
LINE
8
Black
10
107.919
20
-101.963
11
107.915
21
-101.961
0
LINE
8
Black
10
107.915
20
-101.961
11
102.037
21
-96.0827
0
LINE
8
Black
10
102.037
20
-96.0827
11
102.035
21
-96.0791
0
LINE
8
Black
10
102.035
20
-96.0791
11
102.031
21
-96.0763
0
LINE
8
Black
10
102.031
20
-96.0763
11
102.025
21
-96.065
0
LINE
8
Black
10
102.025
20
-96.065
11
102.017
21
-96.0543
0
LINE
8
Black
10
102.017
20
-96.0543
11
102.016
21
-96.05
0
LINE
8
Black
10
102.016
20
-96.05
11
102.014
21
-96.0462
0
LINE
8
Black
10
102.014
20
-96.0462
11
102.012
21
-96.0333
0
LINE
8
Black
10
102.012
20
-96.0333
11
102.008
21
-96.0207
0
LINE
8
Black
10
102.008
20
-96.0207
11
102.009
21
-96.0163
0
LINE
8
Black
10
102.009
20
-96.0163
11
102.008
21
-96.012
0
LINE
8
Black
10
102.008
20
-96.012
11
102.008
21
-73.914
0
LINE
8
Black
10
102.008
20
-73.914
11
102.009
21
-73.9097
0
LINE
8
Black
10
102.009
20
-73.9097
11
102.008
21
-73.9053
0
LINE
8
Black
10
102.008
20
-73.9053
11
102.012
21
-73.8927
0
LINE
8
Black
10
102.012
20
-73.8927
11
102.014
21
-73.8798
0
LINE
8
Black
10
102.014
20
-73.8798
11
102.016
21
-73.876
0
LINE
8
Black
10
102.016
20
-73.876
11
102.017
21
-73.8717
0
LINE
8
Black
10
102.017
20
-73.8717
11
102.025
21
-73.861
0
LINE
8
Black
10
102.025
20
-73.861
11
102.031
21
-73.8497
0
LINE
8
Black
10
102.031
20
-73.8497
11
102.035
21
-73.8469
0
LINE
8
Black
10
102.035
20
-73.8469
11
102.037
21
-73.8433
0
LINE
8
Black
10
102.037
20
-73.8433
11
105.085
21
-70.7953
0
LINE
8
Black
10
105.085
20
-70.7953
11
105.089
21
-70.7928
0
LINE
8
Black
10
105.089
20
-70.7928
11
105.092
21
-70.7894
0
LINE
8
Black
10
105.092
20
-70.7894
11
105.103
21
-70.7829
0
LINE
8
Black
10
105.103
20
-70.7829
11
105.114
21
-70.7754
0
LINE
8
Black
10
105.114
20
-70.7754
11
105.118
21
-70.7742
0
LINE
8
Black
10
105.118
20
-70.7742
11
105.122
21
-70.772
0
LINE
8
Black
10
105.122
20
-70.772
11
105.135
21
-70.7698
0
LINE
8
Black
10
105.135
20
-70.7698
11
105.147
21
-70.7664
0
LINE
8
Black
10
105.147
20
-70.7664
11
105.152
21
-70.7668
0
LINE
8
Black
10
105.152
20
-70.7668
11
105.156
21
-70.766
0
LINE
8
Black
10
105.156
20
-70.766
11
105.93
21
-70.766
0
LINE
8
Black
10
105.93
20
-70.766
11
105.93
21
-70.491
0
LINE
8
Black
10
105.93
20
-70.491
11
107.43
21
-70.491
0
LINE
8
Black
10
107.43
20
-70.491
11
107.43
21
-71.241
0
LINE
8
Black
10
107.954
20
-69.7508
11
107.959
21
-69.7504
0
LINE
8
Black
10
107.959
20
-69.7504
11
107.971
21
-69.7538
0
LINE
8
Black
10
107.971
20
-69.7538
11
107.984
21
-69.756
0
LINE
8
Black
10
107.984
20
-69.756
11
107.988
21
-69.7582
0
LINE
8
Black
10
107.988
20
-69.7582
11
107.992
21
-69.7594
0
LINE
8
Black
10
107.992
20
-69.7594
11
108.003
21
-69.7669
0
LINE
8
Black
10
108.003
20
-69.7669
11
108.014
21
-69.7734
0
LINE
8
Black
10
108.014
20
-69.7734
11
108.017
21
-69.7768
0
LINE
8
Black
10
108.017
20
-69.7768
11
108.021
21
-69.7793
0
LINE
8
Black
10
108.021
20
-69.7793
11
108.529
21
-70.2873
0
LINE
8
Black
10
108.529
20
-70.2873
11
108.531
21
-70.2909
0
LINE
8
Black
10
108.531
20
-70.2909
11
108.535
21
-70.2937
0
LINE
8
Black
10
108.535
20
-70.2937
11
108.541
21
-70.305
0
LINE
8
Black
10
108.541
20
-70.305
11
108.549
21
-70.3157
0
LINE
8
Black
10
108.549
20
-70.3157
11
108.55
21
-70.32
0
LINE
8
Black
10
108.55
20
-70.32
11
108.552
21
-70.3238
0
LINE
8
Black
10
108.552
20
-70.3238
11
108.554
21
-70.3367
0
LINE
8
Black
10
108.554
20
-70.3367
11
108.558
21
-70.3493
0
LINE
8
Black
10
108.558
20
-70.3493
11
108.557
21
-70.3537
0
LINE
8
Black
10
108.557
20
-70.3537
11
108.558
21
-70.358
0
LINE
8
Black
10
108.558
20
-70.358
11
108.558
21
-71.628
0
LINE
8
Black
10
108.558
20
-71.628
11
108.557
21
-71.6323
0
LINE
8
Black
10
108.557
20
-71.6323
11
108.558
21
-71.6367
0
LINE
8
Black
10
108.558
20
-71.6367
11
108.554
21
-71.6493
0
LINE
8
Black
10
108.554
20
-71.6493
11
108.552
21
-71.6622
0
LINE
8
Black
10
108.552
20
-71.6622
11
108.55
21
-71.666
0
LINE
8
Black
10
108.55
20
-71.666
11
108.549
21
-71.6703
0
LINE
8
Black
10
108.549
20
-71.6703
11
108.541
21
-71.681
0
LINE
8
Black
10
108.541
20
-71.681
11
108.535
21
-71.6923
0
LINE
8
Black
10
108.535
20
-71.6923
11
108.531
21
-71.6951
0
LINE
8
Black
10
108.531
20
-71.6951
11
108.529
21
-71.6987
0
LINE
8
Black
10
108.529
20
-71.6987
11
108.191
21
-72.0367
0
LINE
8
Black
10
108.191
20
-72.0367
11
108.187
21
-72.0392
0
LINE
8
Black
10
108.187
20
-72.0392
11
108.184
21
-72.0426
0
LINE
8
Black
10
108.184
20
-72.0426
11
108.173
21
-72.0491
0
LINE
8
Black
10
108.173
20
-72.0491
11
108.162
21
-72.0566
0
LINE
8
Black
10
108.162
20
-72.0566
11
108.158
21
-72.0578
0
LINE
8
Black
10
108.158
20
-72.0578
11
108.154
21
-72.06
0
LINE
8
Black
10
108.154
20
-72.06
11
108.141
21
-72.0622
0
LINE
8
Black
10
108.141
20
-72.0622
11
108.129
21
-72.0656
0
LINE
8
Black
10
108.129
20
-72.0656
11
108.124
21
-72.0652
0
LINE
8
Black
10
108.124
20
-72.0652
11
108.12
21
-72.066
0
LINE
8
Black
10
108.12
20
-72.066
11
107.43
21
-72.066
0
LINE
8
Black
10
107.43
20
-72.066
11
107.43
21
-72.341
0
LINE
8
Black
10
107.43
20
-72.341
11
105.93
21
-72.341
0
LINE
8
Black
10
105.93
20
-72.341
11
105.93
21
-72.066
0
LINE
8
Black
10
105.93
20
-72.066
11
105.367
21
-72.066
0
LINE
8
Black
10
105.367
20
-72.066
11
102.716
21
-74.7174
0
LINE
8
Black
10
102.716
20
-74.7174
11
102.716
21
-94.9546
0
LINE
8
Black
10
102.716
20
-94.9546
11
107.011
21
-99.25
0
LINE
8
Black
10
107.011
20
-99.25
11
109.9
21
-99.25
0
LINE
8
Black
10
109.9
20
-99.25
11
109.9
21
-98.85
0
LINE
8
Black
10
109.9
20
-98.85
11
113.05
21
-98.85
0
LINE
8
Black
10
113.05
20
-98.85
11
113.05
21
-99.85
0
LINE
8
Black
10
113.05
20
-99.85
11
109.9
21
-99.85
0
LINE
8
Black
10
109.9
20
-99.85
11
109.9
21
-99.45
0
LINE
8
Black
10
109.9
20
-99.45
11
106.97
21
-99.45
0
LINE
8
Black
10
106.97
20
-99.45
11
106.966
21
-99.4492
0
LINE
8
Black
10
106.966
20
-99.4492
11
106.961
21
-99.4496
0
LINE
8
Black
10
106.961
20
-99.4496
11
106.949
21
-99.4462
0
LINE
8
Black
10
106.949
20
-99.4462
11
106.936
21
-99.444
0
LINE
8
Black
10
106.936
20
-99.444
11
106.932
21
-99.4418
0
LINE
8
Black
10
106.932
20
-99.4418
11
106.928
21
-99.4406
0
LINE
8
Black
10
106.928
20
-99.4406
11
106.917
21
-99.4331
0
LINE
8
Black
10
106.917
20
-99.4331
11
106.906
21
-99.4266
0
LINE
8
Black
10
106.906
20
-99.4266
11
106.903
21
-99.4232
0
LINE
8
Black
10
106.903
20
-99.4232
11
106.899
21
-99.4207
0
LINE
8
Black
10
106.899
20
-99.4207
11
102.545
21
-95.0667
0
LINE
8
Black
10
102.545
20
-95.0667
11
102.543
21
-95.0631
0
LINE
8
Black
10
102.543
20
-95.0631
11
102.539
21
-95.0603
0
LINE
8
Black
10
102.539
20
-95.0603
11
102.533
21
-95.049
0
LINE
8
Black
10
102.533
20
-95.049
11
102.525
21
-95.0383
0
LINE
8
Black
10
102.525
20
-95.0383
11
102.524
21
-95.034
0
LINE
8
Black
10
102.524
20
-95.034
11
102.522
21
-95.0302
0
LINE
8
Black
10
102.522
20
-95.0302
11
102.52
21
-95.0173
0
LINE
8
Black
10
102.52
20
-95.0173
11
102.516
21
-95.0047
0
LINE
8
Black
10
102.516
20
-95.0047
11
102.517
21
-95.0003
0
LINE
8
Black
10
102.517
20
-95.0003
11
102.516
21
-94.996
0
LINE
8
Black
10
102.516
20
-94.996
11
102.516
21
-74.676
0
LINE
8
Black
10
102.516
20
-74.676
11
102.517
21
-74.6717
0
LINE
8
Black
10
102.517
20
-74.6717
11
102.516
21
-74.6673
0
LINE
8
Black
10
102.516
20
-74.6673
11
102.52
21
-74.6547
0
LINE
8
Black
10
102.52
20
-74.6547
11
102.522
21
-74.6418
0
LINE
8
Black
10
102.522
20
-74.6418
11
102.524
21
-74.638
0
LINE
8
Black
10
102.524
20
-74.638
11
102.525
21
-74.6337
0
LINE
8
Black
10
102.525
20
-74.6337
11
102.533
21
-74.623
0
LINE
8
Black
10
102.533
20
-74.623
11
102.539
21
-74.6117
0
LINE
8
Black
10
102.539
20
-74.6117
11
102.543
21
-74.6089
0
LINE
8
Black
10
102.543
20
-74.6089
11
102.545
21
-74.6053
0
LINE
8
Black
10
102.545
20
-74.6053
11
105.255
21
-71.8953
0
LINE
8
Black
10
105.255
20
-71.8953
11
105.259
21
-71.8928
0
LINE
8
Black
10
105.259
20
-71.8928
11
105.262
21
-71.8894
0
LINE
8
Black
10
105.262
20
-71.8894
11
105.273
21
-71.8829
0
LINE
8
Black
10
105.273
20
-71.8829
11
105.284
21
-71.8754
0
LINE
8
Black
10
105.284
20
-71.8754
11
105.288
21
-71.8742
0
LINE
8
Black
10
105.288
20
-71.8742
11
105.292
21
-71.872
0
LINE
8
Black
10
105.292
20
-71.872
11
105.305
21
-71.8698
0
LINE
8
Black
10
105.305
20
-71.8698
11
105.317
21
-71.8664
0
LINE
8
Black
10
105.317
20
-71.8664
11
105.322
21
-71.8668
0
LINE
8
Black
10
105.322
20
-71.8668
11
105.326
21
-71.866
0
LINE
8
Black
10
105.326
20
-71.866
11
105.93
21
-71.866
0
LINE
8
Black
10
105.93
20
-71.866
11
105.93
21
-71.591
0
LINE
8
Black
10
105.93
20
-71.591
11
107.43
21
-71.591
0
LINE
8
Black
10
107.43
20
-71.591
11
107.43
21
-71.866
0
LINE
8
Black
10
107.43
20
-71.866
11
108.079
21
-71.866
0
LINE
8
Black
10
108.079
20
-71.866
11
108.358
21
-71.5866
0
LINE
8
Black
10
108.358
20
-71.5866
11
108.358
21
-70.3994
0
LINE
8
Black
10
108.358
20
-70.3994
11
107.909
21
-69.95
0
LINE
8
Black
10
107.909
20
-69.95
11
104.435
21
-69.95
0
LINE
8
Black
10
104.435
20
-69.95
11
101.7
21
-72.6854
0
LINE
8
Black
10
101.7
20
-72.6854
11
101.7
21
-99.5266
0
LINE
8
Black
10
101.7
20
-99.5266
11
109.991
21
-107.817
0
LINE
8
Black
10
109.991
20
-107.817
11
109.993
21
-107.821
0
LINE
8
Black
10
109.993
20
-107.821
11
109.997
21
-107.824
0
LINE
8
Black
10
109.997
20
-107.824
11
110.003
21
-107.835
0
LINE
8
Black
10
110.003
20
-107.835
11
110.011
21
-107.846
0
LINE
8
Black
10
110.011
20
-107.846
11
110.012
21
-107.85
0
LINE
8
Black
10
110.012
20
-107.85
11
110.014
21
-107.854
0
LINE
8
Black
10
110.014
20
-107.854
11
110.016
21
-107.867
0
LINE
8
Black
10
110.016
20
-107.867
11
110.02
21
-107.879
0
LINE
8
Black
10
110.02
20
-107.879
11
110.019
21
-107.884
0
LINE
8
Black
10
110.019
20
-107.884
11
110.02
21
-107.888
0
LINE
8
Black
10
110.02
20
-107.888
11
110.02
21
-112.265
0
LINE
8
Black
10
110.02
20
-112.265
11
110.052
21
-112.265
0
LINE
8
Black
10
110.052
20
-112.265
11
110.301
21
-112.355
0
LINE
8
Black
10
110.301
20
-112.355
11
110.504
21
-112.526
0
LINE
8
Black
10
110.504
20
-112.526
11
110.636
21
-112.755
0
LINE
8
Black
10
110.636
20
-112.755
11
110.682
21
-113.015
0
LINE
8
Black
10
110.682
20
-113.015
11
110.682
21
-114.985
0
LINE
8
Black
10
110.682
20
-114.985
11
110.636
21
-115.245
0
LINE
8
Black
10
110.636
20
-115.245
11
110.504
21
-115.474
0
LINE
8
Black
10
110.504
20
-115.474
11
110.301
21
-115.645
0
LINE
8
Black
10
110.301
20
-115.645
11
110.052
21
-115.735
0
LINE
8
Black
10
110.052
20
-115.735
11
109.788
21
-115.735
0
LINE
8
Black
10
109.788
20
-115.735
11
109.539
21
-115.645
0
LINE
8
Black
10
109.539
20
-115.645
11
109.336
21
-115.474
0
LINE
8
Black
10
109.336
20
-115.474
11
109.204
21
-115.245
0
LINE
8
Black
10
109.204
20
-115.245
11
109.158
21
-114.985
0
LINE
8
Black
10
109.158
20
-114.985
11
109.158
21
-113.015
0
LINE
8
Black
10
109.158
20
-113.015
11
109.204
21
-112.755
0
LINE
8
Black
10
109.204
20
-112.755
11
109.336
21
-112.526
0
LINE
8
Black
10
109.336
20
-112.526
11
109.539
21
-112.355
0
LINE
8
Black
10
109.539
20
-112.355
11
109.788
21
-112.265
0
LINE
8
Black
10
109.788
20
-112.265
11
109.82
21
-112.265
0
LINE
8
Black
10
109.82
20
-112.265
11
109.82
21
-107.929
0
LINE
8
Black
10
109.82
20
-107.929
11
101.529
21
-99.6387
0
LINE
8
Black
10
101.529
20
-99.6387
11
101.527
21
-99.6351
0
LINE
8
Black
10
101.527
20
-99.6351
11
101.523
21
-99.6323
0
LINE
8
Black
10
101.523
20
-99.6323
11
101.517
21
-99.621
0
LINE
8
Black
10
101.517
20
-99.621
11
101.509
21
-99.6103
0
LINE
8
Black
10
101.509
20
-99.6103
11
101.508
21
-99.606
0
LINE
8
Black
10
101.508
20
-99.606
11
101.506
21
-99.6022
0
LINE
8
Black
10
101.506
20
-99.6022
11
101.504
21
-99.5893
0
LINE
8
Black
10
101.504
20
-99.5893
11
101.5
21
-99.5767
0
LINE
8
Black
10
101.5
20
-99.5767
11
101.501
21
-99.5723
0
LINE
8
Black
10
101.501
20
-99.5723
11
101.5
21
-99.568
0
LINE
8
Black
10
101.5
20
-99.568
11
101.5
21
-72.644
0
LINE
8
Black
10
101.5
20
-72.644
11
101.501
21
-72.6397
0
LINE
8
Black
10
101.501
20
-72.6397
11
101.5
21
-72.6353
0
LINE
8
Black
10
101.5
20
-72.6353
11
101.504
21
-72.6227
0
LINE
8
Black
10
101.504
20
-72.6227
11
101.506
21
-72.6098
0
LINE
8
Black
10
101.506
20
-72.6098
11
101.508
21
-72.606
0
LINE
8
Black
10
101.508
20
-72.606
11
101.509
21
-72.6017
0
LINE
8
Black
10
101.509
20
-72.6017
11
101.517
21
-72.591
0
LINE
8
Black
10
101.517
20
-72.591
11
101.523
21
-72.5797
0
LINE
8
Black
10
101.523
20
-72.5797
11
101.527
21
-72.5769
0
LINE
8
Black
10
101.527
20
-72.5769
11
101.529
21
-72.5733
0
LINE
8
Black
10
101.529
20
-72.5733
11
104.323
21
-69.7793
0
LINE
8
Black
10
104.323
20
-69.7793
11
104.327
21
-69.7768
0
LINE
8
Black
10
104.327
20
-69.7768
11
104.33
21
-69.7734
0
LINE
8
Black
10
104.33
20
-69.7734
11
104.341
21
-69.7669
0
LINE
8
Black
10
104.341
20
-69.7669
11
104.352
21
-69.7594
0
LINE
8
Black
10
104.352
20
-69.7594
11
104.356
21
-69.7582
0
LINE
8
Black
10
104.356
20
-69.7582
11
104.36
21
-69.756
0
LINE
8
Black
10
104.36
20
-69.756
11
104.373
21
-69.7538
0
LINE
8
Black
10
104.373
20
-69.7538
11
104.385
21
-69.7504
0
LINE
8
Black
10
104.385
20
-69.7504
11
104.39
21
-69.7508
0
LINE
8
Black
10
104.39
20
-69.7508
11
104.394
21
-69.75
0
LINE
8
Black
10
104.394
20
-69.75
11
107.95
21
-69.75
0
LINE
8
Black
10
107.95
20
-69.75
11
107.954
21
-69.7508
0
LINE
8
Black
10
121.43
20
-70.766
11
123.698
21
-70.766
0
LINE
8
Black
10
123.698
20
-70.766
11
123.702
21
-70.7668
0
LINE
8
Black
10
123.702
20
-70.7668
11
123.707
21
-70.7664
0
LINE
8
Black
10
123.707
20
-70.7664
11
123.719
21
-70.7698
0
LINE
8
Black
10
123.719
20
-70.7698
11
123.732
21
-70.772
0
LINE
8
Black
10
123.732
20
-70.772
11
123.736
21
-70.7742
0
LINE
8
Black
10
123.736
20
-70.7742
11
123.74
21
-70.7754
0
LINE
8
Black
10
123.74
20
-70.7754
11
123.751
21
-70.7829
0
LINE
8
Black
10
123.751
20
-70.7829
11
123.762
21
-70.7894
0
LINE
8
Black
10
123.762
20
-70.7894
11
123.765
21
-70.7928
0
LINE
8
Black
10
123.765
20
-70.7928
11
123.769
21
-70.7953
0
LINE
8
Black
10
123.769
20
-70.7953
11
125.039
21
-72.0653
0
LINE
8
Black
10
125.039
20
-72.0653
11
125.041
21
-72.0689
0
LINE
8
Black
10
125.041
20
-72.0689
11
125.045
21
-72.0717
0
LINE
8
Black
10
125.045
20
-72.0717
11
125.051
21
-72.083
0
LINE
8
Black
10
125.051
20
-72.083
11
125.059
21
-72.0937
0
LINE
8
Black
10
125.059
20
-72.0937
11
125.06
21
-72.098
0
LINE
8
Black
10
125.06
20
-72.098
11
125.062
21
-72.1018
0
LINE
8
Black
10
125.062
20
-72.1018
11
125.064
21
-72.1147
0
LINE
8
Black
10
125.064
20
-72.1147
11
125.068
21
-72.1273
0
LINE
8
Black
10
125.068
20
-72.1273
11
125.067
21
-72.1317
0
LINE
8
Black
10
125.067
20
-72.1317
11
125.068
21
-72.136
0
LINE
8
Black
10
125.068
20
-72.136
11
125.068
21
-96.774
0
LINE
8
Black
10
125.068
20
-96.774
11
125.067
21
-96.7783
0
LINE
8
Black
10
125.067
20
-96.7783
11
125.068
21
-96.7827
0
LINE
8
Black
10
125.068
20
-96.7827
11
125.064
21
-96.7953
0
LINE
8
Black
10
125.064
20
-96.7953
11
125.062
21
-96.8082
0
LINE
8
Black
10
125.062
20
-96.8082
11
125.06
21
-96.812
0
LINE
8
Black
10
125.06
20
-96.812
11
125.059
21
-96.8163
0
LINE
8
Black
10
125.059
20
-96.8163
11
125.051
21
-96.827
0
LINE
8
Black
10
125.051
20
-96.827
11
125.045
21
-96.8383
0
LINE
8
Black
10
125.045
20
-96.8383
11
125.041
21
-96.8411
0
LINE
8
Black
10
125.041
20
-96.8411
11
125.039
21
-96.8447
0
LINE
8
Black
10
125.039
20
-96.8447
11
119.923
21
-101.961
0
LINE
8
Black
10
119.923
20
-101.961
11
119.919
21
-101.963
0
LINE
8
Black
10
119.919
20
-101.963
11
119.916
21
-101.967
0
LINE
8
Black
10
119.916
20
-101.967
11
119.905
21
-101.973
0
LINE
8
Black
10
119.905
20
-101.973
11
119.894
21
-101.981
0
LINE
8
Black
10
119.894
20
-101.981
11
119.89
21
-101.982
0
LINE
8
Black
10
119.89
20
-101.982
11
119.886
21
-101.984
0
LINE
8
Black
10
119.886
20
-101.984
11
119.873
21
-101.986
0
LINE
8
Black
10
119.873
20
-101.986
11
119.861
21
-101.99
0
LINE
8
Black
10
119.861
20
-101.99
11
119.856
21
-101.989
0
LINE
8
Black
10
119.856
20
-101.989
11
119.852
21
-101.99
0
LINE
8
Black
10
119.852
20
-101.99
11
118.1
21
-101.99
0
LINE
8
Black
10
118.1
20
-101.99
11
118.1
21
-102.39
0
LINE
8
Black
10
118.1
20
-102.39
11
114.95
21
-102.39
0
LINE
8
Black
10
114.95
20
-102.39
11
114.95
21
-101.39
0
LINE
8
Black
10
114.95
20
-101.39
11
118.1
21
-101.39
0
LINE
8
Black
10
118.1
20
-101.39
11
118.1
21
-101.79
0
LINE
8
Black
10
118.1
20
-101.79
11
119.811
21
-101.79
0
LINE
8
Black
10
119.811
20
-101.79
11
124.868
21
-96.7326
0
LINE
8
Black
10
124.868
20
-96.7326
11
124.868
21
-72.1774
0
LINE
8
Black
10
124.868
20
-72.1774
11
123.657
21
-70.966
0
LINE
8
Black
10
123.657
20
-70.966
11
121.43
21
-70.966
0
LINE
8
Black
10
121.43
20
-70.966
11
121.43
21
-71.241
0
LINE
8
Black
10
121.43
20
-71.241
11
119.93
21
-71.241
0
LINE
8
Black
10
119.93
20
-71.241
11
119.93
21
-70.491
0
LINE
8
Black
10
119.93
20
-70.491
11
121.43
21
-70.491
0
LINE
8
Black
10
121.43
20
-70.491
11
121.43
21
-70.766
0
LINE
8
Black
10
121.43
20
-71.866
11
123.528
21
-71.866
0
LINE
8
Black
10
123.528
20
-71.866
11
123.532
21
-71.8668
0
LINE
8
Black
10
123.532
20
-71.8668
11
123.537
21
-71.8664
0
LINE
8
Black
10
123.537
20
-71.8664
11
123.549
21
-71.8698
0
LINE
8
Black
10
123.549
20
-71.8698
11
123.562
21
-71.872
0
LINE
8
Black
10
123.562
20
-71.872
11
123.566
21
-71.8742
0
LINE
8
Black
10
123.566
20
-71.8742
11
123.57
21
-71.8754
0
LINE
8
Black
10
123.57
20
-71.8754
11
123.581
21
-71.8829
0
LINE
8
Black
10
123.581
20
-71.8829
11
123.592
21
-71.8894
0
LINE
8
Black
10
123.592
20
-71.8894
11
123.595
21
-71.8928
0
LINE
8
Black
10
123.595
20
-71.8928
11
123.599
21
-71.8953
0
LINE
8
Black
10
123.599
20
-71.8953
11
124.531
21
-72.8273
0
LINE
8
Black
10
124.531
20
-72.8273
11
124.533
21
-72.8309
0
LINE
8
Black
10
124.533
20
-72.8309
11
124.537
21
-72.8337
0
LINE
8
Black
10
124.537
20
-72.8337
11
124.543
21
-72.845
0
LINE
8
Black
10
124.543
20
-72.845
11
124.551
21
-72.8557
0
LINE
8
Black
10
124.551
20
-72.8557
11
124.552
21
-72.86
0
LINE
8
Black
10
124.552
20
-72.86
11
124.554
21
-72.8638
0
LINE
8
Black
10
124.554
20
-72.8638
11
124.556
21
-72.8767
0
LINE
8
Black
10
124.556
20
-72.8767
11
124.56
21
-72.8893
0
LINE
8
Black
10
124.56
20
-72.8893
11
124.559
21
-72.8937
0
LINE
8
Black
10
124.559
20
-72.8937
11
124.56
21
-72.898
0
LINE
8
Black
10
124.56
20
-72.898
11
124.56
21
-94.742
0
LINE
8
Black
10
124.56
20
-94.742
11
124.559
21
-94.7463
0
LINE
8
Black
10
124.559
20
-94.7463
11
124.56
21
-94.7507
0
LINE
8
Black
10
124.56
20
-94.7507
11
124.556
21
-94.7633
0
LINE
8
Black
10
124.556
20
-94.7633
11
124.554
21
-94.7762
0
LINE
8
Black
10
124.554
20
-94.7762
11
124.552
21
-94.78
0
LINE
8
Black
10
124.552
20
-94.78
11
124.551
21
-94.7843
0
LINE
8
Black
10
124.551
20
-94.7843
11
124.543
21
-94.795
0
LINE
8
Black
10
124.543
20
-94.795
11
124.537
21
-94.8063
0
LINE
8
Black
10
124.537
20
-94.8063
11
124.533
21
-94.8091
0
LINE
8
Black
10
124.533
20
-94.8091
11
124.531
21
-94.8127
0
LINE
8
Black
10
124.531
20
-94.8127
11
119.923
21
-99.4207
0
LINE
8
Black
10
119.923
20
-99.4207
11
119.919
21
-99.4232
0
LINE
8
Black
10
119.919
20
-99.4232
11
119.916
21
-99.4266
0
LINE
8
Black
10
119.916
20
-99.4266
11
119.905
21
-99.4331
0
LINE
8
Black
10
119.905
20
-99.4331
11
119.894
21
-99.4406
0
LINE
8
Black
10
119.894
20
-99.4406
11
119.89
21
-99.4418
0
LINE
8
Black
10
119.89
20
-99.4418
11
119.886
21
-99.444
0
LINE
8
Black
10
119.886
20
-99.444
11
119.873
21
-99.4462
0
LINE
8
Black
10
119.873
20
-99.4462
11
119.861
21
-99.4496
0
LINE
8
Black
10
119.861
20
-99.4496
11
119.856
21
-99.4492
0
LINE
8
Black
10
119.856
20
-99.4492
11
119.852
21
-99.45
0
LINE
8
Black
10
119.852
20
-99.45
11
118.1
21
-99.45
0
LINE
8
Black
10
118.1
20
-99.45
11
118.1
21
-99.85
0
LINE
8
Black
10
118.1
20
-99.85
11
114.95
21
-99.85
0
LINE
8
Black
10
114.95
20
-99.85
11
114.95
21
-98.85
0
LINE
8
Black
10
114.95
20
-98.85
11
118.1
21
-98.85
0
LINE
8
Black
10
118.1
20
-98.85
11
118.1
21
-99.25
0
LINE
8
Black
10
118.1
20
-99.25
11
119.811
21
-99.25
0
LINE
8
Black
10
119.811
20
-99.25
11
124.36
21
-94.7006
0
LINE
8
Black
10
124.36
20
-94.7006
11
124.36
21
-72.9394
0
LINE
8
Black
10
124.36
20
-72.9394
11
123.487
21
-72.066
0
LINE
8
Black
10
123.487
20
-72.066
11
121.43
21
-72.066
0
LINE
8
Black
10
121.43
20
-72.066
11
121.43
21
-72.341
0
LINE
8
Black
10
121.43
20
-72.341
11
119.93
21
-72.341
0
LINE
8
Black
10
119.93
20
-72.341
11
119.93
21
-71.591
0
LINE
8
Black
10
119.93
20
-71.591
11
121.43
21
-71.591
0
LINE
8
Black
10
121.43
20
-71.591
11
121.43
21
-71.866
0
LINE
8
Black
10
121.43
20
-72.966
11
122.85
21
-72.966
0
LINE
8
Black
10
122.85
20
-72.966
11
122.854
21
-72.9668
0
LINE
8
Black
10
122.854
20
-72.9668
11
122.859
21
-72.9664
0
LINE
8
Black
10
122.859
20
-72.9664
11
122.871
21
-72.9698
0
LINE
8
Black
10
122.871
20
-72.9698
11
122.884
21
-72.972
0
LINE
8
Black
10
122.884
20
-72.972
11
122.888
21
-72.9742
0
LINE
8
Black
10
122.888
20
-72.9742
11
122.892
21
-72.9754
0
LINE
8
Black
10
122.892
20
-72.9754
11
122.903
21
-72.9829
0
LINE
8
Black
10
122.903
20
-72.9829
11
122.914
21
-72.9894
0
LINE
8
Black
10
122.914
20
-72.9894
11
122.917
21
-72.9928
0
LINE
8
Black
10
122.917
20
-72.9928
11
122.921
21
-72.9953
0
LINE
8
Black
10
122.921
20
-72.9953
11
124.023
21
-74.0973
0
LINE
8
Black
10
124.023
20
-74.0973
11
124.025
21
-74.1009
0
LINE
8
Black
10
124.025
20
-74.1009
11
124.029
21
-74.1037
0
LINE
8
Black
10
124.029
20
-74.1037
11
124.035
21
-74.115
0
LINE
8
Black
10
124.035
20
-74.115
11
124.043
21
-74.1257
0
LINE
8
Black
10
124.043
20
-74.1257
11
124.044
21
-74.13
0
LINE
8
Black
10
124.044
20
-74.13
11
124.046
21
-74.1338
0
LINE
8
Black
10
124.046
20
-74.1338
11
124.048
21
-74.1467
0
LINE
8
Black
10
124.048
20
-74.1467
11
124.052
21
-74.1593
0
LINE
8
Black
10
124.052
20
-74.1593
11
124.051
21
-74.1637
0
LINE
8
Black
10
124.051
20
-74.1637
11
124.052
21
-74.168
0
LINE
8
Black
10
124.052
20
-74.168
11
124.052
21
-92.71
0
LINE
8
Black
10
124.052
20
-92.71
11
124.051
21
-92.7143
0
LINE
8
Black
10
124.051
20
-92.7143
11
124.052
21
-92.7187
0
LINE
8
Black
10
124.052
20
-92.7187
11
124.048
21
-92.7313
0
LINE
8
Black
10
124.048
20
-92.7313
11
124.046
21
-92.7442
0
LINE
8
Black
10
124.046
20
-92.7442
11
124.044
21
-92.748
0
LINE
8
Black
10
124.044
20
-92.748
11
124.043
21
-92.7523
0
LINE
8
Black
10
124.043
20
-92.7523
11
124.035
21
-92.763
0
LINE
8
Black
10
124.035
20
-92.763
11
124.029
21
-92.7743
0
LINE
8
Black
10
124.029
20
-92.7743
11
124.025
21
-92.7771
0
LINE
8
Black
10
124.025
20
-92.7771
11
124.023
21
-92.7807
0
LINE
8
Black
10
124.023
20
-92.7807
11
119.923
21
-96.8807
0
LINE
8
Black
10
119.923
20
-96.8807
11
119.919
21
-96.8832
0
LINE
8
Black
10
119.919
20
-96.8832
11
119.916
21
-96.8866
0
LINE
8
Black
10
119.916
20
-96.8866
11
119.905
21
-96.8931
0
LINE
8
Black
10
119.905
20
-96.8931
11
119.894
21
-96.9006
0
LINE
8
Black
10
119.894
20
-96.9006
11
119.89
21
-96.9018
0
LINE
8
Black
10
119.89
20
-96.9018
11
119.886
21
-96.904
0
LINE
8
Black
10
119.886
20
-96.904
11
119.873
21
-96.9062
0
LINE
8
Black
10
119.873
20
-96.9062
11
119.861
21
-96.9096
0
LINE
8
Black
10
119.861
20
-96.9096
11
119.856
21
-96.9092
0
LINE
8
Black
10
119.856
20
-96.9092
11
119.852
21
-96.91
0
LINE
8
Black
10
119.852
20
-96.91
11
118.1
21
-96.91
0
LINE
8
Black
10
118.1
20
-96.91
11
118.1
21
-97.31
0
LINE
8
Black
10
118.1
20
-97.31
11
114.95
21
-97.31
0
LINE
8
Black
10
114.95
20
-97.31
11
114.95
21
-96.31
0
LINE
8
Black
10
114.95
20
-96.31
11
118.1
21
-96.31
0
LINE
8
Black
10
118.1
20
-96.31
11
118.1
21
-96.71
0
LINE
8
Black
10
118.1
20
-96.71
11
119.811
21
-96.71
0
LINE
8
Black
10
119.811
20
-96.71
11
123.852
21
-92.6686
0
LINE
8
Black
10
123.852
20
-92.6686
11
123.852
21
-74.2094
0
LINE
8
Black
10
123.852
20
-74.2094
11
122.809
21
-73.166
0
LINE
8
Black
10
122.809
20
-73.166
11
121.43
21
-73.166
0
LINE
8
Black
10
121.43
20
-73.166
11
121.43
21
-73.441
0
LINE
8
Black
10
121.43
20
-73.441
11
119.93
21
-73.441
0
LINE
8
Black
10
119.93
20
-73.441
11
119.93
21
-72.691
0
LINE
8
Black
10
119.93
20
-72.691
11
121.43
21
-72.691
0
LINE
8
Black
10
121.43
20
-72.691
11
121.43
21
-72.966
0
LINE
8
Black
10
107.43
20
-73.441
11
105.93
21
-73.441
0
LINE
8
Black
10
105.93
20
-73.441
11
105.93
21
-73.166
0
LINE
8
Black
10
105.93
20
-73.166
11
105.283
21
-73.166
0
LINE
8
Black
10
105.283
20
-73.166
11
103.224
21
-75.2254
0
LINE
8
Black
10
103.224
20
-75.2254
11
103.224
21
-92.6686
0
LINE
8
Black
10
103.224
20
-92.6686
11
107.265
21
-96.71
0
LINE
8
Black
10
107.265
20
-96.71
11
109.9
21
-96.71
0
LINE
8
Black
10
109.9
20
-96.71
11
109.9
21
-96.31
0
LINE
8
Black
10
109.9
20
-96.31
11
113.05
21
-96.31
0
LINE
8
Black
10
113.05
20
-96.31
11
113.05
21
-97.31
0
LINE
8
Black
10
113.05
20
-97.31
11
109.9
21
-97.31
0
LINE
8
Black
10
109.9
20
-97.31
11
109.9
21
-96.91
0
LINE
8
Black
10
109.9
20
-96.91
11
107.224
21
-96.91
0
LINE
8
Black
10
107.224
20
-96.91
11
107.22
21
-96.9092
0
LINE
8
Black
10
107.22
20
-96.9092
11
107.215
21
-96.9096
0
LINE
8
Black
10
107.215
20
-96.9096
11
107.203
21
-96.9062
0
LINE
8
Black
10
107.203
20
-96.9062
11
107.19
21
-96.904
0
LINE
8
Black
10
107.19
20
-96.904
11
107.186
21
-96.9018
0
LINE
8
Black
10
107.186
20
-96.9018
11
107.182
21
-96.9006
0
LINE
8
Black
10
107.182
20
-96.9006
11
107.171
21
-96.8931
0
LINE
8
Black
10
107.171
20
-96.8931
11
107.16
21
-96.8866
0
LINE
8
Black
10
107.16
20
-96.8866
11
107.157
21
-96.8832
0
LINE
8
Black
10
107.157
20
-96.8832
11
107.153
21
-96.8807
0
LINE
8
Black
10
107.153
20
-96.8807
11
103.053
21
-92.7807
0
LINE
8
Black
10
103.053
20
-92.7807
11
103.051
21
-92.7771
0
LINE
8
Black
10
103.051
20
-92.7771
11
103.047
21
-92.7743
0
LINE
8
Black
10
103.047
20
-92.7743
11
103.041
21
-92.763
0
LINE
8
Black
10
103.041
20
-92.763
11
103.033
21
-92.7523
0
LINE
8
Black
10
103.033
20
-92.7523
11
103.032
21
-92.748
0
LINE
8
Black
10
103.032
20
-92.748
11
103.03
21
-92.7442
0
LINE
8
Black
10
103.03
20
-92.7442
11
103.028
21
-92.7313
0
LINE
8
Black
10
103.028
20
-92.7313
11
103.024
21
-92.7187
0
LINE
8
Black
10
103.024
20
-92.7187
11
103.025
21
-92.7143
0
LINE
8
Black
10
103.025
20
-92.7143
11
103.024
21
-92.71
0
LINE
8
Black
10
103.024
20
-92.71
11
103.024
21
-75.184
0
LINE
8
Black
10
103.024
20
-75.184
11
103.025
21
-75.1797
0
LINE
8
Black
10
103.025
20
-75.1797
11
103.024
21
-75.1753
0
LINE
8
Black
10
103.024
20
-75.1753
11
103.028
21
-75.1627
0
LINE
8
Black
10
103.028
20
-75.1627
11
103.03
21
-75.1498
0
LINE
8
Black
10
103.03
20
-75.1498
11
103.032
21
-75.146
0
LINE
8
Black
10
103.032
20
-75.146
11
103.033
21
-75.1417
0
LINE
8
Black
10
103.033
20
-75.1417
11
103.041
21
-75.131
0
LINE
8
Black
10
103.041
20
-75.131
11
103.047
21
-75.1197
0
LINE
8
Black
10
103.047
20
-75.1197
11
103.051
21
-75.1169
0
LINE
8
Black
10
103.051
20
-75.1169
11
103.053
21
-75.1133
0
LINE
8
Black
10
103.053
20
-75.1133
11
105.171
21
-72.9953
0
LINE
8
Black
10
105.171
20
-72.9953
11
105.175
21
-72.9928
0
LINE
8
Black
10
105.175
20
-72.9928
11
105.178
21
-72.9894
0
LINE
8
Black
10
105.178
20
-72.9894
11
105.189
21
-72.9829
0
LINE
8
Black
10
105.189
20
-72.9829
11
105.2
21
-72.9754
0
LINE
8
Black
10
105.2
20
-72.9754
11
105.204
21
-72.9742
0
LINE
8
Black
10
105.204
20
-72.9742
11
105.208
21
-72.972
0
LINE
8
Black
10
105.208
20
-72.972
11
105.221
21
-72.9698
0
LINE
8
Black
10
105.221
20
-72.9698
11
105.233
21
-72.9664
0
LINE
8
Black
10
105.233
20
-72.9664
11
105.238
21
-72.9668
0
LINE
8
Black
10
105.238
20
-72.9668
11
105.242
21
-72.966
0
LINE
8
Black
10
105.242
20
-72.966
11
105.93
21
-72.966
0
LINE
8
Black
10
105.93
20
-72.966
11
105.93
21
-72.691
0
LINE
8
Black
10
105.93
20
-72.691
11
107.43
21
-72.691
0
LINE
8
Black
10
107.43
20
-72.691
11
107.43
21
-73.441
0
LINE
8
Black
10
107.43
20
-74.541
11
105.93
21
-74.541
0
LINE
8
Black
10
105.93
20
-74.541
11
105.93
21
-74.266
0
LINE
8
Black
10
105.93
20
-74.266
11
105.199
21
-74.266
0
LINE
8
Black
10
105.199
20
-74.266
11
103.732
21
-75.7334
0
LINE
8
Black
10
103.732
20
-75.7334
11
103.732
21
-91.1446
0
LINE
8
Black
10
103.732
20
-91.1446
11
106.757
21
-94.17
0
LINE
8
Black
10
106.757
20
-94.17
11
109.9
21
-94.17
0
LINE
8
Black
10
109.9
20
-94.17
11
109.9
21
-93.77
0
LINE
8
Black
10
109.9
20
-93.77
11
113.05
21
-93.77
0
LINE
8
Black
10
113.05
20
-93.77
11
113.05
21
-94.77
0
LINE
8
Black
10
113.05
20
-94.77
11
109.9
21
-94.77
0
LINE
8
Black
10
109.9
20
-94.77
11
109.9
21
-94.37
0
LINE
8
Black
10
109.9
20
-94.37
11
106.716
21
-94.37
0
LINE
8
Black
10
106.716
20
-94.37
11
106.712
21
-94.3692
0
LINE
8
Black
10
106.712
20
-94.3692
11
106.707
21
-94.3696
0
LINE
8
Black
10
106.707
20
-94.3696
11
106.695
21
-94.3662
0
LINE
8
Black
10
106.695
20
-94.3662
11
106.682
21
-94.364
0
LINE
8
Black
10
106.682
20
-94.364
11
106.678
21
-94.3618
0
LINE
8
Black
10
106.678
20
-94.3618
11
106.674
21
-94.3606
0
LINE
8
Black
10
106.674
20
-94.3606
11
106.663
21
-94.3531
0
LINE
8
Black
10
106.663
20
-94.3531
11
106.652
21
-94.3466
0
LINE
8
Black
10
106.652
20
-94.3466
11
106.649
21
-94.3432
0
LINE
8
Black
10
106.649
20
-94.3432
11
106.645
21
-94.3407
0
LINE
8
Black
10
106.645
20
-94.3407
11
103.561
21
-91.2567
0
LINE
8
Black
10
103.561
20
-91.2567
11
103.559
21
-91.2531
0
LINE
8
Black
10
103.559
20
-91.2531
11
103.555
21
-91.2503
0
LINE
8
Black
10
103.555
20
-91.2503
11
103.549
21
-91.239
0
LINE
8
Black
10
103.549
20
-91.239
11
103.541
21
-91.2283
0
LINE
8
Black
10
103.541
20
-91.2283
11
103.54
21
-91.224
0
LINE
8
Black
10
103.54
20
-91.224
11
103.538
21
-91.2202
0
LINE
8
Black
10
103.538
20
-91.2202
11
103.536
21
-91.2073
0
LINE
8
Black
10
103.536
20
-91.2073
11
103.532
21
-91.1947
0
LINE
8
Black
10
103.532
20
-91.1947
11
103.533
21
-91.1903
0
LINE
8
Black
10
103.533
20
-91.1903
11
103.532
21
-91.186
0
LINE
8
Black
10
103.532
20
-91.186
11
103.532
21
-75.692
0
LINE
8
Black
10
103.532
20
-75.692
11
103.533
21
-75.6877
0
LINE
8
Black
10
103.533
20
-75.6877
11
103.532
21
-75.6833
0
LINE
8
Black
10
103.532
20
-75.6833
11
103.536
21
-75.6707
0
LINE
8
Black
10
103.536
20
-75.6707
11
103.538
21
-75.6578
0
LINE
8
Black
10
103.538
20
-75.6578
11
103.54
21
-75.654
0
LINE
8
Black
10
103.54
20
-75.654
11
103.541
21
-75.6497
0
LINE
8
Black
10
103.541
20
-75.6497
11
103.549
21
-75.639
0
LINE
8
Black
10
103.549
20
-75.639
11
103.555
21
-75.6277
0
LINE
8
Black
10
103.555
20
-75.6277
11
103.559
21
-75.6249
0
LINE
8
Black
10
103.559
20
-75.6249
11
103.561
21
-75.6213
0
LINE
8
Black
10
103.561
20
-75.6213
11
105.087
21
-74.0953
0
LINE
8
Black
10
105.087
20
-74.0953
11
105.091
21
-74.0928
0
LINE
8
Black
10
105.091
20
-74.0928
11
105.094
21
-74.0894
0
LINE
8
Black
10
105.094
20
-74.0894
11
105.105
21
-74.0829
0
LINE
8
Black
10
105.105
20
-74.0829
11
105.116
21
-74.0754
0
LINE
8
Black
10
105.116
20
-74.0754
11
105.12
21
-74.0742
0
LINE
8
Black
10
105.12
20
-74.0742
11
105.124
21
-74.072
0
LINE
8
Black
10
105.124
20
-74.072
11
105.137
21
-74.0698
0
LINE
8
Black
10
105.137
20
-74.0698
11
105.149
21
-74.0664
0
LINE
8
Black
10
105.149
20
-74.0664
11
105.154
21
-74.0668
0
LINE
8
Black
10
105.154
20
-74.0668
11
105.158
21
-74.066
0
LINE
8
Black
10
105.158
20
-74.066
11
105.93
21
-74.066
0
LINE
8
Black
10
105.93
20
-74.066
11
105.93
21
-73.791
0
LINE
8
Black
10
105.93
20
-73.791
11
107.43
21
-73.791
0
LINE
8
Black
10
107.43
20
-73.791
11
107.43
21
-74.541
0
LINE
8
Black
10
121.43
20
-74.066
11
122.68
21
-74.066
0
LINE
8
Black
10
122.68
20
-74.066
11
122.684
21
-74.0668
0
LINE
8
Black
10
122.684
20
-74.0668
11
122.689
21
-74.0664
0
LINE
8
Black
10
122.689
20
-74.0664
11
122.701
21
-74.0698
0
LINE
8
Black
10
122.701
20
-74.0698
11
122.714
21
-74.072
0
LINE
8
Black
10
122.714
20
-74.072
11
122.718
21
-74.0742
0
LINE
8
Black
10
122.718
20
-74.0742
11
122.722
21
-74.0754
0
LINE
8
Black
10
122.722
20
-74.0754
11
122.733
21
-74.0829
0
LINE
8
Black
10
122.733
20
-74.0829
11
122.744
21
-74.0894
0
LINE
8
Black
10
122.744
20
-74.0894
11
122.747
21
-74.0928
0
LINE
8
Black
10
122.747
20
-74.0928
11
122.751
21
-74.0953
0
LINE
8
Black
10
122.751
20
-74.0953
11
123.407
21
-74.7513
0
LINE
8
Black
10
123.407
20
-74.7513
11
123.409
21
-74.7549
0
LINE
8
Black
10
123.409
20
-74.7549
11
123.413
21
-74.7577
0
LINE
8
Black
10
123.413
20
-74.7577
11
123.419
21
-74.769
0
LINE
8
Black
10
123.419
20
-74.769
11
123.427
21
-74.7797
0
LINE
8
Black
10
123.427
20
-74.7797
11
123.428
21
-74.784
0
LINE
8
Black
10
123.428
20
-74.784
11
123.43
21
-74.7878
0
LINE
8
Black
10
123.43
20
-74.7878
11
123.432
21
-74.8007
0
LINE
8
Black
10
123.432
20
-74.8007
11
123.436
21
-74.8133
0
LINE
8
Black
10
123.436
20
-74.8133
11
123.435
21
-74.8177
0
LINE
8
Black
10
123.435
20
-74.8177
11
123.436
21
-74.822
0
LINE
8
Black
10
123.436
20
-74.822
11
123.436
21
-91.04
0
LINE
8
Black
10
123.436
20
-91.04
11
123.435
21
-91.0443
0
LINE
8
Black
10
123.435
20
-91.0443
11
123.436
21
-91.0487
0
LINE
8
Black
10
123.436
20
-91.0487
11
123.432
21
-91.0613
0
LINE
8
Black
10
123.432
20
-91.0613
11
123.43
21
-91.0742
0
LINE
8
Black
10
123.43
20
-91.0742
11
123.428
21
-91.078
0
LINE
8
Black
10
123.428
20
-91.078
11
123.427
21
-91.0823
0
LINE
8
Black
10
123.427
20
-91.0823
11
123.419
21
-91.093
0
LINE
8
Black
10
123.419
20
-91.093
11
123.413
21
-91.1043
0
LINE
8
Black
10
123.413
20
-91.1043
11
123.409
21
-91.1071
0
LINE
8
Black
10
123.409
20
-91.1071
11
123.407
21
-91.1107
0
LINE
8
Black
10
123.407
20
-91.1107
11
120.177
21
-94.3407
0
LINE
8
Black
10
120.177
20
-94.3407
11
120.173
21
-94.3432
0
LINE
8
Black
10
120.173
20
-94.3432
11
120.17
21
-94.3466
0
LINE
8
Black
10
120.17
20
-94.3466
11
120.159
21
-94.3531
0
LINE
8
Black
10
120.159
20
-94.3531
11
120.148
21
-94.3606
0
LINE
8
Black
10
120.148
20
-94.3606
11
120.144
21
-94.3618
0
LINE
8
Black
10
120.144
20
-94.3618
11
120.14
21
-94.364
0
LINE
8
Black
10
120.14
20
-94.364
11
120.127
21
-94.3662
0
LINE
8
Black
10
120.127
20
-94.3662
11
120.115
21
-94.3696
0
LINE
8
Black
10
120.115
20
-94.3696
11
120.11
21
-94.3692
0
LINE
8
Black
10
120.11
20
-94.3692
11
120.106
21
-94.37
0
LINE
8
Black
10
120.106
20
-94.37
11
118.1
21
-94.37
0
LINE
8
Black
10
118.1
20
-94.37
11
118.1
21
-94.77
0
LINE
8
Black
10
118.1
20
-94.77
11
114.95
21
-94.77
0
LINE
8
Black
10
114.95
20
-94.77
11
114.95
21
-93.77
0
LINE
8
Black
10
114.95
20
-93.77
11
118.1
21
-93.77
0
LINE
8
Black
10
118.1
20
-93.77
11
118.1
21
-94.17
0
LINE
8
Black
10
118.1
20
-94.17
11
120.065
21
-94.17
0
LINE
8
Black
10
120.065
20
-94.17
11
123.236
21
-90.9986
0
LINE
8
Black
10
123.236
20
-90.9986
11
123.236
21
-74.8634
0
LINE
8
Black
10
123.236
20
-74.8634
11
122.639
21
-74.266
0
LINE
8
Black
10
122.639
20
-74.266
11
121.43
21
-74.266
0
LINE
8
Black
10
121.43
20
-74.266
11
121.43
21
-74.541
0
LINE
8
Black
10
121.43
20
-74.541
11
119.93
21
-74.541
0
LINE
8
Black
10
119.93
20
-74.541
11
119.93
21
-73.791
0
LINE
8
Black
10
119.93
20
-73.791
11
121.43
21
-73.791
0
LINE
8
Black
10
121.43
20
-73.791
11
121.43
21
-74.066
0
LINE
8
Black
10
107.43
20
-75.641
11
105.93
21
-75.641
0
LINE
8
Black
10
105.93
20
-75.641
11
105.93
21
-75.366
0
LINE
8
Black
10
105.93
20
-75.366
11
105.623
21
-75.366
0
LINE
8
Black
10
105.623
20
-75.366
11
104.24
21
-76.7494
0
LINE
8
Black
10
104.24
20
-76.7494
11
104.24
21
-88.8586
0
LINE
8
Black
10
104.24
20
-88.8586
11
107.011
21
-91.63
0
LINE
8
Black
10
107.011
20
-91.63
11
109.9
21
-91.63
0
LINE
8
Black
10
109.9
20
-91.63
11
109.9
21
-91.23
0
LINE
8
Black
10
109.9
20
-91.23
11
113.05
21
-91.23
0
LINE
8
Black
10
113.05
20
-91.23
11
113.05
21
-92.23
0
LINE
8
Black
10
113.05
20
-92.23
11
109.9
21
-92.23
0
LINE
8
Black
10
109.9
20
-92.23
11
109.9
21
-91.83
0
LINE
8
Black
10
109.9
20
-91.83
11
106.97
21
-91.83
0
LINE
8
Black
10
106.97
20
-91.83
11
106.966
21
-91.8292
0
LINE
8
Black
10
106.966
20
-91.8292
11
106.961
21
-91.8296
0
LINE
8
Black
10
106.961
20
-91.8296
11
106.949
21
-91.8262
0
LINE
8
Black
10
106.949
20
-91.8262
11
106.936
21
-91.824
0
LINE
8
Black
10
106.936
20
-91.824
11
106.932
21
-91.8218
0
LINE
8
Black
10
106.932
20
-91.8218
11
106.928
21
-91.8206
0
LINE
8
Black
10
106.928
20
-91.8206
11
106.917
21
-91.8131
0
LINE
8
Black
10
106.917
20
-91.8131
11
106.906
21
-91.8066
0
LINE
8
Black
10
106.906
20
-91.8066
11
106.903
21
-91.8032
0
LINE
8
Black
10
106.903
20
-91.8032
11
106.899
21
-91.8007
0
LINE
8
Black
10
106.899
20
-91.8007
11
104.069
21
-88.9707
0
LINE
8
Black
10
104.069
20
-88.9707
11
104.067
21
-88.9671
0
LINE
8
Black
10
104.067
20
-88.9671
11
104.063
21
-88.9643
0
LINE
8
Black
10
104.063
20
-88.9643
11
104.057
21
-88.953
0
LINE
8
Black
10
104.057
20
-88.953
11
104.049
21
-88.9423
0
LINE
8
Black
10
104.049
20
-88.9423
11
104.048
21
-88.938
0
LINE
8
Black
10
104.048
20
-88.938
11
104.046
21
-88.9342
0
LINE
8
Black
10
104.046
20
-88.9342
11
104.044
21
-88.9213
0
LINE
8
Black
10
104.044
20
-88.9213
11
104.04
21
-88.9087
0
LINE
8
Black
10
104.04
20
-88.9087
11
104.041
21
-88.9043
0
LINE
8
Black
10
104.041
20
-88.9043
11
104.04
21
-88.9
0
LINE
8
Black
10
104.04
20
-88.9
11
104.04
21
-76.708
0
LINE
8
Black
10
104.04
20
-76.708
11
104.041
21
-76.7037
0
LINE
8
Black
10
104.041
20
-76.7037
11
104.04
21
-76.6993
0
LINE
8
Black
10
104.04
20
-76.6993
11
104.044
21
-76.6867
0
LINE
8
Black
10
104.044
20
-76.6867
11
104.046
21
-76.6738
0
LINE
8
Black
10
104.046
20
-76.6738
11
104.048
21
-76.67
0
LINE
8
Black
10
104.048
20
-76.67
11
104.049
21
-76.6657
0
LINE
8
Black
10
104.049
20
-76.6657
11
104.057
21
-76.655
0
LINE
8
Black
10
104.057
20
-76.655
11
104.063
21
-76.6437
0
LINE
8
Black
10
104.063
20
-76.6437
11
104.067
21
-76.6409
0
LINE
8
Black
10
104.067
20
-76.6409
11
104.069
21
-76.6373
0
LINE
8
Black
10
104.069
20
-76.6373
11
105.511
21
-75.1953
0
LINE
8
Black
10
105.511
20
-75.1953
11
105.515
21
-75.1928
0
LINE
8
Black
10
105.515
20
-75.1928
11
105.518
21
-75.1894
0
LINE
8
Black
10
105.518
20
-75.1894
11
105.529
21
-75.1829
0
LINE
8
Black
10
105.529
20
-75.1829
11
105.54
21
-75.1754
0
LINE
8
Black
10
105.54
20
-75.1754
11
105.544
21
-75.1742
0
LINE
8
Black
10
105.544
20
-75.1742
11
105.548
21
-75.172
0
LINE
8
Black
10
105.548
20
-75.172
11
105.561
21
-75.1698
0
LINE
8
Black
10
105.561
20
-75.1698
11
105.573
21
-75.1664
0
LINE
8
Black
10
105.573
20
-75.1664
11
105.578
21
-75.1668
0
LINE
8
Black
10
105.578
20
-75.1668
11
105.582
21
-75.166
0
LINE
8
Black
10
105.582
20
-75.166
11
105.93
21
-75.166
0
LINE
8
Black
10
105.93
20
-75.166
11
105.93
21
-74.891
0
LINE
8
Black
10
105.93
20
-74.891
11
107.43
21
-74.891
0
LINE
8
Black
10
107.43
20
-74.891
11
107.43
21
-75.641
0
LINE
8
Black
10
121.43
20
-75.166
11
122.51
21
-75.166
0
LINE
8
Black
10
122.51
20
-75.166
11
122.514
21
-75.1668
0
LINE
8
Black
10
122.514
20
-75.1668
11
122.519
21
-75.1664
0
LINE
8
Black
10
122.519
20
-75.1664
11
122.531
21
-75.1698
0
LINE
8
Black
10
122.531
20
-75.1698
11
122.544
21
-75.172
0
LINE
8
Black
10
122.544
20
-75.172
11
122.548
21
-75.1742
0
LINE
8
Black
10
122.548
20
-75.1742
11
122.552
21
-75.1754
0
LINE
8
Black
10
122.552
20
-75.1754
11
122.563
21
-75.1829
0
LINE
8
Black
10
122.563
20
-75.1829
11
122.574
21
-75.1894
0
LINE
8
Black
10
122.574
20
-75.1894
11
122.577
21
-75.1928
0
LINE
8
Black
10
122.577
20
-75.1928
11
122.581
21
-75.1953
0
LINE
8
Black
10
122.581
20
-75.1953
11
123.007
21
-75.6213
0
LINE
8
Black
10
123.007
20
-75.6213
11
123.009
21
-75.6249
0
LINE
8
Black
10
123.009
20
-75.6249
11
123.013
21
-75.6277
0
LINE
8
Black
10
123.013
20
-75.6277
11
123.019
21
-75.639
0
LINE
8
Black
10
123.019
20
-75.639
11
123.027
21
-75.6497
0
LINE
8
Black
10
123.027
20
-75.6497
11
123.028
21
-75.654
0
LINE
8
Black
10
123.028
20
-75.654
11
123.03
21
-75.6578
0
LINE
8
Black
10
123.03
20
-75.6578
11
123.032
21
-75.6707
0
LINE
8
Black
10
123.032
20
-75.6707
11
123.036
21
-75.6833
0
LINE
8
Black
10
123.036
20
-75.6833
11
123.035
21
-75.6877
0
LINE
8
Black
10
123.035
20
-75.6877
11
123.036
21
-75.692
0
LINE
8
Black
10
123.036
20
-75.692
11
123.036
21
-88.646
0
LINE
8
Black
10
123.036
20
-88.646
11
123.035
21
-88.6503
0
LINE
8
Black
10
123.035
20
-88.6503
11
123.036
21
-88.6547
0
LINE
8
Black
10
123.036
20
-88.6547
11
123.032
21
-88.6673
0
LINE
8
Black
10
123.032
20
-88.6673
11
123.03
21
-88.6802
0
LINE
8
Black
10
123.03
20
-88.6802
11
123.028
21
-88.684
0
LINE
8
Black
10
123.028
20
-88.684
11
123.027
21
-88.6883
0
LINE
8
Black
10
123.027
20
-88.6883
11
123.019
21
-88.699
0
LINE
8
Black
10
123.019
20
-88.699
11
123.013
21
-88.7103
0
LINE
8
Black
10
123.013
20
-88.7103
11
123.009
21
-88.7131
0
LINE
8
Black
10
123.009
20
-88.7131
11
123.007
21
-88.7167
0
LINE
8
Black
10
123.007
20
-88.7167
11
119.923
21
-91.8007
0
LINE
8
Black
10
119.923
20
-91.8007
11
119.919
21
-91.8032
0
LINE
8
Black
10
119.919
20
-91.8032
11
119.916
21
-91.8066
0
LINE
8
Black
10
119.916
20
-91.8066
11
119.905
21
-91.8131
0
LINE
8
Black
10
119.905
20
-91.8131
11
119.894
21
-91.8206
0
LINE
8
Black
10
119.894
20
-91.8206
11
119.89
21
-91.8218
0
LINE
8
Black
10
119.89
20
-91.8218
11
119.886
21
-91.824
0
LINE
8
Black
10
119.886
20
-91.824
11
119.873
21
-91.8262
0
LINE
8
Black
10
119.873
20
-91.8262
11
119.861
21
-91.8296
0
LINE
8
Black
10
119.861
20
-91.8296
11
119.856
21
-91.8292
0
LINE
8
Black
10
119.856
20
-91.8292
11
119.852
21
-91.83
0
LINE
8
Black
10
119.852
20
-91.83
11
118.1
21
-91.83
0
LINE
8
Black
10
118.1
20
-91.83
11
118.1
21
-92.23
0
LINE
8
Black
10
118.1
20
-92.23
11
114.95
21
-92.23
0
LINE
8
Black
10
114.95
20
-92.23
11
114.95
21
-91.23
0
LINE
8
Black
10
114.95
20
-91.23
11
118.1
21
-91.23
0
LINE
8
Black
10
118.1
20
-91.23
11
118.1
21
-91.63
0
LINE
8
Black
10
118.1
20
-91.63
11
119.811
21
-91.63
0
LINE
8
Black
10
119.811
20
-91.63
11
122.836
21
-88.6046
0
LINE
8
Black
10
122.836
20
-88.6046
11
122.836
21
-75.7334
0
LINE
8
Black
10
122.836
20
-75.7334
11
122.469
21
-75.366
0
LINE
8
Black
10
122.469
20
-75.366
11
121.43
21
-75.366
0
LINE
8
Black
10
121.43
20
-75.366
11
121.43
21
-75.641
0
LINE
8
Black
10
121.43
20
-75.641
11
119.93
21
-75.641
0
LINE
8
Black
10
119.93
20
-75.641
11
119.93
21
-74.891
0
LINE
8
Black
10
119.93
20
-74.891
11
121.43
21
-74.891
0
LINE
8
Black
10
121.43
20
-74.891
11
121.43
21
-75.166
0
LINE
8
Black
10
107.43
20
-76.741
11
105.93
21
-76.741
0
LINE
8
Black
10
105.93
20
-76.741
11
105.93
21
-76.466
0
LINE
8
Black
10
105.93
20
-76.466
11
105.539
21
-76.466
0
LINE
8
Black
10
105.539
20
-76.466
11
104.748
21
-77.2574
0
LINE
8
Black
10
104.748
20
-77.2574
11
104.748
21
-87.0806
0
LINE
8
Black
10
104.748
20
-87.0806
11
106.757
21
-89.09
0
LINE
8
Black
10
106.757
20
-89.09
11
109.9
21
-89.09
0
LINE
8
Black
10
109.9
20
-89.09
11
109.9
21
-88.69
0
LINE
8
Black
10
109.9
20
-88.69
11
113.05
21
-88.69
0
LINE
8
Black
10
113.05
20
-88.69
11
113.05
21
-89.69
0
LINE
8
Black
10
113.05
20
-89.69
11
109.9
21
-89.69
0
LINE
8
Black
10
109.9
20
-89.69
11
109.9
21
-89.29
0
LINE
8
Black
10
109.9
20
-89.29
11
106.716
21
-89.29
0
LINE
8
Black
10
106.716
20
-89.29
11
106.712
21
-89.2892
0
LINE
8
Black
10
106.712
20
-89.2892
11
106.707
21
-89.2896
0
LINE
8
Black
10
106.707
20
-89.2896
11
106.695
21
-89.2862
0
LINE
8
Black
10
106.695
20
-89.2862
11
106.682
21
-89.284
0
LINE
8
Black
10
106.682
20
-89.284
11
106.678
21
-89.2818
0
LINE
8
Black
10
106.678
20
-89.2818
11
106.674
21
-89.2806
0
LINE
8
Black
10
106.674
20
-89.2806
11
106.663
21
-89.2731
0
LINE
8
Black
10
106.663
20
-89.2731
11
106.652
21
-89.2666
0
LINE
8
Black
10
106.652
20
-89.2666
11
106.649
21
-89.2632
0
LINE
8
Black
10
106.649
20
-89.2632
11
106.645
21
-89.2607
0
LINE
8
Black
10
106.645
20
-89.2607
11
104.577
21
-87.1927
0
LINE
8
Black
10
104.577
20
-87.1927
11
104.575
21
-87.1891
0
LINE
8
Black
10
104.575
20
-87.1891
11
104.571
21
-87.1863
0
LINE
8
Black
10
104.571
20
-87.1863
11
104.565
21
-87.175
0
LINE
8
Black
10
104.565
20
-87.175
11
104.557
21
-87.1643
0
LINE
8
Black
10
104.557
20
-87.1643
11
104.556
21
-87.16
0
LINE
8
Black
10
104.556
20
-87.16
11
104.554
21
-87.1562
0
LINE
8
Black
10
104.554
20
-87.1562
11
104.552
21
-87.1433
0
LINE
8
Black
10
104.552
20
-87.1433
11
104.548
21
-87.1307
0
LINE
8
Black
10
104.548
20
-87.1307
11
104.549
21
-87.1263
0
LINE
8
Black
10
104.549
20
-87.1263
11
104.548
21
-87.122
0
LINE
8
Black
10
104.548
20
-87.122
11
104.548
21
-77.216
0
LINE
8
Black
10
104.548
20
-77.216
11
104.549
21
-77.2117
0
LINE
8
Black
10
104.549
20
-77.2117
11
104.548
21
-77.2073
0
LINE
8
Black
10
104.548
20
-77.2073
11
104.552
21
-77.1947
0
LINE
8
Black
10
104.552
20
-77.1947
11
104.554
21
-77.1818
0
LINE
8
Black
10
104.554
20
-77.1818
11
104.556
21
-77.178
0
LINE
8
Black
10
104.556
20
-77.178
11
104.557
21
-77.1737
0
LINE
8
Black
10
104.557
20
-77.1737
11
104.565
21
-77.163
0
LINE
8
Black
10
104.565
20
-77.163
11
104.571
21
-77.1517
0
LINE
8
Black
10
104.571
20
-77.1517
11
104.575
21
-77.1489
0
LINE
8
Black
10
104.575
20
-77.1489
11
104.577
21
-77.1453
0
LINE
8
Black
10
104.577
20
-77.1453
11
105.427
21
-76.2953
0
LINE
8
Black
10
105.427
20
-76.2953
11
105.431
21
-76.2928
0
LINE
8
Black
10
105.431
20
-76.2928
11
105.434
21
-76.2894
0
LINE
8
Black
10
105.434
20
-76.2894
11
105.445
21
-76.2829
0
LINE
8
Black
10
105.445
20
-76.2829
11
105.456
21
-76.2754
0
LINE
8
Black
10
105.456
20
-76.2754
11
105.46
21
-76.2742
0
LINE
8
Black
10
105.46
20
-76.2742
11
105.464
21
-76.272
0
LINE
8
Black
10
105.464
20
-76.272
11
105.477
21
-76.2698
0
LINE
8
Black
10
105.477
20
-76.2698
11
105.489
21
-76.2664
0
LINE
8
Black
10
105.489
20
-76.2664
11
105.494
21
-76.2668
0
LINE
8
Black
10
105.494
20
-76.2668
11
105.498
21
-76.266
0
LINE
8
Black
10
105.498
20
-76.266
11
105.93
21
-76.266
0
LINE
8
Black
10
105.93
20
-76.266
11
105.93
21
-75.991
0
LINE
8
Black
10
105.93
20
-75.991
11
107.43
21
-75.991
0
LINE
8
Black
10
107.43
20
-75.991
11
107.43
21
-76.741
0
LINE
8
Black
10
121.43
20
-76.266
11
122.086
21
-76.266
0
LINE
8
Black
10
122.086
20
-76.266
11
122.09
21
-76.2668
0
LINE
8
Black
10
122.09
20
-76.2668
11
122.095
21
-76.2664
0
LINE
8
Black
10
122.095
20
-76.2664
11
122.107
21
-76.2698
0
LINE
8
Black
10
122.107
20
-76.2698
11
122.12
21
-76.272
0
LINE
8
Black
10
122.12
20
-76.272
11
122.124
21
-76.2742
0
LINE
8
Black
10
122.124
20
-76.2742
11
122.128
21
-76.2754
0
LINE
8
Black
10
122.128
20
-76.2754
11
122.139
21
-76.2829
0
LINE
8
Black
10
122.139
20
-76.2829
11
122.15
21
-76.2894
0
LINE
8
Black
10
122.15
20
-76.2894
11
122.153
21
-76.2928
0
LINE
8
Black
10
122.153
20
-76.2928
11
122.157
21
-76.2953
0
LINE
8
Black
10
122.157
20
-76.2953
11
122.499
21
-76.6373
0
LINE
8
Black
10
122.499
20
-76.6373
11
122.501
21
-76.6409
0
LINE
8
Black
10
122.501
20
-76.6409
11
122.505
21
-76.6437
0
LINE
8
Black
10
122.505
20
-76.6437
11
122.511
21
-76.655
0
LINE
8
Black
10
122.511
20
-76.655
11
122.519
21
-76.6657
0
LINE
8
Black
10
122.519
20
-76.6657
11
122.52
21
-76.67
0
LINE
8
Black
10
122.52
20
-76.67
11
122.522
21
-76.6738
0
LINE
8
Black
10
122.522
20
-76.6738
11
122.524
21
-76.6867
0
LINE
8
Black
10
122.524
20
-76.6867
11
122.528
21
-76.6993
0
LINE
8
Black
10
122.528
20
-76.6993
11
122.527
21
-76.7037
0
LINE
8
Black
10
122.527
20
-76.7037
11
122.528
21
-76.708
0
LINE
8
Black
10
122.528
20
-76.708
11
122.528
21
-86.614
0
LINE
8
Black
10
122.528
20
-86.614
11
122.527
21
-86.6183
0
LINE
8
Black
10
122.527
20
-86.6183
11
122.528
21
-86.6227
0
LINE
8
Black
10
122.528
20
-86.6227
11
122.524
21
-86.6353
0
LINE
8
Black
10
122.524
20
-86.6353
11
122.522
21
-86.6482
0
LINE
8
Black
10
122.522
20
-86.6482
11
122.52
21
-86.652
0
LINE
8
Black
10
122.52
20
-86.652
11
122.519
21
-86.6563
0
LINE
8
Black
10
122.519
20
-86.6563
11
122.511
21
-86.667
0
LINE
8
Black
10
122.511
20
-86.667
11
122.505
21
-86.6783
0
LINE
8
Black
10
122.505
20
-86.6783
11
122.501
21
-86.6811
0
LINE
8
Black
10
122.501
20
-86.6811
11
122.499
21
-86.6847
0
LINE
8
Black
10
122.499
20
-86.6847
11
119.923
21
-89.2607
0
LINE
8
Black
10
119.923
20
-89.2607
11
119.919
21
-89.2632
0
LINE
8
Black
10
119.919
20
-89.2632
11
119.916
21
-89.2666
0
LINE
8
Black
10
119.916
20
-89.2666
11
119.905
21
-89.2731
0
LINE
8
Black
10
119.905
20
-89.2731
11
119.894
21
-89.2806
0
LINE
8
Black
10
119.894
20
-89.2806
11
119.89
21
-89.2818
0
LINE
8
Black
10
119.89
20
-89.2818
11
119.886
21
-89.284
0
LINE
8
Black
10
119.886
20
-89.284
11
119.873
21
-89.2862
0
LINE
8
Black
10
119.873
20
-89.2862
11
119.861
21
-89.2896
0
LINE
8
Black
10
119.861
20
-89.2896
11
119.856
21
-89.2892
0
LINE
8
Black
10
119.856
20
-89.2892
11
119.852
21
-89.29
0
LINE
8
Black
10
119.852
20
-89.29
11
118.1
21
-89.29
0
LINE
8
Black
10
118.1
20
-89.29
11
118.1
21
-89.69
0
LINE
8
Black
10
118.1
20
-89.69
11
114.95
21
-89.69
0
LINE
8
Black
10
114.95
20
-89.69
11
114.95
21
-88.69
0
LINE
8
Black
10
114.95
20
-88.69
11
118.1
21
-88.69
0
LINE
8
Black
10
118.1
20
-88.69
11
118.1
21
-89.09
0
LINE
8
Black
10
118.1
20
-89.09
11
119.811
21
-89.09
0
LINE
8
Black
10
119.811
20
-89.09
11
122.328
21
-86.5726
0
LINE
8
Black
10
122.328
20
-86.5726
11
122.328
21
-76.7494
0
LINE
8
Black
10
122.328
20
-76.7494
11
122.045
21
-76.466
0
LINE
8
Black
10
122.045
20
-76.466
11
121.43
21
-76.466
0
LINE
8
Black
10
121.43
20
-76.466
11
121.43
21
-76.741
0
LINE
8
Black
10
121.43
20
-76.741
11
119.93
21
-76.741
0
LINE
8
Black
10
119.93
20
-76.741
11
119.93
21
-75.991
0
LINE
8
Black
10
119.93
20
-75.991
11
121.43
21
-75.991
0
LINE
8
Black
10
121.43
20
-75.991
11
121.43
21
-76.266
0
LINE
8
Black
10
107.43
20
-77.841
11
105.93
21
-77.841
0
LINE
8
Black
10
105.93
20
-77.841
11
105.93
21
-77.566
0
LINE
8
Black
10
105.93
20
-77.566
11
105.455
21
-77.566
0
LINE
8
Black
10
105.455
20
-77.566
11
105.256
21
-77.7654
0
LINE
8
Black
10
105.256
20
-77.7654
11
105.256
21
-85.0486
0
LINE
8
Black
10
105.256
20
-85.0486
11
106.757
21
-86.55
0
LINE
8
Black
10
106.757
20
-86.55
11
109.9
21
-86.55
0
LINE
8
Black
10
109.9
20
-86.55
11
109.9
21
-86.15
0
LINE
8
Black
10
109.9
20
-86.15
11
113.05
21
-86.15
0
LINE
8
Black
10
113.05
20
-86.15
11
113.05
21
-87.15
0
LINE
8
Black
10
113.05
20
-87.15
11
109.9
21
-87.15
0
LINE
8
Black
10
109.9
20
-87.15
11
109.9
21
-86.75
0
LINE
8
Black
10
109.9
20
-86.75
11
106.716
21
-86.75
0
LINE
8
Black
10
106.716
20
-86.75
11
106.712
21
-86.7492
0
LINE
8
Black
10
106.712
20
-86.7492
11
106.707
21
-86.7496
0
LINE
8
Black
10
106.707
20
-86.7496
11
106.695
21
-86.7462
0
LINE
8
Black
10
106.695
20
-86.7462
11
106.682
21
-86.744
0
LINE
8
Black
10
106.682
20
-86.744
11
106.678
21
-86.7418
0
LINE
8
Black
10
106.678
20
-86.7418
11
106.674
21
-86.7406
0
LINE
8
Black
10
106.674
20
-86.7406
11
106.663
21
-86.7331
0
LINE
8
Black
10
106.663
20
-86.7331
11
106.652
21
-86.7266
0
LINE
8
Black
10
106.652
20
-86.7266
11
106.649
21
-86.7232
0
LINE
8
Black
10
106.649
20
-86.7232
11
106.645
21
-86.7207
0
LINE
8
Black
10
106.645
20
-86.7207
11
105.085
21
-85.1607
0
LINE
8
Black
10
105.085
20
-85.1607
11
105.083
21
-85.1571
0
LINE
8
Black
10
105.083
20
-85.1571
11
105.079
21
-85.1543
0
LINE
8
Black
10
105.079
20
-85.1543
11
105.073
21
-85.143
0
LINE
8
Black
10
105.073
20
-85.143
11
105.065
21
-85.1323
0
LINE
8
Black
10
105.065
20
-85.1323
11
105.064
21
-85.128
0
LINE
8
Black
10
105.064
20
-85.128
11
105.062
21
-85.1242
0
LINE
8
Black
10
105.062
20
-85.1242
11
105.06
21
-85.1113
0
LINE
8
Black
10
105.06
20
-85.1113
11
105.056
21
-85.0987
0
LINE
8
Black
10
105.056
20
-85.0987
11
105.057
21
-85.0943
0
LINE
8
Black
10
105.057
20
-85.0943
11
105.056
21
-85.09
0
LINE
8
Black
10
105.056
20
-85.09
11
105.056
21
-77.724
0
LINE
8
Black
10
105.056
20
-77.724
11
105.057
21
-77.7197
0
LINE
8
Black
10
105.057
20
-77.7197
11
105.056
21
-77.7153
0
LINE
8
Black
10
105.056
20
-77.7153
11
105.06
21
-77.7027
0
LINE
8
Black
10
105.06
20
-77.7027
11
105.062
21
-77.6898
0
LINE
8
Black
10
105.062
20
-77.6898
11
105.064
21
-77.686
0
LINE
8
Black
10
105.064
20
-77.686
11
105.065
21
-77.6817
0
LINE
8
Black
10
105.065
20
-77.6817
11
105.073
21
-77.671
0
LINE
8
Black
10
105.073
20
-77.671
11
105.079
21
-77.6597
0
LINE
8
Black
10
105.079
20
-77.6597
11
105.083
21
-77.6569
0
LINE
8
Black
10
105.083
20
-77.6569
11
105.085
21
-77.6533
0
LINE
8
Black
10
105.085
20
-77.6533
11
105.343
21
-77.3953
0
LINE
8
Black
10
105.343
20
-77.3953
11
105.347
21
-77.3928
0
LINE
8
Black
10
105.347
20
-77.3928
11
105.35
21
-77.3894
0
LINE
8
Black
10
105.35
20
-77.3894
11
105.361
21
-77.3829
0
LINE
8
Black
10
105.361
20
-77.3829
11
105.372
21
-77.3754
0
LINE
8
Black
10
105.372
20
-77.3754
11
105.376
21
-77.3742
0
LINE
8
Black
10
105.376
20
-77.3742
11
105.38
21
-77.372
0
LINE
8
Black
10
105.38
20
-77.372
11
105.393
21
-77.3698
0
LINE
8
Black
10
105.393
20
-77.3698
11
105.405
21
-77.3664
0
LINE
8
Black
10
105.405
20
-77.3664
11
105.41
21
-77.3668
0
LINE
8
Black
10
105.41
20
-77.3668
11
105.414
21
-77.366
0
LINE
8
Black
10
105.414
20
-77.366
11
105.93
21
-77.366
0
LINE
8
Black
10
105.93
20
-77.366
11
105.93
21
-77.091
0
LINE
8
Black
10
105.93
20
-77.091
11
107.43
21
-77.091
0
LINE
8
Black
10
107.43
20
-77.091
11
107.43
21
-77.841
0
LINE
8
Black
10
107.43
20
-78.941
11
106.78
21
-78.941
0
LINE
8
Black
10
106.78
20
-78.941
11
106.78
21
-81.7466
0
LINE
8
Black
10
106.78
20
-81.7466
11
109.043
21
-84.01
0
LINE
8
Black
10
109.043
20
-84.01
11
109.9
21
-84.01
0
LINE
8
Black
10
109.9
20
-84.01
11
109.9
21
-83.61
0
LINE
8
Black
10
109.9
20
-83.61
11
113.05
21
-83.61
0
LINE
8
Black
10
113.05
20
-83.61
11
113.05
21
-84.61
0
LINE
8
Black
10
113.05
20
-84.61
11
109.9
21
-84.61
0
LINE
8
Black
10
109.9
20
-84.61
11
109.9
21
-84.21
0
LINE
8
Black
10
109.9
20
-84.21
11
109.002
21
-84.21
0
LINE
8
Black
10
109.002
20
-84.21
11
108.998
21
-84.2092
0
LINE
8
Black
10
108.998
20
-84.2092
11
108.993
21
-84.2096
0
LINE
8
Black
10
108.993
20
-84.2096
11
108.981
21
-84.2062
0
LINE
8
Black
10
108.981
20
-84.2062
11
108.968
21
-84.204
0
LINE
8
Black
10
108.968
20
-84.204
11
108.964
21
-84.2018
0
LINE
8
Black
10
108.964
20
-84.2018
11
108.96
21
-84.2006
0
LINE
8
Black
10
108.96
20
-84.2006
11
108.949
21
-84.1931
0
LINE
8
Black
10
108.949
20
-84.1931
11
108.938
21
-84.1866
0
LINE
8
Black
10
108.938
20
-84.1866
11
108.935
21
-84.1832
0
LINE
8
Black
10
108.935
20
-84.1832
11
108.931
21
-84.1807
0
LINE
8
Black
10
108.931
20
-84.1807
11
106.609
21
-81.8587
0
LINE
8
Black
10
106.609
20
-81.8587
11
106.607
21
-81.8551
0
LINE
8
Black
10
106.607
20
-81.8551
11
106.603
21
-81.8523
0
LINE
8
Black
10
106.603
20
-81.8523
11
106.597
21
-81.841
0
LINE
8
Black
10
106.597
20
-81.841
11
106.589
21
-81.8303
0
LINE
8
Black
10
106.589
20
-81.8303
11
106.588
21
-81.826
0
LINE
8
Black
10
106.588
20
-81.826
11
106.586
21
-81.8222
0
LINE
8
Black
10
106.586
20
-81.8222
11
106.584
21
-81.8093
0
LINE
8
Black
10
106.584
20
-81.8093
11
106.58
21
-81.7967
0
LINE
8
Black
10
106.58
20
-81.7967
11
106.581
21
-81.7923
0
LINE
8
Black
10
106.581
20
-81.7923
11
106.58
21
-81.788
0
LINE
8
Black
10
106.58
20
-81.788
11
106.58
21
-78.941
0
LINE
8
Black
10
106.58
20
-78.941
11
105.93
21
-78.941
0
LINE
8
Black
10
105.93
20
-78.941
11
105.93
21
-78.191
0
LINE
8
Black
10
105.93
20
-78.191
11
107.43
21
-78.191
0
LINE
8
Black
10
107.43
20
-78.191
11
107.43
21
-78.941
  0
ENDSEC
  0
EOF
