0
SECTION
2
HEADER
9
$INSUNITS
70
4
9
$ACADVER
1
AC1014
9
$HANDSEED
5
FFFF
0
ENDSEC
0
SECTION
2
TABLES
0
TABLE
2
VPORT
5
8
100
AcDbSymbolTable
0
ENDTAB
0
TABLE
2
LTYPE
5
5
100
AcDbSymbolTable
0
LTYPE
5
14
100
AcDbSymbolTableRecord
100
AcDbLinetypeTableRecord
2
BYBLOCK
70
0
0
LTYPE
5
15
100
AcDbSymbolTableRecord
100
AcDbLinetypeTableRecord
2
BYLAYER
70
0
0
ENDTAB
0
TABLE
2
LAYER
5
2
100
AcDbSymbolTable
70
2
0
LAYER
5
50
100
AcDbSymbolTableRecord
100
AcDbLayerTableRecord
2
0
70
0
6
CONTINUOUS
0
ENDTAB
0
TABLE
2
STYLE
5
3
100
AcDbSymbolTable
70
1
0
STYLE
5
11
100
AcDbSymbolTableRecord
100
AcDbTextStyleTableRecord
2
STANDARD
70
0
0
ENDTAB
0
TABLE
2
VIEW
5
6
100
AcDbSymbolTable
70
0
0
ENDTAB
0
TABLE
2
UCS
5
7
100
AcDbSymbolTable
70
0
0
ENDTAB
0
TABLE
2
APPID
5
9
100
AcDbSymbolTable
70
2
0
APPID
5
12
100
AcDbSymbolTableRecord
100
AcDbRegAppTableRecord
2
ACAD
70
0
0
ENDTAB
0
TABLE
2
DIMSTYLE
5
A
100
AcDbSymbolTable
70
1
0
ENDTAB
0
TABLE
2
BLOCK_RECORD
5
1
100
AcDbSymbolTable
70
1
0
BLOCK_RECORD
5
1F
100
AcDbSymbolTableRecord
100
AcDbBlockTableRecord
2
*MODEL_SPACE
0
BLOCK_RECORD
5
1B
100
AcDbSymbolTableRecord
100
AcDbBlockTableRecord
2
*PAPER_SPACE
0
ENDTAB
0
ENDSEC
0
SECTION
2
BLOCKS
0
BLOCK
5
20
100
AcDbEntity
100
AcDbBlockBegin
2
*MODEL_SPACE
0
ENDBLK
5
21
100
AcDbEntity
100
AcDbBlockEnd
0
BLOCK
5
1C
100
AcDbEntity
100
AcDbBlockBegin
2
*PAPER_SPACE
0
ENDBLK
5
1D
100
AcDbEntity
100
AcDbBlockEnd
0
ENDSEC
0
SECTION
2
ENTITIES
0
LINE
5
100
100
AcDbEntity
8
0
100
AcDbLine
10
87.535345496669521
20
146.97622069540978
30
0
11
91.01741121551278
21
151.86244810821574
31
0
0
LINE
5
101
100
AcDbEntity
8
0
100
AcDbLine
10
86.131913963763807
20
106.88469463005644
30
0
11
89.527956502510776
21
109.43996273243259
31
0
0
LINE
5
102
100
AcDbEntity
8
0
100
AcDbLine
10
90.99642324740708
20
144.50975747789579
30
0
11
87.535345496669521
21
146.97622069540978
31
0
0
LINE
5
103
100
AcDbEntity
8
0
100
AcDbLine
10
89.616131698029434
20
102.00000151991851
30
0
11
86.131913963763807
21
106.88469463005644
31
0
0
LINE
5
104
100
AcDbEntity
8
0
100
AcDbLine
10
89.527956502510776
20
109.43996273243259
30
0
11
92.785637604722439
21
104.40136036309514
31
0
0
LINE
5
105
100
AcDbEntity
8
0
100
AcDbLine
10
94.478488966250353
20
149.39598489070175
30
0
11
90.99642324740708
21
144.50975747789579
31
0
0
SPLINE
5
106
100
AcDbEntity
8
0
100
AcDbSpline
70
1064
71
5
72
16
73
10
74
0
42
0.000000001
43
0.0000000001
44
0.0000000001
40
0
40
0
40
0
40
0
40
0
40
0
40
0.20000000000000001
40
0.40000000000000002
40
0.60000000000000009
40
0.80000000000000004
40
1
40
1
40
1
40
1
40
1
40
1
10
89.616131698029434
20
102.00000151991851
30
0
10
89.31930525422203
20
101.859630101975
30
0
10
88.701006720425397
20
101.60010987075482
30
0
10
87.699688493905597
20
101.27444006317754
30
0
10
86.237237274585979
20
100.94988479860226
30
0
10
84.267877935915848
20
100.66586148191463
30
0
10
82.623047954807944
20
100.49835433577579
30
0
10
81.363233874585021
20
100.39527781181489
30
0
10
80.512473486149915
20
100.3359327354363
30
0
10
80.084371063670119
20
100.30860433437326
30
0
0
SPLINE
5
107
100
AcDbEntity
8
0
100
AcDbSpline
70
1064
71
5
72
41
73
35
74
0
42
0.000000001
43
0.0000000001
44
0.0000000001
40
0
40
0
40
0
40
0
40
0
40
0
40
0.033333333333333333
40
0.066666666666666666
40
0.10000000000000001
40
0.13333333333333333
40
0.16666666666666666
40
0.19999999999999998
40
0.23333333333333331
40
0.26666666666666666
40
0.29999999999999999
40
0.33333333333333331
40
0.36666666666666664
40
0.39999999999999997
40
0.43333333333333329
40
0.46666666666666662
40
0.49999999999999994
40
0.53333333333333333
40
0.56666666666666665
40
0.59999999999999998
40
0.6333333333333333
40
0.66666666666666663
40
0.69999999999999996
40
0.73333333333333328
40
0.76666666666666661
40
0.79999999999999993
40
0.83333333333333326
40
0.86666666666666659
40
0.89999999999999991
40
0.93333333333333324
40
0.96666666666666656
40
1
40
1
40
1
40
1
40
1
40
1
10
94.478488966250353
20
149.39598489070175
30
0
10
94.566007302206856
20
149.30537792672098
30
0
10
94.734905463747637
20
149.13724609542425
30
0
10
94.96997766887236
20
148.92396776414981
30
0
10
95.27714986034475
20
148.61834083562695
30
0
10
95.762823249034383
20
147.76677428736508
30
0
10
96.346529923457496
20
146.2200332552533
30
0
10
96.908998131903047
20
144.00166367525784
30
0
10
97.27463843707352
20
141.28807643786016
30
0
10
97.251326139724057
20
138.35755179832299
30
0
10
96.678325492951529
20
135.52119372462477
30
0
10
95.470432356843304
20
133.06257644934459
30
0
10
93.665504279194948
20
131.17247021732067
30
0
10
91.468187899037559
20
129.88817859504303
30
0
10
89.183453202850146
20
129.13258446590081
30
0
10
87.155379085005777
20
128.74906900289898
30
0
10
85.702465108702555
20
128.53769756153559
30
0
10
85.058789986290421
20
128.28919729680544
30
0
10
85.301340360878356
20
127.82247729956437
30
0
10
86.315866461231053
20
127.01184126821144
30
0
10
87.873855046432936
20
125.78363003565018
30
0
10
89.690918061863329
20
124.11942528672469
30
0
10
91.487281201650234
20
122.0556301198569
30
0
10
93.058518946685012
20
119.68890121132132
30
0
10
94.28739778504287
20
117.16130602383467
30
0
10
95.120960847377759
20
114.63457932248288
30
0
10
95.558882375726796
20
112.26760889365197
30
0
10
95.637731953419362
20
110.19331940527813
30
0
10
95.417237767827231
20
108.49403773565012
30
0
10
94.966367545611376
20
107.18089350417499
30
0
10
94.348655359002237
20
106.16105822731723
30
0
10
93.762269260350877
20
105.46054013930238
30
0
10
93.28641656115623
20
104.93779338875544
30
0
10
92.954937690710508
20
104.58147348425882
30
0
10
92.785637604722439
20
104.40136036309514
30
0
0
SPLINE
5
108
100
AcDbEntity
8
0
100
AcDbSpline
70
1064
71
5
72
16
73
10
74
0
42
0.000000001
43
0.0000000001
44
0.0000000001
40
0
40
0
40
0
40
0
40
0
40
0
40
0.20000000000000001
40
0.40000000000000002
40
0.60000000000000009
40
0.80000000000000004
40
1
40
1
40
1
40
1
40
1
40
1
10
91.01741121551278
20
151.86244810821574
30
0
10
90.575879661583528
20
152.05239027082672
30
0
10
89.692913630626506
20
152.4061822851038
30
0
10
88.368755692451444
20
152.85862628416024
30
0
10
86.603834450765817
20
153.29452224539233
30
0
10
84.399228405528476
20
153.42399115344946
30
0
10
82.637559052219203
20
152.98584517105138
30
0
10
81.318010201492939
20
152.19945951594659
30
0
10
80.43918906106731
20
151.43918863573066
30
0
10
79.999998211860657
20
150.99999662488699
30
0
0
LINE
5
109
100
AcDbEntity
8
0
100
AcDbLine
10
50.257169922082426
20
109.41454654268667
30
0
11
46.772992065307157
21
104.52982498845697
31
0
0
SPLINE
5
110
100
AcDbEntity
8
0
100
AcDbSpline
70
1064
71
5
72
16
73
10
74
0
42
0.000000001
43
0.0000000001
44
0.0000000001
40
0
40
0
40
0
40
0
40
0
40
0
40
0.20000000000000001
40
0.40000000000000002
40
0.60000000000000009
40
0.80000000000000004
40
1
40
1
40
1
40
1
40
1
40
1
10
50.232718079985801
20
102.0614858905777
30
0
10
50.529328322023368
20
101.92121671604824
30
0
10
51.147138554143901
20
101.66115334304348
30
0
10
52.147556784596567
20
101.33242795462266
30
0
10
53.608519146744328
20
100.99993509388082
30
0
10
55.575696945783115
20
100.70170357178583
30
0
10
57.21862442126951
20
100.52072634801354
30
0
10
58.476952217813846
20
100.40675274069122
30
0
10
59.326697063990757
20
100.3398127644742
30
0
10
59.75428554112753
20
100.30860433437326
30
0
0
LINE
5
111
100
AcDbEntity
8
0
100
AcDbLine
10
52.305492137817744
20
146.97777566584455
30
0
11
48.821275039847592
21
151.86246922984662
31
0
0
LINE
5
112
100
AcDbEntity
8
0
100
AcDbLine
10
50.232718079985801
20
102.0614858905777
30
0
11
53.71690532321356
21
106.94620074961797
31
0
0
LINE
5
113
100
AcDbEntity
8
0
100
AcDbLine
10
53.71690532321356
20
106.94620074961797
30
0
11
50.257169922082426
21
109.41454654268667
31
0
0
SPLINE
5
114
100
AcDbEntity
8
0
100
AcDbSpline
70
1064
71
5
72
16
73
10
74
0
42
0.000000001
43
0.0000000001
44
0.0000000001
40
0
40
0
40
0
40
0
40
0
40
0
40
0.20000000000000001
40
0.40000000000000002
40
0.60000000000000009
40
0.80000000000000004
40
1
40
1
40
1
40
1
40
1
40
1
10
48.821275039847592
20
151.86246922984662
30
0
10
49.26280551460642
20
152.05240931441659
30
0
10
50.145769374801922
20
152.40619731597454
30
0
10
51.469924019588582
20
152.85863572586021
30
0
10
53.234840790418339
20
153.29452515443106
30
0
10
55.439441049320521
20
153.42398817906252
30
0
10
57.201105515643256
20
152.98584046638373
30
0
10
58.520650483174336
20
152.19945602879673
30
0
10
59.399468922432234
20
151.43918725702514
30
0
10
59.838658392936992
20
150.99999662488699
30
0
0
LINE
5
115
100
AcDbEntity
8
0
100
AcDbLine
10
45.360571831552235
20
149.39541752285297
30
0
11
48.844818699228895
21
144.51074519350627
31
0
0
LINE
5
116
100
AcDbEntity
8
0
100
AcDbLine
10
48.844818699228895
20
144.51074519350627
30
0
11
52.305492137817744
21
146.97777566584455
31
0
0
LINE
5
117
100
AcDbEntity
8
0
100
AcDbLine
10
79.999998211860657
20
150.99999662488699
30
0
11
59.838658392936992
21
150.99999662488699
31
0
0
LINE
5
118
100
AcDbEntity
8
0
100
AcDbLine
10
80.084371063670119
20
100.30860433437326
30
0
11
59.75428554112753
21
100.30860433437326
31
0
0
SPLINE
5
119
100
AcDbEntity
8
0
100
AcDbSpline
70
1064
71
5
72
46
73
40
74
0
42
0.000000001
43
0.0000000001
44
0.0000000001
40
0
40
0
40
0
40
0
40
0
40
0
40
0.028571428571428571
40
0.057142857142857141
40
0.085714285714285715
40
0.11428571428571428
40
0.14285714285714285
40
0.17142857142857143
40
0.20000000000000001
40
0.22857142857142859
40
0.25714285714285717
40
0.28571428571428575
40
0.31428571428571433
40
0.34285714285714292
40
0.3714285714285715
40
0.40000000000000008
40
0.42857142857142866
40
0.45714285714285724
40
0.48571428571428582
40
0.51428571428571435
40
0.54285714285714293
40
0.57142857142857151
40
0.60000000000000009
40
0.62857142857142867
40
0.65714285714285725
40
0.68571428571428583
40
0.71428571428571441
40
0.74285714285714299
40
0.77142857142857157
40
0.80000000000000016
40
0.82857142857142874
40
0.85714285714285732
40
0.8857142857142859
40
0.91428571428571448
40
0.94285714285714306
40
0.97142857142857164
40
1
40
1
40
1
40
1
40
1
40
1
10
45.360571831552235
20
149.39541752285297
30
0
10
45.437851739247073
20
149.4767570250323
30
0
10
45.517671886564521
20
149.56049616991072
30
0
10
45.394800911899232
20
149.42703167373753
30
0
10
44.916301987349307
20
148.9375121008971
30
0
10
44.574162027114284
20
148.61972982239399
30
0
10
44.317268552573736
20
148.19610930491243
30
0
10
44.011939746347949
20
147.32903261459282
30
0
10
43.624036467837399
20
145.86728077042795
30
0
10
43.222353886138336
20
143.83599742583382
30
0
10
42.927221061609387
20
141.37378255682546
30
0
10
42.885214403770142
20
138.69643669202301
30
0
10
43.233322027828542
20
136.05023053985366
30
0
10
44.066206286852093
20
133.66861230789561
30
0
10
45.405267827012693
20
131.7306493682953
30
0
10
47.157797295713458
20
130.31014310378131
30
0
10
49.140100974496107
20
129.38569589727322
30
0
10
51.119313432108527
20
128.86841644309985
30
0
10
52.848184089688999
20
128.62310228586387
30
0
10
54.103517553730242
20
128.49209742847731
30
0
10
54.72114845383679
20
128.31712125043742
30
0
10
54.63749807032481
20
127.96352706332188
30
0
10
53.91427994781985
20
127.33866240771084
30
0
10
52.694961204865088
20
126.38722887912736
30
0
10
51.17192891965712
20
125.09021023974597
30
0
10
49.54961494068327
20
123.46270138565642
30
0
10
48.010081963899111
20
121.55231444039778
30
0
10
46.675963939094459
20
119.43791303865977
30
0
10
45.618570757631247
20
117.21853292072039
30
0
10
44.867681912015804
20
115.00194026740127
30
0
10
44.420481310413599
20
112.89331827853658
30
0
10
44.250581454306833
20
110.98410059517147
30
0
10
44.316913329890397
20
109.34022597431961
30
0
10
44.572332547216419
20
107.99153883135568
30
0
10
44.972768810451868
20
106.91798590497922
30
0
10
45.484609562227192
20
106.04442748277907
30
0
10
45.963930069145675
20
105.43036735191551
30
0
10
46.356253369662781
20
104.98041714467284
30
0
10
46.631753799897652
20
104.68008400730025
30
0
10
46.772992065307157
20
104.52982498845697
30
0
0
ENDSEC
0
SECTION
2
OBJECTS
0
DICTIONARY
5
C
100
AcDbDictionary
3
ACAD_GROUP
350
D
3
ACAD_MLINESTYLE
350
17
0
DICTIONARY
5
D
100
AcDbDictionary
0
DICTIONARY
5
1A
330
C
100
AcDbDictionary
0
DICTIONARY
5
17
100
AcDbDictionary
0
ENDSEC
0
EOF
