  0
SECTION
  2
HEADER
  9
$ACADVER
  1
AC1009
  9
$DWGCODEPAGE
  3
ansi_1252
  9
$INSBASE
 10
0.0
 20
0.0
 30
0.0
  9
$EXTMIN
 10
0.9858556972901233
 20
0.9894924948403284
 30
0.0
  9
$EXTMAX
 10
94.92985950968588
 20
46.98977544710581
 30
0.0
  9
$LIMMIN
 10
0.0
 20
0.0
  9
$LIMMAX
 10
12.0
 20
9.0
  9
$ORTHOMODE
 70
     0
  9
$REGENMODE
 70
     1
  9
$FILLMODE
 70
     1
  9
$QTEXTMODE
 70
     0
  9
$MIRRTEXT
 70
     1
  9
$DRAGMODE
 70
     2
  9
$LTSCALE
 40
1.0
  9
$OSMODE
 70
    37
  9
$ATTMODE
 70
     1
  9
$TEXTSIZE
 40
0.2
  9
$TRACEWID
 40
0.05
  9
$TEXTSTYLE
  7
STANDARD
  9
$CLAYER
  8
0
  9
$CELTYPE
  6
BYLAYER
  9
$CECOLOR
 62
   256
  9
$DIMSCALE
 40
1.0
  9
$DIMASZ
 40
0.18
  9
$DIMEXO
 40
0.0625
  9
$DIMDLI
 40
0.38
  9
$DIMRND
 40
0.0
  9
$DIMDLE
 40
0.0
  9
$DIMEXE
 40
0.18
  9
$DIMTP
 40
0.0
  9
$DIMTM
 40
0.0
  9
$DIMTXT
 40
0.18
  9
$DIMCEN
 40
0.09
  9
$DIMTSZ
 40
0.0
  9
$DIMTOL
 70
     0
  9
$DIMLIM
 70
     0
  9
$DIMTIH
 70
     1
  9
$DIMTOH
 70
     1
  9
$DIMSE1
 70
     0
  9
$DIMSE2
 70
     0
  9
$DIMTAD
 70
     0
  9
$DIMZIN
 70
     0
  9
$DIMBLK
  1

  9
$DIMASO
 70
     1
  9
$DIMSHO
 70
     1
  9
$DIMPOST
  1

  9
$DIMAPOST
  1

  9
$DIMALT
 70
     0
  9
$DIMALTD
 70
     2
  9
$DIMALTF
 40
25.4
  9
$DIMLFAC
 40
1.0
  9
$DIMTOFL
 70
     0
  9
$DIMTVP
 40
0.0
  9
$DIMTIX
 70
     0
  9
$DIMSOXD
 70
     0
  9
$DIMSAH
 70
     0
  9
$DIMBLK1
  1

  9
$DIMBLK2
  1

  9
$DIMSTYLE
  2
STANDARD
  9
$DIMCLRD
 70
     0
  9
$DIMCLRE
 70
     0
  9
$DIMCLRT
 70
     0
  9
$DIMTFAC
 40
1.0
  9
$DIMGAP
 40
0.09
  9
$LUNITS
 70
     2
  9
$LUPREC
 70
     4
  9
$SKETCHINC
 40
0.1
  9
$FILLETRAD
 40
0.5
  9
$AUNITS
 70
     0
  9
$AUPREC
 70
     0
  9
$MENU
  1
.
  9
$ELEVATION
 40
0.0
  9
$PELEVATION
 40
0.0
  9
$THICKNESS
 40
0.0
  9
$LIMCHECK
 70
     0
  9
$CHAMFERA
 40
0.5
  9
$CHAMFERB
 40
0.5
  9
$SKPOLY
 70
     0
  9
$TDCREATE
 40
2454910.5
  9
$TDUPDATE
 40
2455959.379305231
  9
$TDINDWG
 40
0.0000000116
  9
$TDUSRTIMER
 40
0.0000000116
  9
$USRTIMER
 70
     1
  9
$ANGBASE
 50
0.0
  9
$ANGDIR
 70
     0
  9
$PDMODE
 70
     0
  9
$PDSIZE
 40
0.0
  9
$PLINEWID
 40
0.0
  9
$COORDS
 70
     1
  9
$SPLFRAME
 70
     0
  9
$SPLINETYPE
 70
     6
  9
$SPLINESEGS
 70
     8
  9
$ATTDIA
 70
     0
  9
$ATTREQ
 70
     1
  9
$HANDLING
 70
     1
  9
$HANDSEED
  5
543
  9
$SURFTAB1
 70
     6
  9
$SURFTAB2
 70
     6
  9
$SURFTYPE
 70
     6
  9
$SURFU
 70
     6
  9
$SURFV
 70
     6
  9
$UCSNAME
  2

  9
$UCSORG
 10
0.0
 20
0.0
 30
0.0
  9
$UCSXDIR
 10
1.0
 20
0.0
 30
0.0
  9
$UCSYDIR
 10
0.0
 20
1.0
 30
0.0
  9
$PUCSNAME
  2

  9
$PUCSORG
 10
0.0
 20
0.0
 30
0.0
  9
$PUCSXDIR
 10
1.0
 20
0.0
 30
0.0
  9
$PUCSYDIR
 10
0.0
 20
1.0
 30
0.0
  9
$USERI1
 70
     0
  9
$USERI2
 70
     0
  9
$USERI3
 70
     0
  9
$USERI4
 70
     0
  9
$USERI5
 70
     0
  9
$USERR1
 40
0.0
  9
$USERR2
 40
0.0
  9
$USERR3
 40
0.0
  9
$USERR4
 40
0.0
  9
$USERR5
 40
0.0
  9
$WORLDVIEW
 70
     1
  9
$SHADEDGE
 70
     3
  9
$SHADEDIF
 70
    70
  9
$TILEMODE
 70
     1
  9
$MAXACTVP
 70
    64
  9
$PLIMCHECK
 70
     0
  9
$PEXTMIN
 10
1.000000000000000E+20
 20
1.000000000000000E+20
 30
1.000000000000000E+20
  9
$PEXTMAX
 10
-1.000000000000000E+20
 20
-1.000000000000000E+20
 30
-1.000000000000000E+20
  9
$PLIMMIN
 10
0.0
 20
0.0
  9
$PLIMMAX
 10
12.0
 20
9.0
  9
$UNITMODE
 70
     0
  9
$VISRETAIN
 70
     1
  9
$PLINEGEN
 70
     0
  9
$PSLTSCALE
 70
     1
  0
ENDSEC
  0
SECTION
  2
TABLES
  0
TABLE
  2
VPORT
 70
     1
  0
VPORT
  2
*ACTIVE
 70
     0
 10
0.0
 20
0.0
 11
1.0
 21
1.0
 12
10.42990654205607
 22
4.5
 13
0.0
 23
0.0
 14
0.5
 24
0.5
 15
0.5
 25
0.5
 16
0.0
 26
0.0
 36
1.0
 17
0.0
 27
0.0
 37
0.0
 40
9.0
 41
1.972972972850329
 42
50.0
 43
0.0
 44
0.0
 50
0.0
 51
0.0
 71
     0
 72
   100
 73
     1
 74
     3
 75
     0
 76
     0
 77
     0
 78
     0
  0
ENDTAB
  0
TABLE
  2
LTYPE
 70
     2
  0
LTYPE
  2
CONTINUOUS
 70
     0
  3
Solid line
 72
    65
 73
     0
 40
0.0
  0
LTYPE
  2
CONTINUOUS2
 70
     0
  3
Solid Line
 72
    65
 73
     0
 40
0.0
  0
ENDTAB
  0
TABLE
  2
LAYER
 70
     2
  0
LAYER
  2
0
 70
     0
 62
     7
  6
CONTINUOUS
  0
LAYER
  2
CK_LEVEL_1
 70
     0
 62
    18
  6
CONTINUOUS
  0
ENDTAB
  0
TABLE
  2
STYLE
 70
     1
  0
STYLE
  2
STANDARD
 70
     0
 40
0.0
 41
1.0
 50
0.0
 71
     0
 42
0.2
  3
txt
  4

  0
ENDTAB
  0
TABLE
  2
VIEW
 70
     0
  0
ENDTAB
  0
TABLE
  2
UCS
 70
     0
  0
ENDTAB
  0
TABLE
  2
APPID
 70
     1
  0
APPID
  2
ACAD
 70
     0
  0
ENDTAB
  0
TABLE
  2
DIMSTYLE
 70
     1
  0
DIMSTYLE
  2
STANDARD
 70
     0
  3

  4

  5

  6

  7

 40
1.0
 41
0.18
 42
0.0625
 43
0.38
 44
0.18
 45
0.0
 46
0.0
 47
0.0
 48
0.0
140
0.18
141
0.09
142
0.0
143
25.4
144
1.0
145
0.0
146
1.0
147
0.09
 71
     0
 72
     0
 73
     1
 74
     1
 75
     0
 76
     0
 77
     0
 78
     0
170
     0
171
     2
172
     0
173
     0
174
     0
175
     0
176
     0
177
     0
178
     0
  0
ENDTAB
  0
ENDSEC
  0
SECTION
  2
BLOCKS
  0
BLOCK
  8
0
  2
$MODEL_SPACE
 70
     0
 10
0.0
 20
0.0
 30
0.0
  3
$MODEL_SPACE
  1

  0
ENDBLK
  5
21
  8
0
  0
BLOCK
 67
     1
  8
0
  2
$PAPER_SPACE
 70
     0
 10
0.0
 20
0.0
 30
0.0
  3
$PAPER_SPACE
  1

  0
ENDBLK
  5
1D
 67
     1
  8
0
  0
ENDSEC
  0
SECTION
  2
ENTITIES
  0
POLYLINE
  5
41
  8
CK_LEVEL_1
 66
     1
 10
0.0
 20
0.0
 30
0.0
 70
     1
  0
VERTEX
  5
65
  8
CK_LEVEL_1
 10
28.65431664288023
 20
27.71781179025944
 30
0.0
  0
VERTEX
  5
66
  8
CK_LEVEL_1
 10
26.65431664288024
 20
24.71781179025945
 30
0.0
  0
VERTEX
  5
67
  8
CK_LEVEL_1
 10
24.65431664288025
 20
23.71781179025934
 30
0.0
  0
VERTEX
  5
68
  8
CK_LEVEL_1
 10
24.65431664288025
 20
22.7178117902593
 30
0.0
  0
VERTEX
  5
69
  8
CK_LEVEL_1
 10
28.47753994758359
 20
22.7178117902593
 30
0.0
 42
-1.0
  0
VERTEX
  5
6A
  8
CK_LEVEL_1
 10
28.65431664288023
 20
22.54103509496267
 30
0.0
  0
VERTEX
  5
6B
  8
CK_LEVEL_1
 10
28.65431664288023
 20
22.21781179025931
 30
0.0
  0
VERTEX
  5
6C
  8
CK_LEVEL_1
 10
30.65431664288022
 20
22.21781179025931
 30
0.0
  0
VERTEX
  5
6D
  8
CK_LEVEL_1
 10
30.65431664288022
 20
22.54103509496267
 30
0.0
 42
-1.0
  0
VERTEX
  5
6E
  8
CK_LEVEL_1
 10
30.83109333817685
 20
22.7178117902593
 30
0.0
  0
VERTEX
  5
6F
  8
CK_LEVEL_1
 10
40.47753994758354
 20
22.7178117902593
 30
0.0
 42
-1.0
  0
VERTEX
  5
70
  8
CK_LEVEL_1
 10
40.65431664288018
 20
22.54103509496267
 30
0.0
  0
VERTEX
  5
71
  8
CK_LEVEL_1
 10
40.65431664288018
 20
22.21781179025931
 30
0.0
  0
VERTEX
  5
72
  8
CK_LEVEL_1
 10
42.65431664288019
 20
22.21781179025931
 30
0.0
  0
VERTEX
  5
73
  8
CK_LEVEL_1
 10
42.65431664288019
 20
22.54103509496267
 30
0.0
 42
-1.0
  0
VERTEX
  5
74
  8
CK_LEVEL_1
 10
42.83109333817683
 20
22.7178117902593
 30
0.0
  0
VERTEX
  5
75
  8
CK_LEVEL_1
 10
58.47753994758354
 20
22.7178117902593
 30
0.0
 42
-1.0
  0
VERTEX
  5
76
  8
CK_LEVEL_1
 10
58.65431664288018
 20
22.54103509496267
 30
0.0
  0
VERTEX
  5
77
  8
CK_LEVEL_1
 10
58.65431664288018
 20
22.21781179025931
 30
0.0
  0
VERTEX
  5
78
  8
CK_LEVEL_1
 10
60.65431664288018
 20
22.21781179025931
 30
0.0
  0
VERTEX
  5
79
  8
CK_LEVEL_1
 10
60.65431664288018
 20
22.54103509496267
 30
0.0
 42
-1.0
  0
VERTEX
  5
7A
  8
CK_LEVEL_1
 10
60.83109333817682
 20
22.7178117902593
 30
0.0
  0
VERTEX
  5
7B
  8
CK_LEVEL_1
 10
76.47753994758376
 20
22.7178117902593
 30
0.0
 42
-1.0
  0
VERTEX
  5
7C
  8
CK_LEVEL_1
 10
76.6543166428804
 20
22.54103509496267
 30
0.0
  0
VERTEX
  5
7D
  8
CK_LEVEL_1
 10
76.6543166428804
 20
22.21781179025931
 30
0.0
  0
VERTEX
  5
7E
  8
CK_LEVEL_1
 10
78.65431664288042
 20
22.21781179025931
 30
0.0
  0
VERTEX
  5
7F
  8
CK_LEVEL_1
 10
78.65431664288042
 20
22.54103509496267
 30
0.0
 42
-1.0
  0
VERTEX
  5
80
  8
CK_LEVEL_1
 10
78.83109333817706
 20
22.7178117902593
 30
0.0
  0
VERTEX
  5
81
  8
CK_LEVEL_1
 10
88.47753994758396
 20
22.7178117902593
 30
0.0
 42
-1.0
  0
VERTEX
  5
82
  8
CK_LEVEL_1
 10
88.6543166428806
 20
22.54103509496267
 30
0.0
  0
VERTEX
  5
83
  8
CK_LEVEL_1
 10
88.6543166428806
 20
22.21781179025931
 30
0.0
  0
VERTEX
  5
84
  8
CK_LEVEL_1
 10
90.6543166428806
 20
22.21781179025931
 30
0.0
  0
VERTEX
  5
85
  8
CK_LEVEL_1
 10
90.6543166428806
 20
22.54103509496267
 30
0.0
 42
-1.0
  0
VERTEX
  5
86
  8
CK_LEVEL_1
 10
90.83109333817724
 20
22.7178117902593
 30
0.0
  0
VERTEX
  5
87
  8
CK_LEVEL_1
 10
94.6543166428806
 20
22.7178117902593
 30
0.0
  0
VERTEX
  5
88
  8
CK_LEVEL_1
 10
94.6543166428806
 20
23.71781179025934
 30
0.0
  0
VERTEX
  5
89
  8
CK_LEVEL_1
 10
92.6543166428806
 20
24.71781179025945
 30
0.0
  0
VERTEX
  5
8A
  8
CK_LEVEL_1
 10
90.6543166428806
 20
27.71781179025944
 30
0.0
  0
VERTEX
  5
8B
  8
CK_LEVEL_1
 10
89.6543166428806
 20
27.71781179025944
 30
0.0
  0
VERTEX
  5
8C
  8
CK_LEVEL_1
 10
89.65431664288063
 20
25.2178117902595
 30
0.0
 42
-1.0
  0
VERTEX
  5
8D
  8
CK_LEVEL_1
 10
89.40431664288063
 20
25.21781179025947
 30
0.0
  0
VERTEX
  5
8E
  8
CK_LEVEL_1
 10
89.08109333817724
 20
25.21781179025945
 30
0.0
 42
-1.0
  0
VERTEX
  5
8F
  8
CK_LEVEL_1
 10
88.9043166428806
 20
25.39458848555608
 30
0.0
  0
VERTEX
  5
90
  8
CK_LEVEL_1
 10
88.9043166428806
 20
27.71781179025944
 30
0.0
  0
VERTEX
  5
91
  8
CK_LEVEL_1
 10
87.90510081397942
 20
27.71781179025944
 30
0.0
 42
-0.0928723853402036
  0
VERTEX
  5
92
  8
CK_LEVEL_1
 10
60.9818721950673
 20
27.71781179025944
 30
0.0
  0
VERTEX
  5
93
  8
CK_LEVEL_1
 10
60.02931664288018
 20
27.71781179025944
 30
0.0
  0
VERTEX
  5
94
  8
CK_LEVEL_1
 10
60.02931664288018
 20
25.39458848555608
 30
0.0
 42
-1.0
  0
VERTEX
  5
95
  8
CK_LEVEL_1
 10
59.85253994758354
 20
25.21781179025945
 30
0.0
  0
VERTEX
  5
96
  8
CK_LEVEL_1
 10
59.45609333817682
 20
25.21781179025945
 30
0.0
 42
-1.0
  0
VERTEX
  5
97
  8
CK_LEVEL_1
 10
59.27931664288018
 20
25.39458848555608
 30
0.0
  0
VERTEX
  5
98
  8
CK_LEVEL_1
 10
59.27931664288018
 20
27.71781179025944
 30
0.0
  0
VERTEX
  5
99
  8
CK_LEVEL_1
 10
58.37112834353955
 20
27.71781179025944
 30
0.0
 42
-0.0926352528505815
  0
VERTEX
  5
9A
  8
CK_LEVEL_1
 10
31.36963877493399
 20
27.71781179025944
 30
0.0
  0
VERTEX
  5
9B
  8
CK_LEVEL_1
 10
30.40431664288021
 20
27.71781179025944
 30
0.0
  0
VERTEX
  5
9C
  8
CK_LEVEL_1
 10
30.40431664288021
 20
25.39458848555608
 30
0.0
 42
-1.0
  0
VERTEX
  5
9D
  8
CK_LEVEL_1
 10
30.22753994758358
 20
25.21781179025945
 30
0.0
  0
VERTEX
  5
9E
  8
CK_LEVEL_1
 10
29.90431664288022
 20
25.21781179025945
 30
0.0
 42
-1.0
  0
VERTEX
  5
9F
  8
CK_LEVEL_1
 10
29.65431664288022
 20
25.21781179025945
 30
0.0
  0
VERTEX
  5
A0
  8
CK_LEVEL_1
 10
29.65431664288022
 20
27.71781179025944
 30
0.0
  0
SEQEND
  5
A1
  8
CK_LEVEL_1
  0
POLYLINE
  5
42
  8
CK_LEVEL_1
 66
     1
 10
0.0
 20
0.0
 30
0.0
 70
     1
  0
VERTEX
  5
A2
  8
CK_LEVEL_1
 10
54.22813468163485
 20
28.70257862565244
 30
0.0
 42
0.4142135623730956
  0
VERTEX
  5
A3
  8
CK_LEVEL_1
 10
55.22813468163485
 20
29.70257862565244
 30
0.0
  0
VERTEX
  5
A4
  8
CK_LEVEL_1
 10
55.22813468163485
 20
31.70257862565245
 30
0.0
 42
-0.4142135623730954
  0
VERTEX
  5
A5
  8
CK_LEVEL_1
 10
50.97813468163485
 20
35.95257862565246
 30
0.0
  0
VERTEX
  5
A6
  8
CK_LEVEL_1
 10
50.97813468163485
 20
39.45257862565246
 30
0.0
 42
-0.4142135623730955
  0
VERTEX
  5
A7
  8
CK_LEVEL_1
 10
55.22813468163485
 20
43.70257862565248
 30
0.0
  0
VERTEX
  5
A8
  8
CK_LEVEL_1
 10
55.22813468163485
 20
45.70257862565248
 30
0.0
 42
0.414213562373094
  0
VERTEX
  5
A9
  8
CK_LEVEL_1
 10
54.22813468163485
 20
46.70257862565248
 30
0.0
  0
VERTEX
  5
AA
  8
CK_LEVEL_1
 10
54.11496125467227
 20
46.67255830528401
 30
0.0
  0
VERTEX
  5
AB
  8
CK_LEVEL_1
 10
54.00182985867904
 20
46.64315575986264
 30
0.0
  0
VERTEX
  5
AC
  8
CK_LEVEL_1
 10
53.88874052269215
 20
46.61436754237053
 30
0.0
  0
VERTEX
  5
AD
  8
CK_LEVEL_1
 10
53.7756932757486
 20
46.58619020578986
 30
0.0
  0
VERTEX
  5
AE
  8
CK_LEVEL_1
 10
53.6626881468854
 20
46.55862030310283
 30
0.0
  0
VERTEX
  5
AF
  8
CK_LEVEL_1
 10
53.54972516513957
 20
46.5316543872916
 30
0.0
  0
VERTEX
  5
B0
  8
CK_LEVEL_1
 10
53.43680435954809
 20
46.50528901133836
 30
0.0
  0
VERTEX
  5
B1
  8
CK_LEVEL_1
 10
53.32392575914797
 20
46.47952072822528
 30
0.0
  0
VERTEX
  5
B2
  8
CK_LEVEL_1
 10
53.21108939297621
 20
46.45434609093456
 30
0.0
  0
VERTEX
  5
B3
  8
CK_LEVEL_1
 10
53.09829529006981
 20
46.42976165244835
 30
0.0
  0
VERTEX
  5
B4
  8
CK_LEVEL_1
 10
52.98554347946578
 20
46.40576396574885
 30
0.0
  0
VERTEX
  5
B5
  8
CK_LEVEL_1
 10
52.87283399020112
 20
46.38234958381823
 30
0.0
  0
VERTEX
  5
B6
  8
CK_LEVEL_1
 10
52.76016685131282
 20
46.35951505963868
 30
0.0
  0
VERTEX
  5
B7
  8
CK_LEVEL_1
 10
52.64754209183791
 20
46.33725694619238
 30
0.0
  0
VERTEX
  5
B8
  8
CK_LEVEL_1
 10
52.53495974081336
 20
46.3155717964615
 30
0.0
  0
VERTEX
  5
B9
  8
CK_LEVEL_1
 10
52.42241982727621
 20
46.29445616342823
 30
0.0
  0
VERTEX
  5
BA
  8
CK_LEVEL_1
 10
52.30992238026343
 20
46.27390660007474
 30
0.0
  0
VERTEX
  5
BB
  8
CK_LEVEL_1
 10
52.19746742881203
 20
46.25391965938321
 30
0.0
  0
VERTEX
  5
BC
  8
CK_LEVEL_1
 10
52.08505500195902
 20
46.23449189433582
 30
0.0
  0
VERTEX
  5
BD
  8
CK_LEVEL_1
 10
51.9726851287414
 20
46.21561985791475
 30
0.0
  0
VERTEX
  5
BE
  8
CK_LEVEL_1
 10
51.86035783819618
 20
46.19730010310218
 30
0.0
  0
VERTEX
  5
BF
  8
CK_LEVEL_1
 10
51.74807315936035
 20
46.17952918288029
 30
0.0
  0
VERTEX
  5
C0
  8
CK_LEVEL_1
 10
51.63583112127091
 20
46.16230365023127
 30
0.0
  0
VERTEX
  5
C1
  8
CK_LEVEL_1
 10
51.52363175296487
 20
46.14562005813728
 30
0.0
  0
VERTEX
  5
C2
  8
CK_LEVEL_1
 10
51.41147508347924
 20
46.12947495958052
 30
0.0
  0
VERTEX
  5
C3
  8
CK_LEVEL_1
 10
51.29936114185102
 20
46.11386490754315
 30
0.0
  0
VERTEX
  5
C4
  8
CK_LEVEL_1
 10
51.18728995711719
 20
46.09878645500737
 30
0.0
  0
VERTEX
  5
C5
  8
CK_LEVEL_1
 10
51.07526155831479
 20
46.08423615495535
 30
0.0
  0
VERTEX
  5
C6
  8
CK_LEVEL_1
 10
50.96327597448079
 20
46.07021056036926
 30
0.0
  0
VERTEX
  5
C7
  8
CK_LEVEL_1
 10
50.85133323465222
 20
46.05670622423129
 30
0.0
  0
VERTEX
  5
C8
  8
CK_LEVEL_1
 10
50.73943336786605
 20
46.04371969952362
 30
0.0
  0
VERTEX
  5
C9
  8
CK_LEVEL_1
 10
50.6275764031593
 20
46.03124753922842
 30
0.0
  0
VERTEX
  5
CA
  8
CK_LEVEL_1
 10
50.51576236956898
 20
46.01928629632788
 30
0.0
  0
VERTEX
  5
CB
  8
CK_LEVEL_1
 10
50.40399129613209
 20
46.00783252380418
 30
0.0
  0
VERTEX
  5
CC
  8
CK_LEVEL_1
 10
50.29226321188563
 20
45.99688277463949
 30
0.0
  0
VERTEX
  5
CD
  8
CK_LEVEL_1
 10
50.18057814586658
 20
45.986433601816
 30
0.0
  0
VERTEX
  5
CE
  8
CK_LEVEL_1
 10
50.06893612711198
 20
45.97648155831588
 30
0.0
  0
VERTEX
  5
CF
  8
CK_LEVEL_1
 10
49.95733718465881
 20
45.96702319712133
 30
0.0
  0
VERTEX
  5
D0
  8
CK_LEVEL_1
 10
49.84578134754408
 20
45.9580550712145
 30
0.0
  0
VERTEX
  5
D1
  8
CK_LEVEL_1
 10
49.73426864480479
 20
45.94957373357759
 30
0.0
  0
VERTEX
  5
D2
  8
CK_LEVEL_1
 10
49.62279910547795
 20
45.94157573719278
 30
0.0
  0
VERTEX
  5
D3
  8
CK_LEVEL_1
 10
49.51137275860055
 20
45.93405763504223
 30
0.0
  0
VERTEX
  5
D4
  8
CK_LEVEL_1
 10
49.3999896332096
 20
45.92701598010814
 30
0.0
  0
VERTEX
  5
D5
  8
CK_LEVEL_1
 10
49.2886497583421
 20
45.92044732537268
 30
0.0
  0
VERTEX
  5
D6
  8
CK_LEVEL_1
 10
49.17735316303506
 20
45.91434822381803
 30
0.0
  0
VERTEX
  5
D7
  8
CK_LEVEL_1
 10
49.06609987632547
 20
45.90871522842638
 30
0.0
  0
VERTEX
  5
D8
  8
CK_LEVEL_1
 10
48.95488992725034
 20
45.9035448921799
 30
0.0
  0
VERTEX
  5
D9
  8
CK_LEVEL_1
 10
48.84372334484667
 20
45.89883376806078
 30
0.0
  0
VERTEX
  5
DA
  8
CK_LEVEL_1
 10
48.73260015815147
 20
45.89457840905119
 30
0.0
  0
VERTEX
  5
DB
  8
CK_LEVEL_1
 10
48.62152039620173
 20
45.89077536813329
 30
0.0
  0
VERTEX
  5
DC
  8
CK_LEVEL_1
 10
48.51048408803446
 20
45.88742119828929
 30
0.0
  0
VERTEX
  5
DD
  8
CK_LEVEL_1
 10
48.39949126268667
 20
45.88451245250136
 30
0.0
  0
VERTEX
  5
DE
  8
CK_LEVEL_1
 10
48.28854194919535
 20
45.88204568375168
 30
0.0
  0
VERTEX
  5
DF
  8
CK_LEVEL_1
 10
48.1776361765975
 20
45.88001744502243
 30
0.0
  0
VERTEX
  5
E0
  8
CK_LEVEL_1
 10
48.06677397393014
 20
45.87842428929579
 30
0.0
  0
VERTEX
  5
E1
  8
CK_LEVEL_1
 10
47.95595537023026
 20
45.87726276955394
 30
0.0
  0
VERTEX
  5
E2
  8
CK_LEVEL_1
 10
47.84518039453486
 20
45.87652943877904
 30
0.0
  0
VERTEX
  5
E3
  8
CK_LEVEL_1
 10
47.73444907588095
 20
45.87622084995331
 30
0.0
  0
VERTEX
  5
E4
  8
CK_LEVEL_1
 10
47.62376144330553
 20
45.8763335560589
 30
0.0
  0
VERTEX
  5
E5
  8
CK_LEVEL_1
 10
47.51311752584559
 20
45.876864110078
 30
0.0
  0
VERTEX
  5
E6
  8
CK_LEVEL_1
 10
47.40251735253815
 20
45.87780906499277
 30
0.0
  0
VERTEX
  5
E7
  8
CK_LEVEL_1
 10
47.29196095242022
 20
45.87916497378542
 30
0.0
  0
VERTEX
  5
E8
  8
CK_LEVEL_1
 10
47.18144835452878
 20
45.88092838943811
 30
0.0
  0
VERTEX
  5
E9
  8
CK_LEVEL_1
 10
47.07097958790084
 20
45.88309586493303
 30
0.0
  0
VERTEX
  5
EA
  8
CK_LEVEL_1
 10
46.96055468157341
 20
45.88566395325235
 30
0.0
  0
VERTEX
  5
EB
  8
CK_LEVEL_1
 10
46.85017366458349
 20
45.88862920737826
 30
0.0
  0
VERTEX
  5
EC
  8
CK_LEVEL_1
 10
46.73983656596808
 20
45.89198818029293
 30
0.0
  0
VERTEX
  5
ED
  8
CK_LEVEL_1
 10
46.62954341476419
 20
45.89573742497855
 30
0.0
  0
VERTEX
  5
EE
  8
CK_LEVEL_1
 10
46.5192942400088
 20
45.89987349441729
 30
0.0
  0
VERTEX
  5
EF
  8
CK_LEVEL_1
 10
46.40908907073894
 20
45.90439294159133
 30
0.0
  0
VERTEX
  5
F0
  8
CK_LEVEL_1
 10
46.29892793599159
 20
45.90929231948284
 30
0.0
  0
VERTEX
  5
F1
  8
CK_LEVEL_1
 10
46.18881086480377
 20
45.91456818107403
 30
0.0
  0
VERTEX
  5
F2
  8
CK_LEVEL_1
 10
46.07873788621247
 20
45.92021707934706
 30
0.0
  0
VERTEX
  5
F3
  8
CK_LEVEL_1
 10
45.9687090292547
 20
45.92623556728411
 30
0.0
  0
VERTEX
  5
F4
  8
CK_LEVEL_1
 10
45.85872432296747
 20
45.93262019786736
 30
0.0
  0
VERTEX
  5
F5
  8
CK_LEVEL_1
 10
45.74878379638777
 20
45.93936752407899
 30
0.0
  0
VERTEX
  5
F6
  8
CK_LEVEL_1
 10
45.6388874785526
 20
45.94647409890118
 30
0.0
  0
VERTEX
  5
F7
  8
CK_LEVEL_1
 10
45.52903539849898
 20
45.95393647531611
 30
0.0
  0
VERTEX
  5
F8
  8
CK_LEVEL_1
 10
45.41922758526388
 20
45.96175120630596
 30
0.0
  0
VERTEX
  5
F9
  8
CK_LEVEL_1
 10
45.30946406788434
 20
45.96991484485291
 30
0.0
  0
VERTEX
  5
FA
  8
CK_LEVEL_1
 10
45.19974487539734
 20
45.97842394393913
 30
0.0
  0
VERTEX
  5
FB
  8
CK_LEVEL_1
 10
45.0900700368399
 20
45.98727505654682
 30
0.0
  0
VERTEX
  5
FC
  8
CK_LEVEL_1
 10
44.980439581249
 20
45.99646473565814
 30
0.0
  0
VERTEX
  5
FD
  8
CK_LEVEL_1
 10
44.87085353766166
 20
46.00598953425529
 30
0.0
  0
VERTEX
  5
FE
  8
CK_LEVEL_1
 10
44.76131193511488
 20
46.01584600532043
 30
0.0
  0
VERTEX
  5
FF
  8
CK_LEVEL_1
 10
44.65181480264565
 20
46.02603070183575
 30
0.0
  0
VERTEX
  5
100
  8
CK_LEVEL_1
 10
44.54236216929098
 20
46.03654017678342
 30
0.0
  0
VERTEX
  5
101
  8
CK_LEVEL_1
 10
44.43295406408788
 20
46.04737098314563
 30
0.0
  0
VERTEX
  5
102
  8
CK_LEVEL_1
 10
44.32359051607335
 20
46.05851967390454
 30
0.0
  0
VERTEX
  5
103
  8
CK_LEVEL_1
 10
44.21427155428438
 20
46.06998280204237
 30
0.0
  0
VERTEX
  5
104
  8
CK_LEVEL_1
 10
44.10499720775799
 20
46.08175692054127
 30
0.0
  0
VERTEX
  5
105
  8
CK_LEVEL_1
 10
43.99576750553118
 20
46.09383858238341
 30
0.0
  0
VERTEX
  5
106
  8
CK_LEVEL_1
 10
43.88658247664093
 20
46.10622434055098
 30
0.0
  0
VERTEX
  5
107
  8
CK_LEVEL_1
 10
43.77744215012427
 20
46.11891074802618
 30
0.0
  0
VERTEX
  5
108
  8
CK_LEVEL_1
 10
43.5592957203597
 20
46.14517172282815
 30
0.0
  0
VERTEX
  5
109
  8
CK_LEVEL_1
 10
43.34132844853348
 20
46.17259393064671
 30
0.0
  0
VERTEX
  5
10A
  8
CK_LEVEL_1
 10
43.12354056694163
 20
46.20114979533932
 30
0.0
  0
VERTEX
  5
10B
  8
CK_LEVEL_1
 10
42.90593230788017
 20
46.23081174076341
 30
0.0
  0
VERTEX
  5
10C
  8
CK_LEVEL_1
 10
42.68850390364512
 20
46.26155219077643
 30
0.0
  0
VERTEX
  5
10D
  8
CK_LEVEL_1
 10
42.4712555865325
 20
46.2933435692358
 30
0.0
  0
VERTEX
  5
10E
  8
CK_LEVEL_1
 10
42.25418758883833
 20
46.32615829999898
 30
0.0
  0
VERTEX
  5
10F
  8
CK_LEVEL_1
 10
42.03730014285865
 20
46.35996880692338
 30
0.0
  0
VERTEX
  5
110
  8
CK_LEVEL_1
 10
41.82059348088945
 20
46.39474751386645
 30
0.0
  0
VERTEX
  5
111
  8
CK_LEVEL_1
 10
41.60406783522676
 20
46.43046684468563
 30
0.0
  0
VERTEX
  5
112
  8
CK_LEVEL_1
 10
41.38772343816662
 20
46.46709922323835
 30
0.0
  0
VERTEX
  5
113
  8
CK_LEVEL_1
 10
41.17156052200502
 20
46.50461707338206
 30
0.0
  0
VERTEX
  5
114
  8
CK_LEVEL_1
 10
40.95557931903801
 20
46.54299281897418
 30
0.0
  0
VERTEX
  5
115
  8
CK_LEVEL_1
 10
40.73978006156159
 20
46.58219888387216
 30
0.0
  0
VERTEX
  5
116
  8
CK_LEVEL_1
 10
40.52416298187178
 20
46.62220769193343
 30
0.0
  0
VERTEX
  5
117
  8
CK_LEVEL_1
 10
40.30872831226462
 20
46.66299166701542
 30
0.0
  0
VERTEX
  5
118
  8
CK_LEVEL_1
 10
40.09347628503612
 20
46.70452323297557
 30
0.0
  0
VERTEX
  5
119
  8
CK_LEVEL_1
 10
40.06101449792707
 20
46.71064378195798
 30
0.0
  0
VERTEX
  5
11A
  8
CK_LEVEL_1
 10
40.0285155209055
 20
46.7163770348151
 30
0.0
  0
VERTEX
  5
11B
  8
CK_LEVEL_1
 10
39.99598024653178
 20
46.72173228324348
 30
0.0
  0
VERTEX
  5
11C
  8
CK_LEVEL_1
 10
39.96340956736628
 20
46.72671881893975
 30
0.0
  0
VERTEX
  5
11D
  8
CK_LEVEL_1
 10
39.93080437596936
 20
46.73134593360047
 30
0.0
  0
VERTEX
  5
11E
  8
CK_LEVEL_1
 10
39.89816556490139
 20
46.73562291892221
 30
0.0
  0
VERTEX
  5
11F
  8
CK_LEVEL_1
 10
39.86549402672274
 20
46.73955906660157
 30
0.0
  0
VERTEX
  5
120
  8
CK_LEVEL_1
 10
39.8327906539938
 20
46.74316366833512
 30
0.0
  0
VERTEX
  5
121
  8
CK_LEVEL_1
 10
39.80005633927491
 20
46.74644601581946
 30
0.0
  0
VERTEX
  5
122
  8
CK_LEVEL_1
 10
39.76729197512645
 20
46.74941540075115
 30
0.0
  0
VERTEX
  5
123
  8
CK_LEVEL_1
 10
39.70167666878231
 20
46.75445244974294
 30
0.0
  0
VERTEX
  5
124
  8
CK_LEVEL_1
 10
39.63595187544433
 20
46.75834914888316
 30
0.0
  0
VERTEX
  5
125
  8
CK_LEVEL_1
 10
39.57012473559546
 20
46.76117983174447
 30
0.0
  0
VERTEX
  5
126
  8
CK_LEVEL_1
 10
39.50420238971866
 20
46.76301883189952
 30
0.0
  0
VERTEX
  5
127
  8
CK_LEVEL_1
 10
39.43819197829686
 20
46.76394048292097
 30
0.0
  0
VERTEX
  5
128
  8
CK_LEVEL_1
 10
39.37210064181303
 20
46.76401911838148
 30
0.0
  0
VERTEX
  5
129
  8
CK_LEVEL_1
 10
39.30593552075014
 20
46.76332907185372
 30
0.0
  0
VERTEX
  5
12A
  8
CK_LEVEL_1
 10
39.23970375559112
 20
46.76194467691032
 30
0.0
  0
VERTEX
  5
12B
  8
CK_LEVEL_1
 10
39.17341248681893
 20
46.75994026712397
 30
0.0
  0
VERTEX
  5
12C
  8
CK_LEVEL_1
 10
39.10706885491653
 20
46.7573901760673
 30
0.0
  0
VERTEX
  5
12D
  8
CK_LEVEL_1
 10
39.04068000036686
 20
46.75436873731299
 30
0.0
  0
VERTEX
  5
12E
  8
CK_LEVEL_1
 10
38.90779518525757
 20
46.74720915100204
 30
0.0
  0
VERTEX
  5
12F
  8
CK_LEVEL_1
 10
38.77481516535467
 20
46.73905617677239
 30
0.0
  0
VERTEX
  5
130
  8
CK_LEVEL_1
 10
38.6417970645218
 20
46.73050448320529
 30
0.0
  0
VERTEX
  5
131
  8
CK_LEVEL_1
 10
38.50879800662258
 20
46.72214873888203
 30
0.0
  0
VERTEX
  5
132
  8
CK_LEVEL_1
 10
38.37587511552064
 20
46.71458361238386
 30
0.0
  0
VERTEX
  5
133
  8
CK_LEVEL_1
 10
38.30946008372604
 20
46.71128336475083
 30
0.0
  0
VERTEX
  5
134
  8
CK_LEVEL_1
 10
38.24308551507963
 20
46.70840377229203
 30
0.0
  0
VERTEX
  5
135
  8
CK_LEVEL_1
 10
38.17675855006435
 20
46.70601916858014
 30
0.0
  0
VERTEX
  5
136
  8
CK_LEVEL_1
 10
38.11048632916315
 20
46.70420388718782
 30
0.0
  0
VERTEX
  5
137
  8
CK_LEVEL_1
 10
38.04427599285901
 20
46.70303226168771
 30
0.0
  0
VERTEX
  5
138
  8
CK_LEVEL_1
 10
37.97813468163485
 20
46.70257862565248
 30
0.0
  0
VERTEX
  5
139
  8
CK_LEVEL_1
 10
37.97813468163485
 20
45.19185532094912
 30
0.0
 42
-1.0
  0
VERTEX
  5
13A
  8
CK_LEVEL_1
 10
37.80135798633821
 20
45.01507862565248
 30
0.0
  0
VERTEX
  5
13B
  8
CK_LEVEL_1
 10
37.47813468163485
 20
45.01507862565248
 30
0.0
  0
VERTEX
  5
13C
  8
CK_LEVEL_1
 10
37.47813468163485
 20
43.01507862565248
 30
0.0
  0
VERTEX
  5
13D
  8
CK_LEVEL_1
 10
37.80135798633821
 20
43.01507862565248
 30
0.0
 42
-1.0
  0
VERTEX
  5
13E
  8
CK_LEVEL_1
 10
37.97813468163485
 20
42.83830193035584
 30
0.0
  0
VERTEX
  5
13F
  8
CK_LEVEL_1
 10
37.97813468163485
 20
41.32757862565246
 30
0.0
  0
VERTEX
  5
140
  8
CK_LEVEL_1
 10
40.47813468163485
 20
41.32757862565246
 30
0.0
 42
-1.0
  0
VERTEX
  5
141
  8
CK_LEVEL_1
 10
40.47813468163485
 20
41.07757862565246
 30
0.0
  0
VERTEX
  5
142
  8
CK_LEVEL_1
 10
40.47813468163485
 20
40.82757862565246
 30
0.0
 42
-1.0
  0
VERTEX
  5
143
  8
CK_LEVEL_1
 10
40.47813468163485
 20
40.57757862565246
 30
0.0
  0
VERTEX
  5
144
  8
CK_LEVEL_1
 10
37.97813468163486
 20
40.57757862565246
 30
0.0
  0
VERTEX
  5
145
  8
CK_LEVEL_1
 10
37.97813468163486
 20
39.1293553209491
 30
0.0
 42
-1.0
  0
VERTEX
  5
146
  8
CK_LEVEL_1
 10
37.80135798633822
 20
38.95257862565246
 30
0.0
  0
VERTEX
  5
147
  8
CK_LEVEL_1
 10
37.47813468163486
 20
38.95257862565246
 30
0.0
  0
VERTEX
  5
148
  8
CK_LEVEL_1
 10
37.47813468163486
 20
36.95257862565246
 30
0.0
  0
VERTEX
  5
149
  8
CK_LEVEL_1
 10
37.80135798633822
 20
36.95257862565246
 30
0.0
 42
-1.0
  0
VERTEX
  5
14A
  8
CK_LEVEL_1
 10
37.97813468163486
 20
36.77580193035582
 30
0.0
  0
VERTEX
  5
14B
  8
CK_LEVEL_1
 10
37.97813468163486
 20
35.07757862565245
 30
0.0
  0
VERTEX
  5
14C
  8
CK_LEVEL_1
 10
35.95652092005547
 20
34.73812857631427
 30
0.0
 42
-0.0927782445526398
  0
VERTEX
  5
14D
  8
CK_LEVEL_1
 10
25.87854460783086
 20
33.04593117370997
 30
0.0
  0
VERTEX
  5
14E
  8
CK_LEVEL_1
 10
24.11450489541733
 20
32.74973049542339
 30
0.0
 42
-1.0
  0
VERTEX
  5
14F
  8
CK_LEVEL_1
 10
23.91089585744414
 20
32.89479384708825
 30
0.0
  0
VERTEX
  5
150
  8
CK_LEVEL_1
 10
23.8573726816349
 20
33.21355462565244
 30
0.0
  0
VERTEX
  5
151
  8
CK_LEVEL_1
 10
21.88498368163491
 20
32.88237062565244
 30
0.0
  0
VERTEX
  5
152
  8
CK_LEVEL_1
 10
21.938506935761
 20
32.56360873421967
 30
0.0
 42
-1.0
  0
VERTEX
  5
153
  8
CK_LEVEL_1
 10
21.79344358599392
 20
32.35999980279548
 30
0.0
  0
VERTEX
  5
154
  8
CK_LEVEL_1
 10
21.22813468163492
 20
32.26507862565244
 30
0.0
  0
VERTEX
  5
155
  8
CK_LEVEL_1
 10
21.22813468163492
 20
29.70257862565244
 30
0.0
 42
0.4142135623730937
  0
VERTEX
  5
156
  8
CK_LEVEL_1
 10
22.22813468163492
 20
28.70257862565244
 30
0.0
  0
VERTEX
  5
157
  8
CK_LEVEL_1
 10
22.45370680163473
 20
28.70304883504205
 30
0.0
  0
VERTEX
  5
158
  8
CK_LEVEL_1
 10
22.6804112936814
 20
28.70444465346633
 30
0.0
  0
VERTEX
  5
159
  8
CK_LEVEL_1
 10
22.90823035584582
 20
28.70674386630844
 30
0.0
  0
VERTEX
  5
15A
  8
CK_LEVEL_1
 10
23.13714618619885
 20
28.70992425895155
 30
0.0
  0
VERTEX
  5
15B
  8
CK_LEVEL_1
 10
23.36714098281139
 20
28.71396361677883
 30
0.0
  0
VERTEX
  5
15C
  8
CK_LEVEL_1
 10
23.59819694375428
 20
28.71883972517345
 30
0.0
  0
VERTEX
  5
15D
  8
CK_LEVEL_1
 10
23.83029626709842
 20
28.72453036951858
 30
0.0
  0
VERTEX
  5
15E
  8
CK_LEVEL_1
 10
24.06342115091468
 20
28.73101333519739
 30
0.0
  0
VERTEX
  5
15F
  8
CK_LEVEL_1
 10
24.29755379327393
 20
28.73826640759303
 30
0.0
  0
VERTEX
  5
160
  8
CK_LEVEL_1
 10
24.53267639224705
 20
28.74626737208869
 30
0.0
  0
VERTEX
  5
161
  8
CK_LEVEL_1
 10
24.76877114590491
 20
28.75499401406753
 30
0.0
  0
VERTEX
  5
162
  8
CK_LEVEL_1
 10
25.0058202523184
 20
28.76442411891271
 30
0.0
  0
VERTEX
  5
163
  8
CK_LEVEL_1
 10
25.24380590955838
 20
28.77453547200741
 30
0.0
  0
VERTEX
  5
164
  8
CK_LEVEL_1
 10
25.48271031569573
 20
28.78530585873479
 30
0.0
  0
VERTEX
  5
165
  8
CK_LEVEL_1
 10
25.72251566880132
 20
28.79671306447802
 30
0.0
  0
VERTEX
  5
166
  8
CK_LEVEL_1
 10
25.96320416694603
 20
28.80873487462026
 30
0.0
  0
VERTEX
  5
167
  8
CK_LEVEL_1
 10
26.20475800820074
 20
28.8213490745447
 30
0.0
  0
VERTEX
  5
168
  8
CK_LEVEL_1
 10
26.44715939063632
 20
28.83453344963448
 30
0.0
  0
VERTEX
  5
169
  8
CK_LEVEL_1
 10
26.69039051232365
 20
28.8482657852728
 30
0.0
  0
VERTEX
  5
16A
  8
CK_LEVEL_1
 10
26.93443357133359
 20
28.8625238668428
 30
0.0
  0
VERTEX
  5
16B
  8
CK_LEVEL_1
 10
27.17927076573704
 20
28.87728547972767
 30
0.0
  0
VERTEX
  5
16C
  8
CK_LEVEL_1
 10
27.42488429360485
 20
28.89252840931055
 30
0.0
  0
VERTEX
  5
16D
  8
CK_LEVEL_1
 10
27.67125635300791
 20
28.90823044097463
 30
0.0
  0
VERTEX
  5
16E
  8
CK_LEVEL_1
 10
27.91836914201708
 20
28.92436936010308
 30
0.0
  0
VERTEX
  5
16F
  8
CK_LEVEL_1
 10
28.16620485870326
 20
28.94092295207906
 30
0.0
  0
VERTEX
  5
170
  8
CK_LEVEL_1
 10
28.41474570113731
 20
28.95786900228573
 30
0.0
  0
VERTEX
  5
171
  8
CK_LEVEL_1
 10
28.91387155553252
 20
28.99284961892385
 30
0.0
  0
VERTEX
  5
172
  8
CK_LEVEL_1
 10
29.41560428976971
 20
29.02913349308277
 30
0.0
  0
VERTEX
  5
173
  8
CK_LEVEL_1
 10
29.9198014884159
 20
29.06654290782786
 30
0.0
  0
VERTEX
  5
174
  8
CK_LEVEL_1
 10
30.42632073603809
 20
29.10490014622444
 30
0.0
  0
VERTEX
  5
175
  8
CK_LEVEL_1
 10
30.93501961720326
 20
29.14402749133786
 30
0.0
  0
VERTEX
  5
176
  8
CK_LEVEL_1
 10
31.95838661843059
 20
29.22388163397661
 30
0.0
  0
VERTEX
  5
177
  8
CK_LEVEL_1
 10
32.98876316863392
 20
29.30468360026685
 30
0.0
  0
VERTEX
  5
178
  8
CK_LEVEL_1
 10
33.50622398601909
 20
29.34499572494465
 30
0.0
  0
VERTEX
  5
179
  8
CK_LEVEL_1
 10
34.02500994434926
 20
29.38501165473135
 30
0.0
  0
VERTEX
  5
17A
  8
CK_LEVEL_1
 10
34.54497862819144
 20
29.4245536726923
 30
0.0
  0
VERTEX
  5
17B
  8
CK_LEVEL_1
 10
35.06598762211262
 20
29.46344406189285
 30
0.0
  0
VERTEX
  5
17C
  8
CK_LEVEL_1
 10
35.5878945106798
 20
29.50150510539834
 30
0.0
  0
VERTEX
  5
17D
  8
CK_LEVEL_1
 10
36.11055687845999
 20
29.53855908627411
 30
0.0
  0
VERTEX
  5
17E
  8
CK_LEVEL_1
 10
36.37212686223215
 20
29.55665289168377
 30
0.0
  0
VERTEX
  5
17F
  8
CK_LEVEL_1
 10
36.63383231002019
 20
29.5744282875855
 30
0.0
  0
VERTEX
  5
180
  8
CK_LEVEL_1
 10
36.89565541989498
 20
29.59186305936248
 30
0.0
  0
VERTEX
  5
181
  8
CK_LEVEL_1
 10
37.15757838992741
 20
29.60893499239787
 30
0.0
  0
VERTEX
  5
182
  8
CK_LEVEL_1
 10
37.41958341818834
 20
29.62562187207484
 30
0.0
  0
VERTEX
  5
183
  8
CK_LEVEL_1
 10
37.68165270274864
 20
29.64190148377655
 30
0.0
  0
VERTEX
  5
184
  8
CK_LEVEL_1
 10
37.94376844167919
 20
29.65775161288618
 30
0.0
  0
VERTEX
  5
185
  8
CK_LEVEL_1
 10
38.20591283305087
 20
29.67315004478689
 30
0.0
  0
VERTEX
  5
186
  8
CK_LEVEL_1
 10
38.46806807493456
 20
29.68807456486186
 30
0.0
  0
VERTEX
  5
187
  8
CK_LEVEL_1
 10
38.73021636540112
 20
29.70250295849424
 30
0.0
  0
VERTEX
  5
188
  8
CK_LEVEL_1
 10
38.99233990252144
 20
29.7164130110672
 30
0.0
  0
VERTEX
  5
189
  8
CK_LEVEL_1
 10
39.2544208843664
 20
29.72978250796393
 30
0.0
  0
VERTEX
  5
18A
  8
CK_LEVEL_1
 10
39.51644150900685
 20
29.74258923456757
 30
0.0
  0
VERTEX
  5
18B
  8
CK_LEVEL_1
 10
39.77838397451369
 20
29.75481097626131
 30
0.0
  0
VERTEX
  5
18C
  8
CK_LEVEL_1
 10
40.04023047895778
 20
29.76642551842831
 30
0.0
  0
VERTEX
  5
18D
  8
CK_LEVEL_1
 10
40.30196322041
 20
29.77741064645173
 30
0.0
  0
VERTEX
  5
18E
  8
CK_LEVEL_1
 10
40.56356439694123
 20
29.78774414571474
 30
0.0
  0
VERTEX
  5
18F
  8
CK_LEVEL_1
 10
40.82501620662234
 20
29.79740380160052
 30
0.0
  0
VERTEX
  5
190
  8
CK_LEVEL_1
 10
41.08630084752419
 20
29.80636739949224
 30
0.0
  0
VERTEX
  5
191
  8
CK_LEVEL_1
 10
41.34740051771769
 20
29.81461272477305
 30
0.0
  0
VERTEX
  5
192
  8
CK_LEVEL_1
 10
41.60829741527369
 20
29.82211756282612
 30
0.0
  0
VERTEX
  5
193
  8
CK_LEVEL_1
 10
41.86897373826307
 20
29.82885969903463
 30
0.0
  0
VERTEX
  5
194
  8
CK_LEVEL_1
 10
42.12941168475671
 20
29.83481691878175
 30
0.0
  0
VERTEX
  5
195
  8
CK_LEVEL_1
 10
42.38959345282548
 20
29.83996700745063
 30
0.0
  0
VERTEX
  5
196
  8
CK_LEVEL_1
 10
42.64950124054026
 20
29.84428775042446
 30
0.0
  0
VERTEX
  5
197
  8
CK_LEVEL_1
 10
42.90911724597192
 20
29.84775693308639
 30
0.0
  0
VERTEX
  5
198
  8
CK_LEVEL_1
 10
43.16842366719133
 20
29.85035234081959
 30
0.0
  0
VERTEX
  5
199
  8
CK_LEVEL_1
 10
43.42740270226938
 20
29.85205175900724
 30
0.0
  0
VERTEX
  5
19A
  8
CK_LEVEL_1
 10
43.68603654927694
 20
29.8528329730325
 30
0.0
  0
VERTEX
  5
19B
  8
CK_LEVEL_1
 10
43.94430740628488
 20
29.85267376827854
 30
0.0
  0
VERTEX
  5
19C
  8
CK_LEVEL_1
 10
44.20219747136407
 20
29.85155193012852
 30
0.0
  0
VERTEX
  5
19D
  8
CK_LEVEL_1
 10
44.4596889425854
 20
29.84944524396562
 30
0.0
  0
VERTEX
  5
19E
  8
CK_LEVEL_1
 10
44.71676401801974
 20
29.846331495173
 30
0.0
  0
VERTEX
  5
19F
  8
CK_LEVEL_1
 10
44.97340489573796
 20
29.84218846913383
 30
0.0
  0
VERTEX
  5
1A0
  8
CK_LEVEL_1
 10
45.22959377381094
 20
29.83699395123128
 30
0.0
  0
VERTEX
  5
1A1
  8
CK_LEVEL_1
 10
45.48531285030955
 20
29.83072572684852
 30
0.0
  0
VERTEX
  5
1A2
  8
CK_LEVEL_1
 10
45.74054432330468
 20
29.82336158136872
 30
0.0
  0
VERTEX
  5
1A3
  8
CK_LEVEL_1
 10
45.99527039086718
 20
29.81487930017503
 30
0.0
  0
VERTEX
  5
1A4
  8
CK_LEVEL_1
 10
46.24947325106795
 20
29.80525666865064
 30
0.0
  0
VERTEX
  5
1A5
  8
CK_LEVEL_1
 10
46.50313510197785
 20
29.79447147217871
 30
0.0
  0
VERTEX
  5
1A6
  8
CK_LEVEL_1
 10
46.62975758584587
 20
29.78863597001965
 30
0.0
  0
VERTEX
  5
1A7
  8
CK_LEVEL_1
 10
46.75623814166775
 20
29.7825014961424
 30
0.0
  0
VERTEX
  5
1A8
  8
CK_LEVEL_1
 10
46.88257454420236
 20
29.77606527371984
 30
0.0
  0
VERTEX
  5
1A9
  8
CK_LEVEL_1
 10
47.00876456820855
 20
29.76932452592489
 30
0.0
  0
VERTEX
  5
1AA
  8
CK_LEVEL_1
 10
47.13480598844518
 20
29.76227647593042
 30
0.0
  0
VERTEX
  5
1AB
  8
CK_LEVEL_1
 10
47.26069657967111
 20
29.75491834690934
 30
0.0
  0
VERTEX
  5
1AC
  8
CK_LEVEL_1
 10
47.3864341166452
 20
29.74724736203454
 30
0.0
  0
VERTEX
  5
1AD
  8
CK_LEVEL_1
 10
47.5120163741263
 20
29.73926074447892
 30
0.0
  0
VERTEX
  5
1AE
  8
CK_LEVEL_1
 10
47.63744112687328
 20
29.73095571741537
 30
0.0
  0
VERTEX
  5
1AF
  8
CK_LEVEL_1
 10
47.762706149645
 20
29.7223295040168
 30
0.0
  0
VERTEX
  5
1B0
  8
CK_LEVEL_1
 10
47.88780921720032
 20
29.71337932745609
 30
0.0
  0
VERTEX
  5
1B1
  8
CK_LEVEL_1
 10
48.01274810429809
 20
29.70410241090615
 30
0.0
  0
VERTEX
  5
1B2
  8
CK_LEVEL_1
 10
48.13752058569717
 20
29.69449597753986
 30
0.0
  0
VERTEX
  5
1B3
  8
CK_LEVEL_1
 10
48.26212443615644
 20
29.68455725053013
 30
0.0
  0
VERTEX
  5
1B4
  8
CK_LEVEL_1
 10
48.38655743043473
 20
29.67428345304985
 30
0.0
  0
VERTEX
  5
1B5
  8
CK_LEVEL_1
 10
48.51081734329092
 20
29.66367180827191
 30
0.0
  0
VERTEX
  5
1B6
  8
CK_LEVEL_1
 10
48.63490194948386
 20
29.65271953936922
 30
0.0
  0
VERTEX
  5
1B7
  8
CK_LEVEL_1
 10
48.75880902377241
 20
29.64142386951467
 30
0.0
  0
VERTEX
  5
1B8
  8
CK_LEVEL_1
 10
48.88253634091545
 20
29.62978202188116
 30
0.0
  0
VERTEX
  5
1B9
  8
CK_LEVEL_1
 10
49.0060816756718
 20
29.61779121964157
 30
0.0
  0
VERTEX
  5
1BA
  8
CK_LEVEL_1
 10
49.12944280280035
 20
29.60544868596881
 30
0.0
  0
VERTEX
  5
1BB
  8
CK_LEVEL_1
 10
49.25261749705994
 20
29.59275164403577
 30
0.0
  0
VERTEX
  5
1BC
  8
CK_LEVEL_1
 10
49.37560353320946
 20
29.57969731701535
 30
0.0
  0
VERTEX
  5
1BD
  8
CK_LEVEL_1
 10
49.49839868600773
 20
29.56628292808044
 30
0.0
  0
VERTEX
  5
1BE
  8
CK_LEVEL_1
 10
49.62100073021363
 20
29.55250570040395
 30
0.0
  0
VERTEX
  5
1BF
  8
CK_LEVEL_1
 10
49.74340744058603
 20
29.53836285715876
 30
0.0
  0
VERTEX
  5
1C0
  8
CK_LEVEL_1
 10
49.86561659188376
 20
29.52385162151778
 30
0.0
  0
VERTEX
  5
1C1
  8
CK_LEVEL_1
 10
49.98762595886571
 20
29.5089692166539
 30
0.0
  0
VERTEX
  5
1C2
  8
CK_LEVEL_1
 10
50.10943331629071
 20
29.49371286574
 30
0.0
  0
VERTEX
  5
1C3
  8
CK_LEVEL_1
 10
50.23103643891764
 20
29.478079791949
 30
0.0
  0
VERTEX
  5
1C4
  8
CK_LEVEL_1
 10
50.35243310150536
 20
29.46206721845379
 30
0.0
  0
VERTEX
  5
1C5
  8
CK_LEVEL_1
 10
50.47362107881272
 20
29.44567236842726
 30
0.0
  0
VERTEX
  5
1C6
  8
CK_LEVEL_1
 10
50.59459814559858
 20
29.42889246504231
 30
0.0
  0
VERTEX
  5
1C7
  8
CK_LEVEL_1
 10
50.71536207662182
 20
29.41172473147183
 30
0.0
  0
VERTEX
  5
1C8
  8
CK_LEVEL_1
 10
50.83591064664126
 20
29.39416639088872
 30
0.0
  0
VERTEX
  5
1C9
  8
CK_LEVEL_1
 10
50.95624163041579
 20
29.37621466646588
 30
0.0
  0
VERTEX
  5
1CA
  8
CK_LEVEL_1
 10
51.07635280270426
 20
29.35786678137621
 30
0.0
  0
VERTEX
  5
1CB
  8
CK_LEVEL_1
 10
51.19624193826553
 20
29.33911995879259
 30
0.0
  0
VERTEX
  5
1CC
  8
CK_LEVEL_1
 10
51.31590681185846
 20
29.31997142188793
 30
0.0
  0
VERTEX
  5
1CD
  8
CK_LEVEL_1
 10
51.43534519824191
 20
29.30041839383512
 30
0.0
  0
VERTEX
  5
1CE
  8
CK_LEVEL_1
 10
51.55455487217474
 20
29.28045809780705
 30
0.0
  0
VERTEX
  5
1CF
  8
CK_LEVEL_1
 10
51.6735336084158
 20
29.26008775697663
 30
0.0
  0
VERTEX
  5
1D0
  8
CK_LEVEL_1
 10
51.79227918172397
 20
29.23930459451675
 30
0.0
  0
VERTEX
  5
1D1
  8
CK_LEVEL_1
 10
51.91078936685809
 20
29.2181058336003
 30
0.0
  0
VERTEX
  5
1D2
  8
CK_LEVEL_1
 10
52.02906193857703
 20
29.19648869740018
 30
0.0
  0
VERTEX
  5
1D3
  8
CK_LEVEL_1
 10
52.14709467163964
 20
29.17445040908929
 30
0.0
  0
VERTEX
  5
1D4
  8
CK_LEVEL_1
 10
52.26488534080479
 20
29.15198819184052
 30
0.0
  0
VERTEX
  5
1D5
  8
CK_LEVEL_1
 10
52.38243172083133
 20
29.12909926882676
 30
0.0
  0
VERTEX
  5
1D6
  8
CK_LEVEL_1
 10
52.49973158647812
 20
29.10578086322093
 30
0.0
  0
VERTEX
  5
1D7
  8
CK_LEVEL_1
 10
52.61678271250403
 20
29.0820301981959
 30
0.0
  0
VERTEX
  5
1D8
  8
CK_LEVEL_1
 10
52.73358287366791
 20
29.05784449692458
 30
0.0
  0
VERTEX
  5
1D9
  8
CK_LEVEL_1
 10
52.85012984472862
 20
29.03322098257987
 30
0.0
  0
VERTEX
  5
1DA
  8
CK_LEVEL_1
 10
52.96642140044503
 20
29.00815687833465
 30
0.0
  0
VERTEX
  5
1DB
  8
CK_LEVEL_1
 10
53.08245531557598
 20
28.98264940736183
 30
0.0
  0
VERTEX
  5
1DC
  8
CK_LEVEL_1
 10
53.19822936488034
 20
28.9566957928343
 30
0.0
  0
VERTEX
  5
1DD
  8
CK_LEVEL_1
 10
53.31374132311697
 20
28.93029325792495
 30
0.0
  0
VERTEX
  5
1DE
  8
CK_LEVEL_1
 10
53.42898896504473
 20
28.90343902580669
 30
0.0
  0
VERTEX
  5
1DF
  8
CK_LEVEL_1
 10
53.54397006542249
 20
28.87613031965241
 30
0.0
  0
VERTEX
  5
1E0
  8
CK_LEVEL_1
 10
53.65868239900908
 20
28.848364362635
 30
0.0
  0
VERTEX
  5
1E1
  8
CK_LEVEL_1
 10
53.77312374056338
 20
28.82013837792736
 30
0.0
  0
VERTEX
  5
1E2
  8
CK_LEVEL_1
 10
53.88729186484425
 20
28.79144958870239
 30
0.0
  0
VERTEX
  5
1E3
  8
CK_LEVEL_1
 10
54.00118454661055
 20
28.76229521813298
 30
0.0
  0
VERTEX
  5
1E4
  8
CK_LEVEL_1
 10
54.11479956062113
 20
28.73267248939204
 30
0.0
  0
SEQEND
  5
1E5
  8
CK_LEVEL_1
  0
POLYLINE
  5
43
  8
CK_LEVEL_1
 66
     1
 10
0.0
 20
0.0
 30
0.0
 70
     1
  0
VERTEX
  5
1E6
  8
CK_LEVEL_1
 10
1.985855697290124
 20
44.05103957005012
 30
0.0
 42
0.4142135623730956
  0
VERTEX
  5
1E7
  8
CK_LEVEL_1
 10
0.9858556972901305
 20
43.05103957005011
 30
0.0
  0
VERTEX
  5
1E8
  8
CK_LEVEL_1
 10
0.9858556972901305
 20
41.05103957005011
 30
0.0
 42
-0.4142135623730954
  0
VERTEX
  5
1E9
  8
CK_LEVEL_1
 10
5.235855697290084
 20
36.80103957005014
 30
0.0
  0
VERTEX
  5
1EA
  8
CK_LEVEL_1
 10
5.235855697290084
 20
33.30103957005019
 30
0.0
 42
-0.4142135623730955
  0
VERTEX
  5
1EB
  8
CK_LEVEL_1
 10
0.9858556972901233
 20
29.05103957005026
 30
0.0
  0
VERTEX
  5
1EC
  8
CK_LEVEL_1
 10
0.9858556972901305
 20
27.05103957005026
 30
0.0
 42
0.414213562373094
  0
VERTEX
  5
1ED
  8
CK_LEVEL_1
 10
1.985855697290124
 20
26.05103957005026
 30
0.0
  0
VERTEX
  5
1EE
  8
CK_LEVEL_1
 10
2.099029124252702
 20
26.08105989041872
 30
0.0
  0
VERTEX
  5
1EF
  8
CK_LEVEL_1
 10
2.212160520245937
 20
26.1104624358401
 30
0.0
  0
VERTEX
  5
1F0
  8
CK_LEVEL_1
 10
2.325249856232825
 20
26.13925065333221
 30
0.0
  0
VERTEX
  5
1F1
  8
CK_LEVEL_1
 10
2.438297103176366
 20
26.16742798991287
 30
0.0
  0
VERTEX
  5
1F2
  8
CK_LEVEL_1
 10
2.551302232039556
 20
26.19499789259991
 30
0.0
  0
VERTEX
  5
1F3
  8
CK_LEVEL_1
 10
2.664265213785392
 20
26.22196380841114
 30
0.0
  0
VERTEX
  5
1F4
  8
CK_LEVEL_1
 10
2.777186019376873
 20
26.24832918436438
 30
0.0
  0
VERTEX
  5
1F5
  8
CK_LEVEL_1
 10
2.890064619776994
 20
26.27409746747745
 30
0.0
  0
VERTEX
  5
1F6
  8
CK_LEVEL_1
 10
3.002900985948754
 20
26.29927210476819
 30
0.0
  0
VERTEX
  5
1F7
  8
CK_LEVEL_1
 10
3.11569508885515
 20
26.32385654325439
 30
0.0
  0
VERTEX
  5
1F8
  8
CK_LEVEL_1
 10
3.228446899459181
 20
26.34785422995388
 30
0.0
  0
VERTEX
  5
1F9
  8
CK_LEVEL_1
 10
3.341156388723842
 20
26.3712686118845
 30
0.0
  0
VERTEX
  5
1FA
  8
CK_LEVEL_1
 10
3.453823527612131
 20
26.39410313606404
 30
0.0
  0
VERTEX
  5
1FB
  8
CK_LEVEL_1
 10
3.566448287087047
 20
26.41636124951035
 30
0.0
  0
VERTEX
  5
1FC
  8
CK_LEVEL_1
 10
3.679030638111586
 20
26.43804639924123
 30
0.0
  0
VERTEX
  5
1FD
  8
CK_LEVEL_1
 10
3.791570551648745
 20
26.45916203227451
 30
0.0
  0
VERTEX
  5
1FE
  8
CK_LEVEL_1
 10
3.904067998661523
 20
26.479711595628
 30
0.0
  0
VERTEX
  5
1FF
  8
CK_LEVEL_1
 10
4.016522950112916
 20
26.49969853631953
 30
0.0
  0
VERTEX
  5
200
  8
CK_LEVEL_1
 10
4.128935376965924
 20
26.51912630136692
 30
0.0
  0
VERTEX
  5
201
  8
CK_LEVEL_1
 10
4.24130525018354
 20
26.53799833778799
 30
0.0
  0
VERTEX
  5
202
  8
CK_LEVEL_1
 10
4.353632540728766
 20
26.55631809260056
 30
0.0
  0
VERTEX
  5
203
  8
CK_LEVEL_1
 10
4.465917219564595
 20
26.57408901282244
 30
0.0
  0
VERTEX
  5
204
  8
CK_LEVEL_1
 10
4.578159257654028
 20
26.59131454547146
 30
0.0
  0
VERTEX
  5
205
  8
CK_LEVEL_1
 10
4.690358625960062
 20
26.60799813756545
 30
0.0
  0
VERTEX
  5
206
  8
CK_LEVEL_1
 10
4.802515295445693
 20
26.62414323612222
 30
0.0
  0
VERTEX
  5
207
  8
CK_LEVEL_1
 10
4.91462923707392
 20
26.63975328815958
 30
0.0
  0
VERTEX
  5
208
  8
CK_LEVEL_1
 10
5.026700421807739
 20
26.65483174069537
 30
0.0
  0
VERTEX
  5
209
  8
CK_LEVEL_1
 10
5.138728820610147
 20
26.66938204074739
 30
0.0
  0
VERTEX
  5
20A
  8
CK_LEVEL_1
 10
5.250714404444143
 20
26.68340763533348
 30
0.0
  0
VERTEX
  5
20B
  8
CK_LEVEL_1
 10
5.362657144272724
 20
26.69691197147145
 30
0.0
  0
VERTEX
  5
20C
  8
CK_LEVEL_1
 10
5.474557011058887
 20
26.70989849617912
 30
0.0
  0
VERTEX
  5
20D
  8
CK_LEVEL_1
 10
5.586413975765629
 20
26.72237065647432
 30
0.0
  0
VERTEX
  5
20E
  8
CK_LEVEL_1
 10
5.698228009355948
 20
26.73433189937486
 30
0.0
  0
VERTEX
  5
20F
  8
CK_LEVEL_1
 10
5.809999082792842
 20
26.74578567189856
 30
0.0
  0
VERTEX
  5
210
  8
CK_LEVEL_1
 10
5.921727167039309
 20
26.75673542106324
 30
0.0
  0
VERTEX
  5
211
  8
CK_LEVEL_1
 10
6.033412233058344
 20
26.76718459388673
 30
0.0
  0
VERTEX
  5
212
  8
CK_LEVEL_1
 10
6.145054251812947
 20
26.77713663738685
 30
0.0
  0
VERTEX
  5
213
  8
CK_LEVEL_1
 10
6.256653194266113
 20
26.78659499858141
 30
0.0
  0
VERTEX
  5
214
  8
CK_LEVEL_1
 10
6.368209031380841
 20
26.79556312448823
 30
0.0
  0
VERTEX
  5
215
  8
CK_LEVEL_1
 10
6.47972173412013
 20
26.80404446212514
 30
0.0
  0
VERTEX
  5
216
  8
CK_LEVEL_1
 10
6.591191273446974
 20
26.81204245850996
 30
0.0
  0
VERTEX
  5
217
  8
CK_LEVEL_1
 10
6.702617620324371
 20
26.81956056066051
 30
0.0
  0
VERTEX
  5
218
  8
CK_LEVEL_1
 10
6.814000745715321
 20
26.8266022155946
 30
0.0
  0
VERTEX
  5
219
  8
CK_LEVEL_1
 10
6.925340620582818
 20
26.83317087033005
 30
0.0
  0
VERTEX
  5
21A
  8
CK_LEVEL_1
 10
7.036637215889863
 20
26.8392699718847
 30
0.0
  0
VERTEX
  5
21B
  8
CK_LEVEL_1
 10
7.14789050259945
 20
26.84490296727635
 30
0.0
  0
VERTEX
  5
21C
  8
CK_LEVEL_1
 10
7.259100451674579
 20
26.85007330352283
 30
0.0
  0
VERTEX
  5
21D
  8
CK_LEVEL_1
 10
7.370267034078246
 20
26.85478442764196
 30
0.0
  0
VERTEX
  5
21E
  8
CK_LEVEL_1
 10
7.48139022077345
 20
26.85903978665156
 30
0.0
  0
VERTEX
  5
21F
  8
CK_LEVEL_1
 10
7.592469982723186
 20
26.86284282756945
 30
0.0
  0
VERTEX
  5
220
  8
CK_LEVEL_1
 10
7.703506290890453
 20
26.86619699741345
 30
0.0
  0
VERTEX
  5
221
  8
CK_LEVEL_1
 10
7.814499116238249
 20
26.86910574320138
 30
0.0
  0
VERTEX
  5
222
  8
CK_LEVEL_1
 10
7.92544842972957
 20
26.87157251195106
 30
0.0
  0
VERTEX
  5
223
  8
CK_LEVEL_1
 10
8.036354202327415
 20
26.87360075068031
 30
0.0
  0
VERTEX
  5
224
  8
CK_LEVEL_1
 10
8.14721640499478
 20
26.87519390640695
 30
0.0
  0
VERTEX
  5
225
  8
CK_LEVEL_1
 10
8.258035008694664
 20
26.8763554261488
 30
0.0
  0
VERTEX
  5
226
  8
CK_LEVEL_1
 10
8.368809984390065
 20
26.87708875692369
 30
0.0
  0
VERTEX
  5
227
  8
CK_LEVEL_1
 10
8.479541303043975
 20
26.87739734574942
 30
0.0
  0
VERTEX
  5
228
  8
CK_LEVEL_1
 10
8.590228935619395
 20
26.87728463964384
 30
0.0
  0
VERTEX
  5
229
  8
CK_LEVEL_1
 10
8.700872853079325
 20
26.87675408562474
 30
0.0
  0
VERTEX
  5
22A
  8
CK_LEVEL_1
 10
8.81147302638676
 20
26.87580913070996
 30
0.0
  0
VERTEX
  5
22B
  8
CK_LEVEL_1
 10
8.922029426504697
 20
26.87445322191731
 30
0.0
  0
VERTEX
  5
22C
  8
CK_LEVEL_1
 10
9.032542024396134
 20
26.87268980626462
 30
0.0
  0
VERTEX
  5
22D
  8
CK_LEVEL_1
 10
9.143010791024068
 20
26.8705223307697
 30
0.0
  0
VERTEX
  5
22E
  8
CK_LEVEL_1
 10
9.253435697351497
 20
26.86795424245038
 30
0.0
  0
VERTEX
  5
22F
  8
CK_LEVEL_1
 10
9.363816714341418
 20
26.86498898832447
 30
0.0
  0
VERTEX
  5
230
  8
CK_LEVEL_1
 10
9.474153812956828
 20
26.8616300154098
 30
0.0
  0
VERTEX
  5
231
  8
CK_LEVEL_1
 10
9.584446964160728
 20
26.85788077072419
 30
0.0
  0
VERTEX
  5
232
  8
CK_LEVEL_1
 10
9.694696138916111
 20
26.85374470128545
 30
0.0
  0
VERTEX
  5
233
  8
CK_LEVEL_1
 10
9.804901308185975
 20
26.84922525411141
 30
0.0
  0
VERTEX
  5
234
  8
CK_LEVEL_1
 10
9.91506244293332
 20
26.84432587621988
 30
0.0
  0
VERTEX
  5
235
  8
CK_LEVEL_1
 10
10.02517951412114
 20
26.8390500146287
 30
0.0
  0
VERTEX
  5
236
  8
CK_LEVEL_1
 10
10.13525249271244
 20
26.83340111635567
 30
0.0
  0
VERTEX
  5
237
  8
CK_LEVEL_1
 10
10.2452813496702
 20
26.82738262841862
 30
0.0
  0
VERTEX
  5
238
  8
CK_LEVEL_1
 10
10.35526605595744
 20
26.82099799783537
 30
0.0
  0
VERTEX
  5
239
  8
CK_LEVEL_1
 10
10.46520658253714
 20
26.81425067162374
 30
0.0
  0
VERTEX
  5
23A
  8
CK_LEVEL_1
 10
10.57510290037231
 20
26.80714409680155
 30
0.0
  0
VERTEX
  5
23B
  8
CK_LEVEL_1
 10
10.68495498042594
 20
26.79968172038662
 30
0.0
  0
VERTEX
  5
23C
  8
CK_LEVEL_1
 10
10.79476279366102
 20
26.79186698939677
 30
0.0
  0
VERTEX
  5
23D
  8
CK_LEVEL_1
 10
10.90452631104056
 20
26.78370335084982
 30
0.0
  0
VERTEX
  5
23E
  8
CK_LEVEL_1
 10
11.01424550352756
 20
26.7751942517636
 30
0.0
  0
VERTEX
  5
23F
  8
CK_LEVEL_1
 10
11.12392034208501
 20
26.76634313915591
 30
0.0
  0
VERTEX
  5
240
  8
CK_LEVEL_1
 10
11.23355079767591
 20
26.75715346004458
 30
0.0
  0
VERTEX
  5
241
  8
CK_LEVEL_1
 10
11.34313684126325
 20
26.74762866144744
 30
0.0
  0
VERTEX
  5
242
  8
CK_LEVEL_1
 10
11.45267844381003
 20
26.7377721903823
 30
0.0
  0
VERTEX
  5
243
  8
CK_LEVEL_1
 10
11.56217557627926
 20
26.72758749386699
 30
0.0
  0
VERTEX
  5
244
  8
CK_LEVEL_1
 10
11.67162820963393
 20
26.71707801891932
 30
0.0
  0
VERTEX
  5
245
  8
CK_LEVEL_1
 10
11.78103631483703
 20
26.70624721255711
 30
0.0
  0
VERTEX
  5
246
  8
CK_LEVEL_1
 10
11.89039986285156
 20
26.69509852179818
 30
0.0
  0
VERTEX
  5
247
  8
CK_LEVEL_1
 10
11.99971882464052
 20
26.68363539366037
 30
0.0
  0
VERTEX
  5
248
  8
CK_LEVEL_1
 10
12.10899317116692
 20
26.67186127516148
 30
0.0
  0
VERTEX
  5
249
  8
CK_LEVEL_1
 10
12.21822287339374
 20
26.65977961331932
 30
0.0
  0
VERTEX
  5
24A
  8
CK_LEVEL_1
 10
12.32740790228398
 20
26.64739385515174
 30
0.0
  0
VERTEX
  5
24B
  8
CK_LEVEL_1
 10
12.43654822880064
 20
26.63470744767654
 30
0.0
  0
VERTEX
  5
24C
  8
CK_LEVEL_1
 10
12.65469465856521
 20
26.60844647287459
 30
0.0
  0
VERTEX
  5
24D
  8
CK_LEVEL_1
 10
12.87266193039143
 20
26.58102426505603
 30
0.0
  0
VERTEX
  5
24E
  8
CK_LEVEL_1
 10
13.09044981198328
 20
26.55246840036342
 30
0.0
  0
VERTEX
  5
24F
  8
CK_LEVEL_1
 10
13.30805807104474
 20
26.52280645493932
 30
0.0
  0
VERTEX
  5
250
  8
CK_LEVEL_1
 10
13.52548647527979
 20
26.4920660049263
 30
0.0
  0
VERTEX
  5
251
  8
CK_LEVEL_1
 10
13.74273479239241
 20
26.46027462646693
 30
0.0
  0
VERTEX
  5
252
  8
CK_LEVEL_1
 10
13.95980279008658
 20
26.42745989570376
 30
0.0
  0
VERTEX
  5
253
  8
CK_LEVEL_1
 10
14.17669023606627
 20
26.39364938877935
 30
0.0
  0
VERTEX
  5
254
  8
CK_LEVEL_1
 10
14.39339689803547
 20
26.35887068183628
 30
0.0
  0
VERTEX
  5
255
  8
CK_LEVEL_1
 10
14.60992254369815
 20
26.3231513510171
 30
0.0
  0
VERTEX
  5
256
  8
CK_LEVEL_1
 10
14.8262669407583
 20
26.28651897246438
 30
0.0
  0
VERTEX
  5
257
  8
CK_LEVEL_1
 10
15.0424298569199
 20
26.24900112232068
 30
0.0
  0
VERTEX
  5
258
  8
CK_LEVEL_1
 10
15.25841105988692
 20
26.21062537672855
 30
0.0
  0
VERTEX
  5
259
  8
CK_LEVEL_1
 10
15.47421031736334
 20
26.17141931183058
 30
0.0
  0
VERTEX
  5
25A
  8
CK_LEVEL_1
 10
15.68982739705314
 20
26.13141050376932
 30
0.0
  0
VERTEX
  5
25B
  8
CK_LEVEL_1
 10
15.90526206666031
 20
26.09062652868732
 30
0.0
  0
VERTEX
  5
25C
  8
CK_LEVEL_1
 10
16.12051409388882
 20
26.04909496272716
 30
0.0
  0
VERTEX
  5
25D
  8
CK_LEVEL_1
 10
16.15297588099786
 20
26.04297441374475
 30
0.0
  0
VERTEX
  5
25E
  8
CK_LEVEL_1
 10
16.18547485801943
 20
26.03724116088764
 30
0.0
  0
VERTEX
  5
25F
  8
CK_LEVEL_1
 10
16.21801013239316
 20
26.03188591245924
 30
0.0
  0
VERTEX
  5
260
  8
CK_LEVEL_1
 10
16.25058081155866
 20
26.02689937676298
 30
0.0
  0
VERTEX
  5
261
  8
CK_LEVEL_1
 10
16.28318600295558
 20
26.02227226210227
 30
0.0
  0
VERTEX
  5
262
  8
CK_LEVEL_1
 10
16.31582481402355
 20
26.01799527678052
 30
0.0
  0
VERTEX
  5
263
  8
CK_LEVEL_1
 10
16.34849635220219
 20
26.01405912910117
 30
0.0
  0
VERTEX
  5
264
  8
CK_LEVEL_1
 10
16.38119972493114
 20
26.01045452736761
 30
0.0
  0
VERTEX
  5
265
  8
CK_LEVEL_1
 10
16.41393403965002
 20
26.00717217988328
 30
0.0
  0
VERTEX
  5
266
  8
CK_LEVEL_1
 10
16.44669840379848
 20
26.0042027949516
 30
0.0
  0
VERTEX
  5
267
  8
CK_LEVEL_1
 10
16.51231371014262
 20
25.9991657459598
 30
0.0
  0
VERTEX
  5
268
  8
CK_LEVEL_1
 10
16.5780385034806
 20
25.99526904681958
 30
0.0
  0
VERTEX
  5
269
  8
CK_LEVEL_1
 10
16.64386564332948
 20
25.99243836395827
 30
0.0
  0
VERTEX
  5
26A
  8
CK_LEVEL_1
 10
16.70978798920629
 20
25.99059936380322
 30
0.0
  0
VERTEX
  5
26B
  8
CK_LEVEL_1
 10
16.77579840062808
 20
25.98967771278177
 30
0.0
  0
VERTEX
  5
26C
  8
CK_LEVEL_1
 10
16.84188973711191
 20
25.98959907732125
 30
0.0
  0
VERTEX
  5
26D
  8
CK_LEVEL_1
 10
16.9080548581748
 20
25.99028912384902
 30
0.0
  0
VERTEX
  5
26E
  8
CK_LEVEL_1
 10
16.97428662333382
 20
25.99167351879241
 30
0.0
  0
VERTEX
  5
26F
  8
CK_LEVEL_1
 10
17.04057789210601
 20
25.99367792857877
 30
0.0
  0
VERTEX
  5
270
  8
CK_LEVEL_1
 10
17.10692152400842
 20
25.99622801963543
 30
0.0
  0
VERTEX
  5
271
  8
CK_LEVEL_1
 10
17.17331037855809
 20
25.99924945838975
 30
0.0
  0
VERTEX
  5
272
  8
CK_LEVEL_1
 10
17.30619519366739
 20
26.0064090447007
 30
0.0
  0
VERTEX
  5
273
  8
CK_LEVEL_1
 10
17.43917521357029
 20
26.01456201893035
 30
0.0
  0
VERTEX
  5
274
  8
CK_LEVEL_1
 10
17.57219331440317
 20
26.02311371249744
 30
0.0
  0
VERTEX
  5
275
  8
CK_LEVEL_1
 10
17.70519237230238
 20
26.03146945682071
 30
0.0
  0
VERTEX
  5
276
  8
CK_LEVEL_1
 10
17.83811526340432
 20
26.03903458331889
 30
0.0
  0
VERTEX
  5
277
  8
CK_LEVEL_1
 10
17.90453029519892
 20
26.04233483095192
 30
0.0
  0
VERTEX
  5
278
  8
CK_LEVEL_1
 10
17.97090486384534
 20
26.04521442341071
 30
0.0
  0
VERTEX
  5
279
  8
CK_LEVEL_1
 10
18.03723182886063
 20
26.0475990271226
 30
0.0
  0
VERTEX
  5
27A
  8
CK_LEVEL_1
 10
18.10350404976182
 20
26.04941430851492
 30
0.0
  0
VERTEX
  5
27B
  8
CK_LEVEL_1
 10
18.16971438606597
 20
26.05058593401503
 30
0.0
  0
VERTEX
  5
27C
  8
CK_LEVEL_1
 10
18.23585569729012
 20
26.05103957005026
 30
0.0
  0
VERTEX
  5
27D
  8
CK_LEVEL_1
 10
18.23585569729012
 20
27.56176287475362
 30
0.0
 42
-1.0
  0
VERTEX
  5
27E
  8
CK_LEVEL_1
 10
18.41263239258676
 20
27.73853957005026
 30
0.0
  0
VERTEX
  5
27F
  8
CK_LEVEL_1
 10
18.73585569729013
 20
27.73853957005026
 30
0.0
  0
VERTEX
  5
280
  8
CK_LEVEL_1
 10
18.73585569729013
 20
29.73853957005024
 30
0.0
  0
VERTEX
  5
281
  8
CK_LEVEL_1
 10
18.41263239258676
 20
29.73853957005024
 30
0.0
 42
-1.0
  0
VERTEX
  5
282
  8
CK_LEVEL_1
 10
18.23585569729012
 20
29.91531626534688
 30
0.0
  0
VERTEX
  5
283
  8
CK_LEVEL_1
 10
18.23585569729012
 20
31.42603957005022
 30
0.0
  0
VERTEX
  5
284
  8
CK_LEVEL_1
 10
15.73585569729008
 20
31.42603957005022
 30
0.0
 42
-1.0
  0
VERTEX
  5
285
  8
CK_LEVEL_1
 10
15.73585569729008
 20
31.67603957005022
 30
0.0
  0
VERTEX
  5
286
  8
CK_LEVEL_1
 10
15.73585569729008
 20
31.92603957005021
 30
0.0
 42
-1.0
  0
VERTEX
  5
287
  8
CK_LEVEL_1
 10
15.73585569729008
 20
32.17603957005021
 30
0.0
  0
VERTEX
  5
288
  8
CK_LEVEL_1
 10
18.23585569729012
 20
32.17603957005021
 30
0.0
  0
VERTEX
  5
289
  8
CK_LEVEL_1
 10
18.23585569729012
 20
33.62426287475355
 30
0.0
 42
-1.0
  0
VERTEX
  5
28A
  8
CK_LEVEL_1
 10
18.41263239258676
 20
33.80103957005019
 30
0.0
  0
VERTEX
  5
28B
  8
CK_LEVEL_1
 10
18.73585569729013
 20
33.80103957005019
 30
0.0
  0
VERTEX
  5
28C
  8
CK_LEVEL_1
 10
18.73585569729013
 20
35.80103957005016
 30
0.0
  0
VERTEX
  5
28D
  8
CK_LEVEL_1
 10
18.41263239258676
 20
35.80103957005016
 30
0.0
 42
-1.0
  0
VERTEX
  5
28E
  8
CK_LEVEL_1
 10
18.23585569729012
 20
35.9778162653468
 30
0.0
  0
VERTEX
  5
28F
  8
CK_LEVEL_1
 10
18.23585569729012
 20
37.67603957005013
 30
0.0
  0
VERTEX
  5
290
  8
CK_LEVEL_1
 10
20.25746945886955
 20
38.0154896193883
 30
0.0
 42
-0.0927782445526398
  0
VERTEX
  5
291
  8
CK_LEVEL_1
 10
30.3354457710944
 20
39.70768702199258
 30
0.0
  0
VERTEX
  5
292
  8
CK_LEVEL_1
 10
32.09948548350796
 20
40.00388770027917
 30
0.0
 42
-1.0
  0
VERTEX
  5
293
  8
CK_LEVEL_1
 10
32.30309452148116
 20
39.85882434861431
 30
0.0
  0
VERTEX
  5
294
  8
CK_LEVEL_1
 10
32.35661769729038
 20
39.54006357005011
 30
0.0
  0
VERTEX
  5
295
  8
CK_LEVEL_1
 10
34.32900669729038
 20
39.87124757005012
 30
0.0
  0
VERTEX
  5
296
  8
CK_LEVEL_1
 10
34.27548344316429
 20
40.19000946148289
 30
0.0
 42
-1.0
  0
VERTEX
  5
297
  8
CK_LEVEL_1
 10
34.42054679293138
 20
40.39361839290707
 30
0.0
  0
VERTEX
  5
298
  8
CK_LEVEL_1
 10
34.98585569729038
 20
40.48853957005011
 30
0.0
  0
VERTEX
  5
299
  8
CK_LEVEL_1
 10
34.98585569729038
 20
43.05103957005011
 30
0.0
 42
0.4142135623730937
  0
VERTEX
  5
29A
  8
CK_LEVEL_1
 10
33.98585569729038
 20
44.05103957005011
 30
0.0
  0
VERTEX
  5
29B
  8
CK_LEVEL_1
 10
33.76028357729058
 20
44.05056936066051
 30
0.0
  0
VERTEX
  5
29C
  8
CK_LEVEL_1
 10
33.53357908524389
 20
44.04917354223623
 30
0.0
  0
VERTEX
  5
29D
  8
CK_LEVEL_1
 10
33.30576002307946
 20
44.04687432939411
 30
0.0
  0
VERTEX
  5
29E
  8
CK_LEVEL_1
 10
33.07684419272643
 20
44.043693936751
 30
0.0
  0
VERTEX
  5
29F
  8
CK_LEVEL_1
 10
32.8468493961139
 20
44.03965457892372
 30
0.0
  0
VERTEX
  5
2A0
  8
CK_LEVEL_1
 10
32.61579343517099
 20
44.03477847052909
 30
0.0
  0
VERTEX
  5
2A1
  8
CK_LEVEL_1
 10
32.38369411182685
 20
44.02908782618395
 30
0.0
  0
VERTEX
  5
2A2
  8
CK_LEVEL_1
 10
32.15056922801059
 20
44.02260486050515
 30
0.0
  0
VERTEX
  5
2A3
  8
CK_LEVEL_1
 10
31.91643658565133
 20
44.01535178810951
 30
0.0
  0
VERTEX
  5
2A4
  8
CK_LEVEL_1
 10
31.68131398667821
 20
44.00735082361386
 30
0.0
  0
VERTEX
  5
2A5
  8
CK_LEVEL_1
 10
31.44521923302034
 20
43.99862418163502
 30
0.0
  0
VERTEX
  5
2A6
  8
CK_LEVEL_1
 10
31.20817012660685
 20
43.98919407678984
 30
0.0
  0
VERTEX
  5
2A7
  8
CK_LEVEL_1
 10
30.97018446936687
 20
43.97908272369514
 30
0.0
  0
VERTEX
  5
2A8
  8
CK_LEVEL_1
 10
30.73128006322952
 20
43.96831233696776
 30
0.0
  0
VERTEX
  5
2A9
  8
CK_LEVEL_1
 10
30.49147471012392
 20
43.95690513122453
 30
0.0
  0
VERTEX
  5
2AA
  8
CK_LEVEL_1
 10
30.2507862119792
 20
43.94488332108228
 30
0.0
  0
VERTEX
  5
2AB
  8
CK_LEVEL_1
 10
30.00923237072449
 20
43.93226912115784
 30
0.0
  0
VERTEX
  5
2AC
  8
CK_LEVEL_1
 10
29.76683098828891
 20
43.91908474606805
 30
0.0
  0
VERTEX
  5
2AD
  8
CK_LEVEL_1
 10
29.52359986660159
 20
43.90535241042974
 30
0.0
  0
VERTEX
  5
2AE
  8
CK_LEVEL_1
 10
29.27955680759164
 20
43.89109432885974
 30
0.0
  0
VERTEX
  5
2AF
  8
CK_LEVEL_1
 10
29.03471961318819
 20
43.87633271597488
 30
0.0
  0
VERTEX
  5
2B0
  8
CK_LEVEL_1
 10
28.78910608532037
 20
43.86108978639199
 30
0.0
  0
VERTEX
  5
2B1
  8
CK_LEVEL_1
 10
28.54273402591731
 20
43.84538775472791
 30
0.0
  0
VERTEX
  5
2B2
  8
CK_LEVEL_1
 10
28.29562123690813
 20
43.82924883559946
 30
0.0
  0
VERTEX
  5
2B3
  8
CK_LEVEL_1
 10
28.04778552022195
 20
43.81269524362349
 30
0.0
  0
VERTEX
  5
2B4
  8
CK_LEVEL_1
 10
27.7992446777879
 20
43.79574919341681
 30
0.0
  0
VERTEX
  5
2B5
  8
CK_LEVEL_1
 10
27.30011882339268
 20
43.76076857677869
 30
0.0
  0
VERTEX
  5
2B6
  8
CK_LEVEL_1
 10
26.79838608915547
 20
43.72448470261977
 30
0.0
  0
VERTEX
  5
2B7
  8
CK_LEVEL_1
 10
26.29418889050928
 20
43.68707528787469
 30
0.0
  0
VERTEX
  5
2B8
  8
CK_LEVEL_1
 10
25.78766964288708
 20
43.64871804947812
 30
0.0
  0
VERTEX
  5
2B9
  8
CK_LEVEL_1
 10
25.2789707617219
 20
43.60959070436469
 30
0.0
  0
VERTEX
  5
2BA
  8
CK_LEVEL_1
 10
24.25560376049454
 20
43.52973656172594
 30
0.0
  0
VERTEX
  5
2BB
  8
CK_LEVEL_1
 10
23.22522721029119
 20
43.4489345954357
 30
0.0
  0
VERTEX
  5
2BC
  8
CK_LEVEL_1
 10
22.70776639290602
 20
43.4086224707579
 30
0.0
  0
VERTEX
  5
2BD
  8
CK_LEVEL_1
 10
22.18898043457585
 20
43.3686065409712
 30
0.0
  0
VERTEX
  5
2BE
  8
CK_LEVEL_1
 10
21.66901175073367
 20
43.32906452301025
 30
0.0
  0
VERTEX
  5
2BF
  8
CK_LEVEL_1
 10
21.14800275681248
 20
43.2901741338097
 30
0.0
  0
VERTEX
  5
2C0
  8
CK_LEVEL_1
 10
20.62609586824529
 20
43.25211309030421
 30
0.0
  0
VERTEX
  5
2C1
  8
CK_LEVEL_1
 10
20.10343350046509
 20
43.21505910942845
 30
0.0
  0
VERTEX
  5
2C2
  8
CK_LEVEL_1
 10
19.84186351669292
 20
43.19696530401879
 30
0.0
  0
VERTEX
  5
2C3
  8
CK_LEVEL_1
 10
19.58015806890488
 20
43.17918990811705
 30
0.0
  0
VERTEX
  5
2C4
  8
CK_LEVEL_1
 10
19.31833495903008
 20
43.16175513634008
 30
0.0
  0
VERTEX
  5
2C5
  8
CK_LEVEL_1
 10
19.05641198899766
 20
43.14468320330469
 30
0.0
  0
VERTEX
  5
2C6
  8
CK_LEVEL_1
 10
18.79440696073673
 20
43.12799632362773
 30
0.0
  0
VERTEX
  5
2C7
  8
CK_LEVEL_1
 10
18.53233767617643
 20
43.11171671192601
 30
0.0
  0
VERTEX
  5
2C8
  8
CK_LEVEL_1
 10
18.27022193724586
 20
43.09586658281637
 30
0.0
  0
VERTEX
  5
2C9
  8
CK_LEVEL_1
 10
18.00807754587418
 20
43.08046815091566
 30
0.0
  0
VERTEX
  5
2CA
  8
CK_LEVEL_1
 10
17.74592230399049
 20
43.06554363084071
 30
0.0
  0
VERTEX
  5
2CB
  8
CK_LEVEL_1
 10
17.48377401352391
 20
43.05111523720832
 30
0.0
  0
VERTEX
  5
2CC
  8
CK_LEVEL_1
 10
17.22165047640359
 20
43.03720518463535
 30
0.0
  0
VERTEX
  5
2CD
  8
CK_LEVEL_1
 10
16.95956949455863
 20
43.02383568773863
 30
0.0
  0
VERTEX
  5
2CE
  8
CK_LEVEL_1
 10
16.69754886991817
 20
43.01102896113498
 30
0.0
  0
VERTEX
  5
2CF
  8
CK_LEVEL_1
 10
16.43560640441133
 20
42.99880721944125
 30
0.0
  0
VERTEX
  5
2D0
  8
CK_LEVEL_1
 10
16.17375989996724
 20
42.98719267727425
 30
0.0
  0
VERTEX
  5
2D1
  8
CK_LEVEL_1
 10
15.91202715851502
 20
42.97620754925083
 30
0.0
  0
VERTEX
  5
2D2
  8
CK_LEVEL_1
 10
15.65042598198379
 20
42.96587404998782
 30
0.0
  0
VERTEX
  5
2D3
  8
CK_LEVEL_1
 10
15.38897417230268
 20
42.95621439410203
 30
0.0
  0
VERTEX
  5
2D4
  8
CK_LEVEL_1
 10
15.12768953140081
 20
42.94725079621033
 30
0.0
  0
VERTEX
  5
2D5
  8
CK_LEVEL_1
 10
14.86658986120732
 20
42.93900547092952
 30
0.0
  0
VERTEX
  5
2D6
  8
CK_LEVEL_1
 10
14.60569296365131
 20
42.93150063287644
 30
0.0
  0
VERTEX
  5
2D7
  8
CK_LEVEL_1
 10
14.34501664066193
 20
42.92475849666793
 30
0.0
  0
VERTEX
  5
2D8
  8
CK_LEVEL_1
 10
14.08457869416829
 20
42.91880127692082
 30
0.0
  0
VERTEX
  5
2D9
  8
CK_LEVEL_1
 10
13.82439692609952
 20
42.91365118825193
 30
0.0
  0
VERTEX
  5
2DA
  8
CK_LEVEL_1
 10
13.56448913838474
 20
42.9093304452781
 30
0.0
  0
VERTEX
  5
2DB
  8
CK_LEVEL_1
 10
13.30487313295308
 20
42.90586126261617
 30
0.0
  0
VERTEX
  5
2DC
  8
CK_LEVEL_1
 10
13.04556671173366
 20
42.90326585488297
 30
0.0
  0
VERTEX
  5
2DD
  8
CK_LEVEL_1
 10
12.78658767665561
 20
42.90156643669532
 30
0.0
  0
VERTEX
  5
2DE
  8
CK_LEVEL_1
 10
12.52795382964805
 20
42.90078522267007
 30
0.0
  0
VERTEX
  5
2DF
  8
CK_LEVEL_1
 10
12.26968297264011
 20
42.90094442742402
 30
0.0
  0
VERTEX
  5
2E0
  8
CK_LEVEL_1
 10
12.01179290756091
 20
42.90206626557404
 30
0.0
  0
VERTEX
  5
2E1
  8
CK_LEVEL_1
 10
11.75430143633958
 20
42.90417295173694
 30
0.0
  0
VERTEX
  5
2E2
  8
CK_LEVEL_1
 10
11.49722636090524
 20
42.90728670052956
 30
0.0
  0
VERTEX
  5
2E3
  8
CK_LEVEL_1
 10
11.24058548318702
 20
42.91142972656873
 30
0.0
  0
VERTEX
  5
2E4
  8
CK_LEVEL_1
 10
10.98439660511404
 20
42.91662424447128
 30
0.0
  0
VERTEX
  5
2E5
  8
CK_LEVEL_1
 10
10.72867752861542
 20
42.92289246885404
 30
0.0
  0
VERTEX
  5
2E6
  8
CK_LEVEL_1
 10
10.4734460556203
 20
42.93025661433384
 30
0.0
  0
VERTEX
  5
2E7
  8
CK_LEVEL_1
 10
10.21871998805779
 20
42.93873889552753
 30
0.0
  0
VERTEX
  5
2E8
  8
CK_LEVEL_1
 10
9.964517127857022
 20
42.94836152705192
 30
0.0
  0
VERTEX
  5
2E9
  8
CK_LEVEL_1
 10
9.710855276947118
 20
42.95914672352386
 30
0.0
  0
VERTEX
  5
2EA
  8
CK_LEVEL_1
 10
9.584232793079094
 20
42.96498222568292
 30
0.0
  0
VERTEX
  5
2EB
  8
CK_LEVEL_1
 10
9.457752237257207
 20
42.97111669956017
 30
0.0
  0
VERTEX
  5
2EC
  8
CK_LEVEL_1
 10
9.331415834722598
 20
42.97755292198273
 30
0.0
  0
VERTEX
  5
2ED
  8
CK_LEVEL_1
 10
9.20522581071641
 20
42.98429366977768
 30
0.0
  0
VERTEX
  5
2EE
  8
CK_LEVEL_1
 10
9.079184390479782
 20
42.99134171977215
 30
0.0
  0
VERTEX
  5
2EF
  8
CK_LEVEL_1
 10
8.953293799253853
 20
42.99869984879322
 30
0.0
  0
VERTEX
  5
2F0
  8
CK_LEVEL_1
 10
8.827556262279765
 20
43.00637083366802
 30
0.0
  0
VERTEX
  5
2F1
  8
CK_LEVEL_1
 10
8.70197400479866
 20
43.01435745122365
 30
0.0
  0
VERTEX
  5
2F2
  8
CK_LEVEL_1
 10
8.576549252051676
 20
43.02266247828719
 30
0.0
  0
VERTEX
  5
2F3
  8
CK_LEVEL_1
 10
8.451284229279956
 20
43.03128869168576
 30
0.0
  0
VERTEX
  5
2F4
  8
CK_LEVEL_1
 10
8.32618116172464
 20
43.04023886824647
 30
0.0
  0
VERTEX
  5
2F5
  8
CK_LEVEL_1
 10
8.201242274626868
 20
43.04951578479641
 30
0.0
  0
VERTEX
  5
2F6
  8
CK_LEVEL_1
 10
8.07646979322778
 20
43.0591222181627
 30
0.0
  0
VERTEX
  5
2F7
  8
CK_LEVEL_1
 10
7.951865942768518
 20
43.06906094517244
 30
0.0
  0
VERTEX
  5
2F8
  8
CK_LEVEL_1
 10
7.827432948490222
 20
43.07933474265272
 30
0.0
  0
VERTEX
  5
2F9
  8
CK_LEVEL_1
 10
7.703173035634033
 20
43.08994638743065
 30
0.0
  0
VERTEX
  5
2FA
  8
CK_LEVEL_1
 10
7.579088429441091
 20
43.10089865633334
 30
0.0
  0
VERTEX
  5
2FB
  8
CK_LEVEL_1
 10
7.455181355152537
 20
43.11219432618789
 30
0.0
  0
VERTEX
  5
2FC
  8
CK_LEVEL_1
 10
7.331454038009511
 20
43.12383617382141
 30
0.0
  0
VERTEX
  5
2FD
  8
CK_LEVEL_1
 10
7.207908703253154
 20
43.135826976061
 30
0.0
  0
VERTEX
  5
2FE
  8
CK_LEVEL_1
 10
7.084547576124607
 20
43.14816950973376
 30
0.0
  0
VERTEX
  5
2FF
  8
CK_LEVEL_1
 10
6.96137288186501
 20
43.1608665516668
 30
0.0
  0
VERTEX
  5
300
  8
CK_LEVEL_1
 10
6.838386845715505
 20
43.17392087868721
 30
0.0
  0
VERTEX
  5
301
  8
CK_LEVEL_1
 10
6.71559169291723
 20
43.18733526762212
 30
0.0
  0
VERTEX
  5
302
  8
CK_LEVEL_1
 10
6.592989648711328
 20
43.20111249529861
 30
0.0
  0
VERTEX
  5
303
  8
CK_LEVEL_1
 10
6.470582938338937
 20
43.2152553385438
 30
0.0
  0
VERTEX
  5
304
  8
CK_LEVEL_1
 10
6.3483737870412
 20
43.22976657418478
 30
0.0
  0
VERTEX
  5
305
  8
CK_LEVEL_1
 10
6.226364420059258
 20
43.24464897904867
 30
0.0
  0
VERTEX
  5
306
  8
CK_LEVEL_1
 10
6.10455706263425
 20
43.25990532996256
 30
0.0
  0
VERTEX
  5
307
  8
CK_LEVEL_1
 10
5.982953940007317
 20
43.27553840375356
 30
0.0
  0
VERTEX
  5
308
  8
CK_LEVEL_1
 10
5.861557277419599
 20
43.29155097724878
 30
0.0
  0
VERTEX
  5
309
  8
CK_LEVEL_1
 10
5.740369300112237
 20
43.3079458272753
 30
0.0
  0
VERTEX
  5
30A
  8
CK_LEVEL_1
 10
5.619392233326371
 20
43.32472573066025
 30
0.0
  0
VERTEX
  5
30B
  8
CK_LEVEL_1
 10
5.498628302303144
 20
43.34189346423074
 30
0.0
  0
VERTEX
  5
30C
  8
CK_LEVEL_1
 10
5.378079732283696
 20
43.35945180481384
 30
0.0
  0
VERTEX
  5
30D
  8
CK_LEVEL_1
 10
5.257748748509165
 20
43.37740352923667
 30
0.0
  0
VERTEX
  5
30E
  8
CK_LEVEL_1
 10
5.137637576220694
 20
43.39575141432636
 30
0.0
  0
VERTEX
  5
30F
  8
CK_LEVEL_1
 10
5.017748440659422
 20
43.41449823690997
 30
0.0
  0
VERTEX
  5
310
  8
CK_LEVEL_1
 10
4.898083567066491
 20
43.43364677381463
 30
0.0
  0
VERTEX
  5
311
  8
CK_LEVEL_1
 10
4.778645180683041
 20
43.45319980186745
 30
0.0
  0
VERTEX
  5
312
  8
CK_LEVEL_1
 10
4.659435506750213
 20
43.47316009789552
 30
0.0
  0
VERTEX
  5
313
  8
CK_LEVEL_1
 10
4.540456770509146
 20
43.49353043872594
 30
0.0
  0
VERTEX
  5
314
  8
CK_LEVEL_1
 10
4.421711197200983
 20
43.51431360118582
 30
0.0
  0
VERTEX
  5
315
  8
CK_LEVEL_1
 10
4.303201012066864
 20
43.53551236210227
 30
0.0
  0
VERTEX
  5
316
  8
CK_LEVEL_1
 10
4.184928440347928
 20
43.55712949830239
 30
0.0
  0
VERTEX
  5
317
  8
CK_LEVEL_1
 10
4.066895707285317
 20
43.57916778661328
 30
0.0
  0
VERTEX
  5
318
  8
CK_LEVEL_1
 10
3.949105038120171
 20
43.60163000386206
 30
0.0
  0
VERTEX
  5
319
  8
CK_LEVEL_1
 10
3.831558658093631
 20
43.62451892687581
 30
0.0
  0
VERTEX
  5
31A
  8
CK_LEVEL_1
 10
3.714258792446838
 20
43.64783733248164
 30
0.0
  0
VERTEX
  5
31B
  8
CK_LEVEL_1
 10
3.597207666420931
 20
43.67158799750667
 30
0.0
  0
VERTEX
  5
31C
  8
CK_LEVEL_1
 10
3.480407505257053
 20
43.69577369877798
 30
0.0
  0
VERTEX
  5
31D
  8
CK_LEVEL_1
 10
3.363860534196342
 20
43.7203972131227
 30
0.0
  0
VERTEX
  5
31E
  8
CK_LEVEL_1
 10
3.247568978479941
 20
43.74546131736792
 30
0.0
  0
VERTEX
  5
31F
  8
CK_LEVEL_1
 10
3.131535063348989
 20
43.77096878834074
 30
0.0
  0
VERTEX
  5
320
  8
CK_LEVEL_1
 10
3.015761014044627
 20
43.79692240286827
 30
0.0
  0
VERTEX
  5
321
  8
CK_LEVEL_1
 10
2.900249055807996
 20
43.82332493777761
 30
0.0
  0
VERTEX
  5
322
  8
CK_LEVEL_1
 10
2.785001413880236
 20
43.85017916989587
 30
0.0
  0
VERTEX
  5
323
  8
CK_LEVEL_1
 10
2.670020313502488
 20
43.87748787605015
 30
0.0
  0
VERTEX
  5
324
  8
CK_LEVEL_1
 10
2.555307979915892
 20
43.90525383306756
 30
0.0
  0
VERTEX
  5
325
  8
CK_LEVEL_1
 10
2.44086663836159
 20
43.9334798177752
 30
0.0
  0
VERTEX
  5
326
  8
CK_LEVEL_1
 10
2.326698514080722
 20
43.96216860700017
 30
0.0
  0
VERTEX
  5
327
  8
CK_LEVEL_1
 10
2.212805832314428
 20
43.99132297756958
 30
0.0
  0
VERTEX
  5
328
  8
CK_LEVEL_1
 10
2.099190818303848
 20
44.02094570631053
 30
0.0
  0
SEQEND
  5
329
  8
CK_LEVEL_1
  0
POLYLINE
  5
44
  8
CK_LEVEL_1
 66
     1
 10
0.0
 20
0.0
 30
0.0
 70
     1
  0
VERTEX
  5
32A
  8
CK_LEVEL_1
 10
61.9298595096859
 20
46.98977544710581
 30
0.0
 42
0.4142135623730956
  0
VERTEX
  5
32B
  8
CK_LEVEL_1
 10
60.92985950968593
 20
45.98977544710581
 30
0.0
  0
VERTEX
  5
32C
  8
CK_LEVEL_1
 10
60.92985950968593
 20
43.9897754471058
 30
0.0
 42
-0.4142135623730954
  0
VERTEX
  5
32D
  8
CK_LEVEL_1
 10
65.17985950968574
 20
39.73977544710583
 30
0.0
  0
VERTEX
  5
32E
  8
CK_LEVEL_1
 10
65.17985950968574
 20
36.23977544710588
 30
0.0
 42
-0.4142135623730955
  0
VERTEX
  5
32F
  8
CK_LEVEL_1
 10
60.92985950968593
 20
31.98977544710595
 30
0.0
  0
VERTEX
  5
330
  8
CK_LEVEL_1
 10
60.92985950968593
 20
29.98977544710595
 30
0.0
 42
0.414213562373094
  0
VERTEX
  5
331
  8
CK_LEVEL_1
 10
61.9298595096859
 20
28.98977544710595
 30
0.0
  0
VERTEX
  5
332
  8
CK_LEVEL_1
 10
62.04303293664847
 20
29.01979576747441
 30
0.0
  0
VERTEX
  5
333
  8
CK_LEVEL_1
 10
62.1561643326417
 20
29.04919831289579
 30
0.0
  0
VERTEX
  5
334
  8
CK_LEVEL_1
 10
62.26925366862859
 20
29.0779865303879
 30
0.0
  0
VERTEX
  5
335
  8
CK_LEVEL_1
 10
62.38230091557213
 20
29.10616386696856
 30
0.0
  0
VERTEX
  5
336
  8
CK_LEVEL_1
 10
62.49530604443532
 20
29.1337337696556
 30
0.0
  0
VERTEX
  5
337
  8
CK_LEVEL_1
 10
62.60826902618115
 20
29.16069968546683
 30
0.0
  0
VERTEX
  5
338
  8
CK_LEVEL_1
 10
62.72118983177262
 20
29.18706506142007
 30
0.0
  0
VERTEX
  5
339
  8
CK_LEVEL_1
 10
62.83406843217274
 20
29.21283334453314
 30
0.0
  0
VERTEX
  5
33A
  8
CK_LEVEL_1
 10
62.94690479834451
 20
29.23800798182388
 30
0.0
  0
VERTEX
  5
33B
  8
CK_LEVEL_1
 10
63.0596989012509
 20
29.26259242031008
 30
0.0
  0
VERTEX
  5
33C
  8
CK_LEVEL_1
 10
63.17245071185493
 20
29.28659010700957
 30
0.0
  0
VERTEX
  5
33D
  8
CK_LEVEL_1
 10
63.28516020111958
 20
29.31000448894019
 30
0.0
  0
VERTEX
  5
33E
  8
CK_LEVEL_1
 10
63.39782734000787
 20
29.33283901311973
 30
0.0
  0
VERTEX
  5
33F
  8
CK_LEVEL_1
 10
63.51045209948278
 20
29.35509712656604
 30
0.0
  0
VERTEX
  5
340
  8
CK_LEVEL_1
 10
63.62303445050732
 20
29.37678227629692
 30
0.0
  0
VERTEX
  5
341
  8
CK_LEVEL_1
 10
63.73557436404447
 20
29.3978979093302
 30
0.0
  0
VERTEX
  5
342
  8
CK_LEVEL_1
 10
63.84807181105725
 20
29.41844747268369
 30
0.0
  0
VERTEX
  5
343
  8
CK_LEVEL_1
 10
63.96052676250865
 20
29.43843441337523
 30
0.0
  0
VERTEX
  5
344
  8
CK_LEVEL_1
 10
64.07293918936165
 20
29.45786217842262
 30
0.0
  0
VERTEX
  5
345
  8
CK_LEVEL_1
 10
64.18530906257926
 20
29.47673421484368
 30
0.0
  0
VERTEX
  5
346
  8
CK_LEVEL_1
 10
64.29763635312449
 20
29.49505396965625
 30
0.0
  0
VERTEX
  5
347
  8
CK_LEVEL_1
 10
64.40992103196031
 20
29.51282488987813
 30
0.0
  0
VERTEX
  5
348
  8
CK_LEVEL_1
 10
64.52216307004974
 20
29.53005042252715
 30
0.0
  0
VERTEX
  5
349
  8
CK_LEVEL_1
 10
64.63436243835577
 20
29.54673401462114
 30
0.0
  0
VERTEX
  5
34A
  8
CK_LEVEL_1
 10
64.74651910784138
 20
29.56287911317791
 30
0.0
  0
VERTEX
  5
34B
  8
CK_LEVEL_1
 10
64.85863304946962
 20
29.57848916521527
 30
0.0
  0
VERTEX
  5
34C
  8
CK_LEVEL_1
 10
64.97070423420344
 20
29.59356761775106
 30
0.0
  0
VERTEX
  5
34D
  8
CK_LEVEL_1
 10
65.08273263300583
 20
29.60811791780309
 30
0.0
  0
VERTEX
  5
34E
  8
CK_LEVEL_1
 10
65.19471821683983
 20
29.62214351238917
 30
0.0
  0
VERTEX
  5
34F
  8
CK_LEVEL_1
 10
65.30666095666842
 20
29.63564784852714
 30
0.0
  0
VERTEX
  5
350
  8
CK_LEVEL_1
 10
65.41856082345458
 20
29.64863437323481
 30
0.0
  0
VERTEX
  5
351
  8
CK_LEVEL_1
 10
65.53041778816132
 20
29.66110653353001
 30
0.0
  0
VERTEX
  5
352
  8
CK_LEVEL_1
 10
65.64223182175162
 20
29.67306777643055
 30
0.0
  0
VERTEX
  5
353
  8
CK_LEVEL_1
 10
65.75400289518852
 20
29.68452154895425
 30
0.0
  0
VERTEX
  5
354
  8
CK_LEVEL_1
 10
65.865730979435
 20
29.69547129811893
 30
0.0
  0
VERTEX
  5
355
  8
CK_LEVEL_1
 10
65.97741604545402
 20
29.70592047094242
 30
0.0
  0
VERTEX
  5
356
  8
CK_LEVEL_1
 10
66.08905806420861
 20
29.71587251444254
 30
0.0
  0
VERTEX
  5
357
  8
CK_LEVEL_1
 10
66.20065700666177
 20
29.7253308756371
 30
0.0
  0
VERTEX
  5
358
  8
CK_LEVEL_1
 10
66.3122128437765
 20
29.73429900154392
 30
0.0
  0
VERTEX
  5
359
  8
CK_LEVEL_1
 10
66.42372554651578
 20
29.74278033918084
 30
0.0
  0
VERTEX
  5
35A
  8
CK_LEVEL_1
 10
66.53519508584262
 20
29.75077833556566
 30
0.0
  0
VERTEX
  5
35B
  8
CK_LEVEL_1
 10
66.64662143272002
 20
29.7582964377162
 30
0.0
  0
VERTEX
  5
35C
  8
CK_LEVEL_1
 10
66.75800455811097
 20
29.76533809265029
 30
0.0
  0
VERTEX
  5
35D
  8
CK_LEVEL_1
 10
66.86934443297847
 20
29.77190674738574
 30
0.0
  0
VERTEX
  5
35E
  8
CK_LEVEL_1
 10
66.9806410282855
 20
29.77800584894039
 30
0.0
  0
VERTEX
  5
35F
  8
CK_LEVEL_1
 10
67.09189431499507
 20
29.78363884433204
 30
0.0
  0
VERTEX
  5
360
  8
CK_LEVEL_1
 10
67.2031042640702
 20
29.78880918057852
 30
0.0
  0
VERTEX
  5
361
  8
CK_LEVEL_1
 10
67.31427084647387
 20
29.79352030469765
 30
0.0
  0
VERTEX
  5
362
  8
CK_LEVEL_1
 10
67.42539403316908
 20
29.79777566370725
 30
0.0
  0
VERTEX
  5
363
  8
CK_LEVEL_1
 10
67.53647379511881
 20
29.80157870462514
 30
0.0
  0
VERTEX
  5
364
  8
CK_LEVEL_1
 10
67.64751010328607
 20
29.80493287446914
 30
0.0
  0
VERTEX
  5
365
  8
CK_LEVEL_1
 10
67.75850292863387
 20
29.80784162025707
 30
0.0
  0
VERTEX
  5
366
  8
CK_LEVEL_1
 10
67.86945224212519
 20
29.81030838900675
 30
0.0
  0
VERTEX
  5
367
  8
CK_LEVEL_1
 10
67.98035801472304
 20
29.812336627736
 30
0.0
  0
VERTEX
  5
368
  8
CK_LEVEL_1
 10
68.0912202173904
 20
29.81392978346264
 30
0.0
  0
VERTEX
  5
369
  8
CK_LEVEL_1
 10
68.20203882109028
 20
29.81509130320449
 30
0.0
  0
VERTEX
  5
36A
  8
CK_LEVEL_1
 10
68.31281379678568
 20
29.81582463397938
 30
0.0
  0
VERTEX
  5
36B
  8
CK_LEVEL_1
 10
68.4235451154396
 20
29.81613322280511
 30
0.0
  0
VERTEX
  5
36C
  8
CK_LEVEL_1
 10
68.53423274801501
 20
29.81602051669953
 30
0.0
  0
VERTEX
  5
36D
  8
CK_LEVEL_1
 10
68.64487666547495
 20
29.81548996268043
 30
0.0
  0
VERTEX
  5
36E
  8
CK_LEVEL_1
 10
68.75547683878239
 20
29.81454500776565
 30
0.0
  0
VERTEX
  5
36F
  8
CK_LEVEL_1
 10
68.86603323890031
 20
29.81318909897301
 30
0.0
  0
VERTEX
  5
370
  8
CK_LEVEL_1
 10
68.97654583679176
 20
29.81142568332031
 30
0.0
  0
VERTEX
  5
371
  8
CK_LEVEL_1
 10
69.08701460341968
 20
29.80925820782539
 30
0.0
  0
VERTEX
  5
372
  8
CK_LEVEL_1
 10
69.1974395097471
 20
29.80669011950607
 30
0.0
  0
VERTEX
  5
373
  8
CK_LEVEL_1
 10
69.30782052673703
 20
29.80372486538016
 30
0.0
  0
VERTEX
  5
374
  8
CK_LEVEL_1
 10
69.41815762535245
 20
29.80036589246549
 30
0.0
  0
VERTEX
  5
375
  8
CK_LEVEL_1
 10
69.52845077655634
 20
29.79661664777988
 30
0.0
  0
VERTEX
  5
376
  8
CK_LEVEL_1
 10
69.63869995131172
 20
29.79248057834114
 30
0.0
  0
VERTEX
  5
377
  8
CK_LEVEL_1
 10
69.74890512058158
 20
29.7879611311671
 30
0.0
  0
VERTEX
  5
378
  8
CK_LEVEL_1
 10
69.85906625532891
 20
29.78306175327558
 30
0.0
  0
VERTEX
  5
379
  8
CK_LEVEL_1
 10
69.96918332651674
 20
29.77778589168439
 30
0.0
  0
VERTEX
  5
37A
  8
CK_LEVEL_1
 10
70.07925630510803
 20
29.77213699341136
 30
0.0
  0
VERTEX
  5
37B
  8
CK_LEVEL_1
 10
70.1892851620658
 20
29.76611850547431
 30
0.0
  0
VERTEX
  5
37C
  8
CK_LEVEL_1
 10
70.29926986835304
 20
29.75973387489106
 30
0.0
  0
VERTEX
  5
37D
  8
CK_LEVEL_1
 10
70.40921039493273
 20
29.75298654867943
 30
0.0
  0
VERTEX
  5
37E
  8
CK_LEVEL_1
 10
70.51910671276791
 20
29.74587997385724
 30
0.0
  0
VERTEX
  5
37F
  8
CK_LEVEL_1
 10
70.62895879282154
 20
29.73841759744231
 30
0.0
  0
VERTEX
  5
380
  8
CK_LEVEL_1
 10
70.73876660605661
 20
29.73060286645246
 30
0.0
  0
VERTEX
  5
381
  8
CK_LEVEL_1
 10
70.84853012343615
 20
29.72243922790551
 30
0.0
  0
VERTEX
  5
382
  8
CK_LEVEL_1
 10
70.95824931592315
 20
29.71393012881929
 30
0.0
  0
VERTEX
  5
383
  8
CK_LEVEL_1
 10
71.06792415448061
 20
29.7050790162116
 30
0.0
  0
VERTEX
  5
384
  8
CK_LEVEL_1
 10
71.1775546100715
 20
29.69588933710028
 30
0.0
  0
VERTEX
  5
385
  8
CK_LEVEL_1
 10
71.28714065365884
 20
29.68636453850313
 30
0.0
  0
VERTEX
  5
386
  8
CK_LEVEL_1
 10
71.39668225620562
 20
29.67650806743799
 30
0.0
  0
VERTEX
  5
387
  8
CK_LEVEL_1
 10
71.50617938867485
 20
29.66632337092268
 30
0.0
  0
VERTEX
  5
388
  8
CK_LEVEL_1
 10
71.61563202202953
 20
29.65581389597501
 30
0.0
  0
VERTEX
  5
389
  8
CK_LEVEL_1
 10
71.72504012723262
 20
29.6449830896128
 30
0.0
  0
VERTEX
  5
38A
  8
CK_LEVEL_1
 10
71.83440367524713
 20
29.63383439885387
 30
0.0
  0
VERTEX
  5
38B
  8
CK_LEVEL_1
 10
71.9437226370361
 20
29.62237127071606
 30
0.0
  0
VERTEX
  5
38C
  8
CK_LEVEL_1
 10
72.05299698356251
 20
29.61059715221717
 30
0.0
  0
VERTEX
  5
38D
  8
CK_LEVEL_1
 10
72.1622266857893
 20
29.59851549037501
 30
0.0
  0
VERTEX
  5
38E
  8
CK_LEVEL_1
 10
72.27141171467954
 20
29.58612973220743
 30
0.0
  0
VERTEX
  5
38F
  8
CK_LEVEL_1
 10
72.38055204119621
 20
29.57344332473223
 30
0.0
  0
VERTEX
  5
390
  8
CK_LEVEL_1
 10
72.59869847096078
 20
29.54718234993028
 30
0.0
  0
VERTEX
  5
391
  8
CK_LEVEL_1
 10
72.816665742787
 20
29.51976014211172
 30
0.0
  0
VERTEX
  5
392
  8
CK_LEVEL_1
 10
73.03445362437884
 20
29.49120427741911
 30
0.0
  0
VERTEX
  5
393
  8
CK_LEVEL_1
 10
73.25206188344029
 20
29.46154233199501
 30
0.0
  0
VERTEX
  5
394
  8
CK_LEVEL_1
 10
73.46949028767534
 20
29.43080188198199
 30
0.0
  0
VERTEX
  5
395
  8
CK_LEVEL_1
 10
73.68673860478796
 20
29.39901050352262
 30
0.0
  0
VERTEX
  5
396
  8
CK_LEVEL_1
 10
73.90380660248212
 20
29.36619577275945
 30
0.0
  0
VERTEX
  5
397
  8
CK_LEVEL_1
 10
74.12069404846181
 20
29.33238526583504
 30
0.0
  0
VERTEX
  5
398
  8
CK_LEVEL_1
 10
74.33740071043101
 20
29.29760655889197
 30
0.0
  0
VERTEX
  5
399
  8
CK_LEVEL_1
 10
74.55392635609371
 20
29.26188722807279
 30
0.0
  0
VERTEX
  5
39A
  8
CK_LEVEL_1
 10
74.77027075315385
 20
29.22525484952007
 30
0.0
  0
VERTEX
  5
39B
  8
CK_LEVEL_1
 10
74.98643366931543
 20
29.18773699937637
 30
0.0
  0
VERTEX
  5
39C
  8
CK_LEVEL_1
 10
75.20241487228246
 20
29.14936125378425
 30
0.0
  0
VERTEX
  5
39D
  8
CK_LEVEL_1
 10
75.41821412975888
 20
29.11015518888627
 30
0.0
  0
VERTEX
  5
39E
  8
CK_LEVEL_1
 10
75.63383120944869
 20
29.07014638082501
 30
0.0
  0
VERTEX
  5
39F
  8
CK_LEVEL_1
 10
75.84926587905586
 20
29.02936240574302
 30
0.0
  0
VERTEX
  5
3A0
  8
CK_LEVEL_1
 10
76.06451790628437
 20
28.98783083978285
 30
0.0
  0
VERTEX
  5
3A1
  8
CK_LEVEL_1
 10
76.09697969339341
 20
28.98171029080044
 30
0.0
  0
VERTEX
  5
3A2
  8
CK_LEVEL_1
 10
76.12947867041498
 20
28.97597703794333
 30
0.0
  0
VERTEX
  5
3A3
  8
CK_LEVEL_1
 10
76.1620139447887
 20
28.97062178951493
 30
0.0
  0
VERTEX
  5
3A4
  8
CK_LEVEL_1
 10
76.1945846239542
 20
28.96563525381867
 30
0.0
  0
VERTEX
  5
3A5
  8
CK_LEVEL_1
 10
76.22718981535112
 20
28.96100813915796
 30
0.0
  0
VERTEX
  5
3A6
  8
CK_LEVEL_1
 10
76.2598286264191
 20
28.95673115383622
 30
0.0
  0
VERTEX
  5
3A7
  8
CK_LEVEL_1
 10
76.29250016459773
 20
28.95279500615686
 30
0.0
  0
VERTEX
  5
3A8
  8
CK_LEVEL_1
 10
76.32520353732669
 20
28.94919040442331
 30
0.0
  0
VERTEX
  5
3A9
  8
CK_LEVEL_1
 10
76.35793785204557
 20
28.94590805693898
 30
0.0
  0
VERTEX
  5
3AA
  8
CK_LEVEL_1
 10
76.39070221619403
 20
28.94293867200729
 30
0.0
  0
VERTEX
  5
3AB
  8
CK_LEVEL_1
 10
76.45631752253816
 20
28.93790162301549
 30
0.0
  0
VERTEX
  5
3AC
  8
CK_LEVEL_1
 10
76.52204231587615
 20
28.93400492387527
 30
0.0
  0
VERTEX
  5
3AD
  8
CK_LEVEL_1
 10
76.58786945572501
 20
28.93117424101396
 30
0.0
  0
VERTEX
  5
3AE
  8
CK_LEVEL_1
 10
76.65379180160181
 20
28.92933524085891
 30
0.0
  0
VERTEX
  5
3AF
  8
CK_LEVEL_1
 10
76.71980221302361
 20
28.92841358983746
 30
0.0
  0
VERTEX
  5
3B0
  8
CK_LEVEL_1
 10
76.78589354950743
 20
28.92833495437694
 30
0.0
  0
VERTEX
  5
3B1
  8
CK_LEVEL_1
 10
76.85205867057033
 20
28.92902500090471
 30
0.0
  0
VERTEX
  5
3B2
  8
CK_LEVEL_1
 10
76.91829043572935
 20
28.9304093958481
 30
0.0
  0
VERTEX
  5
3B3
  8
CK_LEVEL_1
 10
76.98458170450154
 20
28.93241380563446
 30
0.0
  0
VERTEX
  5
3B4
  8
CK_LEVEL_1
 10
77.05092533640394
 20
28.93496389669112
 30
0.0
  0
VERTEX
  5
3B5
  8
CK_LEVEL_1
 10
77.11731419095362
 20
28.93798533544544
 30
0.0
  0
VERTEX
  5
3B6
  8
CK_LEVEL_1
 10
77.25019900606293
 20
28.94514492175639
 30
0.0
  0
VERTEX
  5
3B7
  8
CK_LEVEL_1
 10
77.38317902596583
 20
28.95329789598604
 30
0.0
  0
VERTEX
  5
3B8
  8
CK_LEVEL_1
 10
77.51619712679872
 20
28.96184958955313
 30
0.0
  0
VERTEX
  5
3B9
  8
CK_LEVEL_1
 10
77.64919618469793
 20
28.9702053338764
 30
0.0
  0
VERTEX
  5
3BA
  8
CK_LEVEL_1
 10
77.78211907579986
 20
28.97777046037458
 30
0.0
  0
VERTEX
  5
3BB
  8
CK_LEVEL_1
 10
77.84853410759447
 20
28.98107070800761
 30
0.0
  0
VERTEX
  5
3BC
  8
CK_LEVEL_1
 10
77.91490867624088
 20
28.9839503004664
 30
0.0
  0
VERTEX
  5
3BD
  8
CK_LEVEL_1
 10
77.98123564125616
 20
28.98633490417829
 30
0.0
  0
VERTEX
  5
3BE
  8
CK_LEVEL_1
 10
78.04750786215736
 20
28.98815018557061
 30
0.0
  0
VERTEX
  5
3BF
  8
CK_LEVEL_1
 10
78.1137181984615
 20
28.98932181107072
 30
0.0
  0
VERTEX
  5
3C0
  8
CK_LEVEL_1
 10
78.17985950968566
 20
28.98977544710595
 30
0.0
  0
VERTEX
  5
3C1
  8
CK_LEVEL_1
 10
78.17985950968566
 20
30.50049875180931
 30
0.0
 42
-1.0
  0
VERTEX
  5
3C2
  8
CK_LEVEL_1
 10
78.35663620498231
 20
30.67727544710595
 30
0.0
  0
VERTEX
  5
3C3
  8
CK_LEVEL_1
 10
78.67985950968567
 20
30.67727544710595
 30
0.0
  0
VERTEX
  5
3C4
  8
CK_LEVEL_1
 10
78.67985950968567
 20
32.67727544710593
 30
0.0
  0
VERTEX
  5
3C5
  8
CK_LEVEL_1
 10
78.35663620498231
 20
32.67727544710593
 30
0.0
 42
-1.0
  0
VERTEX
  5
3C6
  8
CK_LEVEL_1
 10
78.17985950968566
 20
32.85405214240257
 30
0.0
  0
VERTEX
  5
3C7
  8
CK_LEVEL_1
 10
78.17985950968566
 20
34.36477544710591
 30
0.0
  0
VERTEX
  5
3C8
  8
CK_LEVEL_1
 10
75.67985950968563
 20
34.36477544710591
 30
0.0
 42
-1.0
  0
VERTEX
  5
3C9
  8
CK_LEVEL_1
 10
75.67985950968563
 20
34.61477544710591
 30
0.0
  0
VERTEX
  5
3CA
  8
CK_LEVEL_1
 10
75.67985950968563
 20
34.86477544710591
 30
0.0
 42
-1.0
  0
VERTEX
  5
3CB
  8
CK_LEVEL_1
 10
75.67985950968563
 20
35.11477544710591
 30
0.0
  0
VERTEX
  5
3CC
  8
CK_LEVEL_1
 10
78.17985950968566
 20
35.11477544710591
 30
0.0
  0
VERTEX
  5
3CD
  8
CK_LEVEL_1
 10
78.17985950968566
 20
36.56299875180925
 30
0.0
 42
-1.0
  0
VERTEX
  5
3CE
  8
CK_LEVEL_1
 10
78.35663620498231
 20
36.73977544710588
 30
0.0
  0
VERTEX
  5
3CF
  8
CK_LEVEL_1
 10
78.67985950968567
 20
36.73977544710588
 30
0.0
  0
VERTEX
  5
3D0
  8
CK_LEVEL_1
 10
78.67985950968567
 20
38.73977544710585
 30
0.0
  0
VERTEX
  5
3D1
  8
CK_LEVEL_1
 10
78.35663620498231
 20
38.73977544710585
 30
0.0
 42
-1.0
  0
VERTEX
  5
3D2
  8
CK_LEVEL_1
 10
78.17985950968566
 20
38.91655214240249
 30
0.0
  0
VERTEX
  5
3D3
  8
CK_LEVEL_1
 10
78.17985950968566
 20
40.61477544710582
 30
0.0
  0
VERTEX
  5
3D4
  8
CK_LEVEL_1
 10
80.20147327126509
 20
40.954225496444
 30
0.0
 42
-0.0927782445526398
  0
VERTEX
  5
3D5
  8
CK_LEVEL_1
 10
90.2794495834899
 20
42.64642289904828
 30
0.0
  0
VERTEX
  5
3D6
  8
CK_LEVEL_1
 10
92.04348929590347
 20
42.94262357733486
 30
0.0
 42
-1.0
  0
VERTEX
  5
3D7
  8
CK_LEVEL_1
 10
92.24709833387668
 20
42.79756022567
 30
0.0
  0
VERTEX
  5
3D8
  8
CK_LEVEL_1
 10
92.3006215096859
 20
42.4787994471058
 30
0.0
  0
VERTEX
  5
3D9
  8
CK_LEVEL_1
 10
94.27301050968588
 20
42.80998344710581
 30
0.0
  0
VERTEX
  5
3DA
  8
CK_LEVEL_1
 10
94.21948725555978
 20
43.12874533853858
 30
0.0
 42
-1.0
  0
VERTEX
  5
3DB
  8
CK_LEVEL_1
 10
94.36455060532688
 20
43.33235426996276
 30
0.0
  0
VERTEX
  5
3DC
  8
CK_LEVEL_1
 10
94.92985950968588
 20
43.4272754471058
 30
0.0
  0
VERTEX
  5
3DD
  8
CK_LEVEL_1
 10
94.92985950968588
 20
45.9897754471058
 30
0.0
 42
0.4142135623730937
  0
VERTEX
  5
3DE
  8
CK_LEVEL_1
 10
93.92985950968588
 20
46.98977544710581
 30
0.0
  0
VERTEX
  5
3DF
  8
CK_LEVEL_1
 10
93.70428738968607
 20
46.9893052377162
 30
0.0
  0
VERTEX
  5
3E0
  8
CK_LEVEL_1
 10
93.4775828976394
 20
46.98790941929192
 30
0.0
  0
VERTEX
  5
3E1
  8
CK_LEVEL_1
 10
93.24976383547497
 20
46.98561020644981
 30
0.0
  0
VERTEX
  5
3E2
  8
CK_LEVEL_1
 10
93.02084800512193
 20
46.98242981380669
 30
0.0
  0
VERTEX
  5
3E3
  8
CK_LEVEL_1
 10
92.7908532085094
 20
46.97839045597941
 30
0.0
  0
VERTEX
  5
3E4
  8
CK_LEVEL_1
 10
92.55979724756651
 20
46.97351434758478
 30
0.0
  0
VERTEX
  5
3E5
  8
CK_LEVEL_1
 10
92.32769792422235
 20
46.96782370323965
 30
0.0
  0
VERTEX
  5
3E6
  8
CK_LEVEL_1
 10
92.09457304040609
 20
46.96134073756085
 30
0.0
  0
VERTEX
  5
3E7
  8
CK_LEVEL_1
 10
91.86044039804683
 20
46.9540876651652
 30
0.0
  0
VERTEX
  5
3E8
  8
CK_LEVEL_1
 10
91.62531779907371
 20
46.94608670066955
 30
0.0
  0
VERTEX
  5
3E9
  8
CK_LEVEL_1
 10
91.38922304541583
 20
46.93736005869071
 30
0.0
  0
VERTEX
  5
3EA
  8
CK_LEVEL_1
 10
91.15217393900235
 20
46.92792995384553
 30
0.0
  0
VERTEX
  5
3EB
  8
CK_LEVEL_1
 10
90.91418828176238
 20
46.91781860075083
 30
0.0
  0
VERTEX
  5
3EC
  8
CK_LEVEL_1
 10
90.67528387562503
 20
46.90704821402345
 30
0.0
  0
VERTEX
  5
3ED
  8
CK_LEVEL_1
 10
90.43547852251943
 20
46.89564100828022
 30
0.0
  0
VERTEX
  5
3EE
  8
CK_LEVEL_1
 10
90.19479002437471
 20
46.88361919813797
 30
0.0
  0
VERTEX
  5
3EF
  8
CK_LEVEL_1
 10
89.95323618312
 20
46.87100499821354
 30
0.0
  0
VERTEX
  5
3F0
  8
CK_LEVEL_1
 10
89.71083480068441
 20
46.85782062312374
 30
0.0
  0
VERTEX
  5
3F1
  8
CK_LEVEL_1
 10
89.46760367899708
 20
46.84408828748543
 30
0.0
  0
VERTEX
  5
3F2
  8
CK_LEVEL_1
 10
89.22356061998714
 20
46.82983020591543
 30
0.0
  0
VERTEX
  5
3F3
  8
CK_LEVEL_1
 10
88.9787234255837
 20
46.81506859303057
 30
0.0
  0
VERTEX
  5
3F4
  8
CK_LEVEL_1
 10
88.73310989771588
 20
46.79982566344768
 30
0.0
  0
VERTEX
  5
3F5
  8
CK_LEVEL_1
 10
88.48673783831282
 20
46.7841236317836
 30
0.0
  0
VERTEX
  5
3F6
  8
CK_LEVEL_1
 10
88.23962504930364
 20
46.76798471265516
 30
0.0
  0
VERTEX
  5
3F7
  8
CK_LEVEL_1
 10
87.99178933261746
 20
46.75143112067918
 30
0.0
  0
VERTEX
  5
3F8
  8
CK_LEVEL_1
 10
87.74324849018342
 20
46.7344850704725
 30
0.0
  0
VERTEX
  5
3F9
  8
CK_LEVEL_1
 10
87.2441226357882
 20
46.69950445383439
 30
0.0
  0
VERTEX
  5
3FA
  8
CK_LEVEL_1
 10
86.742389901551
 20
46.66322057967546
 30
0.0
  0
VERTEX
  5
3FB
  8
CK_LEVEL_1
 10
86.2381927029048
 20
46.62581116493038
 30
0.0
  0
VERTEX
  5
3FC
  8
CK_LEVEL_1
 10
85.7316734552826
 20
46.58745392653381
 30
0.0
  0
VERTEX
  5
3FD
  8
CK_LEVEL_1
 10
85.22297457411743
 20
46.54832658142038
 30
0.0
  0
VERTEX
  5
3FE
  8
CK_LEVEL_1
 10
84.19960757289007
 20
46.46847243878163
 30
0.0
  0
VERTEX
  5
3FF
  8
CK_LEVEL_1
 10
83.16923102268673
 20
46.38767047249139
 30
0.0
  0
VERTEX
  5
400
  8
CK_LEVEL_1
 10
82.65177020530156
 20
46.3473583478136
 30
0.0
  0
VERTEX
  5
401
  8
CK_LEVEL_1
 10
82.13298424697139
 20
46.30734241802689
 30
0.0
  0
VERTEX
  5
402
  8
CK_LEVEL_1
 10
81.61301556312921
 20
46.26780040006594
 30
0.0
  0
VERTEX
  5
403
  8
CK_LEVEL_1
 10
81.09200656920802
 20
46.22891001086539
 30
0.0
  0
VERTEX
  5
404
  8
CK_LEVEL_1
 10
80.57009968064082
 20
46.1908489673599
 30
0.0
  0
VERTEX
  5
405
  8
CK_LEVEL_1
 10
80.04743731286064
 20
46.15379498648414
 30
0.0
  0
VERTEX
  5
406
  8
CK_LEVEL_1
 10
79.78586732908848
 20
46.13570118107448
 30
0.0
  0
VERTEX
  5
407
  8
CK_LEVEL_1
 10
79.52416188130044
 20
46.11792578517274
 30
0.0
  0
VERTEX
  5
408
  8
CK_LEVEL_1
 10
79.26233877142565
 20
46.10049101339577
 30
0.0
  0
VERTEX
  5
409
  8
CK_LEVEL_1
 10
79.00041580139322
 20
46.08341908036038
 30
0.0
  0
VERTEX
  5
40A
  8
CK_LEVEL_1
 10
78.73841077313229
 20
46.06673220068342
 30
0.0
  0
VERTEX
  5
40B
  8
CK_LEVEL_1
 10
78.47634148857199
 20
46.0504525889817
 30
0.0
  0
VERTEX
  5
40C
  8
CK_LEVEL_1
 10
78.21422574964143
 20
46.03460245987206
 30
0.0
  0
VERTEX
  5
40D
  8
CK_LEVEL_1
 10
77.95208135826974
 20
46.01920402797136
 30
0.0
  0
VERTEX
  5
40E
  8
CK_LEVEL_1
 10
77.68992611638603
 20
46.0042795078964
 30
0.0
  0
VERTEX
  5
40F
  8
CK_LEVEL_1
 10
77.42777782591948
 20
45.98985111426401
 30
0.0
  0
VERTEX
  5
410
  8
CK_LEVEL_1
 10
77.16565428879915
 20
45.97594106169105
 30
0.0
  0
VERTEX
  5
411
  8
CK_LEVEL_1
 10
76.9035733069542
 20
45.96257156479432
 30
0.0
  0
VERTEX
  5
412
  8
CK_LEVEL_1
 10
76.64155268231374
 20
45.94976483819067
 30
0.0
  0
VERTEX
  5
413
  8
CK_LEVEL_1
 10
76.37961021680691
 20
45.93754309649694
 30
0.0
  0
VERTEX
  5
414
  8
CK_LEVEL_1
 10
76.11776371236282
 20
45.92592855432994
 30
0.0
  0
VERTEX
  5
415
  8
CK_LEVEL_1
 10
75.8560309709106
 20
45.91494342630652
 30
0.0
  0
VERTEX
  5
416
  8
CK_LEVEL_1
 10
75.59442979437938
 20
45.90460992704351
 30
0.0
  0
VERTEX
  5
417
  8
CK_LEVEL_1
 10
75.33297798469827
 20
45.89495027115773
 30
0.0
  0
VERTEX
  5
418
  8
CK_LEVEL_1
 10
75.0716933437964
 20
45.88598667326602
 30
0.0
  0
VERTEX
  5
419
  8
CK_LEVEL_1
 10
74.81059367360291
 20
45.87774134798521
 30
0.0
  0
VERTEX
  5
41A
  8
CK_LEVEL_1
 10
74.54969677604691
 20
45.87023650993213
 30
0.0
  0
VERTEX
  5
41B
  8
CK_LEVEL_1
 10
74.28902045305753
 20
45.86349437372362
 30
0.0
  0
VERTEX
  5
41C
  8
CK_LEVEL_1
 10
74.02858250656388
 20
45.85753715397651
 30
0.0
  0
VERTEX
  5
41D
  8
CK_LEVEL_1
 10
73.76840073849512
 20
45.85238706530762
 30
0.0
  0
VERTEX
  5
41E
  8
CK_LEVEL_1
 10
73.50849295078035
 20
45.84806632233379
 30
0.0
  0
VERTEX
  5
41F
  8
CK_LEVEL_1
 10
73.24887694534868
 20
45.84459713967186
 30
0.0
  0
VERTEX
  5
420
  8
CK_LEVEL_1
 10
72.98957052412926
 20
45.84200173193867
 30
0.0
  0
VERTEX
  5
421
  8
CK_LEVEL_1
 10
72.73059148905122
 20
45.84030231375101
 30
0.0
  0
VERTEX
  5
422
  8
CK_LEVEL_1
 10
72.47195764204366
 20
45.83952109972576
 30
0.0
  0
VERTEX
  5
423
  8
CK_LEVEL_1
 10
72.21368678503573
 20
45.83968030447971
 30
0.0
  0
VERTEX
  5
424
  8
CK_LEVEL_1
 10
71.95579671995654
 20
45.84080214262973
 30
0.0
  0
VERTEX
  5
425
  8
CK_LEVEL_1
 10
71.69830524873521
 20
45.84290882879263
 30
0.0
  0
VERTEX
  5
426
  8
CK_LEVEL_1
 10
71.44123017330088
 20
45.84602257758525
 30
0.0
  0
VERTEX
  5
427
  8
CK_LEVEL_1
 10
71.18458929558265
 20
45.85016560362442
 30
0.0
  0
VERTEX
  5
428
  8
CK_LEVEL_1
 10
70.92840041750968
 20
45.85536012152697
 30
0.0
  0
VERTEX
  5
429
  8
CK_LEVEL_1
 10
70.67268134101107
 20
45.86162834590973
 30
0.0
  0
VERTEX
  5
42A
  8
CK_LEVEL_1
 10
70.41744986801595
 20
45.86899249138953
 30
0.0
  0
VERTEX
  5
42B
  8
CK_LEVEL_1
 10
70.16272380045343
 20
45.87747477258322
 30
0.0
  0
VERTEX
  5
42C
  8
CK_LEVEL_1
 10
69.90852094025266
 20
45.88709740410761
 30
0.0
  0
VERTEX
  5
42D
  8
CK_LEVEL_1
 10
69.65485908934276
 20
45.89788260057955
 30
0.0
  0
VERTEX
  5
42E
  8
CK_LEVEL_1
 10
69.52823660547475
 20
45.90371810273861
 30
0.0
  0
VERTEX
  5
42F
  8
CK_LEVEL_1
 10
69.40175604965285
 20
45.90985257661586
 30
0.0
  0
VERTEX
  5
430
  8
CK_LEVEL_1
 10
69.27541964711824
 20
45.91628879903842
 30
0.0
  0
VERTEX
  5
431
  8
CK_LEVEL_1
 10
69.14922962311205
 20
45.92302954683338
 30
0.0
  0
VERTEX
  5
432
  8
CK_LEVEL_1
 10
69.02318820287542
 20
45.93007759682784
 30
0.0
  0
VERTEX
  5
433
  8
CK_LEVEL_1
 10
68.89729761164949
 20
45.93743572584891
 30
0.0
  0
VERTEX
  5
434
  8
CK_LEVEL_1
 10
68.7715600746754
 20
45.94510671072371
 30
0.0
  0
VERTEX
  5
435
  8
CK_LEVEL_1
 10
68.64597781719431
 20
45.95309332827934
 30
0.0
  0
VERTEX
  5
436
  8
CK_LEVEL_1
 10
68.52055306444733
 20
45.96139835534288
 30
0.0
  0
VERTEX
  5
437
  8
CK_LEVEL_1
 10
68.39528804167561
 20
45.97002456874145
 30
0.0
  0
VERTEX
  5
438
  8
CK_LEVEL_1
 10
68.27018497412031
 20
45.97897474530216
 30
0.0
  0
VERTEX
  5
439
  8
CK_LEVEL_1
 10
68.14524608702253
 20
45.9882516618521
 30
0.0
  0
VERTEX
  5
43A
  8
CK_LEVEL_1
 10
68.02047360562345
 20
45.99785809521839
 30
0.0
  0
VERTEX
  5
43B
  8
CK_LEVEL_1
 10
67.8958697551642
 20
46.00779682222813
 30
0.0
  0
VERTEX
  5
43C
  8
CK_LEVEL_1
 10
67.7714367608859
 20
46.01807061970841
 30
0.0
  0
VERTEX
  5
43D
  8
CK_LEVEL_1
 10
67.64717684802972
 20
46.02868226448634
 30
0.0
  0
VERTEX
  5
43E
  8
CK_LEVEL_1
 10
67.52309224183676
 20
46.03963453338903
 30
0.0
  0
VERTEX
  5
43F
  8
CK_LEVEL_1
 10
67.39918516754821
 20
46.05093020324358
 30
0.0
  0
VERTEX
  5
440
  8
CK_LEVEL_1
 10
67.27545785040519
 20
46.0625720508771
 30
0.0
  0
VERTEX
  5
441
  8
CK_LEVEL_1
 10
67.15191251564883
 20
46.07456285311669
 30
0.0
  0
VERTEX
  5
442
  8
CK_LEVEL_1
 10
67.02855138852027
 20
46.08690538678945
 30
0.0
  0
VERTEX
  5
443
  8
CK_LEVEL_1
 10
66.9053766942607
 20
46.09960242872249
 30
0.0
  0
VERTEX
  5
444
  8
CK_LEVEL_1
 10
66.78239065811118
 20
46.1126567557429
 30
0.0
  0
VERTEX
  5
445
  8
CK_LEVEL_1
 10
66.65959550531292
 20
46.12607114467781
 30
0.0
  0
VERTEX
  5
446
  8
CK_LEVEL_1
 10
66.53699346110702
 20
46.1398483723543
 30
0.0
  0
VERTEX
  5
447
  8
CK_LEVEL_1
 10
66.41458675073464
 20
46.15399121559949
 30
0.0
  0
VERTEX
  5
448
  8
CK_LEVEL_1
 10
66.2923775994369
 20
46.16850245124047
 30
0.0
  0
VERTEX
  5
449
  8
CK_LEVEL_1
 10
66.17036823245496
 20
46.18338485610436
 30
0.0
  0
VERTEX
  5
44A
  8
CK_LEVEL_1
 10
66.04856087502995
 20
46.19864120701825
 30
0.0
  0
VERTEX
  5
44B
  8
CK_LEVEL_1
 10
65.92695775240301
 20
46.21427428080925
 30
0.0
  0
VERTEX
  5
44C
  8
CK_LEVEL_1
 10
65.8055610898153
 20
46.23028685430447
 30
0.0
  0
VERTEX
  5
44D
  8
CK_LEVEL_1
 10
65.68437311250794
 20
46.246681704331
 30
0.0
  0
VERTEX
  5
44E
  8
CK_LEVEL_1
 10
65.56339604572209
 20
46.26346160771595
 30
0.0
  0
VERTEX
  5
44F
  8
CK_LEVEL_1
 10
65.44263211469885
 20
46.28062934128643
 30
0.0
  0
VERTEX
  5
450
  8
CK_LEVEL_1
 10
65.3220835446794
 20
46.29818768186953
 30
0.0
  0
VERTEX
  5
451
  8
CK_LEVEL_1
 10
65.20175256090488
 20
46.31613940629236
 30
0.0
  0
VERTEX
  5
452
  8
CK_LEVEL_1
 10
65.08164138861642
 20
46.33448729138205
 30
0.0
  0
VERTEX
  5
453
  8
CK_LEVEL_1
 10
64.96175225305514
 20
46.35323411396566
 30
0.0
  0
VERTEX
  5
454
  8
CK_LEVEL_1
 10
64.84208737946221
 20
46.37238265087032
 30
0.0
  0
VERTEX
  5
455
  8
CK_LEVEL_1
 10
64.72264899307876
 20
46.39193567892314
 30
0.0
  0
VERTEX
  5
456
  8
CK_LEVEL_1
 10
64.60343931914593
 20
46.41189597495121
 30
0.0
  0
VERTEX
  5
457
  8
CK_LEVEL_1
 10
64.48446058290487
 20
46.43226631578163
 30
0.0
  0
VERTEX
  5
458
  8
CK_LEVEL_1
 10
64.3657150095967
 20
46.45304947824151
 30
0.0
  0
VERTEX
  5
459
  8
CK_LEVEL_1
 10
64.24720482446259
 20
46.47424823915797
 30
0.0
  0
VERTEX
  5
45A
  8
CK_LEVEL_1
 10
64.12893225274365
 20
46.49586537535808
 30
0.0
  0
VERTEX
  5
45B
  8
CK_LEVEL_1
 10
64.01089951968106
 20
46.51790366366897
 30
0.0
  0
VERTEX
  5
45C
  8
CK_LEVEL_1
 10
63.89310885051592
 20
46.54036588091775
 30
0.0
  0
VERTEX
  5
45D
  8
CK_LEVEL_1
 10
63.77556247048938
 20
46.5632548039315
 30
0.0
  0
VERTEX
  5
45E
  8
CK_LEVEL_1
 10
63.65826260484259
 20
46.58657320953733
 30
0.0
  0
VERTEX
  5
45F
  8
CK_LEVEL_1
 10
63.54121147881668
 20
46.61032387456236
 30
0.0
  0
VERTEX
  5
460
  8
CK_LEVEL_1
 10
63.4244113176528
 20
46.63450957583368
 30
0.0
  0
VERTEX
  5
461
  8
CK_LEVEL_1
 10
63.3078643465921
 20
46.65913309017839
 30
0.0
  0
VERTEX
  5
462
  8
CK_LEVEL_1
 10
63.1915727908757
 20
46.68419719442361
 30
0.0
  0
VERTEX
  5
463
  8
CK_LEVEL_1
 10
63.07553887574475
 20
46.70970466539643
 30
0.0
  0
VERTEX
  5
464
  8
CK_LEVEL_1
 10
62.95976482644038
 20
46.73565827992396
 30
0.0
  0
VERTEX
  5
465
  8
CK_LEVEL_1
 10
62.84425286820375
 20
46.7620608148333
 30
0.0
  0
VERTEX
  5
466
  8
CK_LEVEL_1
 10
62.72900522627599
 20
46.78891504695157
 30
0.0
  0
VERTEX
  5
467
  8
CK_LEVEL_1
 10
62.61402412589825
 20
46.81622375310585
 30
0.0
  0
VERTEX
  5
468
  8
CK_LEVEL_1
 10
62.49931179231166
 20
46.84398971012325
 30
0.0
  0
VERTEX
  5
469
  8
CK_LEVEL_1
 10
62.38487045075736
 20
46.87221569483089
 30
0.0
  0
VERTEX
  5
46A
  8
CK_LEVEL_1
 10
62.2707023264765
 20
46.90090448405586
 30
0.0
  0
VERTEX
  5
46B
  8
CK_LEVEL_1
 10
62.15680964471019
 20
46.93005885462527
 30
0.0
  0
VERTEX
  5
46C
  8
CK_LEVEL_1
 10
62.04319463069962
 20
46.95968158336622
 30
0.0
  0
SEQEND
  5
46D
  8
CK_LEVEL_1
  0
POLYLINE
  5
45
  8
CK_LEVEL_1
 66
     1
 10
0.0
 20
0.0
 30
0.0
 70
     1
  0
VERTEX
  5
46E
  8
CK_LEVEL_1
 10
58.236
 20
44.7861
 30
0.0
 42
0.4142135623730951
  0
VERTEX
  5
46F
  8
CK_LEVEL_1
 10
58.111
 20
44.6611
 30
0.0
 42
0.4142135623730951
  0
VERTEX
  5
470
  8
CK_LEVEL_1
 10
58.236
 20
44.5361
 30
0.0
 42
0.4142135623730951
  0
VERTEX
  5
471
  8
CK_LEVEL_1
 10
58.361
 20
44.6611
 30
0.0
 42
0.4142135623730951
  0
SEQEND
  5
472
  8
CK_LEVEL_1
  0
POLYLINE
  5
46
  8
CK_LEVEL_1
 66
     1
 10
0.0
 20
0.0
 30
0.0
 70
     1
  0
VERTEX
  5
473
  8
CK_LEVEL_1
 10
57.8348
 20
21.1834
 30
0.0
 42
0.4142135623730951
  0
VERTEX
  5
474
  8
CK_LEVEL_1
 10
57.7098
 20
21.0584
 30
0.0
 42
0.4142135623730951
  0
VERTEX
  5
475
  8
CK_LEVEL_1
 10
57.8348
 20
20.9334
 30
0.0
 42
0.4142135623730951
  0
VERTEX
  5
476
  8
CK_LEVEL_1
 10
57.9598
 20
21.0584
 30
0.0
 42
0.4142135623730951
  0
SEQEND
  5
477
  8
CK_LEVEL_1
  0
POLYLINE
  5
47
  8
CK_LEVEL_1
 66
     1
 10
0.0
 20
0.0
 30
0.0
 70
     1
  0
VERTEX
  5
478
  8
CK_LEVEL_1
 10
43.2484
 20
28.4761
 30
0.0
 42
0.4142135623730951
  0
VERTEX
  5
479
  8
CK_LEVEL_1
 10
43.1234
 20
28.3511
 30
0.0
 42
0.4142135623730951
  0
VERTEX
  5
47A
  8
CK_LEVEL_1
 10
43.2484
 20
28.2261
 30
0.0
 42
0.4142135623730951
  0
VERTEX
  5
47B
  8
CK_LEVEL_1
 10
43.3734
 20
28.3511
 30
0.0
 42
0.4142135623730951
  0
SEQEND
  5
47C
  8
CK_LEVEL_1
  0
POLYLINE
  5
48
  8
CK_LEVEL_1
 66
     1
 10
0.0
 20
0.0
 30
0.0
 70
     1
  0
VERTEX
  5
47D
  8
CK_LEVEL_1
 10
83.0683
 20
38.1739
 30
0.0
 42
0.4142135623730951
  0
VERTEX
  5
47E
  8
CK_LEVEL_1
 10
82.9433
 20
38.0489
 30
0.0
 42
0.4142135623730951
  0
VERTEX
  5
47F
  8
CK_LEVEL_1
 10
83.0683
 20
37.9239
 30
0.0
 42
0.4142135623730951
  0
VERTEX
  5
480
  8
CK_LEVEL_1
 10
83.1933
 20
38.0489
 30
0.0
 42
0.4142135623730951
  0
SEQEND
  5
481
  8
CK_LEVEL_1
  0
POLYLINE
  5
49
  8
CK_LEVEL_1
 66
     1
 10
0.0
 20
0.0
 30
0.0
 70
     1
  0
VERTEX
  5
482
  8
CK_LEVEL_1
 10
92.9131
 20
15.5457
 30
0.0
 42
0.4142135623730951
  0
VERTEX
  5
483
  8
CK_LEVEL_1
 10
92.7881
 20
15.4207
 30
0.0
 42
0.4142135623730951
  0
VERTEX
  5
484
  8
CK_LEVEL_1
 10
92.9131
 20
15.2957
 30
0.0
 42
0.4142135623730951
  0
VERTEX
  5
485
  8
CK_LEVEL_1
 10
93.0381
 20
15.4207
 30
0.0
 42
0.4142135623730951
  0
SEQEND
  5
486
  8
CK_LEVEL_1
  0
POLYLINE
  5
4A
  8
CK_LEVEL_1
 66
     1
 10
0.0
 20
0.0
 30
0.0
 70
     1
  0
VERTEX
  5
487
  8
CK_LEVEL_1
 10
82.3336
 20
2.6152
 30
0.0
 42
0.4142135623730951
  0
VERTEX
  5
488
  8
CK_LEVEL_1
 10
82.2086
 20
2.4902
 30
0.0
 42
0.4142135623730951
  0
VERTEX
  5
489
  8
CK_LEVEL_1
 10
82.3336
 20
2.3652
 30
0.0
 42
0.4142135623730951
  0
VERTEX
  5
48A
  8
CK_LEVEL_1
 10
82.4586
 20
2.4902
 30
0.0
 42
0.4142135623730951
  0
SEQEND
  5
48B
  8
CK_LEVEL_1
  0
POLYLINE
  5
4B
  8
CK_LEVEL_1
 66
     1
 10
0.0
 20
0.0
 30
0.0
 70
     1
  0
VERTEX
  5
48C
  8
CK_LEVEL_1
 10
3.4285
 20
3.056
 30
0.0
 42
0.4142135623730951
  0
VERTEX
  5
48D
  8
CK_LEVEL_1
 10
3.3035
 20
2.931
 30
0.0
 42
0.4142135623730951
  0
VERTEX
  5
48E
  8
CK_LEVEL_1
 10
3.4285
 20
2.806
 30
0.0
 42
0.4142135623730951
  0
VERTEX
  5
48F
  8
CK_LEVEL_1
 10
3.5535
 20
2.931
 30
0.0
 42
0.4142135623730951
  0
SEQEND
  5
490
  8
CK_LEVEL_1
  0
POLYLINE
  5
4C
  8
CK_LEVEL_1
 66
     1
 10
0.0
 20
0.0
 30
0.0
 70
     1
  0
VERTEX
  5
491
  8
CK_LEVEL_1
 10
22.6773
 20
15.2518
 30
0.0
 42
0.4142135623730951
  0
VERTEX
  5
492
  8
CK_LEVEL_1
 10
22.5523
 20
15.1268
 30
0.0
 42
0.4142135623730951
  0
VERTEX
  5
493
  8
CK_LEVEL_1
 10
22.6773
 20
15.0018
 30
0.0
 42
0.4142135623730951
  0
VERTEX
  5
494
  8
CK_LEVEL_1
 10
22.8023
 20
15.1268
 30
0.0
 42
0.4142135623730951
  0
SEQEND
  5
495
  8
CK_LEVEL_1
  0
POLYLINE
  5
4D
  8
CK_LEVEL_1
 66
     1
 10
0.0
 20
0.0
 30
0.0
 70
     1
  0
VERTEX
  5
496
  8
CK_LEVEL_1
 10
4.751
 20
22.1578
 30
0.0
 42
0.4142135623730951
  0
VERTEX
  5
497
  8
CK_LEVEL_1
 10
4.626
 20
22.0328
 30
0.0
 42
0.4142135623730951
  0
VERTEX
  5
498
  8
CK_LEVEL_1
 10
4.751
 20
21.9078
 30
0.0
 42
0.4142135623730951
  0
VERTEX
  5
499
  8
CK_LEVEL_1
 10
4.876
 20
22.0328
 30
0.0
 42
0.4142135623730951
  0
SEQEND
  5
49A
  8
CK_LEVEL_1
  0
POLYLINE
  5
4E
  8
CK_LEVEL_1
 66
     1
 10
0.0
 20
0.0
 30
0.0
 70
     1
  0
VERTEX
  5
49B
  8
CK_LEVEL_1
 10
28.9956
 20
36.4107
 30
0.0
 42
0.4142135623730951
  0
VERTEX
  5
49C
  8
CK_LEVEL_1
 10
28.8706
 20
36.2857
 30
0.0
 42
0.4142135623730951
  0
VERTEX
  5
49D
  8
CK_LEVEL_1
 10
28.9956
 20
36.1607
 30
0.0
 42
0.4142135623730951
  0
VERTEX
  5
49E
  8
CK_LEVEL_1
 10
29.1206
 20
36.2857
 30
0.0
 42
0.4142135623730951
  0
SEQEND
  5
49F
  8
CK_LEVEL_1
  0
POLYLINE
  5
4F
  8
CK_LEVEL_1
 66
     1
 10
0.0
 20
0.0
 30
0.0
 70
     1
  0
VERTEX
  5
4A0
  8
CK_LEVEL_1
 10
9.8938
 20
45.2269
 30
0.0
 42
0.4142135623730951
  0
VERTEX
  5
4A1
  8
CK_LEVEL_1
 10
9.7688
 20
45.1019
 30
0.0
 42
0.4142135623730951
  0
VERTEX
  5
4A2
  8
CK_LEVEL_1
 10
9.8938
 20
44.9769
 30
0.0
 42
0.4142135623730951
  0
VERTEX
  5
4A3
  8
CK_LEVEL_1
 10
10.0188
 20
45.1019
 30
0.0
 42
0.4142135623730951
  0
SEQEND
  5
4A4
  8
CK_LEVEL_1
  0
POLYLINE
  5
50
  8
CK_LEVEL_1
 66
     1
 10
0.0
 20
0.0
 30
0.0
 70
     1
  0
VERTEX
  5
4A5
  8
CK_LEVEL_1
 10
74.51268155099358
 20
2.604492494840338
 30
0.0
  0
VERTEX
  5
4A6
  8
CK_LEVEL_1
 10
74.11623494158685
 20
2.604492494840338
 30
0.0
 42
-1.0
  0
VERTEX
  5
4A7
  8
CK_LEVEL_1
 10
73.93945824629022
 20
2.781269190136976
 30
0.0
  0
VERTEX
  5
4A8
  8
CK_LEVEL_1
 10
73.93945824629022
 20
4.447715799543703
 30
0.0
 42
-1.0
  0
VERTEX
  5
4A9
  8
CK_LEVEL_1
 10
74.11623494158685
 20
4.624492494840341
 30
0.0
  0
VERTEX
  5
4AA
  8
CK_LEVEL_1
 10
74.51268155099358
 20
4.624492494840341
 30
0.0
 42
-1.0
  0
VERTEX
  5
4AB
  8
CK_LEVEL_1
 10
74.68945824629022
 20
4.447715799543703
 30
0.0
  0
VERTEX
  5
4AC
  8
CK_LEVEL_1
 10
74.68945824629022
 20
2.781269190136976
 30
0.0
 42
-1.0
  0
SEQEND
  5
4AD
  8
CK_LEVEL_1
  0
POLYLINE
  5
51
  8
CK_LEVEL_1
 66
     1
 10
0.0
 20
0.0
 30
0.0
 70
     1
  0
VERTEX
  5
4AE
  8
CK_LEVEL_1
 10
75.52268155099357
 20
6.239492494840341
 30
0.0
  0
VERTEX
  5
4AF
  8
CK_LEVEL_1
 10
73.85623494158685
 20
6.239492494840341
 30
0.0
 42
-1.0
  0
VERTEX
  5
4B0
  8
CK_LEVEL_1
 10
73.67945824629021
 20
6.41626919013698
 30
0.0
  0
VERTEX
  5
4B1
  8
CK_LEVEL_1
 10
73.67945824629021
 20
6.812715799543708
 30
0.0
 42
-1.0
  0
VERTEX
  5
4B2
  8
CK_LEVEL_1
 10
73.85623494158685
 20
6.989492494840347
 30
0.0
  0
VERTEX
  5
4B3
  8
CK_LEVEL_1
 10
75.52268155099357
 20
6.989492494840347
 30
0.0
 42
-1.0
  0
VERTEX
  5
4B4
  8
CK_LEVEL_1
 10
75.6994582462902
 20
6.812715799543708
 30
0.0
  0
VERTEX
  5
4B5
  8
CK_LEVEL_1
 10
75.6994582462902
 20
6.41626919013698
 30
0.0
 42
-1.0
  0
SEQEND
  5
4B6
  8
CK_LEVEL_1
  0
POLYLINE
  5
52
  8
CK_LEVEL_1
 66
     1
 10
0.0
 20
0.0
 30
0.0
 70
     1
  0
VERTEX
  5
4B7
  8
CK_LEVEL_1
 10
74.68945824629022
 20
8.844269190136973
 30
0.0
  0
VERTEX
  5
4B8
  8
CK_LEVEL_1
 10
74.68945824629022
 20
10.5107157995437
 30
0.0
 42
1.0
  0
VERTEX
  5
4B9
  8
CK_LEVEL_1
 10
74.51268155099358
 20
10.68749249484033
 30
0.0
  0
VERTEX
  5
4BA
  8
CK_LEVEL_1
 10
74.11623494158685
 20
10.68749249484033
 30
0.0
 42
1.0
  0
VERTEX
  5
4BB
  8
CK_LEVEL_1
 10
73.93945824629022
 20
10.5107157995437
 30
0.0
  0
VERTEX
  5
4BC
  8
CK_LEVEL_1
 10
73.93945824629022
 20
8.844269190136973
 30
0.0
 42
1.0
  0
VERTEX
  5
4BD
  8
CK_LEVEL_1
 10
74.11623494158685
 20
8.667492494840344
 30
0.0
  0
VERTEX
  5
4BE
  8
CK_LEVEL_1
 10
74.51268155099358
 20
8.667492494840344
 30
0.0
 42
1.0
  0
SEQEND
  5
4BF
  8
CK_LEVEL_1
  0
POLYLINE
  5
53
  8
CK_LEVEL_1
 66
     1
 10
0.0
 20
0.0
 30
0.0
 70
     1
  0
VERTEX
  5
4C0
  8
CK_LEVEL_1
 10
63.69945824629023
 20
6.41626919013698
 30
0.0
  0
VERTEX
  5
4C1
  8
CK_LEVEL_1
 10
63.69945824629023
 20
6.812715799543708
 30
0.0
 42
1.0
  0
VERTEX
  5
4C2
  8
CK_LEVEL_1
 10
63.52268155099359
 20
6.989492494840347
 30
0.0
  0
VERTEX
  5
4C3
  8
CK_LEVEL_1
 10
61.85623494158687
 20
6.989492494840347
 30
0.0
 42
1.0
  0
VERTEX
  5
4C4
  8
CK_LEVEL_1
 10
61.67945824629023
 20
6.812715799543708
 30
0.0
  0
VERTEX
  5
4C5
  8
CK_LEVEL_1
 10
61.67945824629023
 20
6.41626919013698
 30
0.0
 42
1.0
  0
VERTEX
  5
4C6
  8
CK_LEVEL_1
 10
61.85623494158687
 20
6.239492494840341
 30
0.0
  0
VERTEX
  5
4C7
  8
CK_LEVEL_1
 10
63.52268155099359
 20
6.239492494840341
 30
0.0
 42
1.0
  0
SEQEND
  5
4C8
  8
CK_LEVEL_1
  0
POLYLINE
  5
54
  8
CK_LEVEL_1
 66
     1
 10
0.0
 20
0.0
 30
0.0
 70
     1
  0
VERTEX
  5
4C9
  8
CK_LEVEL_1
 10
44.88768155099366
 20
2.604492494840338
 30
0.0
  0
VERTEX
  5
4CA
  8
CK_LEVEL_1
 10
44.49123494158694
 20
2.604492494840338
 30
0.0
 42
-1.0
  0
VERTEX
  5
4CB
  8
CK_LEVEL_1
 10
44.3144582462903
 20
2.781269190136976
 30
0.0
  0
VERTEX
  5
4CC
  8
CK_LEVEL_1
 10
44.3144582462903
 20
4.447715799543703
 30
0.0
 42
-1.0
  0
VERTEX
  5
4CD
  8
CK_LEVEL_1
 10
44.49123494158694
 20
4.624492494840341
 30
0.0
  0
VERTEX
  5
4CE
  8
CK_LEVEL_1
 10
44.88768155099366
 20
4.624492494840341
 30
0.0
 42
-1.0
  0
VERTEX
  5
4CF
  8
CK_LEVEL_1
 10
45.0644582462903
 20
4.447715799543703
 30
0.0
  0
VERTEX
  5
4D0
  8
CK_LEVEL_1
 10
45.0644582462903
 20
2.781269190136976
 30
0.0
 42
-1.0
  0
SEQEND
  5
4D1
  8
CK_LEVEL_1
  0
POLYLINE
  5
55
  8
CK_LEVEL_1
 66
     1
 10
0.0
 20
0.0
 30
0.0
 70
     1
  0
VERTEX
  5
4D2
  8
CK_LEVEL_1
 10
45.52268155099366
 20
6.239492494840341
 30
0.0
  0
VERTEX
  5
4D3
  8
CK_LEVEL_1
 10
43.85623494158693
 20
6.239492494840341
 30
0.0
 42
-1.0
  0
VERTEX
  5
4D4
  8
CK_LEVEL_1
 10
43.6794582462903
 20
6.41626919013698
 30
0.0
  0
VERTEX
  5
4D5
  8
CK_LEVEL_1
 10
43.6794582462903
 20
6.812715799543708
 30
0.0
 42
-1.0
  0
VERTEX
  5
4D6
  8
CK_LEVEL_1
 10
43.85623494158693
 20
6.989492494840347
 30
0.0
  0
VERTEX
  5
4D7
  8
CK_LEVEL_1
 10
45.52268155099366
 20
6.989492494840347
 30
0.0
 42
-1.0
  0
VERTEX
  5
4D8
  8
CK_LEVEL_1
 10
45.6994582462903
 20
6.812715799543708
 30
0.0
  0
VERTEX
  5
4D9
  8
CK_LEVEL_1
 10
45.6994582462903
 20
6.41626919013698
 30
0.0
 42
-1.0
  0
SEQEND
  5
4DA
  8
CK_LEVEL_1
  0
POLYLINE
  5
56
  8
CK_LEVEL_1
 66
     1
 10
0.0
 20
0.0
 30
0.0
 70
     1
  0
VERTEX
  5
4DB
  8
CK_LEVEL_1
 10
45.0644582462903
 20
8.844269190136973
 30
0.0
  0
VERTEX
  5
4DC
  8
CK_LEVEL_1
 10
45.0644582462903
 20
10.5107157995437
 30
0.0
 42
1.0
  0
VERTEX
  5
4DD
  8
CK_LEVEL_1
 10
44.88768155099366
 20
10.68749249484033
 30
0.0
  0
VERTEX
  5
4DE
  8
CK_LEVEL_1
 10
44.49123494158694
 20
10.68749249484033
 30
0.0
 42
1.0
  0
VERTEX
  5
4DF
  8
CK_LEVEL_1
 10
44.3144582462903
 20
10.5107157995437
 30
0.0
  0
VERTEX
  5
4E0
  8
CK_LEVEL_1
 10
44.3144582462903
 20
8.844269190136973
 30
0.0
 42
1.0
  0
VERTEX
  5
4E1
  8
CK_LEVEL_1
 10
44.49123494158694
 20
8.667492494840344
 30
0.0
  0
VERTEX
  5
4E2
  8
CK_LEVEL_1
 10
44.88768155099366
 20
8.667492494840344
 30
0.0
 42
1.0
  0
SEQEND
  5
4E3
  8
CK_LEVEL_1
  0
POLYLINE
  5
57
  8
CK_LEVEL_1
 66
     1
 10
0.0
 20
0.0
 30
0.0
 70
     1
  0
VERTEX
  5
4E4
  8
CK_LEVEL_1
 10
27.52268155099375
 20
6.239492494840341
 30
0.0
  0
VERTEX
  5
4E5
  8
CK_LEVEL_1
 10
25.85623494158703
 20
6.239492494840341
 30
0.0
 42
-1.0
  0
VERTEX
  5
4E6
  8
CK_LEVEL_1
 10
25.67945824629039
 20
6.41626919013698
 30
0.0
  0
VERTEX
  5
4E7
  8
CK_LEVEL_1
 10
25.67945824629039
 20
6.812715799543708
 30
0.0
 42
-1.0
  0
VERTEX
  5
4E8
  8
CK_LEVEL_1
 10
25.85623494158703
 20
6.989492494840347
 30
0.0
  0
VERTEX
  5
4E9
  8
CK_LEVEL_1
 10
27.52268155099375
 20
6.989492494840347
 30
0.0
 42
-1.0
  0
VERTEX
  5
4EA
  8
CK_LEVEL_1
 10
27.69945824629039
 20
6.812715799543708
 30
0.0
  0
VERTEX
  5
4EB
  8
CK_LEVEL_1
 10
27.69945824629039
 20
6.41626919013698
 30
0.0
 42
-1.0
  0
SEQEND
  5
4EC
  8
CK_LEVEL_1
  0
POLYLINE
  5
58
  8
CK_LEVEL_1
 66
     1
 10
0.0
 20
0.0
 30
0.0
 70
     1
  0
VERTEX
  5
4ED
  8
CK_LEVEL_1
 10
14.6894582462904
 20
4.447715799543703
 30
0.0
  0
VERTEX
  5
4EE
  8
CK_LEVEL_1
 10
14.6894582462904
 20
2.781269190136976
 30
0.0
 42
1.0
  0
VERTEX
  5
4EF
  8
CK_LEVEL_1
 10
14.86623494158704
 20
2.604492494840338
 30
0.0
  0
VERTEX
  5
4F0
  8
CK_LEVEL_1
 10
15.26268155099376
 20
2.604492494840338
 30
0.0
 42
1.0
  0
VERTEX
  5
4F1
  8
CK_LEVEL_1
 10
15.4394582462904
 20
2.781269190136976
 30
0.0
  0
VERTEX
  5
4F2
  8
CK_LEVEL_1
 10
15.4394582462904
 20
4.447715799543703
 30
0.0
 42
1.0
  0
VERTEX
  5
4F3
  8
CK_LEVEL_1
 10
15.26268155099376
 20
4.624492494840341
 30
0.0
  0
VERTEX
  5
4F4
  8
CK_LEVEL_1
 10
14.86623494158704
 20
4.624492494840341
 30
0.0
 42
1.0
  0
SEQEND
  5
4F5
  8
CK_LEVEL_1
  0
POLYLINE
  5
59
  8
CK_LEVEL_1
 66
     1
 10
0.0
 20
0.0
 30
0.0
 70
     1
  0
VERTEX
  5
4F6
  8
CK_LEVEL_1
 10
13.67945824629039
 20
6.41626919013698
 30
0.0
  0
VERTEX
  5
4F7
  8
CK_LEVEL_1
 10
13.67945824629039
 20
6.812715799543708
 30
0.0
 42
-1.0
  0
VERTEX
  5
4F8
  8
CK_LEVEL_1
 10
13.85623494158703
 20
6.989492494840347
 30
0.0
  0
VERTEX
  5
4F9
  8
CK_LEVEL_1
 10
15.52268155099377
 20
6.989492494840347
 30
0.0
 42
-1.0
  0
VERTEX
  5
4FA
  8
CK_LEVEL_1
 10
15.69945824629039
 20
6.812715799543708
 30
0.0
  0
VERTEX
  5
4FB
  8
CK_LEVEL_1
 10
15.69945824629039
 20
6.41626919013698
 30
0.0
 42
-1.0
  0
VERTEX
  5
4FC
  8
CK_LEVEL_1
 10
15.52268155099377
 20
6.239492494840341
 30
0.0
  0
VERTEX
  5
4FD
  8
CK_LEVEL_1
 10
13.85623494158703
 20
6.239492494840341
 30
0.0
 42
-1.0
  0
SEQEND
  5
4FE
  8
CK_LEVEL_1
  0
POLYLINE
  5
5A
  8
CK_LEVEL_1
 66
     1
 10
0.0
 20
0.0
 30
0.0
 70
     1
  0
VERTEX
  5
4FF
  8
CK_LEVEL_1
 10
15.26268155099376
 20
8.667492494840344
 30
0.0
  0
VERTEX
  5
500
  8
CK_LEVEL_1
 10
14.86623494158704
 20
8.667492494840344
 30
0.0
 42
-1.0
  0
VERTEX
  5
501
  8
CK_LEVEL_1
 10
14.6894582462904
 20
8.844269190136973
 30
0.0
  0
VERTEX
  5
502
  8
CK_LEVEL_1
 10
14.6894582462904
 20
10.5107157995437
 30
0.0
 42
-1.0
  0
VERTEX
  5
503
  8
CK_LEVEL_1
 10
14.86623494158704
 20
10.68749249484033
 30
0.0
  0
VERTEX
  5
504
  8
CK_LEVEL_1
 10
15.26268155099376
 20
10.68749249484033
 30
0.0
 42
-1.0
  0
VERTEX
  5
505
  8
CK_LEVEL_1
 10
15.4394582462904
 20
10.5107157995437
 30
0.0
  0
VERTEX
  5
506
  8
CK_LEVEL_1
 10
15.4394582462904
 20
8.844269190136973
 30
0.0
 42
-1.0
  0
SEQEND
  5
507
  8
CK_LEVEL_1
  0
POLYLINE
  5
5B
  8
CK_LEVEL_1
 66
     1
 10
0.0
 20
0.0
 30
0.0
 70
     1
  0
VERTEX
  5
508
  8
CK_LEVEL_1
 10
9.689458246290386
 20
13.98949249484033
 30
0.0
  0
VERTEX
  5
509
  8
CK_LEVEL_1
 10
14.9575283653318
 20
13.98949249484033
 30
0.0
 42
0.0736318330008054
  0
VERTEX
  5
50A
  8
CK_LEVEL_1
 10
43.92502299044989
 20
13.98949249484033
 30
0.0
  0
VERTEX
  5
50B
  8
CK_LEVEL_1
 10
44.71211404862859
 20
13.98949249484033
 30
0.0
  0
VERTEX
  5
50C
  8
CK_LEVEL_1
 10
45.48630416065306
 20
13.98949249484033
 30
0.0
 42
0.0738665677001162
  0
VERTEX
  5
50D
  8
CK_LEVEL_1
 10
74.36174528507061
 20
13.98949249484033
 30
0.0
  0
VERTEX
  5
50E
  8
CK_LEVEL_1
 10
79.68945824629022
 20
13.98949249484033
 30
0.0
 42
-0.4142135623731009
  0
VERTEX
  5
50F
  8
CK_LEVEL_1
 10
80.68945824629022
 20
12.98949249484033
 30
0.0
  0
VERTEX
  5
510
  8
CK_LEVEL_1
 10
80.68945824629022
 20
1.989492494840336
 30
0.0
 42
-0.4142135623731011
  0
VERTEX
  5
511
  8
CK_LEVEL_1
 10
79.68945824629022
 20
0.9894924948403284
 30
0.0
  0
VERTEX
  5
512
  8
CK_LEVEL_1
 10
74.34710247458564
 20
0.9894924948403284
 30
0.0
  0
VERTEX
  5
513
  8
CK_LEVEL_1
 10
72.75142439319733
 20
0.9894924948403284
 30
0.0
 42
0.0393645291098924
  0
VERTEX
  5
514
  8
CK_LEVEL_1
 10
45.64401481193995
 20
0.9894924948403284
 30
0.0
  0
VERTEX
  5
515
  8
CK_LEVEL_1
 10
44.79336321836081
 20
0.9894924948403284
 30
0.0
  0
VERTEX
  5
516
  8
CK_LEVEL_1
 10
43.97029645220029
 20
0.9894924948403284
 30
0.0
 42
0.0395151610529737
  0
VERTEX
  5
517
  8
CK_LEVEL_1
 10
16.96610397185387
 20
0.9894924948403284
 30
0.0
  0
VERTEX
  5
518
  8
CK_LEVEL_1
 10
15.03132873605001
 20
0.9894924948403284
 30
0.0
  0
VERTEX
  5
519
  8
CK_LEVEL_1
 10
9.689458246290386
 20
0.9894924948403284
 30
0.0
 42
-0.4142135623730954
  0
VERTEX
  5
51A
  8
CK_LEVEL_1
 10
8.689458246290386
 20
1.989492494840336
 30
0.0
  0
VERTEX
  5
51B
  8
CK_LEVEL_1
 10
8.689458246290386
 20
12.98949249484033
 30
0.0
 42
-0.4142135623730953
  0
SEQEND
  5
51C
  8
CK_LEVEL_1
  0
POLYLINE
  5
5C
  8
CK_LEVEL_1
 66
     1
 10
0.0
 20
0.0
 30
0.0
 70
     1
  0
VERTEX
  5
51D
  8
CK_LEVEL_1
 10
28.65501379613501
 20
18.20124114723259
 30
0.0
  0
VERTEX
  5
51E
  8
CK_LEVEL_1
 10
28.90501379613501
 20
18.20124114723259
 30
0.0
 42
-1.0
  0
VERTEX
  5
51F
  8
CK_LEVEL_1
 10
29.15501379613501
 20
18.20124114723259
 30
0.0
  0
VERTEX
  5
520
  8
CK_LEVEL_1
 10
29.155013796135
 20
16.18124114723259
 30
0.0
 42
-1.0
  0
VERTEX
  5
521
  8
CK_LEVEL_1
 10
28.905013796135
 20
16.18124114723259
 30
0.0
  0
VERTEX
  5
522
  8
CK_LEVEL_1
 10
28.65501379613501
 20
16.1812411472326
 30
0.0
 42
-1.0
  0
VERTEX
  5
523
  8
CK_LEVEL_1
 10
28.40501379613501
 20
16.1812411472326
 30
0.0
  0
VERTEX
  5
524
  8
CK_LEVEL_1
 10
28.40501379613501
 20
18.20124114723259
 30
0.0
 42
-1.0
  0
SEQEND
  5
525
  8
CK_LEVEL_1
  0
POLYLINE
  5
5D
  8
CK_LEVEL_1
 66
     1
 10
0.0
 20
0.0
 30
0.0
 70
     1
  0
VERTEX
  5
526
  8
CK_LEVEL_1
 10
58.03001379613493
 20
18.20124114723259
 30
0.0
  0
VERTEX
  5
527
  8
CK_LEVEL_1
 10
58.03001379613493
 20
16.1812411472326
 30
0.0
 42
1.0
  0
VERTEX
  5
528
  8
CK_LEVEL_1
 10
58.28001379613493
 20
16.1812411472326
 30
0.0
  0
VERTEX
  5
529
  8
CK_LEVEL_1
 10
58.53001379613493
 20
16.1812411472326
 30
0.0
 42
1.0
  0
VERTEX
  5
52A
  8
CK_LEVEL_1
 10
58.78001379613493
 20
16.1812411472326
 30
0.0
  0
VERTEX
  5
52B
  8
CK_LEVEL_1
 10
58.78001379613493
 20
18.20124114723259
 30
0.0
 42
1.0
  0
VERTEX
  5
52C
  8
CK_LEVEL_1
 10
58.53001379613493
 20
18.20124114723259
 30
0.0
  0
VERTEX
  5
52D
  8
CK_LEVEL_1
 10
58.28001379613493
 20
18.20124114723259
 30
0.0
 42
1.0
  0
SEQEND
  5
52E
  8
CK_LEVEL_1
  0
POLYLINE
  5
5E
  8
CK_LEVEL_1
 66
     1
 10
0.0
 20
0.0
 30
0.0
 70
     1
  0
VERTEX
  5
52F
  8
CK_LEVEL_1
 10
88.40501379613498
 20
18.20124114723259
 30
0.0
  0
VERTEX
  5
530
  8
CK_LEVEL_1
 10
88.40501379613498
 20
16.1812411472326
 30
0.0
 42
-1.0
  0
VERTEX
  5
531
  8
CK_LEVEL_1
 10
88.15501379613498
 20
16.1812411472326
 30
0.0
  0
VERTEX
  5
532
  8
CK_LEVEL_1
 10
87.90501379613498
 20
16.1812411472326
 30
0.0
 42
-1.0
  0
VERTEX
  5
533
  8
CK_LEVEL_1
 10
87.65501379613498
 20
16.1812411472326
 30
0.0
  0
VERTEX
  5
534
  8
CK_LEVEL_1
 10
87.65501379613498
 20
18.20124114723259
 30
0.0
 42
-1.0
  0
VERTEX
  5
535
  8
CK_LEVEL_1
 10
87.90501379613498
 20
18.20124114723259
 30
0.0
  0
VERTEX
  5
536
  8
CK_LEVEL_1
 10
88.15501379613498
 20
18.20124114723259
 30
0.0
 42
-1.0
  0
SEQEND
  5
537
  8
CK_LEVEL_1
  0
POLYLINE
  5
5F
  8
CK_LEVEL_1
 66
     1
 10
0.0
 20
0.0
 30
0.0
 70
     1
  0
VERTEX
  5
538
  8
CK_LEVEL_1
 10
27.40501379613501
 20
14.69124114723262
 30
0.0
 42
-0.0622746833233896
  0
VERTEX
  5
539
  8
CK_LEVEL_1
 10
58.31909902332374
 20
14.69124114723262
 30
0.0
 42
-0.0619304284456425
  0
VERTEX
  5
53A
  8
CK_LEVEL_1
 10
89.40501379613498
 20
14.69124114723262
 30
0.0
  0
VERTEX
  5
53B
  8
CK_LEVEL_1
 10
91.40501379613498
 20
17.69124114723258
 30
0.0
  0
VERTEX
  5
53C
  8
CK_LEVEL_1
 10
93.40501379613498
 20
18.69124114723257
 30
0.0
  0
VERTEX
  5
53D
  8
CK_LEVEL_1
 10
93.40501379613498
 20
19.69124114723257
 30
0.0
 42
0.0670725271908131
  0
VERTEX
  5
53E
  8
CK_LEVEL_1
 10
58.28291632509221
 20
19.69124114723257
 30
0.0
 42
0.0666658244013478
  0
VERTEX
  5
53F
  8
CK_LEVEL_1
 10
23.405013796135
 20
19.69124114723257
 30
0.0
  0
VERTEX
  5
540
  8
CK_LEVEL_1
 10
23.405013796135
 20
18.69124114723257
 30
0.0
  0
VERTEX
  5
541
  8
CK_LEVEL_1
 10
25.405013796135
 20
17.69124114723258
 30
0.0
  0
SEQEND
  5
542
  8
CK_LEVEL_1
  0
ENDSEC
  0
EOF
