0
SECTION
2
HEADER
9
$INSUNITS
70
4
9
$ACADVER
1
AC1014
9
$HANDSEED
5
FFFF
0
ENDSEC
0
SECTION
2
TABLES
0
TABLE
2
VPORT
5
8
100
AcDbSymbolTable
0
ENDTAB
0
TABLE
2
LTYPE
5
5
100
AcDbSymbolTable
0
LTYPE
5
14
100
AcDbSymbolTableRecord
100
AcDbLinetypeTableRecord
2
BYBLOCK
70
0
0
LTYPE
5
15
100
AcDbSymbolTableRecord
100
AcDbLinetypeTableRecord
2
BYLAYER
70
0
0
ENDTAB
0
TABLE
2
LAYER
5
2
100
AcDbSymbolTable
70
2
0
LAYER
5
50
100
AcDbSymbolTableRecord
100
AcDbLayerTableRecord
2
0
70
0
6
CONTINUOUS
0
ENDTAB
0
TABLE
2
STYLE
5
3
100
AcDbSymbolTable
70
1
0
STYLE
5
11
100
AcDbSymbolTableRecord
100
AcDbTextStyleTableRecord
2
STANDARD
70
0
0
ENDTAB
0
TABLE
2
VIEW
5
6
100
AcDbSymbolTable
70
0
0
ENDTAB
0
TABLE
2
UCS
5
7
100
AcDbSymbolTable
70
0
0
ENDTAB
0
TABLE
2
APPID
5
9
100
AcDbSymbolTable
70
2
0
APPID
5
12
100
AcDbSymbolTableRecord
100
AcDbRegAppTableRecord
2
ACAD
70
0
0
ENDTAB
0
TABLE
2
DIMSTYLE
5
A
100
AcDbSymbolTable
70
1
0
ENDTAB
0
TABLE
2
BLOCK_RECORD
5
1
100
AcDbSymbolTable
70
1
0
BLOCK_RECORD
5
1F
100
AcDbSymbolTableRecord
100
AcDbBlockTableRecord
2
*MODEL_SPACE
0
BLOCK_RECORD
5
1B
100
AcDbSymbolTableRecord
100
AcDbBlockTableRecord
2
*PAPER_SPACE
0
ENDTAB
0
ENDSEC
0
SECTION
2
BLOCKS
0
BLOCK
5
20
100
AcDbEntity
100
AcDbBlockBegin
2
*MODEL_SPACE
0
ENDBLK
5
21
100
AcDbEntity
100
AcDbBlockEnd
0
BLOCK
5
1C
100
AcDbEntity
100
AcDbBlockBegin
2
*PAPER_SPACE
0
ENDBLK
5
1D
100
AcDbEntity
100
AcDbBlockEnd
0
ENDSEC
0
SECTION
2
ENTITIES
0
LINE
5
100
100
AcDbEntity
8
0
100
AcDbLine
10
120.2926062485259
20
300.80000000000001
30
0
11
120.2926062485259
21
255.19999999999999
31
0
0
LWPOLYLINE
5
101
100
AcDbEntity
8
0
100
AcDbPolyline
90
192
70
1
43
0.0
10
15.799601980131833
20
314.40969332223182
10
15.820581018239439
20
314.81890896037612
10
15.855518902228791
20
315.22716978730438
10
15.904374896089992
20
315.63399978915498
10
15.96709203591953
20
316.03892462034412
10
16.043597196338141
20
316.44147215663162
10
16.133801175750619
20
316.84117304559737
10
16.237598800352295
20
317.23756125388422
10
16.354869046756018
20
317.63017461057302
10
16.485475183100139
20
318.01855534605187
10
16.62926492847194
20
318.40225062575678
10
16.7860706304605
20
318.78081307815501
10
16.955709460631539
20
319.15380131636113
10
17.13798362769742
20
319.52078045277381
10
17.332680608132904
20
319.88132260613634
10
17.539573393968031
20
320.23500740042527
10
17.758420757469388
20
320.58142245499192
10
17.988967532400611
20
320.92016386537853
10
18.23094491153509
20
321.25083667425321
10
18.48407076007291
20
321.57305533191271
10
18.748049944597621
20
321.88644414581569
10
19.022574677188491
20
322.19063771862386
10
19.307324874287328
20
322.4852813742387
10
19.601968529902003
20
322.77003157133748
10
19.90616210271034
20
323.04455630392846
10
20.219550916613432
20
323.30853548845312
10
20.54176957427282
20
323.56166133699082
10
20.872442383147501
20
323.80363871612531
10
21.211183793533991
20
324.03418549105663
10
21.557598848100699
20
324.25303285455789
10
21.911283642389701
20
324.45992564039318
10
22.271825795752115
20
324.6546226208286
10
22.638804932164899
20
324.83689678789437
10
23.011793170371018
20
325.00653561806553
10
23.390355622769192
20
325.1633413200542
10
23.774050902473988
20
325.30713106542589
10
24.162431637953009
20
325.43773720177001
10
24.55504499464169
20
325.55500744817374
10
24.951433202928541
20
325.65880507277535
10
25.351134091894288
20
325.74900905218789
10
25.753681628181916
20
325.82551421260638
10
26.158606459370933
20
325.88823135243604
10
26.565436461221424
20
325.93708734629723
10
26.973697288149911
20
325.97202523028665
10
27.38291292629432
20
325.99300426839415
10
27.7926062485259
20
326
10
239.79260624852594
20
326
10
240.20229957075748
20
325.99300426839415
10
240.61151520890192
20
325.97202523028665
10
241.01977603583043
20
325.93708734629723
10
241.42660603768093
20
325.88823135243604
10
241.83153086886989
20
325.82551421260638
10
242.2340784051575
20
325.74900905218789
10
242.63377929412331
20
325.65880507277535
10
243.03016750241011
20
325.55500744817374
10
243.42278085909882
20
325.43773720177001
10
243.81116159457787
20
325.30713106542589
10
244.19485687428264
20
325.1633413200542
10
244.57341932668083
20
325.00653561806553
10
244.94640756488693
20
324.83689678789437
10
245.31338670129969
20
324.6546226208286
10
245.67392885466211
20
324.45992564039318
10
246.02761364895113
20
324.25303285455789
10
246.37402870351781
20
324.03418549105663
10
246.7127701139043
20
323.80363871612531
10
247.04344292277904
20
323.56166133699082
10
247.36566158043843
20
323.30853548845312
10
247.67905039434154
20
323.04455630392846
10
247.9832439671498
20
322.77003157133748
10
248.27788762276455
20
322.4852813742387
10
248.56263781986331
20
322.19063771862386
10
248.83716255245417
20
321.88644414581569
10
249.10114173697892
20
321.57305533191271
10
249.35426758551671
20
321.25083667425321
10
249.59624496465122
20
320.92016386537853
10
249.82679173958243
20
320.58142245499192
10
250.0456391030838
20
320.23500740042527
10
250.25253188891895
20
319.88132260613634
10
250.44722886935443
20
319.52078045277381
10
250.62950303642032
20
319.15380131636113
10
250.7991418665913
20
318.78081307815501
10
250.95594756857992
20
318.40225062575678
10
251.09973731395172
20
318.01855534605187
10
251.23034345029583
20
317.63017461057302
10
251.34761369669948
20
317.23756125388422
10
251.45141132130121
20
316.84117304559737
10
251.54161530071372
20
316.44147215663162
10
251.61812046113232
20
316.03892462034412
10
251.68083760096181
20
315.63399978915498
10
251.729693594823
20
315.22716978730438
10
251.76463147881242
20
314.81890896037612
10
251.78561051692
20
314.40969332223182
10
251.79260624852591
20
314
10
251.79260624852591
20
273.99999999999994
10
251.79260624852591
20
272.99999999999983
10
251.79260624852591
20
235
10
251.79260624852591
20
234.00000000000003
10
251.79260624852591
20
194.00000000000003
10
251.78561051692
20
193.59030667776852
10
251.76463147881242
20
193.18109103962399
10
251.729693594823
20
192.77283021269568
10
251.68083760096181
20
192.36600021084519
10
251.61812046113232
20
191.96107537965614
10
251.54161530071372
20
191.55852784336841
10
251.45141132130121
20
191.15882695440268
10
251.34761369669948
20
190.76243874611581
10
251.23034345029583
20
190.36982538942712
10
251.09973731395172
20
189.98144465394833
10
250.95594756857992
20
189.59774937424339
10
250.7991418665913
20
189.21918692184508
10
250.62950303642032
20
188.84619868363922
10
250.44722886935443
20
188.47921954722619
10
250.25253188891895
20
188.11867739386395
10
250.0456391030838
20
187.76499259957501
10
249.82679173958243
20
187.41857754500819
10
249.59624496465122
20
187.07983613462173
10
249.35426758551671
20
186.74916332574699
10
249.10114173697892
20
186.42694466808732
10
248.83716255245417
20
186.11355585418443
10
248.56263781986331
20
185.80936228137631
10
248.27788762276455
20
185.51471862576162
10
247.9832439671498
20
185.22996842866269
10
247.67905039434154
20
184.95544369607171
10
247.36566158043843
20
184.69146451154711
10
247.04344292277904
20
184.43833866300932
10
246.7127701139043
20
184.19636128387481
10
246.37402870351781
20
183.96581450894359
10
246.02761364895113
20
183.74696714544211
10
245.67392885466211
20
183.54007435960705
10
245.31338670129969
20
183.34537737917159
10
244.94640756488693
20
183.16310321210563
10
244.57341932668083
20
182.9934643819347
10
244.19485687428264
20
182.83665867994611
10
243.81116159457787
20
182.69286893457419
10
243.42278085909882
20
182.56226279823011
10
243.03016750241011
20
182.44499255182654
10
242.63377929412331
20
182.34119492722482
10
242.2340784051575
20
182.25099094781223
10
241.83153086886989
20
182.17448578739368
10
241.42660603768093
20
182.11176864756408
10
241.01977603583043
20
182.06291265370288
10
240.61151520890192
20
182.02797476971352
10
240.20229957075748
20
182.00699573160591
10
239.79260624852654
20
182
10
27.792606248525914
20
182
10
27.38291292629432
20
182.00699573160591
10
26.973697288149793
20
182.02797476971352
10
26.565436461221541
20
182.06291265370288
10
26.158606459370933
20
182.11176864756408
10
25.753681628181916
20
182.17448578739368
10
25.351134091894288
20
182.25099094781223
10
24.951433202928541
20
182.34119492722482
10
24.555044994641634
20
182.44499255182654
10
24.162431637953009
20
182.56226279823011
10
23.774050902474105
20
182.69286893457419
10
23.390355622769192
20
182.83665867994611
10
23.011793170371018
20
182.9934643819347
10
22.638804932164899
20
183.16310321210563
10
22.271825795752115
20
183.34537737917159
10
21.911283642389701
20
183.54007435960705
10
21.557598848100699
20
183.74696714544211
10
21.211183793534101
20
183.96581450894359
10
20.872442383147501
20
184.19636128387481
10
20.541769574272713
20
184.43833866300932
10
20.219550916613201
20
184.69146451154711
10
19.90616210271023
20
184.95544369607171
10
19.601968529902003
20
185.22996842866269
10
19.307324874287328
20
185.51471862576162
10
19.02257467718843
20
185.80936228137631
10
18.748049944597621
20
186.11355585418443
10
18.4840707600728
20
186.42694466808732
10
18.23094491153509
20
186.74916332574699
10
17.988967532400611
20
187.07983613462173
10
17.758420757469388
20
187.41857754500819
10
17.539573393968031
20
187.76499259957501
10
17.332680608132904
20
188.11867739386395
10
17.13798362769742
20
188.47921954722619
10
16.955709460631539
20
188.84619868363922
10
16.7860706304605
20
189.21918692184508
10
16.62926492847194
20
189.59774937424339
10
16.485475183100139
20
189.98144465394833
10
16.354869046756018
20
190.36982538942712
10
16.237598800352295
20
190.76243874611581
10
16.133801175750619
20
191.15882695440268
10
16.04359719633803
20
191.55852784336841
10
15.96709203591953
20
191.96107537965614
10
15.90437489608993
20
192.36600021084519
10
15.855518902228791
20
192.77283021269568
10
15.820581018239439
20
193.18109103962399
10
15.799601980131833
20
193.59030667776852
10
15.79260624852591
20
194.00000000000003
10
15.79260624852591
20
314
0
LINE
5
102
100
AcDbEntity
8
0
100
AcDbLine
10
131.0926062485259
20
252.80000000000001
30
0
11
131.0926062485259
21
207.19999999999999
31
0
0
LINE
5
103
100
AcDbEntity
8
0
100
AcDbLine
10
132.89260624852591
20
228.8000000000001
30
0
11
132.89260624852591
21
184.40000000000009
31
0
0
LINE
5
104
100
AcDbEntity
8
0
100
AcDbLine
10
134.69260624852592
20
204.80000000000004
30
0
11
134.69260624852592
21
182
31
0
0
LINE
5
105
100
AcDbEntity
8
0
100
AcDbLine
10
118.4926062485259
20
228.8000000000001
30
0
11
118.4926062485259
21
184.40000000000009
31
0
0
LINE
5
106
100
AcDbEntity
8
0
100
AcDbLine
10
140.0926062485259
20
323.60000000000014
30
0
11
140.0926062485259
21
279.20000000000005
31
0
0
LINE
5
107
100
AcDbEntity
8
0
100
AcDbLine
10
143.69260624852592
20
323.60000000000014
30
0
11
143.69260624852592
21
279.20000000000005
31
0
0
LINE
5
108
100
AcDbEntity
8
0
100
AcDbLine
10
122.09260624852591
20
323.60000000000014
30
0
11
122.09260624852591
21
279.20000000000005
31
0
0
LINE
5
109
100
AcDbEntity
8
0
100
AcDbLine
10
125.69260624852591
20
323.60000000000014
30
0
11
125.69260624852591
21
279.20000000000005
31
0
0
LINE
5
110
100
AcDbEntity
8
0
100
AcDbLine
10
131.0926062485259
20
300.80000000000001
30
0
11
131.0926062485259
21
255.19999999999999
31
0
0
LINE
5
111
100
AcDbEntity
8
0
100
AcDbLine
10
132.89260624852591
20
323.60000000000014
30
0
11
132.89260624852591
21
279.20000000000005
31
0
0
LINE
5
112
100
AcDbEntity
8
0
100
AcDbLine
10
147.29260624852594
20
323.60000000000014
30
0
11
147.29260624852594
21
279.20000000000005
31
0
0
LINE
5
113
100
AcDbEntity
8
0
100
AcDbLine
10
136.4926062485259
20
323.60000000000014
30
0
11
136.4926062485259
21
279.20000000000005
31
0
0
LINE
5
114
100
AcDbEntity
8
0
100
AcDbLine
10
118.4926062485259
20
276.80000000000007
30
0
11
118.4926062485259
21
231.20000000000002
31
0
0
LINE
5
115
100
AcDbEntity
8
0
100
AcDbLine
10
134.69260624852592
20
326
30
0
11
134.69260624852592
21
303.19999999999999
31
0
0
LINE
5
116
100
AcDbEntity
8
0
100
AcDbLine
10
129.29260624852591
20
323.60000000000014
30
0
11
129.29260624852591
21
279.20000000000005
31
0
0
LINE
5
117
100
AcDbEntity
8
0
100
AcDbLine
10
118.4926062485259
20
323.60000000000014
30
0
11
118.4926062485259
21
279.20000000000005
31
0
0
LINE
5
118
100
AcDbEntity
8
0
100
AcDbLine
10
131.0926062485259
20
326
30
0
11
131.0926062485259
21
303.19999999999999
31
0
0
LINE
5
119
100
AcDbEntity
8
0
100
AcDbLine
10
129.29260624852591
20
276.80000000000007
30
0
11
129.29260624852591
21
231.20000000000002
31
0
0
LINE
5
120
100
AcDbEntity
8
0
100
AcDbLine
10
123.89260624852591
20
204.80000000000004
30
0
11
123.89260624852591
21
182
31
0
0
LINE
5
121
100
AcDbEntity
8
0
100
AcDbLine
10
136.4926062485259
20
276.80000000000007
30
0
11
136.4926062485259
21
231.20000000000002
31
0
0
LINE
5
122
100
AcDbEntity
8
0
100
AcDbLine
10
125.69260624852591
20
276.80000000000007
30
0
11
125.69260624852591
21
231.20000000000002
31
0
0
LINE
5
123
100
AcDbEntity
8
0
100
AcDbLine
10
141.89260624852591
20
252.80000000000001
30
0
11
141.89260624852591
21
207.19999999999999
31
0
0
LINE
5
124
100
AcDbEntity
8
0
100
AcDbLine
10
149.0926062485259
20
204.80000000000004
30
0
11
149.0926062485259
21
182
31
0
0
LINE
5
125
100
AcDbEntity
8
0
100
AcDbLine
10
127.4926062485259
20
326
30
0
11
127.4926062485259
21
303.19999999999999
31
0
0
LINE
5
126
100
AcDbEntity
8
0
100
AcDbLine
10
138.29260624852591
20
326
30
0
11
138.29260624852591
21
303.19999999999999
31
0
0
LINE
5
127
100
AcDbEntity
8
0
100
AcDbLine
10
149.0926062485259
20
300.80000000000001
30
0
11
149.0926062485259
21
255.19999999999999
31
0
0
LINE
5
128
100
AcDbEntity
8
0
100
AcDbLine
10
131.0926062485259
20
204.80000000000004
30
0
11
131.0926062485259
21
182
31
0
0
LINE
5
129
100
AcDbEntity
8
0
100
AcDbLine
10
136.4926062485259
20
228.8000000000001
30
0
11
136.4926062485259
21
184.40000000000009
31
0
0
LINE
5
130
100
AcDbEntity
8
0
100
AcDbLine
10
129.29260624852591
20
228.8000000000001
30
0
11
129.29260624852591
21
184.40000000000009
31
0
0
LINE
5
131
100
AcDbEntity
8
0
100
AcDbLine
10
120.2926062485259
20
326
30
0
11
120.2926062485259
21
303.19999999999999
31
0
0
LINE
5
132
100
AcDbEntity
8
0
100
AcDbLine
10
145.4926062485259
20
326
30
0
11
145.4926062485259
21
303.19999999999999
31
0
0
LINE
5
133
100
AcDbEntity
8
0
100
AcDbLine
10
145.4926062485259
20
300.80000000000001
30
0
11
145.4926062485259
21
255.19999999999999
31
0
0
LINE
5
134
100
AcDbEntity
8
0
100
AcDbLine
10
138.29260624852591
20
204.80000000000004
30
0
11
138.29260624852591
21
182
31
0
0
LINE
5
135
100
AcDbEntity
8
0
100
AcDbLine
10
123.89260624852591
20
252.80000000000001
30
0
11
123.89260624852591
21
207.19999999999999
31
0
0
LINE
5
136
100
AcDbEntity
8
0
100
AcDbLine
10
122.09260624852591
20
276.80000000000007
30
0
11
122.09260624852591
21
231.20000000000002
31
0
0
LINE
5
137
100
AcDbEntity
8
0
100
AcDbLine
10
141.89260624852591
20
300.80000000000001
30
0
11
141.89260624852591
21
255.19999999999999
31
0
0
LINE
5
138
100
AcDbEntity
8
0
100
AcDbLine
10
123.89260624852591
20
300.80000000000001
30
0
11
123.89260624852591
21
255.19999999999999
31
0
0
LINE
5
139
100
AcDbEntity
8
0
100
AcDbLine
10
123.89260624852591
20
326
30
0
11
123.89260624852591
21
303.19999999999999
31
0
0
LINE
5
140
100
AcDbEntity
8
0
100
AcDbLine
10
149.0926062485259
20
326
30
0
11
149.0926062485259
21
303.19999999999999
31
0
0
LINE
5
141
100
AcDbEntity
8
0
100
AcDbLine
10
120.2926062485259
20
204.80000000000004
30
0
11
120.2926062485259
21
182
31
0
0
LINE
5
142
100
AcDbEntity
8
0
100
AcDbLine
10
122.09260624852591
20
228.8000000000001
30
0
11
122.09260624852591
21
184.40000000000009
31
0
0
LINE
5
143
100
AcDbEntity
8
0
100
AcDbLine
10
145.4926062485259
20
252.80000000000001
30
0
11
145.4926062485259
21
207.19999999999999
31
0
0
LINE
5
144
100
AcDbEntity
8
0
100
AcDbLine
10
140.0926062485259
20
276.80000000000007
30
0
11
140.0926062485259
21
231.20000000000002
31
0
0
LINE
5
145
100
AcDbEntity
8
0
100
AcDbLine
10
141.89260624852591
20
326
30
0
11
141.89260624852591
21
303.19999999999999
31
0
0
LINE
5
146
100
AcDbEntity
8
0
100
AcDbLine
10
145.4926062485259
20
204.80000000000004
30
0
11
145.4926062485259
21
182
31
0
0
LINE
5
147
100
AcDbEntity
8
0
100
AcDbLine
10
143.69260624852592
20
228.8000000000001
30
0
11
143.69260624852592
21
184.40000000000009
31
0
0
LINE
5
148
100
AcDbEntity
8
0
100
AcDbLine
10
143.69260624852592
20
276.80000000000007
30
0
11
143.69260624852592
21
231.20000000000002
31
0
0
LINE
5
149
100
AcDbEntity
8
0
100
AcDbLine
10
127.4926062485259
20
204.80000000000004
30
0
11
127.4926062485259
21
182
31
0
0
LINE
5
150
100
AcDbEntity
8
0
100
AcDbLine
10
138.29260624852591
20
300.80000000000001
30
0
11
138.29260624852591
21
255.19999999999999
31
0
0
LINE
5
151
100
AcDbEntity
8
0
100
AcDbLine
10
134.69260624852592
20
300.80000000000001
30
0
11
134.69260624852592
21
255.19999999999999
31
0
0
LINE
5
152
100
AcDbEntity
8
0
100
AcDbLine
10
147.29260624852594
20
228.8000000000001
30
0
11
147.29260624852594
21
184.40000000000009
31
0
0
LINE
5
153
100
AcDbEntity
8
0
100
AcDbLine
10
127.4926062485259
20
252.80000000000001
30
0
11
127.4926062485259
21
207.19999999999999
31
0
0
LINE
5
154
100
AcDbEntity
8
0
100
AcDbLine
10
149.0926062485259
20
252.80000000000001
30
0
11
149.0926062485259
21
207.19999999999999
31
0
0
LINE
5
155
100
AcDbEntity
8
0
100
AcDbLine
10
147.29260624852594
20
276.80000000000007
30
0
11
147.29260624852594
21
231.20000000000002
31
0
0
LINE
5
156
100
AcDbEntity
8
0
100
AcDbLine
10
141.89260624852591
20
204.80000000000004
30
0
11
141.89260624852591
21
182
31
0
0
LINE
5
157
100
AcDbEntity
8
0
100
AcDbLine
10
132.89260624852591
20
276.80000000000007
30
0
11
132.89260624852591
21
231.20000000000002
31
0
0
LINE
5
158
100
AcDbEntity
8
0
100
AcDbLine
10
138.29260624852591
20
252.80000000000001
30
0
11
138.29260624852591
21
207.19999999999999
31
0
0
LINE
5
159
100
AcDbEntity
8
0
100
AcDbLine
10
140.0926062485259
20
228.8000000000001
30
0
11
140.0926062485259
21
184.40000000000009
31
0
0
LINE
5
160
100
AcDbEntity
8
0
100
AcDbLine
10
120.2926062485259
20
252.80000000000001
30
0
11
120.2926062485259
21
207.19999999999999
31
0
0
LINE
5
161
100
AcDbEntity
8
0
100
AcDbLine
10
125.69260624852591
20
228.8000000000001
30
0
11
125.69260624852591
21
184.40000000000009
31
0
0
LINE
5
162
100
AcDbEntity
8
0
100
AcDbLine
10
127.4926062485259
20
300.80000000000001
30
0
11
127.4926062485259
21
255.19999999999999
31
0
0
LINE
5
163
100
AcDbEntity
8
0
100
AcDbLine
10
134.69260624852592
20
252.80000000000001
30
0
11
134.69260624852592
21
207.19999999999999
31
0
0
LWPOLYLINE
5
164
100
AcDbEntity
8
0
100
AcDbPolyline
90
10
70
1
43
0.0
10
26.020062275243244
20
287.30650466048627
10
26.020062275243244
20
278.00084095561414
10
27.8989684656386
20
278.00084095561414
10
27.8989684656386
20
281.95543032252698
10
31.78373397142931
20
281.95543032252698
10
31.78373397142931
20
283.52964919173627
10
27.8989684656386
20
283.52964919173627
10
27.8989684656386
20
285.73228579127698
10
32.399456508470024
20
285.73228579127698
10
32.399456508470024
20
287.30650466048627
0
LINE
5
165
100
AcDbEntity
8
0
100
AcDbLine
10
35.268597014260735
20
282.68541079127698
30
0
11
33.649944670510735
21
282.97740321719556
31
0
0
SPLINE
5
166
100
AcDbEntity
8
0
100
AcDbSpline
70
1064
71
3
72
9
73
5
74
0
42
0.000000001
43
0.0000000001
44
0.0000000001
40
0
40
0
40
0
40
0
40
0.092810992752120444
40
0.17519916842289596
40
0.17519916842289596
40
0.17519916842289596
40
0.17519916842289596
10
33.649944670510735
20
282.97740321719556
30
0
10
33.750004822191158
20
283.2766847529698
30
0
10
33.938888216785379
20
283.84163804823311
30
0
10
34.381335257536477
20
284.23818869044379
30
0
10
34.589397914720024
20
284.4246683653584
30
0
0
SPLINE
5
167
100
AcDbEntity
8
0
100
AcDbSpline
70
1064
71
3
72
9
73
5
74
0
42
0.000000001
43
0.0000000001
44
0.0000000001
40
0
40
0
40
0
40
0
40
0.090016967935283854
40
0.20582396053910973
40
0.20582396053910973
40
0.20582396053910973
40
0.20582396053910973
10
34.589397914720024
20
284.4246683653584
30
0
10
34.860625089532469
20
284.56112583761859
30
0
10
35.480786516940967
20
284.87313609557282
30
0
10
36.17773052259038
20
284.88674066510532
30
0
10
36.569866545510735
20
284.89439528548627
30
0
0
SPLINE
5
168
100
AcDbEntity
8
0
100
AcDbSpline
70
1064
71
3
72
9
73
5
74
0
42
0.000000001
43
0.0000000001
44
0.0000000001
40
0
40
0
40
0
40
0
40
0.10434618272791917
40
0.1810322575903584
40
0.1810322575903584
40
0.1810322575903584
40
0.1810322575903584
10
36.569866545510735
20
284.89439528548627
30
0
10
36.920627732080874
20
284.89173517351338
30
0
10
37.529170256779054
20
284.88712009260377
30
0
10
38.103796181141746
20
284.69158169497024
30
0
10
38.347210295510735
20
284.60875075423627
30
0
0
SPLINE
5
169
100
AcDbEntity
8
0
100
AcDbSpline
70
1064
71
3
72
9
73
5
74
0
42
0.000000001
43
0.0000000001
44
0.0000000001
40
0
40
0
40
0
40
0
40
0.059030276368283507
40
0.11025829610287363
40
0.11025829610287363
40
0.11025829610287363
40
0.11025829610287363
10
38.347210295510735
20
284.60875075423627
30
0
10
38.523976705774004
20
284.51492055145638
30
0
10
38.854145636074342
20
284.33966204145128
30
0
10
39.067110394079414
20
284.03364608546542
30
0
10
39.166057713342155
20
283.89146547877698
30
0
0
SPLINE
5
170
100
AcDbEntity
8
0
100
AcDbSpline
70
1064
71
3
72
9
73
5
74
0
42
0.000000001
43
0.0000000001
44
0.0000000001
40
0
40
0
40
0
40
0
40
0.064022708508411547
40
0.16212078297957017
40
0.16212078297957017
40
0.16212078297957017
40
0.16212078297957017
10
39.166057713342155
20
283.89146547877698
30
0
10
39.235677195143765
20
283.68839110207028
30
0
10
39.411970344297657
20
283.17415829746392
30
0
10
39.409041554762638
20
282.62842391496719
30
0
10
39.407269366097893
20
282.29820411765485
30
0
0
LINE
5
171
100
AcDbEntity
8
0
100
AcDbLine
10
39.407269366097886
20
282.29820411765485
30
0
11
39.388225682092155
21
280.21617274844556
31
0
0
SPLINE
5
172
100
AcDbEntity
8
0
100
AcDbSpline
70
1064
71
3
72
9
73
5
74
0
42
0.000000001
43
0.0000000001
44
0.0000000001
40
0
40
0
40
0
40
0
40
0.07731019829725809
40
0.13177671143594527
40
0.13177671143594527
40
0.13177671143594527
40
0.13177671143594527
10
39.388225682092155
20
280.21617274844556
30
0
10
39.388530074027315
20
279.95810117633044
30
0
10
39.389048915901824
20
279.51821324643964
30
0
10
39.446853776678992
20
279.08235812154385
30
0
10
39.470745928597893
20
278.9022086199513
30
0
0
SPLINE
5
173
100
AcDbEntity
8
0
100
AcDbSpline
70
1064
71
3
72
9
73
5
74
0
42
0.000000001
43
0.0000000001
44
0.0000000001
40
0
40
0
40
0
40
0
40
0.045252653370913186
40
0.095949798773788703
40
0.095949798773788703
40
0.095949798773788703
40
0.095949798773788703
10
39.470745928597893
20
278.9022086199513
30
0
10
39.508470783613518
20
278.75582673493722
30
0
10
39.588459292085084
20
278.44545129029518
30
0
10
39.723253838265691
20
278.15454668000882
30
0
10
39.794475443673576
20
278.00084095561414
30
0
0
LINE
5
174
100
AcDbEntity
8
0
100
AcDbLine
10
39.794475443673576
20
278.00084095561419
30
0
11
38.029827483010735
21
278.00084095561414
31
0
0
SPLINE
5
175
100
AcDbEntity
8
0
100
AcDbSpline
70
1064
71
3
72
9
73
5
74
0
42
0.000000001
43
0.0000000001
44
0.0000000001
40
0
40
0
40
0
40
0
40
0.023388581235969229
40
0.055415103439242532
40
0.055415103439242532
40
0.055415103439242532
40
0.055415103439242532
10
38.029827483010735
20
278.00084095561414
30
0
10
38.003247737449954
20
278.07415092523649
30
0
10
37.940271734981941
20
278.24784592232777
30
0
10
37.888412016024191
20
278.42519758956792
30
0
10
37.858440287423576
20
278.52769594752698
30
0
0
SPLINE
5
176
100
AcDbEntity
8
0
100
AcDbSpline
70
1064
71
3
72
9
73
5
74
0
42
0.000000001
43
0.0000000001
44
0.0000000001
40
0
40
0
40
0
40
0
40
0.013710879032652204
40
0.021890967061375822
40
0.021890967061375822
40
0.021890967061375822
40
0.021890967061375822
10
37.858440287423576
20
278.52769594752698
30
0
10
37.846212382218695
20
278.57174407625234
30
0
10
37.826689150379785
20
278.64207188913343
30
0
10
37.803593843561011
20
278.71130041135552
30
0
10
37.794963724923576
20
278.73716931903272
30
0
0
SPLINE
5
177
100
AcDbEntity
8
0
100
AcDbSpline
70
1064
71
3
72
9
73
5
74
0
42
0.000000001
43
0.0000000001
44
0.0000000001
40
0
40
0
40
0
40
0
40
0.061220489615488483
40
0.11882114002994471
40
0.11882114002994471
40
0.11882114002994471
40
0.11882114002994471
10
37.794963724923576
20
278.73716931903272
30
0
10
37.642779328301984
20
278.59953099487717
30
0
10
37.347408879373532
20
278.33239261211202
30
0
10
36.990461473001133
20
278.15611776464101
30
0
10
36.817424900842155
20
278.07066541278272
30
0
0
SPLINE
5
178
100
AcDbEntity
8
0
100
AcDbSpline
70
1064
71
3
72
9
73
5
74
0
42
0.000000001
43
0.0000000001
44
0.0000000001
40
0
40
0
40
0
40
0
40
0.056317812012360302
40
0.11387400405544967
40
0.11387400405544967
40
0.11387400405544967
40
0.11387400405544967
10
36.817424900842155
20
278.07066541278272
30
0
10
36.639965199758635
20
278.00586858791223
30
0
10
36.281143612079973
20
277.87485011197305
30
0
10
35.899488077000441
20
277.85734512227924
30
0
10
35.706585057092155
20
277.84849744403272
30
0
0
SPLINE
5
179
100
AcDbEntity
8
0
100
AcDbSpline
70
1064
71
3
72
9
73
5
74
0
42
0.000000001
43
0.0000000001
44
0.0000000001
40
0
40
0
40
0
40
0
40
0.094216481132322963
40
0.17711503043805893
40
0.17711503043805893
40
0.17711503043805893
40
0.17711503043805893
10
35.706585057092155
20
277.84849744403272
30
0
10
35.385287724023286
20
277.8654039508865
30
0
10
34.781289503730612
20
277.8971860386913
30
0
10
34.291696120755283
20
278.24884494166605
30
0
10
34.062542326760735
20
278.41343861186414
30
0
0
SPLINE
5
180
100
AcDbEntity
8
0
100
AcDbSpline
70
1064
71
3
72
9
73
5
74
0
42
0.000000001
43
0.0000000001
44
0.0000000001
40
0
40
0
40
0
40
0
40
0.078054956474918752
40
0.15832292650920912
40
0.15832292650920912
40
0.15832292650920912
40
0.15832292650920912
10
34.062542326760735
20
278.41343861186414
30
0
10
33.888520549444195
20
278.6161433647581
30
0
10
33.53554313064388
20
279.02729995422868
30
0
10
33.48930506486235
20
279.56768966866491
30
0
10
33.465862877679314
20
279.84166126811414
30
0
0
SPLINE
5
181
100
AcDbEntity
8
0
100
AcDbSpline
70
1064
71
3
72
9
73
5
74
0
42
0.000000001
43
0.0000000001
44
0.0000000001
40
0
40
0
40
0
40
0
40
0.054384857973958554
40
0.10620702766337425
40
0.10620702766337425
40
0.10620702766337425
40
0.10620702766337425
10
33.465862877679314
20
279.84166126811414
30
0
10
33.47609705632977
20
280.02491965455278
30
0
10
33.496083165249303
20
280.3828010436585
30
0
10
33.659214207467585
20
280.70168936432191
30
0
10
33.738811619592155
20
280.85728626811414
30
0
0
SPLINE
5
182
100
AcDbEntity
8
0
100
AcDbSpline
70
1064
71
3
72
9
73
5
74
0
42
0.000000001
43
0.0000000001
44
0.0000000001
40
0
40
0
40
0
40
0
40
0.051406203764263213
40
0.10360578089433012
40
0.10360578089433012
40
0.10360578089433012
40
0.10360578089433012
10
33.738811619592155
20
280.85728626811414
30
0
10
33.839402454097133
20
280.99881580489557
30
0
10
34.042136583376404
20
281.28405916278081
30
0
10
34.346954381558639
20
281.45613559997423
30
0
10
34.500530369592155
20
281.54283266627698
30
0
0
SPLINE
5
183
100
AcDbEntity
8
0
100
AcDbSpline
70
1064
71
3
72
9
73
5
74
0
42
0.000000001
43
0.0000000001
44
0.0000000001
40
0
40
0
40
0
40
0
40
0.06437555631476688
40
0.14851788991189693
40
0.14851788991189693
40
0.14851788991189693
40
0.14851788991189693
10
34.500530369592155
20
281.54283266627698
30
0
10
34.699844981771435
20
281.62352544034803
30
0
10
35.159674571200327
20
281.80968803407495
30
0
10
35.646561120306345
20
281.90677430319613
30
0
10
35.922405131173576
20
281.96177821719556
30
0
0
SPLINE
5
184
100
AcDbEntity
8
0
100
AcDbSpline
70
1064
71
3
72
9
73
5
74
0
42
0.000000001
43
0.0000000001
44
0.0000000001
40
0
40
0
40
0
40
0
40
0.10825251346370386
40
0.17892167922684399
40
0.17892167922684399
40
0.17892167922684399
40
0.17892167922684399
10
35.922405131173576
20
281.96177821719556
30
0
10
36.277785842383771
20
282.02770300719629
30
0
10
36.865165401343198
20
282.13666467240108
30
0
10
37.431592717372482
20
282.32527166184076
30
0
10
37.655316002679314
20
282.39976626002698
30
0
0
LINE
5
185
100
AcDbEntity
8
0
100
AcDbLine
10
37.655316002679314
20
282.39976626002692
30
0
11
37.655316002679314
21
282.57750135028272
31
0
0
SPLINE
5
186
100
AcDbEntity
8
0
100
AcDbSpline
70
1064
71
3
72
9
73
5
74
0
42
0.000000001
43
0.0000000001
44
0.0000000001
40
0
40
0
40
0
40
0
40
0.044413422195265749
40
0.079140734138987839
40
0.079140734138987839
40
0.079140734138987839
40
0.079140734138987839
10
37.655316002679314
20
282.57750135028272
30
0
10
37.650999335698707
20
282.73040237454427
30
0
10
37.643307422376282
20
283.00285828342373
30
0
10
37.475183353992577
20
283.21457775962381
30
0
10
37.401409752679314
20
283.30748122298627
30
0
0
SPLINE
5
187
100
AcDbEntity
8
0
100
AcDbSpline
70
1064
71
3
72
9
73
5
74
0
42
0.000000001
43
0.0000000001
44
0.0000000001
40
0
40
0
40
0
40
0
40
0.04026696499916859
40
0.099718921671269944
40
0.099718921671269944
40
0.099718921671269944
40
0.099718921671269944
10
37.401409752679314
20
283.30748122298627
30
0
10
37.281527996389698
20
283.37170550261106
30
0
10
36.984647427777062
20
283.5307533948332
30
0
10
36.645256632177393
20
283.5300616229257
30
0
10
36.442913420510735
20
283.52964919173627
30
0
0
SPLINE
5
188
100
AcDbEntity
8
0
100
AcDbSpline
70
1064
71
3
72
9
73
5
74
0
42
0.000000001
43
0.0000000001
44
0.0000000001
40
0
40
0
40
0
40
0
40
0.042637176655950883
40
0.07758578097844071
40
0.07758578097844071
40
0.07758578097844071
40
0.07758578097844071
10
36.442913420510735
20
283.52964919173627
30
0
10
36.298512602231234
20
283.52537876036314
30
0
10
36.035750122657497
20
283.5176079655032
30
0
10
35.804433845605573
20
283.39461970686625
30
0
10
35.700237162423576
20
283.33921950423627
30
0
0
SPLINE
5
189
100
AcDbEntity
8
0
100
AcDbSpline
70
1064
71
3
72
9
73
5
74
0
42
0.000000001
43
0.0000000001
44
0.0000000001
40
0
40
0
40
0
40
0
40
0.035136793530276385
40
0.079286364023877426
40
0.079286364023877426
40
0.079286364023877426
40
0.079286364023877426
10
35.700237162423576
20
283.33921950423627
30
0
10
35.61321167714992
20
283.25859807292471
30
0
10
35.416838200474643
20
283.07667537853922
30
0
10
35.321618727316903
20
282.82535515629934
30
0
10
35.268597014260735
20
282.68541079127698
30
0
0
SPLINE
5
190
100
AcDbEntity
8
0
100
AcDbSpline
70
1064
71
3
72
9
73
5
74
0
42
0.000000001
43
0.0000000001
44
0.0000000001
40
0
40
0
40
0
40
0
40
0.046015612078755756
40
0.11195833344079792
40
0.11195833344079792
40
0.11195833344079792
40
0.11195833344079792
10
37.655316002679314
20
281.23814564311414
30
0
10
37.508125738184049
20
281.19482367884126
30
0
10
37.150004310104457
20
281.08941912803209
30
0
10
36.784906658705111
20
281.01124207483775
30
0
10
36.569866545510735
20
280.96519630515485
30
0
0
SPLINE
5
191
100
AcDbEntity
8
0
100
AcDbSpline
70
1064
71
3
72
9
73
5
74
0
42
0.000000001
43
0.0000000001
44
0.0000000001
40
0
40
0
40
0
40
0
40
0.063391153424012206
40
0.10227349090234907
40
0.10227349090234907
40
0.10227349090234907
40
0.10227349090234907
10
36.569866545510735
20
280.96519630515485
30
0
10
36.361847464581089
20
280.92252382074594
30
0
10
36.026235373116698
20
280.85367724342018
30
0
10
35.716449872784807
20
280.70911896136249
30
0
10
35.598675616097893
20
280.65416079127698
30
0
0
SPLINE
5
192
100
AcDbEntity
8
0
100
AcDbSpline
70
1064
71
3
72
9
73
5
74
0
42
0.000000001
43
0.0000000001
44
0.0000000001
40
0
40
0
40
0
40
0
40
0.038400006545390296
40
0.074232675703528067
40
0.074232675703528067
40
0.074232675703528067
40
0.074232675703528067
10
35.598675616097893
20
280.65416079127698
30
0
10
35.496884676369795
20
280.56842614847676
30
0
10
35.30010830839025
20
280.40268888673899
30
0
10
35.266012718996656
20
280.1484608435789
30
0
10
35.249554522347893
20
280.02574306094556
30
0
0
SPLINE
5
193
100
AcDbEntity
8
0
100
AcDbSpline
70
1064
71
3
72
9
73
5
74
0
42
0.000000001
43
0.0000000001
44
0.0000000001
40
0
40
0
40
0
40
0
40
0.035603510068542822
40
0.072056881591446159
40
0.072056881591446159
40
0.072056881591446159
40
0.072056881591446159
10
35.249554522347893
20
280.02574306094556
30
0
10
35.26173144901734
20
279.9046146655707
30
0
10
35.286375967534724
20
279.65946652073654
30
0
10
35.447393066414506
20
279.47274481748417
30
0
10
35.528851158929314
20
279.3782828387013
30
0
0
SPLINE
5
194
100
AcDbEntity
8
0
100
AcDbSpline
70
1064
71
3
72
9
73
5
74
0
42
0.000000001
43
0.0000000001
44
0.0000000001
40
0
40
0
40
0
40
0
40
0.037767567441370477
40
0.077710166742948839
40
0.077710166742948839
40
0.077710166742948839
40
0.077710166742948839
10
35.528851158929314
20
279.3782828387013
30
0
10
35.630211391441378
20
279.29868992119231
30
0
10
35.838769185952344
20
279.13492033500489
30
0
10
36.10364383001955
20
279.11537770783059
30
0
10
36.239787943673576
20
279.10533290469556
30
0
0
SPLINE
5
195
100
AcDbEntity
8
0
100
AcDbSpline
70
1064
71
3
72
9
73
5
74
0
42
0.000000001
43
0.0000000001
44
0.0000000001
40
0
40
0
40
0
40
0
40
0.047794527334675117
40
0.09862266141789118
40
0.09862266141789118
40
0.09862266141789118
40
0.09862266141789118
10
36.239787943673576
20
279.10533290469556
30
0
10
36.40085158985832
20
279.12011145683414
30
0
10
36.733201888736254
20
279.15060658305651
30
0
10
37.014976921257492
20
279.33017154900352
30
0
10
37.160198099923576
20
279.42271571719556
30
0
0
SPLINE
5
196
100
AcDbEntity
8
0
100
AcDbSpline
70
1064
71
3
72
9
73
5
74
0
42
0.000000001
43
0.0000000001
44
0.0000000001
40
0
40
0
40
0
40
0
40
0.037927611800165455
40
0.073768690104328211
40
0.073768690104328211
40
0.073768690104328211
40
0.073768690104328211
10
37.160198099923576
20
279.42271571719556
30
0
10
37.258329440747602
20
279.50588151733848
30
0
10
37.449193566570003
20
279.66763786968522
30
0
10
37.54092374277888
20
279.90010294528139
30
0
10
37.585491545510735
20
280.01304786765485
30
0
0
SPLINE
5
197
100
AcDbEntity
8
0
100
AcDbSpline
70
1064
71
3
72
9
73
5
74
0
42
0.000000001
43
0.0000000001
44
0.0000000001
40
0
40
0
40
0
40
0
40
0.033577422598567414
40
0.087402086381941843
40
0.087402086381941843
40
0.087402086381941843
40
0.087402086381941843
10
37.585491545510735
20
280.01304786765485
30
0
10
37.605603615105721
20
280.12335117872999
30
0
10
37.657955365419525
20
280.41047087931179
30
0
10
37.656321922676248
20
280.70270850371247
30
0
10
37.655316002679314
20
280.88267665469556
30
0
0
LINE
5
198
100
AcDbEntity
8
0
100
AcDbLine
10
37.655316002679314
20
280.8826766546955
30
0
11
37.655316002679314
21
281.23814564311414
31
0
0
LINE
5
199
100
AcDbEntity
8
0
100
AcDbLine
10
41.089398272347886
20
278.00084095561414
30
0
11
41.089398272347886
21
287.30650466048627
31
0
0
LINE
5
200
100
AcDbEntity
8
0
100
AcDbLine
10
41.089398272347886
20
287.30650466048627
30
0
11
42.873089917016465
21
287.30650466048627
31
0
0
LINE
5
201
100
AcDbEntity
8
0
100
AcDbLine
10
42.873089917016465
20
287.30650466048627
30
0
11
42.873089917016465
21
283.95494204127698
31
0
0
SPLINE
5
202
100
AcDbEntity
8
0
100
AcDbSpline
70
1064
71
3
72
9
73
5
74
0
42
0.000000001
43
0.0000000001
44
0.0000000001
40
0
40
0
40
0
40
0
40
0.11440764179909264
40
0.2223643662259519
40
0.2223643662259519
40
0.2223643662259519
40
0.2223643662259519
10
42.873089917016465
20
283.95494204127698
30
0
10
43.155083091530472
20
284.22888145691013
30
0
10
43.703169150685213
20
284.76131411248878
30
0
10
44.460491545539838
20
284.85090121887583
30
0
10
44.828167565179307
20
284.89439528548627
30
0
0
SPLINE
5
203
100
AcDbEntity
8
0
100
AcDbSpline
70
1064
71
3
72
9
73
5
74
0
42
0.000000001
43
0.0000000001
44
0.0000000001
40
0
40
0
40
0
40
0
40
0.11471558818351066
40
0.22799434890819176
40
0.22799434890819176
40
0.22799434890819176
40
0.22799434890819176
10
44.828167565179307
20
284.89439528548627
30
0
10
45.220070005821142
20
284.85805166208604
30
0
10
45.998966258758699
20
284.78581962383129
30
0
10
46.578048858319704
20
284.2604198566122
30
0
10
46.865765459847886
20
283.99937551581769
30
0
0
SPLINE
5
204
100
AcDbEntity
8
0
100
AcDbSpline
70
1064
71
3
72
9
73
5
74
0
42
0.000000001
43
0.0000000001
44
0.0000000001
40
0
40
0
40
0
40
0
40
0.12410949967955114
40
0.27290497206383235
40
0.27290497206383235
40
0.27290497206383235
40
0.27290497206383235
10
46.865765459847886
20
283.99937551581769
30
0
10
47.100389560437534
20
283.64913875644311
30
0
10
47.616305616680179
20
282.87900147219312
30
0
10
47.652295553727271
20
281.948568674591
30
0
10
47.671918280435044
20
281.44127052390485
30
0
0
SPLINE
5
205
100
AcDbEntity
8
0
100
AcDbSpline
70
1064
71
3
72
9
73
5
74
0
42
0.000000001
43
0.0000000001
44
0.0000000001
40
0
40
0
40
0
40
0
40
0.15420598916902917
40
0.28317333695725805
40
0.28317333695725805
40
0.28317333695725805
40
0.28317333695725805
10
47.671918280435044
20
281.44127052390485
30
0
10
47.651592275002344
20
280.91596066502711
30
0
10
47.614266988115602
20
279.95131755047277
30
0
10
47.08690337296963
20
279.14763033384105
30
0
10
46.846722967935044
20
278.78160219752698
30
0
0
SPLINE
5
206
100
AcDbEntity
8
0
100
AcDbSpline
70
1064
71
3
72
9
73
5
74
0
42
0.000000001
43
0.0000000001
44
0.0000000001
40
0
40
0
40
0
40
0
40
0.11461700613736575
40
0.22564046100168267
40
0.22564046100168267
40
0.22564046100168267
40
0.22564046100168267
10
46.846722967935044
20
278.78160219752698
30
0
10
46.562173159364946
20
278.50946653553189
30
0
10
46.001994943692907
20
277.9737273961411
30
0
10
45.232284142865346
20
277.88979519315382
30
0
10
44.853557951760727
20
277.84849744403272
30
0
0
SPLINE
5
207
100
AcDbEntity
8
0
100
AcDbSpline
70
1064
71
3
72
9
73
5
74
0
42
0.000000001
43
0.0000000001
44
0.0000000001
40
0
40
0
40
0
40
0
40
0.057888393892430466
40
0.11860506461243758
40
0.11860506461243758
40
0.11860506461243758
40
0.11860506461243758
10
44.853557951760727
20
277.84849744403272
30
0
10
44.659401479498648
20
277.86149489284605
30
0
10
44.261602553165375
20
277.88812481212096
30
0
10
43.897415557533037
20
278.05084285340286
30
0
10
43.710979826760727
20
278.13414197528272
30
0
0
SPLINE
5
208
100
AcDbEntity
8
0
100
AcDbSpline
70
1064
71
3
72
9
73
5
74
0
42
0.000000001
43
0.0000000001
44
0.0000000001
40
0
40
0
40
0
40
0
40
0.063300282920530859
40
0.12994485235849679
40
0.12994485235849679
40
0.12994485235849679
40
0.12994485235849679
10
43.710979826760727
20
278.13414197528272
30
0
10
43.529482948546693
20
278.2451616820552
30
0
10
43.156900331930899
20
278.47306649921927
30
0
10
42.885387210519426
20
278.8154685037735
30
0
10
42.746136792016465
20
278.99107556903272
30
0
0
LINE
5
209
100
AcDbEntity
8
0
100
AcDbLine
10
42.746136792016458
20
278.99107556903272
30
0
11
42.746136792016465
21
278.00084095561414
31
0
0
LINE
5
210
100
AcDbEntity
8
0
100
AcDbLine
10
42.746136792016465
20
278.00084095561414
30
0
11
41.089398272347886
21
278.00084095561414
31
0
0
SPLINE
5
211
100
AcDbEntity
8
0
100
AcDbSpline
70
1064
71
3
72
9
73
5
74
0
42
0.000000001
43
0.0000000001
44
0.0000000001
40
0
40
0
40
0
40
0
40
0.091461904705566546
40
0.15989083623223238
40
0.15989083623223238
40
0.15989083623223238
40
0.15989083623223238
10
42.860394127679307
20
281.51744227969556
30
0
10
42.864221576499872
20
281.20826192116061
30
0
10
42.870912602610957
20
280.66776250523577
30
0
10
43.094698464075904
20
280.17815366674324
30
0
10
43.190472729516465
20
279.96861439311414
30
0
0
SPLINE
5
212
100
AcDbEntity
8
0
100
AcDbSpline
70
1064
71
3
72
9
73
5
74
0
42
0.000000001
43
0.0000000001
44
0.0000000001
40
0
40
0
40
0
40
0
40
0.075856467344996029
40
0.14729227592591063
40
0.14729227592591063
40
0.14729227592591063
40
0.14729227592591063
10
43.190472729516465
20
279.96861439311414
30
0
10
43.353571550145624
20
279.76131280457855
30
0
10
43.670264342891187
20
279.35879046406939
30
0
10
44.176430476905047
20
279.29069990194057
30
0
10
44.421917803597886
20
279.25767641627698
30
0
0
SPLINE
5
213
100
AcDbEntity
8
0
100
AcDbSpline
70
1064
71
3
72
9
73
5
74
0
42
0.000000001
43
0.0000000001
44
0.0000000001
40
0
40
0
40
0
40
0
40
0.056010785521304986
40
0.11519935865439444
40
0.11519935865439444
40
0.11519935865439444
40
0.11519935865439444
10
44.421917803597886
20
279.25767641627698
30
0
10
44.613073230018628
20
279.28078348786067
30
0
10
45.006229339543289
20
279.32830861720942
30
0
10
45.282765033008658
20
279.61291405689724
30
0
10
45.424847014260727
20
279.7591422137013
30
0
0
SPLINE
5
214
100
AcDbEntity
8
0
100
AcDbSpline
70
1064
71
3
72
9
73
5
74
0
42
0.000000001
43
0.0000000001
44
0.0000000001
40
0
40
0
40
0
40
0
40
0.07239615970244162
40
0.1670811588918274
40
0.1670811588918274
40
0.1670811588918274
40
0.1670811588918274
10
45.424847014260727
20
279.7591422137013
30
0
10
45.546491371475653
20
279.97168937992876
30
0
10
45.827231127004936
20
280.46222129485949
30
0
10
45.837802789436921
20
281.03041004952297
30
0
10
45.843793757272202
20
281.35240297877698
30
0
0
SPLINE
5
215
100
AcDbEntity
8
0
100
AcDbSpline
70
1064
71
3
72
9
73
5
74
0
42
0.000000001
43
0.0000000001
44
0.0000000001
40
0
40
0
40
0
40
0
40
0.099891405162849875
40
0.17386410371417327
40
0.17386410371417327
40
0.17386410371417327
40
0.17386410371417327
10
45.843793757272202
20
281.35240297877698
30
0
10
45.839481714604361
20
281.69206960084932
30
0
10
45.831976469959926
20
282.28326994197926
30
0
10
45.546364336234326
20
282.79694092949546
30
0
10
45.424847014260727
20
283.01548879706769
30
0
0
SPLINE
5
216
100
AcDbEntity
8
0
100
AcDbSpline
70
1064
71
3
72
9
73
5
74
0
42
0.000000001
43
0.0000000001
44
0.0000000001
40
0
40
0
40
0
40
0
40
0.061389182481047154
40
0.12227086193776998
40
0.12227086193776998
40
0.12227086193776998
40
0.12227086193776998
10
45.424847014260727
20
283.01548879706769
30
0
10
45.27586842573595
20
283.16545165370479
30
0
10
44.979142851408241
20
283.46413762733437
30
0
10
44.560530677819642
20
283.50787251294025
30
0
10
44.352093346429307
20
283.52964919173627
30
0
0
SPLINE
5
217
100
AcDbEntity
8
0
100
AcDbSpline
70
1064
71
3
72
9
73
5
74
0
42
0.000000001
43
0.0000000001
44
0.0000000001
40
0
40
0
40
0
40
0
40
0.060039278986437628
40
0.12095959617697133
40
0.12095959617697133
40
0.12095959617697133
40
0.12095959617697133
10
44.352093346429307
20
283.52964919173627
30
0
10
44.14687352015779
20
283.50815258015263
30
0
10
43.733422397286716
20
283.46484390789306
30
0
10
43.435655466870244
20
283.17444236594304
30
0
10
43.285687573266465
20
283.0281839903584
30
0
0
SPLINE
5
218
100
AcDbEntity
8
0
100
AcDbSpline
70
1064
71
3
72
9
73
5
74
0
42
0.000000001
43
0.0000000001
44
0.0000000001
40
0
40
0
40
0
40
0
40
0.070190549402562655
40
0.15937638705780133
40
0.15937638705780133
40
0.15937638705780133
40
0.15937638705780133
10
43.285687573266465
20
283.0281839903584
30
0
10
43.162093759470849
20
282.82502903147929
30
0
10
42.8814586074012
20
282.3637403874294
30
0
10
42.867952208039014
20
281.82109986777607
30
0
10
42.860394127679307
20
281.51744227969556
30
0
0
LWPOLYLINE
5
219
100
AcDbEntity
8
0
100
AcDbPolyline
90
8
70
1
43
0.0
10
55.466839678597886
20
278.00084095561414
10
57.510783083749253
20
278.00084095561414
10
53.784710772347886
20
287.30650466048627
10
51.797892458749253
20
287.30650466048627
10
48.173381693673569
20
278.00084095561414
10
50.166546709847886
20
278.00084095561414
10
50.934612162423569
20
280.11461060607343
10
54.654337771249253
20
280.11461060607343
0
LWPOLYLINE
5
220
100
AcDbEntity
8
0
100
AcDbPolyline
90
3
70
1
43
0.0
10
52.769085772347886
20
285.13560634219556
10
54.051310427499253
20
281.68248158061414
10
51.512247927499253
20
281.68248158061414
0
LINE
5
221
100
AcDbEntity
8
0
100
AcDbLine
10
64.372600920510735
20
282.74888735377698
30
0
11
62.614299662423569
21
282.43150454127698
31
0
0
SPLINE
5
222
100
AcDbEntity
8
0
100
AcDbSpline
70
1064
71
3
72
9
73
5
74
0
42
0.000000001
43
0.0000000001
44
0.0000000001
40
0
40
0
40
0
40
0
40
0.048432163384005029
40
0.090590515446288183
40
0.090590515446288183
40
0.090590515446288183
40
0.090590515446288183
10
62.614299662423569
20
282.43150454127698
30
0
10
62.579266292864673
20
282.59263268874372
30
0
10
62.513737710525746
20
282.89401674661013
30
0
10
62.30513097231168
20
283.1198601976825
30
0
10
62.208051092935044
20
283.22496157252698
30
0
0
SPLINE
5
223
100
AcDbEntity
8
0
100
AcDbSpline
70
1064
71
3
72
9
73
5
74
0
42
0.000000001
43
0.0000000001
44
0.0000000001
40
0
40
0
40
0
40
0
40
0.041061398971739937
40
0.086934017767426222
40
0.086934017767426222
40
0.086934017767426222
40
0.086934017767426222
10
62.208051092935044
20
283.22496157252698
30
0
10
62.092252407971117
20
283.30265577590779
30
0
10
61.84708674902641
20
283.46714771788436
30
0
10
61.551515922810594
20
283.48312975010248
30
0
10
61.395551569772202
20
283.49156301581769
30
0
0
SPLINE
5
224
100
AcDbEntity
8
0
100
AcDbSpline
70
1064
71
3
72
9
73
5
74
0
42
0.000000001
43
0.0000000001
44
0.0000000001
40
0
40
0
40
0
40
0
40
0.061093528708412628
40
0.11927043007403645
40
0.11927043007403645
40
0.11927043007403645
40
0.11927043007403645
10
61.395551569772202
20
283.49156301581769
30
0
10
61.186218331801989
20
283.47421521389219
30
0
10
60.777545500991025
20
283.44034780043233
30
0
10
60.476154042941836
20
283.16331373917239
30
0
10
60.329143412423569
20
283.0281839903584
30
0
0
SPLINE
5
225
100
AcDbEntity
8
0
100
AcDbSpline
70
1064
71
3
72
9
73
5
74
0
42
0.000000001
43
0.0000000001
44
0.0000000001
40
0
40
0
40
0
40
0
40
0.067995537685694399
40
0.16087644332150947
40
0.16087644332150947
40
0.16087644332150947
40
0.16087644332150947
10
60.329143412423569
20
283.0281839903584
30
0
10
60.215035711157192
20
282.82847997344567
30
0
10
59.94505856618359
20
282.35598320304808
30
0
10
59.939056109350219
20
281.80827021271557
30
0
10
59.935590632272202
20
281.49205189311414
30
0
0
SPLINE
5
226
100
AcDbEntity
8
0
100
AcDbSpline
70
1064
71
3
72
9
73
5
74
0
42
0.000000001
43
0.0000000001
44
0.0000000001
40
0
40
0
40
0
40
0
40
0.10284305553153465
40
0.17636526688211274
40
0.17636526688211274
40
0.17636526688211274
40
0.17636526688211274
10
59.935590632272202
20
281.49205189311414
30
0
10
59.937858642491257
20
281.14264397828498
30
0
10
59.941748046841482
20
280.54344532718437
30
0
10
60.219644506128098
20
280.01678086445025
30
0
10
60.335492499185044
20
279.79722779357343
30
0
0
SPLINE
5
227
100
AcDbEntity
8
0
100
AcDbSpline
70
1064
71
3
72
9
73
5
74
0
42
0.000000001
43
0.0000000001
44
0.0000000001
40
0
40
0
40
0
40
0
40
0.060251876378267399
40
0.12258933644965198
40
0.12258933644965198
40
0.12258933644965198
40
0.12258933644965198
10
60.335492499185044
20
279.79722779357343
30
0
10
60.484149538455192
20
279.65283054236397
30
0
10
60.786609294036694
20
279.3590378129926
30
0
10
61.207112301101176
20
279.321300268909
30
0
10
61.420940764260727
20
279.30211048686414
30
0
0
SPLINE
5
228
100
AcDbEntity
8
0
100
AcDbSpline
70
1064
71
3
72
9
73
5
74
0
42
0.000000001
43
0.0000000001
44
0.0000000001
40
0
40
0
40
0
40
0
40
0.046727943753456937
40
0.089461285468708671
40
0.089461285468708671
40
0.089461285468708671
40
0.089461285468708671
10
61.420940764260727
20
279.30211048686414
30
0
10
61.579874232086489
20
279.31173755562412
30
0
10
61.884154523355264
20
279.33016871003372
30
0
10
62.133418303954997
20
279.50448746058282
30
0
10
62.252485163522202
20
279.58775501811414
30
0
0
SPLINE
5
229
100
AcDbEntity
8
0
100
AcDbSpline
70
1064
71
3
72
9
73
5
74
0
42
0.000000001
43
0.0000000001
44
0.0000000001
40
0
40
0
40
0
40
0
40
0.048205810128213261
40
0.11101172626321591
40
0.11101172626321591
40
0.11101172626321591
40
0.11101172626321591
10
62.252485163522202
20
279.58775501811414
30
0
10
62.35446050997345
20
279.71465693024118
30
0
10
62.589296502060932
20
280.00689556898317
30
0
10
62.666075866803936
20
280.37568875611305
30
0
10
62.709514506173569
20
280.58433693015485
30
0
0
LINE
5
230
100
AcDbEntity
8
0
100
AcDbLine
10
62.709514506173569
20
280.58433693015485
30
0
11
64.461469061685051
21
280.28599720561414
31
0
0
SPLINE
5
231
100
AcDbEntity
8
0
100
AcDbSpline
70
1064
71
3
72
9
73
5
74
0
42
0.000000001
43
0.0000000001
44
0.0000000001
40
0
40
0
40
0
40
0
40
0.11309364387612095
40
0.21328839764791743
40
0.21328839764791743
40
0.21328839764791743
40
0.21328839764791743
10
64.461469061685051
20
280.28599720561414
30
0
10
64.358238942584663
20
279.91577301016355
30
0
10
64.16355261064507
20
279.21755052203997
30
0
10
63.653642228495727
20
278.70499732616929
30
0
10
63.414105780435044
20
278.46421938502698
30
0
0
SPLINE
5
232
100
AcDbEntity
8
0
100
AcDbSpline
70
1064
71
3
72
9
73
5
74
0
42
0.000000001
43
0.0000000001
44
0.0000000001
40
0
40
0
40
0
40
0
40
0.10170158194991404
40
0.21966572220045513
40
0.21966572220045513
40
0.21966572220045513
40
0.21966572220045513
10
63.414105780435044
20
278.46421938502698
30
0
10
63.119948291422205
20
278.28489551844547
30
0
10
62.484596156029625
20
277.8975730608675
30
0
10
61.738882386339711
20
277.86564392185062
30
0
10
61.338421709847886
20
277.84849744403272
30
0
0
SPLINE
5
233
100
AcDbEntity
8
0
100
AcDbSpline
70
1064
71
3
72
9
73
5
74
0
42
0.000000001
43
0.0000000001
44
0.0000000001
40
0
40
0
40
0
40
0
40
0.13501397465618795
40
0.25966310621485628
40
0.25966310621485628
40
0.25966310621485628
40
0.25966310621485628
10
61.338421709847886
20
277.84849744403272
30
0
10
60.876722356748658
20
277.88078180403096
30
0
10
59.988767695252122
20
277.94287209668886
30
0
10
59.305223066739572
20
278.50956563869329
30
0
10
58.977093108010727
20
278.78160219752698
30
0
0
SPLINE
5
234
100
AcDbEntity
8
0
100
AcDbSpline
70
1064
71
3
72
9
73
5
74
0
42
0.000000001
43
0.0000000001
44
0.0000000001
40
0
40
0
40
0
40
0
40
0.12919432691143987
40
0.2779224593543328
40
0.2779224593543328
40
0.2779224593543328
40
0.2779224593543328
10
58.977093108010727
20
278.78160219752698
30
0
10
58.721937296664954
20
279.13959378236041
30
0
10
58.173046859266861
20
279.90970423584247
30
0
10
58.126191381829756
20
280.85775595665672
30
0
10
58.101117022347886
20
281.36509876811414
30
0
0
SPLINE
5
235
100
AcDbEntity
8
0
100
AcDbSpline
70
1064
71
3
72
9
73
5
74
0
42
0.000000001
43
0.0000000001
44
0.0000000001
40
0
40
0
40
0
40
0
40
0.15000710359565791
40
0.27944432005938591
40
0.27944432005938591
40
0.27944432005938591
40
0.27944432005938591
10
58.101117022347886
20
281.36509876811414
30
0
10
58.125765115835847
20
281.87709321443225
30
0
10
58.171681406200797
20
282.83087431210083
30
0
10
58.726467869639912
20
283.60344092901369
30
0
10
58.983442194772202
20
283.96128993594556
30
0
0
SPLINE
5
236
100
AcDbEntity
8
0
100
AcDbSpline
70
1064
71
3
72
9
73
5
74
0
42
0.000000001
43
0.0000000001
44
0.0000000001
40
0
40
0
40
0
40
0
40
0.12517483986428019
40
0.26206483050557638
40
0.26206483050557638
40
0.26206483050557638
40
0.26206483050557638
10
58.983442194772202
20
283.96128993594556
30
0
10
59.313817950286456
20
284.23329684812069
30
0
10
60.005489427285056
20
284.80276788090015
30
0
10
60.901912132426148
20
284.86295594977344
30
0
10
61.370159991097886
20
284.89439528548627
30
0
0
SPLINE
5
237
100
AcDbEntity
8
0
100
AcDbSpline
70
1064
71
3
72
9
73
5
74
0
42
0.000000001
43
0.0000000001
44
0.0000000001
40
0
40
0
40
0
40
0
40
0.11125080946877607
40
0.20524102084261109
40
0.20524102084261109
40
0.20524102084261109
40
0.20524102084261109
10
61.370159991097886
20
284.89439528548627
30
0
10
61.747151211897879
20
284.88068141715553
30
0
10
62.44264334696777
20
284.85538139148082
30
0
10
63.048009812888814
20
284.5164195294206
30
0
10
63.325237639260727
20
284.3611918028584
30
0
0
SPLINE
5
238
100
AcDbEntity
8
0
100
AcDbSpline
70
1064
71
3
72
9
73
5
74
0
42
0.000000001
43
0.0000000001
44
0.0000000001
40
0
40
0
40
0
40
0
40
0.091495607991157274
40
0.1950033864620444
40
0.1950033864620444
40
0.1950033864620444
40
0.1950033864620444
10
63.325237639260727
20
284.3611918028584
30
0
10
63.554130302366794
20
284.15228152358515
30
0
10
64.041966226101124
20
283.70703379181475
30
0
10
64.257954412359425
20
283.08112152422541
30
0
10
64.372600920510735
20
282.74888735377698
30
0
0
LINE
5
239
100
AcDbEntity
8
0
100
AcDbLine
10
67.057659037423576
20
282.68541079127698
30
0
11
65.439006693673576
21
282.97740321719556
31
0
0
SPLINE
5
240
100
AcDbEntity
8
0
100
AcDbSpline
70
1064
71
3
72
9
73
5
74
0
42
0.000000001
43
0.0000000001
44
0.0000000001
40
0
40
0
40
0
40
0
40
0.09281094505637498
40
0.17519932623204204
40
0.17519932623204204
40
0.17519932623204204
40
0.17519932623204204
10
65.439006693673576
20
282.97740321719556
30
0
10
65.539066249859587
20
283.27668490921207
30
0
10
65.727948787541109
20
283.84163929862194
30
0
10
66.170397806844377
20
284.23818888825065
30
0
10
66.378461726022209
20
284.4246683653584
30
0
0
SPLINE
5
241
100
AcDbEntity
8
0
100
AcDbSpline
70
1064
71
3
72
9
73
5
74
0
42
0.000000001
43
0.0000000001
44
0.0000000001
40
0
40
0
40
0
40
0
40
0.090017242186900839
40
0.20582376041147343
40
0.20582376041147343
40
0.20582376041147343
40
0.20582376041147343
10
66.378461726022209
20
284.4246683653584
30
0
10
66.649689895706445
20
284.56112586655678
30
0
10
67.269851105466898
20
284.8731349367157
30
0
10
67.966794253379419
20
284.88674026314879
30
0
10
68.358928568673576
20
284.89439528548627
30
0
0
SPLINE
5
242
100
AcDbEntity
8
0
100
AcDbSpline
70
1064
71
3
72
9
73
5
74
0
42
0.000000001
43
0.0000000001
44
0.0000000001
40
0
40
0
40
0
40
0
40
0.10434630165771779
40
0.1810322620571653
40
0.1810322620571653
40
0.1810322620571653
40
0.1810322620571653
10
68.358928568673576
20
284.89439528548627
30
0
10
68.709690173775101
20
284.89173527080709
30
0
10
69.318232746013308
20
284.88712036384027
30
0
10
69.892858602420858
20
284.69158168739659
30
0
10
70.136272318673576
20
284.60875075423627
30
0
0
SPLINE
5
243
100
AcDbEntity
8
0
100
AcDbSpline
70
1064
71
3
72
9
73
5
74
0
42
0.000000001
43
0.0000000001
44
0.0000000001
40
0
40
0
40
0
40
0
40
0.059030075753405666
40
0.11025832037985042
40
0.11025832037985042
40
0.11025832037985042
40
0.11025832037985042
10
70.136272318673576
20
284.60875075423627
30
0
10
70.313037571210387
20
284.5149201872714
30
0
10
70.643205533854513
20
284.33966036282106
30
0
10
70.856172275228204
20
284.03364595774894
30
0
10
70.955120928597893
20
283.89146547877698
30
0
0
SPLINE
5
244
100
AcDbEntity
8
0
100
AcDbSpline
70
1064
71
3
72
9
73
5
74
0
42
0.000000001
43
0.0000000001
44
0.0000000001
40
0
40
0
40
0
40
0
40
0.064022674823642642
40
0.16212073463893484
40
0.16212073463893484
40
0.16212073463893484
40
0.16212073463893484
10
70.955120928597893
20
283.89146547877698
30
0
10
71.02474003583977
20
283.68839108585189
30
0
10
71.201032276706769
20
283.17415812295144
30
0
10
71.198102058488857
20
282.62842387978714
30
0
10
71.196329005074944
20
282.29820411765485
30
0
0
LINE
5
245
100
AcDbEntity
8
0
100
AcDbLine
10
71.196329005074929
20
282.29820411765485
30
0
11
71.177288897347893
21
280.21617274844556
31
0
0
SPLINE
5
246
100
AcDbEntity
8
0
100
AcDbSpline
70
1064
71
3
72
9
73
5
74
0
42
0.000000001
43
0.0000000001
44
0.0000000001
40
0
40
0
40
0
40
0
40
0.07731019193538459
40
0.13177669152853916
40
0.13177669152853916
40
0.13177669152853916
40
0.13177669152853916
10
71.177288897347893
20
280.21617274844556
30
0
10
71.177592424998124
20
279.95810118879626
30
0
10
71.178109793646826
20
279.51821331040861
30
0
10
71.235913779581935
20
279.08235812780765
30
0
10
71.259805567574944
20
278.9022086199513
30
0
0
SPLINE
5
247
100
AcDbEntity
8
0
100
AcDbSpline
70
1064
71
3
72
9
73
5
74
0
42
0.000000001
43
0.0000000001
44
0.0000000001
40
0
40
0
40
0
40
0
40
0.045252653370913186
40
0.095949798773788703
40
0.095949798773788703
40
0.095949798773788703
40
0.095949798773788703
10
71.259805567574944
20
278.9022086199513
30
0
10
71.297530422590569
20
278.75582673493722
30
0
10
71.377518931062141
20
278.44545129029518
30
0
10
71.512313477242756
20
278.15454668000882
30
0
10
71.583535082650627
20
278.00084095561414
30
0
0
LINE
5
248
100
AcDbEntity
8
0
100
AcDbLine
10
71.583535082650627
20
278.00084095561419
30
0
11
69.818889506173576
21
278.00084095561414
31
0
0
SPLINE
5
249
100
AcDbEntity
8
0
100
AcDbSpline
70
1064
71
3
72
9
73
5
74
0
42
0.000000001
43
0.0000000001
44
0.0000000001
40
0
40
0
40
0
40
0
40
0.023388541603230808
40
0.055415028956380993
40
0.055415028956380993
40
0.055415028956380993
40
0.055415028956380993
10
69.818889506173576
20
278.00084095561414
30
0
10
69.792310177908931
20
278.07415093485298
30
0
10
69.729335142081027
20
278.24784601559929
30
0
10
69.677476061880725
20
278.42519760710553
30
0
10
69.647504694772209
20
278.52769594752698
30
0
0
SPLINE
5
250
100
AcDbEntity
8
0
100
AcDbSpline
70
1064
71
3
72
9
73
5
74
0
42
0.000000001
43
0.0000000001
44
0.0000000001
40
0
40
0
40
0
40
0
40
0.013711011492318393
40
0.021890951519934587
40
0.021890951519934587
40
0.021890951519934587
40
0.021890951519934587
10
69.647504694772209
20
278.52769594752698
30
0
10
69.635273996154936
20
278.57174370012905
30
0
10
69.615746506834682
20
278.64207018313971
30
0
10
69.592656223703543
20
278.71130027464295
30
0
10
69.584028132272209
20
278.73716931903272
30
0
0
SPLINE
5
251
100
AcDbEntity
8
0
100
AcDbSpline
70
1064
71
3
72
9
73
5
74
0
42
0.000000001
43
0.0000000001
44
0.0000000001
40
0
40
0
40
0
40
0
40
0.061220765866727186
40
0.11882120740284285
40
0.11882120740284285
40
0.11882120740284285
40
0.11882120740284285
10
69.584028132272209
20
278.73716931903272
30
0
10
69.431842415201402
20
278.599531169442
30
0
10
69.136470568805564
20
278.3323941794431
30
0
10
68.779523701390019
20
278.15611803502611
30
0
10
68.606488116097893
20
278.07066541278272
30
0
0
SPLINE
5
252
100
AcDbEntity
8
0
100
AcDbSpline
70
1064
71
3
72
9
73
5
74
0
42
0.000000001
43
0.0000000001
44
0.0000000001
40
0
40
0
40
0
40
0
40
0.056318153628992063
40
0.11387398971329403
40
0.11387398971329403
40
0.11387398971329403
40
0.11387398971329403
10
68.606488116097893
20
278.07066541278272
30
0
10
68.429027217250621
20
278.00586858548633
30
0
10
68.070205429466682
20
277.8748509158799
30
0
10
67.688550046600611
20
277.85734535657554
30
0
10
67.495648272347893
20
277.84849744403272
30
0
0
SPLINE
5
253
100
AcDbEntity
8
0
100
AcDbSpline
70
1064
71
3
72
9
73
5
74
0
42
0.000000001
43
0.0000000001
44
0.0000000001
40
0
40
0
40
0
40
0
40
0.094216657925725311
40
0.177115156000482
40
0.177115156000482
40
0.177115156000482
40
0.177115156000482
10
67.495648272347893
20
277.84849744403272
30
0
10
67.174350291132271
20
277.86540380916199
30
0
10
66.570351557590868
20
277.89718559343663
30
0
10
66.080757946579695
20
278.24884494847976
30
0
10
65.851604349923576
20
278.41343861186414
30
0
0
SPLINE
5
254
100
AcDbEntity
8
0
100
AcDbSpline
70
1064
71
3
72
9
73
5
74
0
42
0.000000001
43
0.0000000001
44
0.0000000001
40
0
40
0
40
0
40
0
40
0.078054819783614587
40
0.15832285628031068
40
0.15832285628031068
40
0.15832285628031068
40
0.15832285628031068
10
65.851604349923576
20
278.41343861186414
30
0
10
65.677583850750366
20
278.61614354099044
30
0
10
65.324608562910271
20
279.02730102556779
30
0
10
65.278367463671998
20
279.56768979791531
30
0
10
65.25492370874926
20
279.84166126811414
30
0
0
SPLINE
5
255
100
AcDbEntity
8
0
100
AcDbSpline
70
1064
71
3
72
9
73
5
74
0
42
0.000000001
43
0.0000000001
44
0.0000000001
40
0
40
0
40
0
40
0
40
0.054384843016917719
40
0.10620715398044624
40
0.10620715398044624
40
0.10620715398044624
40
0.10620715398044624
10
65.25492370874926
20
279.84166126811414
30
0
10
65.265157141338278
20
280.02491977752879
30
0
10
65.285141822555318
20
280.38280193086285
30
0
10
65.448275845832768
20
280.70168949455626
30
0
10
65.527874834847893
20
280.85728626811414
30
0
0
SPLINE
5
256
100
AcDbEntity
8
0
100
AcDbSpline
70
1064
71
3
72
9
73
5
74
0
42
0.000000001
43
0.0000000001
44
0.0000000001
40
0
40
0
40
0
40
0
40
0.051405976341088115
40
0.10360585137021036
40
0.10360585137021036
40
0.10360585137021036
40
0.10360585137021036
10
65.527874834847893
20
280.85728626811414
30
0
10
65.628464291777618
20
280.99881599578003
30
0
10
65.831196679446364
20
281.28406119434851
30
0
10
66.136016038446499
20
281.45613599082139
30
0
10
66.289593584847893
20
281.54283266627698
30
0
0
SPLINE
5
257
100
AcDbEntity
8
0
100
AcDbSpline
70
1064
71
3
72
9
73
5
74
0
42
0.000000001
43
0.0000000001
44
0.0000000001
40
0
40
0
40
0
40
0
40
0.06437555631476688
40
0.14851800592273062
40
0.14851800592273062
40
0.14851800592273062
40
0.14851800592273062
10
66.289593584847893
20
281.54283266627698
30
0
10
66.488908194862603
20
281.6235254507439
30
0
10
66.948738138481417
20
281.80968821387063
30
0
10
67.435625118610133
20
281.90677434723636
30
0
10
67.711469538522209
20
281.96177821719556
30
0
0
SPLINE
5
258
100
AcDbEntity
8
0
100
AcDbSpline
70
1064
71
3
72
9
73
5
74
0
42
0.000000001
43
0.0000000001
44
0.0000000001
40
0
40
0
40
0
40
0
40
0.10825216378203235
40
0.17892132954517248
40
0.17892132954517248
40
0.17892132954517248
40
0.17892132954517248
10
67.711469538522209
20
281.96177821719556
30
0
10
68.06684903027184
20
282.02770312490549
30
0
10
68.654227323097132
20
282.13666512368218
30
0
10
69.220653543818031
20
282.3252716852482
30
0
10
69.44437683374926
20
282.39976626002698
30
0
0
LINE
5
259
100
AcDbEntity
8
0
100
AcDbLine
10
69.44437683374926
20
282.39976626002692
30
0
11
69.44437683374926
21
282.57750135028272
31
0
0
SPLINE
5
260
100
AcDbEntity
8
0
100
AcDbSpline
70
1064
71
3
72
9
73
5
74
0
42
0.000000001
43
0.0000000001
44
0.0000000001
40
0
40
0
40
0
40
0
40
0.044413422195265749
40
0.079140734138987839
40
0.079140734138987839
40
0.079140734138987839
40
0.079140734138987839
10
69.44437683374926
20
282.57750135028272
30
0
10
69.44006016676866
20
282.73040237454427
30
0
10
69.432368253446214
20
283.00285828342373
30
0
10
69.264244185062523
20
283.21457775962381
30
0
10
69.19047058374926
20
283.30748122298627
30
0
0
SPLINE
5
261
100
AcDbEntity
8
0
100
AcDbSpline
70
1064
71
3
72
9
73
5
74
0
42
0.000000001
43
0.0000000001
44
0.0000000001
40
0
40
0
40
0
40
0
40
0.040267073523327729
40
0.099718792819583124
40
0.099718792819583124
40
0.099718792819583124
40
0.099718792819583124
10
69.19047058374926
20
283.30748122298627
30
0
10
69.070588430848943
20
283.3717055202975
30
0
10
68.773708063794032
20
283.5307528221544
30
0
10
68.43431779488489
20
283.53006140832684
30
0
10
68.231975443673576
20
283.52964919173627
30
0
0
SPLINE
5
262
100
AcDbEntity
8
0
100
AcDbSpline
70
1064
71
3
72
9
73
5
74
0
42
0.000000001
43
0.0000000001
44
0.0000000001
40
0
40
0
40
0
40
0
40
0.042637413583658801
40
0.077585582704555317
40
0.077585582704555317
40
0.077585582704555317
40
0.077585582704555317
10
68.231975443673576
20
283.52964919173627
30
0
10
68.08757369568346
20
283.52537914187781
30
0
10
67.824811655969498
20
283.51760910428408
30
0
10
67.593496649417091
20
283.39461968250055
30
0
10
67.489301569772209
20
283.33921950423627
30
0
0
SPLINE
5
263
100
AcDbEntity
8
0
100
AcDbSpline
70
1064
71
3
72
9
73
5
74
0
42
0.000000001
43
0.0000000001
44
0.0000000001
40
0
40
0
40
0
40
0
40
0.035136957202597595
40
0.079286527696198622
40
0.079286527696198622
40
0.079286527696198622
40
0.079286527696198622
10
67.489301569772209
20
283.33921950423627
30
0
10
67.402275148639106
20
283.25859819377456
30
0
10
67.205900069554019
20
283.07667624396066
30
0
10
67.110680625063395
20
282.8253552802741
30
0
10
67.057659037423576
20
282.68541079127698
30
0
0
SPLINE
5
264
100
AcDbEntity
8
0
100
AcDbSpline
70
1064
71
3
72
9
73
5
74
0
42
0.000000001
43
0.0000000001
44
0.0000000001
40
0
40
0
40
0
40
0
40
0.046015497378945634
40
0.1119582187409878
40
0.1119582187409878
40
0.1119582187409878
40
0.1119582187409878
10
69.44437683374926
20
281.23814564311414
30
0
10
69.297186971123622
20
281.19482366350769
30
0
10
68.939065995040551
20
281.08941892064189
30
0
10
68.573968695142014
20
281.01124202765175
30
0
10
68.358928568673576
20
280.96519630515485
30
0
0
SPLINE
5
265
100
AcDbEntity
8
0
100
AcDbSpline
70
1064
71
3
72
9
73
5
74
0
42
0.000000001
43
0.0000000001
44
0.0000000001
40
0
40
0
40
0
40
0
40
0.063391384404625259
40
0.10227372188296212
40
0.10227372188296212
40
0.10227372188296212
40
0.10227372188296212
10
68.358928568673576
20
280.96519630515485
30
0
10
68.150908661255073
20
280.92252392864071
30
0
10
67.815295701272348
20
280.85367762076021
30
0
10
67.505509508880678
20
280.70911897537246
30
0
10
67.387735255074944
20
280.65416079127698
30
0
0
SPLINE
5
266
100
AcDbEntity
8
0
100
AcDbSpline
70
1064
71
3
72
9
73
5
74
0
42
0.000000001
43
0.0000000001
44
0.0000000001
40
0
40
0
40
0
40
0
40
0.038400006545390296
40
0.074232675703528067
40
0.074232675703528067
40
0.074232675703528067
40
0.074232675703528067
10
67.387735255074944
20
280.65416079127698
30
0
10
67.285944315346853
20
280.56842614847676
30
0
10
67.089167947367301
20
280.40268888673899
30
0
10
67.0550723579737
20
280.1484608435789
30
0
10
67.038614161324944
20
280.02574306094556
30
0
0
SPLINE
5
267
100
AcDbEntity
8
0
100
AcDbSpline
70
1064
71
3
72
9
73
5
74
0
42
0.000000001
43
0.0000000001
44
0.0000000001
40
0
40
0
40
0
40
0
40
0.035603486689792824
40
0.072056995215798086
40
0.072056995215798086
40
0.072056995215798086
40
0.072056995215798086
10
67.038614161324944
20
280.02574306094556
30
0
10
67.050790499870487
20
279.90461457025157
30
0
10
67.075433883142665
20
279.65946568496184
30
0
10
67.236452800051168
20
279.47274467354737
30
0
10
67.31791198999926
20
279.3782828387013
30
0
0
SPLINE
5
268
100
AcDbEntity
8
0
100
AcDbSpline
70
1064
71
3
72
9
73
5
74
0
42
0.000000001
43
0.0000000001
44
0.0000000001
40
0
40
0
40
0
40
0
40
0.037767567441370477
40
0.077710519113323884
40
0.077710519113323884
40
0.077710519113323884
40
0.077710519113323884
10
67.31791198999926
20
279.3782828387013
30
0
10
67.419272234622852
20
279.29868992657708
30
0
10
67.627830999742699
20
279.13491960886967
30
0
10
67.892706971317992
20
279.11537748975599
30
0
10
68.028852351022209
20
279.10533290469556
30
0
0
SPLINE
5
269
100
AcDbEntity
8
0
100
AcDbSpline
70
1064
71
3
72
9
73
5
74
0
42
0.000000001
43
0.0000000001
44
0.0000000001
40
0
40
0
40
0
40
0
40
0.047794292224560754
40
0.098622636965063779
40
0.098622636965063779
40
0.098622636965063779
40
0.098622636965063779
10
68.028852351022209
20
279.10533290469556
30
0
10
68.189915119486031
20
279.12011167520643
30
0
10
68.522265159699288
20
279.15060739448688
30
0
10
68.80404052118665
20
279.3301715567253
30
0
10
68.949262507272209
20
279.42271571719556
30
0
0
SPLINE
5
270
100
AcDbEntity
8
0
100
AcDbSpline
70
1064
71
3
72
9
73
5
74
0
42
0.000000001
43
0.0000000001
44
0.0000000001
40
0
40
0
40
0
40
0
40
0.0379275275065621
40
0.073768553557034947
40
0.073768553557034947
40
0.073768553557034947
40
0.073768553557034947
10
68.949262507272209
20
279.42271571719556
30
0
10
69.047393464325893
20
279.50588154198692
30
0
10
69.238256914619711
20
279.66763800236185
30
0
10
69.329986187373237
20
279.90010295878477
30
0
10
69.374553568673576
20
280.01304786765485
30
0
0
SPLINE
5
271
100
AcDbEntity
8
0
100
AcDbSpline
70
1064
71
3
72
9
73
5
74
0
42
0.000000001
43
0.0000000001
44
0.0000000001
40
0
40
0
40
0
40
0
40
0.0335774597840727
40
0.087402111970444729
40
0.087402111970444729
40
0.087402111970444729
40
0.087402111970444729
10
69.374553568673576
20
280.01304786765485
30
0
10
69.394666729742269
20
280.12335115009824
30
0
10
69.447021278511315
20
280.41047054223884
30
0
10
69.445384690301054
20
280.70270843185193
30
0
10
69.44437683374926
20
280.88267665469556
30
0
0
LINE
5
272
100
AcDbEntity
8
0
100
AcDbLine
10
69.444376833749246
20
280.88267665469562
30
0
11
69.44437683374926
21
281.23814564311414
31
0
0
LINE
5
273
100
AcDbEntity
8
0
100
AcDbLine
10
79.137246020150627
20
278.00084095561414
30
0
11
77.480508692574944
21
278.00084095561414
31
0
0
LINE
5
274
100
AcDbEntity
8
0
100
AcDbLine
10
77.480508692574944
20
278.00084095561414
30
0
11
77.480508692574944
21
278.99107556903272
31
0
0
SPLINE
5
275
100
AcDbEntity
8
0
100
AcDbSpline
70
1064
71
3
72
9
73
5
74
0
42
0.000000001
43
0.0000000001
44
0.0000000001
40
0
40
0
40
0
40
0
40
0.067659109695481501
40
0.13139316829680014
40
0.13139316829680014
40
0.13139316829680014
40
0.13139316829680014
10
77.480508692574944
20
278.99107556903272
30
0
10
77.339603308389741
20
278.81222823712824
30
0
10
77.065966765705411
20
278.46490889334564
30
0
10
76.686859739614036
20
278.23790529149716
30
0
10
76.502968676400627
20
278.12779408061414
30
0
0
SPLINE
5
276
100
AcDbEntity
8
0
100
AcDbSpline
70
1064
71
3
72
9
73
5
74
0
42
0.000000001
43
0.0000000001
44
0.0000000001
40
0
40
0
40
0
40
0
40
0.059955499427779675
40
0.11719430101296288
40
0.11719430101296288
40
0.11719430101296288
40
0.11719430101296288
10
76.502968676400627
20
278.12779408061414
30
0
10
76.318551386863973
20
278.04634491134027
30
0
10
75.958073106335476
20
277.88713718974276
30
0
10
75.565043380395309
20
277.86117676180584
30
0
10
75.373083956551994
20
277.84849744403272
30
0
0
SPLINE
5
277
100
AcDbEntity
8
0
100
AcDbSpline
70
1064
71
3
72
9
73
5
74
0
42
0.000000001
43
0.0000000001
44
0.0000000001
40
0
40
0
40
0
40
0
40
0.11040279992865606
40
0.22552289886305918
40
0.22552289886305918
40
0.22552289886305918
40
0.22552289886305918
10
75.373083956551994
20
277.84849744403272
30
0
10
74.996861540085263
20
277.89052967204265
30
0
10
74.228341447898515
20
277.97639008421152
30
0
10
73.666645980159728
20
278.50948124172453
30
0
10
73.37992370874926
20
278.78160219752698
30
0
0
SPLINE
5
278
100
AcDbEntity
8
0
100
AcDbSpline
70
1064
71
3
72
9
73
5
74
0
42
0.000000001
43
0.0000000001
44
0.0000000001
40
0
40
0
40
0
40
0
40
0.12827178868279243
40
0.2788614883871583
40
0.2788614883871583
40
0.2788614883871583
40
0.2788614883871583
10
73.37992370874926
20
278.78160219752698
30
0
10
73.139649562852782
20
279.14483767511615
30
0
10
72.617296155032676
20
279.93450769496764
30
0
10
72.576668165581935
20
280.88406226970625
30
0
10
72.55472839624926
20
281.39683704936414
30
0
0
SPLINE
5
279
100
AcDbEntity
8
0
100
AcDbSpline
70
1064
71
3
72
9
73
5
74
0
42
0.000000001
43
0.0000000001
44
0.0000000001
40
0
40
0
40
0
40
0
40
0.15209795954979896
40
0.27717851873571153
40
0.27717851873571153
40
0.27717851873571153
40
0.27717851873571153
10
72.55472839624926
20
281.39683704936414
30
0
10
72.573101367517637
20
281.91546353338089
30
0
10
72.606583690199813
20
282.86059206135297
30
0
10
73.126334322937055
20
283.64527618259177
30
0
10
73.360878832650627
20
283.99937551581769
30
0
0
SPLINE
5
280
100
AcDbEntity
8
0
100
AcDbSpline
70
1064
71
3
72
9
73
5
74
0
42
0.000000001
43
0.0000000001
44
0.0000000001
40
0
40
0
40
0
40
0
40
0.11327879604506691
40
0.22799425568294673
40
0.22799425568294673
40
0.22799425568294673
40
0.22799425568294673
10
73.360878832650627
20
283.99937551581769
30
0
10
73.648595388027303
20
284.26042015405812
30
0
10
74.227677477359066
20
284.78582014128938
30
0
10
75.00657349292311
20
284.85805185250206
30
0
10
75.398475535226311
20
284.89439528548627
30
0
0
SPLINE
5
281
100
AcDbEntity
8
0
100
AcDbSpline
70
1064
71
3
72
9
73
5
74
0
42
0.000000001
43
0.0000000001
44
0.0000000001
40
0
40
0
40
0
40
0
40
0.10795672442685927
40
0.22236455406559463
40
0.22236455406559463
40
0.22236455406559463
40
0.22236455406559463
10
75.398475535226311
20
284.89439528548627
30
0
10
75.766151471934251
20
284.85090110115686
30
0
10
76.523474335709224
20
284.76131367661986
30
0
10
77.071561565819181
20
284.22888145301567
30
0
10
77.353555567574944
20
283.95494204127698
30
0
0
LINE
5
282
100
AcDbEntity
8
0
100
AcDbLine
10
77.353555567574929
20
283.95494204127698
30
0
11
77.353555567574944
21
287.30650466048627
31
0
0
LINE
5
283
100
AcDbEntity
8
0
100
AcDbLine
10
77.353555567574944
20
287.30650466048627
30
0
11
79.137246020150627
21
287.30650466048627
31
0
0
LINE
5
284
100
AcDbEntity
8
0
100
AcDbLine
10
79.137246020150627
20
287.30650466048627
30
0
11
79.137246020150627
21
278.00084095561414
31
0
0
SPLINE
5
285
100
AcDbEntity
8
0
100
AcDbSpline
70
1064
71
3
72
9
73
5
74
0
42
0.000000001
43
0.0000000001
44
0.0000000001
40
0
40
0
40
0
40
0
40
0.093291779580536097
40
0.16029719636002454
40
0.16029719636002454
40
0.16029719636002454
40
0.16029719636002454
10
74.376503832650627
20
281.51744227969556
30
0
10
74.378383021136301
20
281.20256040210262
30
0
10
74.381611908472763
20
280.66151935443821
30
0
10
74.588401984005429
20
280.16391959096109
30
0
10
74.674841769051994
20
279.95591919982343
30
0
0
SPLINE
5
286
100
AcDbEntity
8
0
100
AcDbSpline
70
1064
71
3
72
9
73
5
74
0
42
0.000000001
43
0.0000000001
44
0.0000000001
40
0
40
0
40
0
40
0
40
0.073612398624939554
40
0.14466211908946436
40
0.14466211908946436
40
0.14466211908946436
40
0.14466211908946436
10
74.674841769051994
20
279.95591919982343
30
0
10
74.830644895359882
20
279.75228356865421
30
0
10
75.136827153151785
20
279.35210150045197
30
0
10
75.635819894588025
20
279.28877751786393
30
0
10
75.880896456551994
20
279.25767641627698
30
0
0
SPLINE
5
287
100
AcDbEntity
8
0
100
AcDbSpline
70
1064
71
3
72
9
73
5
74
0
42
0.000000001
43
0.0000000001
44
0.0000000001
40
0
40
0
40
0
40
0
40
0.058437811754240183
40
0.12012690913041434
40
0.12012690913041434
40
0.12012690913041434
40
0.12012690913041434
10
75.880896456551994
20
279.25767641627698
30
0
10
76.080302659276128
20
279.28161912078093
30
0
10
76.490209363096994
20
279.33083662229143
30
0
10
76.779631832371308
20
279.62640214255282
30
0
10
76.928259737801994
20
279.77818470561414
30
0
0
SPLINE
5
288
100
AcDbEntity
8
0
100
AcDbSpline
70
1064
71
3
72
9
73
5
74
0
42
0.000000001
43
0.0000000001
44
0.0000000001
40
0
40
0
40
0
40
0
40
0.073099042516401522
40
0.16498244064212081
40
0.16498244064212081
40
0.16498244064212081
40
0.16498244064212081
10
76.928259737801994
20
279.77818470561414
30
0
10
77.053737956804952
20
279.99144104553977
30
0
10
77.336938695226266
20
280.47275448320136
30
0
10
77.351687977011125
20
281.03366738458294
30
0
10
77.359902270150627
20
281.34605568015485
30
0
0
SPLINE
5
289
100
AcDbEntity
8
0
100
AcDbSpline
70
1064
71
3
72
9
73
5
74
0
42
0.000000001
43
0.0000000001
44
0.0000000001
40
0
40
0
40
0
40
0
40
0.10036485578323924
40
0.17448112629474194
40
0.17448112629474194
40
0.17448112629474194
40
0.17448112629474194
10
77.359902270150627
20
281.34605568015485
30
0
10
77.355739854872951
20
281.68732753688539
30
0
10
77.348503627609091
20
282.28061786217273
30
0
10
77.06246267743262
20
282.79639602416881
30
0
10
76.940957911324944
20
283.01548879706769
30
0
0
SPLINE
5
290
100
AcDbEntity
8
0
100
AcDbSpline
70
1064
71
3
72
9
73
5
74
0
42
0.000000001
43
0.0000000001
44
0.0000000001
40
0
40
0
40
0
40
0
40
0.061389275236222583
40
0.12227095469294541
40
0.12227095469294541
40
0.12227095469294541
40
0.12227095469294541
10
76.940957911324944
20
283.01548879706769
30
0
10
76.791978909254766
20
283.1654516534345
30
0
10
76.495252734491686
20
283.4641374018147
30
0
10
76.076640336436853
20
283.50787244900386
30
0
10
75.868203051400627
20
283.52964919173627
30
0
0
SPLINE
5
291
100
AcDbEntity
8
0
100
AcDbSpline
70
1064
71
3
72
9
73
5
74
0
42
0.000000001
43
0.0000000001
44
0.0000000001
40
0
40
0
40
0
40
0
40
0.059762247152482961
40
0.12122674174938605
40
0.12122674174938605
40
0.12122674174938605
40
0.12122674174938605
10
75.868203051400627
20
283.52964919173627
30
0
10
75.66410024453431
20
283.50732658510401
30
0
10
75.250081036133793
20
283.46204554233333
30
0
10
74.95261592799379
20
283.16994020814002
30
0
10
74.801794894051994
20
283.02183669173627
30
0
0
SPLINE
5
292
100
AcDbEntity
8
0
100
AcDbSpline
70
1064
71
3
72
9
73
5
74
0
42
0.000000001
43
0.0000000001
44
0.0000000001
40
0
40
0
40
0
40
0
40
0.070331815279620361
40
0.15872991953491078
40
0.15872991953491078
40
0.15872991953491078
40
0.15872991953491078
10
74.801794894051994
20
283.02183669173627
30
0
10
74.678164981713422
20
282.81816438947897
30
0
10
74.399148067965484
20
282.35850203012922
30
0
10
74.3846037132042
20
281.8182907482888
30
0
10
74.376503832650627
20
281.51744227969556
30
0
0
LINE
5
293
100
AcDbEntity
8
0
100
AcDbLine
10
84.799353487801994
20
280.14634888732343
30
0
11
86.576697237801994
21
279.84800916278272
31
0
0
SPLINE
5
294
100
AcDbEntity
8
0
100
AcDbSpline
70
1064
71
3
72
9
73
5
74
0
42
0.000000001
43
0.0000000001
44
0.0000000001
40
0
40
0
40
0
40
0
40
0.096878252528102907
40
0.18687687595604766
40
0.18687687595604766
40
0.18687687595604766
40
0.18687687595604766
10
86.576697237801994
20
279.84800916278272
30
0
10
86.450637883147593
20
279.54492019027754
30
0
10
86.207471044686983
20
278.96026554549991
30
0
10
85.724057584136787
20
278.55262624094081
30
0
10
85.491248972726311
20
278.35630994403272
30
0
0
SPLINE
5
295
100
AcDbEntity
8
0
100
AcDbSpline
70
1064
71
3
72
9
73
5
74
0
42
0.000000001
43
0.0000000001
44
0.0000000001
40
0
40
0
40
0
40
0
40
0.091316906989361873
40
0.19382735105418014
40
0.19382735105418014
40
0.19382735105418014
40
0.19382735105418014
10
85.491248972726311
20
278.35630994403272
30
0
10
85.220579704663223
20
278.20833139184538
30
0
10
84.646062794595849
20
277.89423522138873
30
0
10
83.990691476353589
20
277.86431925260564
30
0
10
83.644081957650627
20
277.84849744403272
30
0
0
SPLINE
5
296
100
AcDbEntity
8
0
100
AcDbSpline
70
1064
71
3
72
9
73
5
74
0
42
0.000000001
43
0.0000000001
44
0.0000000001
40
0
40
0
40
0
40
0
40
0.15565158118900876
40
0.29324958044241334
40
0.29324958044241334
40
0.29324958044241334
40
0.29324958044241334
10
83.644081957650627
20
277.84849744403272
30
0
10
83.106174758979535
20
277.88342042510385
30
0
10
82.092750679877454
20
277.94921577050729
30
0
10
81.377262752461036
20
278.66266173314375
30
0
10
81.041542895150627
20
278.9974234637013
30
0
0
SPLINE
5
297
100
AcDbEntity
8
0
100
AcDbSpline
70
1064
71
3
72
9
73
5
74
0
42
0.000000001
43
0.0000000001
44
0.0000000001
40
0
40
0
40
0
40
0
40
0.11548120971343893
40
0.24478191889195328
40
0.24478191889195328
40
0.24478191889195328
40
0.24478191889195328
10
81.041542895150627
20
278.9974234637013
30
0
10
80.847313492329505
20
279.33623802435073
30
0
10
80.435611484307827
20
280.05441268246278
30
0
10
80.395975717914908
20
280.8829879083346
30
0
10
80.375038988900627
20
281.32066469752698
30
0
0
SPLINE
5
298
100
AcDbEntity
8
0
100
AcDbSpline
70
1064
71
3
72
9
73
5
74
0
42
0.000000001
43
0.0000000001
44
0.0000000001
40
0
40
0
40
0
40
0
40
0.15092588050984113
40
0.28148935210365722
40
0.28148935210365722
40
0.28148935210365722
40
0.28148935210365722
10
80.375038988900627
20
281.32066469752698
30
0
10
80.399740416561286
20
281.83531834649057
30
0
10
80.445810638876651
20
282.79519031619623
30
0
10
80.99587881703286
20
283.57878936318855
30
0
10
81.25101745874926
20
283.94224684798627
30
0
0
SPLINE
5
299
100
AcDbEntity
8
0
100
AcDbSpline
70
1064
71
3
72
9
73
5
74
0
42
0.000000001
43
0.0000000001
44
0.0000000001
40
0
40
0
40
0
40
0
40
0.12221556604598494
40
0.24686029586061448
40
0.24686029586061448
40
0.24686029586061448
40
0.24686029586061448
10
81.25101745874926
20
283.94224684798627
30
0
10
81.564474898993865
20
284.21994920072513
30
0
10
82.197620077975245
20
284.78087353447586
30
0
10
83.040671866447695
20
284.85630727319881
30
0
10
83.466345675301994
20
284.89439528548627
30
0
0
SPLINE
5
300
100
AcDbEntity
8
0
100
AcDbSpline
70
1064
71
3
72
9
73
5
74
0
42
0.000000001
43
0.0000000001
44
0.0000000001
40
0
40
0
40
0
40
0
40
0.13685752241956153
40
0.26398343411878739
40
0.26398343411878739
40
0.26398343411878739
40
0.26398343411878739
10
83.466345675301994
20
284.89439528548627
30
0
10
83.93553660558949
20
284.85934558655515
30
0
10
84.840555422567405
20
284.7917384888591
30
0
10
85.515391005003565
20
284.18837417569409
30
0
10
85.840370066476311
20
283.89781337344556
30
0
0
SPLINE
5
301
100
AcDbEntity
8
0
100
AcDbSpline
70
1064
71
3
72
9
73
5
74
0
42
0.000000001
43
0.0000000001
44
0.0000000001
40
0
40
0
40
0
40
0
40
0.14102195512173393
40
0.32054571714103031
40
0.32054571714103031
40
0.32054571714103031
40
0.32054571714103031
10
85.840370066476311
20
283.89781337344556
30
0
10
86.090853974138426
20
283.49018653175199
30
0
10
86.660208892984485
20
282.56364258911685
30
0
10
86.667710664495345
20
281.46986415750297
30
0
10
86.671912081551994
20
280.85728626811414
30
0
0
LINE
5
302
100
AcDbEntity
8
0
100
AcDbLine
10
86.671912081551966
20
280.85728626811414
30
0
11
82.20316589624926
21
280.85728626811414
31
0
0
SPLINE
5
303
100
AcDbEntity
8
0
100
AcDbSpline
70
1064
71
3
72
9
73
5
74
0
42
0.000000001
43
0.0000000001
44
0.0000000001
40
0
40
0
40
0
40
0
40
0.071587399695217574
40
0.1333402848897571
40
0.1333402848897571
40
0.1333402848897571
40
0.1333402848897571
10
82.20316589624926
20
280.85728626811414
30
0
10
82.220224488969762
20
280.61385002445286
30
0
10
82.251998203657706
20
280.16042025579958
30
0
10
82.513634162590336
20
279.79071303106952
30
0
10
82.634803660226311
20
279.61949329936414
30
0
0
SPLINE
5
304
100
AcDbEntity
8
0
100
AcDbSpline
70
1064
71
3
72
9
73
5
74
0
42
0.000000001
43
0.0000000001
44
0.0000000001
40
0
40
0
40
0
40
0
40
0.056800026836649038
40
0.11434606556466445
40
0.11434606556466445
40
0.11434606556466445
40
0.11434606556466445
10
82.634803660226311
20
279.61949329936414
30
0
10
82.781459644364404
20
279.4917478852658
30
0
10
83.076697793211252
20
279.23457924803807
30
0
10
83.466802119377434
20
279.19927336742523
30
0
10
83.66312683374926
20
279.18150525653272
30
0
0
SPLINE
5
305
100
AcDbEntity
8
0
100
AcDbSpline
70
1064
71
3
72
9
73
5
74
0
42
0.000000001
43
0.0000000001
44
0.0000000001
40
0
40
0
40
0
40
0
40
0.038982699809983076
40
0.075192624645857589
40
0.075192624645857589
40
0.075192624645857589
40
0.075192624645857589
10
83.66312683374926
20
279.18150525653272
30
0
10
83.795314514149965
20
279.18954149485569
30
0
10
84.05028758383537
20
279.20504236715874
30
0
10
84.264539906545295
20
279.34339548825704
30
0
10
84.367715723824944
20
279.4100211199513
30
0
0
SPLINE
5
306
100
AcDbEntity
8
0
100
AcDbSpline
70
1064
71
3
72
9
73
5
74
0
42
0.000000001
43
0.0000000001
44
0.0000000001
40
0
40
0
40
0
40
0
40
0.038971068458618224
40
0.086358804788460225
40
0.086358804788460225
40
0.086358804788460225
40
0.086358804788460225
10
84.367715723824944
20
279.4100211199513
30
0
10
84.458962974717878
20
279.50481512670626
30
0
10
84.661164347146581
20
279.71487601156906
30
0
10
84.750391694051871
20
279.99347373482402
30
0
10
84.799353487801994
20
280.14634888732343
30
0
0
SPLINE
5
307
100
AcDbEntity
8
0
100
AcDbSpline
70
1064
71
3
72
9
73
5
74
0
42
0.000000001
43
0.0000000001
44
0.0000000001
40
0
40
0
40
0
40
0
40
0.068953511241457613
40
0.12621683109165277
40
0.12621683109165277
40
0.12621683109165277
40
0.12621683109165277
10
84.90091980249926
20
281.94908302390485
30
0
10
84.8862915464357
20
282.18388781884892
30
0
10
84.859515069190394
20
282.61368924026146
30
0
10
84.612901618901418
20
282.96432079022549
30
0
10
84.501015551400627
20
283.1233988341084
30
0
0
SPLINE
5
308
100
AcDbEntity
8
0
100
AcDbSpline
70
1064
71
3
72
9
73
5
74
0
42
0.000000001
43
0.0000000001
44
0.0000000001
40
0
40
0
40
0
40
0
40
0.052059573501008323
40
0.10353512633404946
40
0.10353512633404946
40
0.10353512633404946
40
0.10353512633404946
10
84.501015551400627
20
283.1233988341084
30
0
10
84.367703839066493
20
283.24188736365863
30
0
10
84.102575947112953
20
283.47753518117065
30
0
10
83.749700945293938
20
283.51234330340242
30
0
10
83.574258692574944
20
283.52964919173627
30
0
0
SPLINE
5
309
100
AcDbEntity
8
0
100
AcDbSpline
70
1064
71
3
72
9
73
5
74
0
42
0.000000001
43
0.0000000001
44
0.0000000001
40
0
40
0
40
0
40
0
40
0.054370143157218088
40
0.10804106732469776
40
0.10804106732469776
40
0.10804106732469776
40
0.10804106732469776
10
83.574258692574944
20
283.52964919173627
30
0
10
83.388477412547459
20
283.51239179802798
30
0
10
83.019304064500957
20
283.47809894670894
30
0
10
82.745451971548505
20
283.22839854092126
30
0
10
82.609412081551994
20
283.10435634219556
30
0
0
SPLINE
5
310
100
AcDbEntity
8
0
100
AcDbSpline
70
1064
71
3
72
9
73
5
74
0
42
0.000000001
43
0.0000000001
44
0.0000000001
40
0
40
0
40
0
40
0
40
0.057632701422584885
40
0.12363628793795897
40
0.12363628793795897
40
0.12363628793795897
40
0.12363628793795897
10
82.609412081551994
20
283.10435634219556
30
0
10
82.498796144189242
20
282.94259490017902
30
0
10
82.261497812777904
20
282.59557690989311
30
0
10
82.244160012074843
20
282.17409327166257
30
0
10
82.23490417749926
20
281.94908302390485
30
0
0
LINE
5
311
100
AcDbEntity
8
0
100
AcDbLine
10
82.23490417749926
20
281.94908302390485
30
0
11
84.90091980249926
21
281.94908302390485
31
0
0
LINE
5
312
100
AcDbEntity
8
0
100
AcDbLine
10
87.992226488900627
20
284.74205177390485
30
0
11
89.636270411324944
21
284.74205177390485
31
0
0
LINE
5
313
100
AcDbEntity
8
0
100
AcDbLine
10
89.636270411324944
20
284.74205177390485
30
0
11
89.636270411324944
21
283.82164161765485
31
0
0
SPLINE
5
314
100
AcDbEntity
8
0
100
AcDbSpline
70
1064
71
3
72
9
73
5
74
0
42
0.000000001
43
0.0000000001
44
0.0000000001
40
0
40
0
40
0
40
0
40
0.12575023290604995
40
0.24234100712646509
40
0.24234100712646509
40
0.24234100712646509
40
0.24234100712646509
10
89.636270411324944
20
283.82164161765485
30
0
10
89.936157055242617
20
284.13439553673987
30
0
10
90.514087048939572
20
284.73712284771381
30
0
10
91.339996757911663
20
284.84330893360453
30
0
10
91.737343676400627
20
284.89439528548627
30
0
0
SPLINE
5
315
100
AcDbEntity
8
0
100
AcDbSpline
70
1064
71
3
72
9
73
5
74
0
42
0.000000001
43
0.0000000001
44
0.0000000001
40
0
40
0
40
0
40
0
40
0.060827776913382134
40
0.11643903963551842
40
0.11643903963551842
40
0.11643903963551842
40
0.11643903963551842
10
91.737343676400627
20
284.89439528548627
30
0
10
91.942104922694497
20
284.88541750293666
30
0
10
92.334067346489519
20
284.86823186125815
30
0
10
92.690601196251691
20
284.70550984538329
30
0
10
92.860881693673576
20
284.62779384219556
30
0
0
SPLINE
5
316
100
AcDbEntity
8
0
100
AcDbSpline
70
1064
71
3
72
9
73
5
74
0
42
0.000000001
43
0.0000000001
44
0.0000000001
40
0
40
0
40
0
40
0
40
0.054754119049595755
40
0.11331313618124375
40
0.11331313618124375
40
0.11331313618124375
40
0.11331313618124375
10
92.860881693673576
20
284.62779384219556
30
0
10
93.014010058903722
20
284.52470570111711
30
0
10
93.330907775527038
20
284.3113657593658
30
0
10
93.535769963321002
20
283.98849682864432
30
0
10
93.641640551400627
20
283.82164161765485
30
0
0
SPLINE
5
317
100
AcDbEntity
8
0
100
AcDbSpline
70
1064
71
3
72
9
73
5
74
0
42
0.000000001
43
0.0000000001
44
0.0000000001
40
0
40
0
40
0
40
0
40
0.065984030674631294
40
0.12588684479856993
40
0.12588684479856993
40
0.12588684479856993
40
0.12588684479856993
10
93.641640551400627
20
283.82164161765485
30
0
10
93.788116433763321
20
283.98769893637927
30
0
10
94.06756869639716
20
284.30450940849198
30
0
10
94.428427203369196
20
284.52355958366024
30
0
10
94.600140459847893
20
284.62779384219556
30
0
0
SPLINE
5
318
100
AcDbEntity
8
0
100
AcDbSpline
70
1064
71
3
72
9
73
5
74
0
42
0.000000001
43
0.0000000001
44
0.0000000001
40
0
40
0
40
0
40
0
40
0.056797550257175575
40
0.11384081335496893
40
0.11384081335496893
40
0.11384081335496893
40
0.11384081335496893
10
94.600140459847893
20
284.62779384219556
30
0
10
94.774645957712835
20
284.7055524188126
30
0
10
95.124411884621821
20
284.86140596473723
30
0
10
95.50671699378546
20
284.88338303354345
30
0
10
95.698282130074944
20
284.89439528548627
30
0
0
SPLINE
5
319
100
AcDbEntity
8
0
100
AcDbSpline
70
1064
71
3
72
9
73
5
74
0
42
0.000000001
43
0.0000000001
44
0.0000000001
40
0
40
0
40
0
40
0
40
0.068976758024853993
40
0.13050647089271059
40
0.13050647089271059
40
0.13050647089271059
40
0.13050647089271059
10
95.698282130074944
20
284.89439528548627
30
0
10
95.930772562262931
20
284.88486064077517
30
0
10
96.370652700007923
20
284.86682075505007
30
0
10
96.767852643830111
20
284.67849660412315
30
0
10
96.955119974923576
20
284.58970766627698
30
0
0
SPLINE
5
320
100
AcDbEntity
8
0
100
AcDbSpline
70
1064
71
3
72
9
73
5
74
0
42
0.000000001
43
0.0000000001
44
0.0000000001
40
0
40
0
40
0
40
0
40
0.058172682074988651
40
0.11854407093856012
40
0.11854407093856012
40
0.11854407093856012
40
0.11854407093856012
10
96.955119974923576
20
284.58970766627698
30
0
10
97.116413250174958
20
284.47661169286232
30
0
10
97.445096074849701
20
284.24614514710368
30
0
10
97.629349822313458
20
283.88917780095528
30
0
10
97.72318542749926
20
283.70738368594556
30
0
0
SPLINE
5
321
100
AcDbEntity
8
0
100
AcDbSpline
70
1064
71
3
72
9
73
5
74
0
42
0.000000001
43
0.0000000001
44
0.0000000001
40
0
40
0
40
0
40
0
40
0.058156687838215732
40
0.14143825271011784
40
0.14143825271011784
40
0.14143825271011784
40
0.14143825271011784
10
97.72318542749926
20
283.70738368594556
30
0
10
97.776465784318972
20
283.52014843198589
30
0
10
97.906044700389913
20
283.06478846995611
30
0
10
97.906814902563099
20
282.59029197679018
30
0
10
97.907268412423576
20
282.31089931094556
30
0
0
LINE
5
322
100
AcDbEntity
8
0
100
AcDbLine
10
97.907268412423576
20
282.31089931094562
30
0
11
97.907268412423576
21
278.00084095561414
31
0
0
LINE
5
323
100
AcDbEntity
8
0
100
AcDbLine
10
97.907268412423576
20
278.00084095561414
30
0
11
96.123577959847893
21
278.00084095561414
31
0
0
LINE
5
324
100
AcDbEntity
8
0
100
AcDbLine
10
96.123577959847893
20
278.00084095561414
30
0
11
96.123577959847893
21
281.85386818015485
31
0
0
SPLINE
5
325
100
AcDbEntity
8
0
100
AcDbSpline
70
1064
71
3
72
9
73
5
74
0
42
0.000000001
43
0.0000000001
44
0.0000000001
40
0
40
0
40
0
40
0
40
0.08264775273018922
40
0.13160736163952197
40
0.13160736163952197
40
0.13160736163952197
40
0.13160736163952197
10
96.123577959847893
20
281.85386818015485
30
0
10
96.127814839065366
20
282.13230971508904
30
0
10
96.134561598377928
20
282.57569691647109
30
0
10
95.992386074367488
20
282.99339924790513
30
0
10
95.939494974923576
20
283.14878981673627
30
0
0
SPLINE
5
326
100
AcDbEntity
8
0
100
AcDbSpline
70
1064
71
3
72
9
73
5
74
0
42
0.000000001
43
0.0000000001
44
0.0000000001
40
0
40
0
40
0
40
0
40
0.042463971256405782
40
0.088216847004056506
40
0.088216847004056506
40
0.088216847004056506
40
0.088216847004056506
10
95.939494974923576
20
283.14878981673627
30
0
10
95.842873039031687
20
283.25983127202966
30
0
10
95.642145639223941
20
283.49051452615993
30
0
10
95.336366059082366
20
283.51628405628054
30
0
10
95.177776224923576
20
283.52964919173627
30
0
0
SPLINE
5
327
100
AcDbEntity
8
0
100
AcDbSpline
70
1064
71
3
72
9
73
5
74
0
42
0.000000001
43
0.0000000001
44
0.0000000001
40
0
40
0
40
0
40
0
40
0.036786550921425069
40
0.074967882219469567
40
0.074967882219469567
40
0.074967882219469567
40
0.074967882219469567
10
95.177776224923576
20
283.52964919173627
30
0
10
95.053805909470114
20
283.5194383260224
30
0
10
94.801164882387269
20
283.49862944454196
30
0
10
94.583860834129297
20
283.36777726771021
30
0
10
94.473187334847893
20
283.30113392436414
30
0
0
SPLINE
5
328
100
AcDbEntity
8
0
100
AcDbSpline
70
1064
71
3
72
9
73
5
74
0
42
0.000000001
43
0.0000000001
44
0.0000000001
40
0
40
0
40
0
40
0
40
0.040060062979685555
40
0.08356476841922103
40
0.08356476841922103
40
0.08356476841922103
40
0.08356476841922103
10
94.473187334847893
20
283.30113392436414
30
0
10
94.369930949647554
20
283.21312899962317
30
0
10
94.154539478060286
20
283.029551875457
30
0
10
94.051011092516731
20
282.76566462636248
30
0
10
93.997113116097893
20
282.62828212344556
30
0
0
SPLINE
5
329
100
AcDbEntity
8
0
100
AcDbSpline
70
1064
71
3
72
9
73
5
74
0
42
0.000000001
43
0.0000000001
44
0.0000000001
40
0
40
0
40
0
40
0
40
0.057701320717184916
40
0.14014301078881877
40
0.14014301078881877
40
0.14014301078881877
40
0.14014301078881877
10
93.997113116097893
20
282.62828212344556
30
0
10
93.954851570216704
20
282.44012021510468
30
0
10
93.852208160901952
20
281.98311895373143
30
0
10
93.851519961114903
20
281.51407143023306
30
0
10
93.85111511499926
20
281.23814564311414
30
0
0
LINE
5
330
100
AcDbEntity
8
0
100
AcDbLine
10
93.85111511499926
20
281.23814564311414
30
0
11
93.85111511499926
21
278.00084095561414
31
0
0
LINE
5
331
100
AcDbEntity
8
0
100
AcDbLine
10
93.85111511499926
20
278.00084095561414
30
0
11
92.067424662423576
21
278.00084095561414
31
0
0
LINE
5
332
100
AcDbEntity
8
0
100
AcDbLine
10
92.067424662423576
20
278.00084095561414
30
0
11
92.067424662423576
21
281.69517677390485
31
0
0
SPLINE
5
333
100
AcDbEntity
8
0
100
AcDbSpline
70
1064
71
3
72
9
73
5
74
0
42
0.000000001
43
0.0000000001
44
0.0000000001
40
0
40
0
40
0
40
0
40
0.080967615077649296
40
0.12753887915987083
40
0.12753887915987083
40
0.12753887915987083
40
0.12753887915987083
10
92.067424662423576
20
281.69517677390485
30
0
10
92.070107886390687
20
281.96592827593639
30
0
10
92.074334457433622
20
282.39241166768306
30
0
10
91.999526283024423
20
282.81162926443335
30
0
10
91.972209818673576
20
282.96470802390485
30
0
0
SPLINE
5
334
100
AcDbEntity
8
0
100
AcDbSpline
70
1064
71
3
72
9
73
5
74
0
42
0.000000001
43
0.0000000001
44
0.0000000001
40
0
40
0
40
0
40
0
40
0.027749772613854657
40
0.052660836013755236
40
0.052660836013755236
40
0.052660836013755236
40
0.052660836013755236
10
91.972209818673576
20
282.96470802390485
30
0
10
91.937979834902023
20
283.05240479603981
30
0
10
91.873021480567729
20
283.21882725292261
30
0
10
91.737822580917822
20
283.33503100748288
30
0
10
91.673867113900627
20
283.39000087344556
30
0
0
SPLINE
5
335
100
AcDbEntity
8
0
100
AcDbSpline
70
1064
71
3
72
9
73
5
74
0
42
0.000000001
43
0.0000000001
44
0.0000000001
40
0
40
0
40
0
40
0
40
0.025570720984222202
40
0.056396786730354906
40
0.056396786730354906
40
0.056396786730354906
40
0.056396786730354906
10
91.673867113900627
20
283.39000087344556
30
0
10
91.597680218499619
20
283.43063912384696
30
0
10
91.429648347429975
20
283.52026767762919
30
0
10
91.238691778374317
20
283.52633360227259
30
0
10
91.134316332650627
20
283.52964919173627
30
0
0
SPLINE
5
336
100
AcDbEntity
8
0
100
AcDbSpline
70
1064
71
3
72
9
73
5
74
0
42
0.000000001
43
0.0000000001
44
0.0000000001
40
0
40
0
40
0
40
0
40
0.039588526564111874
40
0.078416048650128953
40
0.078416048650128953
40
0.078416048650128953
40
0.078416048650128953
10
91.134316332650627
20
283.52964919173627
30
0
10
91.000765973807418
20
283.52075682101577
30
0
10
90.73623247521077
20
283.50314301632159
30
0
10
90.505760242699139
20
283.3722784869592
30
0
10
90.39164245874926
20
283.30748122298627
30
0
0
SPLINE
5
337
100
AcDbEntity
8
0
100
AcDbSpline
70
1064
71
3
72
9
73
5
74
0
42
0.000000001
43
0.0000000001
44
0.0000000001
40
0
40
0
40
0
40
0
40
0.039283988294522773
40
0.080947860954224932
40
0.080947860954224932
40
0.080947860954224932
40
0.080947860954224932
10
90.39164245874926
20
283.30748122298627
30
0
10
90.28862766674537
20
283.22327661933991
30
0
10
90.076357288370332
20
283.04976616778993
30
0
10
89.970204890497172
20
282.79664816326681
30
0
10
89.91556823999926
20
282.66636829936414
30
0
0
SPLINE
5
338
100
AcDbEntity
8
0
100
AcDbSpline
70
1064
71
3
72
9
73
5
74
0
42
0.000000001
43
0.0000000001
44
0.0000000001
40
0
40
0
40
0
40
0
40
0.056676795344519845
40
0.14006284915635875
40
0.14006284915635875
40
0.14006284915635875
40
0.14006284915635875
10
89.91556823999926
20
282.66636829936414
30
0
10
89.875194474026955
20
282.4813240005443
30
0
10
89.775420577869326
20
282.0240322366875
30
0
10
89.775734698779246
20
281.55529394481971
30
0
10
89.775921709847893
20
281.27623181903272
30
0
0
LINE
5
339
100
AcDbEntity
8
0
100
AcDbLine
10
89.775921709847893
20
281.27623181903272
30
0
11
89.775921709847893
21
278.00084095561414
31
0
0
LINE
5
340
100
AcDbEntity
8
0
100
AcDbLine
10
89.775921709847893
20
278.00084095561414
30
0
11
87.992226488900627
21
278.00084095561414
31
0
0
LINE
5
341
100
AcDbEntity
8
0
100
AcDbLine
10
87.992226488900627
20
278.00084095561414
30
0
11
87.992226488900627
21
284.74205177390485
31
0
0
LINE
5
342
100
AcDbEntity
8
0
100
AcDbLine
10
98.840371973824944
20
284.74205177390485
30
0
11
100.73831737787768
21
284.74205177390485
31
0
0
LINE
5
343
100
AcDbEntity
8
0
100
AcDbLine
10
100.73831737787768
20
284.74205177390485
30
0
11
102.35062301905199
21
279.95591860377698
31
0
0
LINE
5
344
100
AcDbEntity
8
0
100
AcDbLine
10
102.35062301905199
20
279.95591860377698
30
0
11
103.92484367640063
21
284.74205177390485
31
0
0
LINE
5
345
100
AcDbEntity
8
0
100
AcDbLine
10
103.92484367640063
20
284.74205177390485
30
0
11
105.77201545984789
21
284.74205177390485
31
0
0
LINE
5
346
100
AcDbEntity
8
0
100
AcDbLine
10
105.77201545984789
20
284.74205177390485
30
0
11
103.39163959772631
21
278.25474720561414
31
0
0
LINE
5
347
100
AcDbEntity
8
0
100
AcDbLine
10
103.39163959772631
20
278.25474720561414
30
0
11
102.96634853632494
21
277.08043079936414
31
0
0
SPLINE
5
348
100
AcDbEntity
8
0
100
AcDbSpline
70
1064
71
3
72
9
73
5
74
0
42
0.000000001
43
0.0000000001
44
0.0000000001
40
0
40
0
40
0
40
0
40
0.056910193394172498
40
0.10092273166786313
40
0.10092273166786313
40
0.10092273166786313
40
0.10092273166786313
10
102.96634853632494
20
277.08043079936414
30
0
10
102.89482576287139
20
276.90429340678355
30
0
10
102.76798954526447
20
276.59193694218737
30
0
10
102.5922857764691
20
276.30444065181211
30
0
10
102.51566112787768
20
276.17906313502698
30
0
0
SPLINE
5
349
100
AcDbEntity
8
0
100
AcDbSpline
70
1064
71
3
72
9
73
5
74
0
42
0.000000001
43
0.0000000001
44
0.0000000001
40
0
40
0
40
0
40
0
40
0.036109722966777127
40
0.070346650698434487
40
0.070346650698434487
40
0.070346650698434487
40
0.070346650698434487
10
102.51566112787768
20
276.17906313502698
30
0
10
102.44423117543397
20
276.08130868495186
30
0
10
102.30507591471415
20
275.89086972312498
30
0
10
102.1179604882545
20
275.7474159001307
30
0
10
102.02689350397631
20
275.67759852969556
30
0
0
SPLINE
5
350
100
AcDbEntity
8
0
100
AcDbSpline
70
1064
71
3
72
9
73
5
74
0
42
0.000000001
43
0.0000000001
44
0.0000000001
40
0
40
0
40
0
40
0
40
0.035252964947514273
40
0.074750085515595671
40
0.074750085515595671
40
0.074750085515595671
40
0.074750085515595671
10
102.02689350397631
20
275.67759852969556
30
0
10
101.92688958554875
20
275.61482001391363
30
0
10
101.71484213179602
20
275.48170498571028
30
0
10
101.47462452565712
20
275.41052318485197
30
0
10
101.34769619257494
20
275.37291150653272
30
0
0
SPLINE
5
351
100
AcDbEntity
8
0
100
AcDbSpline
70
1064
71
3
72
9
73
5
74
0
42
0.000000001
43
0.0000000001
44
0.0000000001
40
0
40
0
40
0
40
0
40
0.043448344391312198
40
0.091607743568832944
40
0.091607743568832944
40
0.091607743568832944
40
0.091607743568832944
10
101.34769619257494
20
275.37291150653272
30
0
10
101.20595040998555
20
275.34145990271543
30
0
10
100.90708951009802
20
275.27514643329135
30
0
10
100.60093100571783
20
275.26849671701001
30
0
10
100.43997944147631
20
275.26500087344556
30
0
0
SPLINE
5
352
100
AcDbEntity
8
0
100
AcDbSpline
70
1064
71
3
72
9
73
5
74
0
42
0.000000001
43
0.0000000001
44
0.0000000001
40
0
40
0
40
0
40
0
40
0.051011419950508508
40
0.1016501588251197
40
0.1016501588251197
40
0.1016501588251197
40
0.1016501588251197
10
100.43997944147631
20
275.26500087344556
30
0
10
100.26969057235191
20
275.26943054811949
30
0
10
99.930356936678919
20
275.27825753499002
30
0
10
99.596845489386411
20
275.34143739501974
30
0
10
99.430701144051994
20
275.37291150653272
30
0
0
LINE
5
353
100
AcDbEntity
8
0
100
AcDbLine
10
99.430701144052009
20
275.37291150653272
30
0
11
99.272009737801994
21
276.76939588153272
31
0
0
SPLINE
5
354
100
AcDbEntity
8
0
100
AcDbSpline
70
1064
71
3
72
9
73
5
74
0
42
0.000000001
43
0.0000000001
44
0.0000000001
40
0
40
0
40
0
40
0
40
0.040309589349123341
40
0.076074706289850247
40
0.076074706289850247
40
0.076074706289850247
40
0.076074706289850247
10
99.272009737801994
20
276.76939588153272
30
0
10
99.404419052515479
20
276.74535373016909
30
0
10
99.654309956628339
20
276.69997992127895
30
0
10
99.908077612600891
20
276.69106623830839
30
0
10
100.02738178522631
20
276.68687563502698
30
0
0
SPLINE
5
355
100
AcDbEntity
8
0
100
AcDbSpline
70
1064
71
3
72
9
73
5
74
0
42
0.000000001
43
0.0000000001
44
0.0000000001
40
0
40
0
40
0
40
0
40
0.054891024249811647
40
0.10180494576929676
40
0.10180494576929676
40
0.10180494576929676
40
0.10180494576929676
10
100.02738178522631
20
276.68687563502698
30
0
10
100.21651192570963
20
276.69679417288489
30
0
10
100.56728664631999
20
276.71518982540812
30
0
10
100.8277601265483
20
276.94783327709706
30
0
10
100.94779194147631
20
277.05504041278272
30
0
0
SPLINE
5
356
100
AcDbEntity
8
0
100
AcDbSpline
70
1064
71
3
72
9
73
5
74
0
42
0.000000001
43
0.0000000001
44
0.0000000001
40
0
40
0
40
0
40
0
40
0.048951913895309
40
0.10389224254836206
40
0.10389224254836206
40
0.10389224254836206
40
0.10389224254836206
10
100.94779194147631
20
277.05504041278272
30
0
10
101.04273995190043
20
277.18899828056857
30
0
10
101.24425120944932
20
277.47330143000272
30
0
10
101.34927995146558
20
277.80590888425809
30
0
10
101.40482128412768
20
277.9817984637013
30
0
0
LINE
5
357
100
AcDbEntity
8
0
100
AcDbLine
10
101.40482128412768
20
277.98179846370124
30
0
11
98.840371973824944
21
284.74205177390485
31
0
0
ENDSEC
0
SECTION
2
OBJECTS
0
DICTIONARY
5
C
100
AcDbDictionary
3
ACAD_GROUP
350
D
3
ACAD_MLINESTYLE
350
17
0
DICTIONARY
5
D
100
AcDbDictionary
0
DICTIONARY
5
1A
330
C
100
AcDbDictionary
0
DICTIONARY
5
17
100
AcDbDictionary
0
ENDSEC
0
EOF
