0
SECTION
2
HEADER
9
$INSUNITS
70
4
9
$ACADVER
1
AC1014
9
$HANDSEED
5
FFFF
0
ENDSEC
0
SECTION
2
TABLES
0
TABLE
2
VPORT
5
8
100
AcDbSymbolTable
0
ENDTAB
0
TABLE
2
LTYPE
5
5
100
AcDbSymbolTable
0
LTYPE
5
14
100
AcDbSymbolTableRecord
100
AcDbLinetypeTableRecord
2
BYBLOCK
70
0
0
LTYPE
5
15
100
AcDbSymbolTableRecord
100
AcDbLinetypeTableRecord
2
BYLAYER
70
0
0
ENDTAB
0
TABLE
2
LAYER
5
2
100
AcDbSymbolTable
70
2
0
LAYER
5
50
100
AcDbSymbolTableRecord
100
AcDbLayerTableRecord
2
0
70
0
6
CONTINUOUS
0
ENDTAB
0
TABLE
2
STYLE
5
3
100
AcDbSymbolTable
70
1
0
STYLE
5
11
100
AcDbSymbolTableRecord
100
AcDbTextStyleTableRecord
2
STANDARD
70
0
0
ENDTAB
0
TABLE
2
VIEW
5
6
100
AcDbSymbolTable
70
0
0
ENDTAB
0
TABLE
2
UCS
5
7
100
AcDbSymbolTable
70
0
0
ENDTAB
0
TABLE
2
APPID
5
9
100
AcDbSymbolTable
70
2
0
APPID
5
12
100
AcDbSymbolTableRecord
100
AcDbRegAppTableRecord
2
ACAD
70
0
0
ENDTAB
0
TABLE
2
DIMSTYLE
5
A
100
AcDbSymbolTable
70
1
0
ENDTAB
0
TABLE
2
BLOCK_RECORD
5
1
100
AcDbSymbolTable
70
1
0
BLOCK_RECORD
5
1F
100
AcDbSymbolTableRecord
100
AcDbBlockTableRecord
2
*MODEL_SPACE
0
BLOCK_RECORD
5
1B
100
AcDbSymbolTableRecord
100
AcDbBlockTableRecord
2
*PAPER_SPACE
0
ENDTAB
0
ENDSEC
0
SECTION
2
BLOCKS
0
BLOCK
5
20
100
AcDbEntity
100
AcDbBlockBegin
2
*MODEL_SPACE
0
ENDBLK
5
21
100
AcDbEntity
100
AcDbBlockEnd
0
BLOCK
5
1C
100
AcDbEntity
100
AcDbBlockBegin
2
*PAPER_SPACE
0
ENDBLK
5
1D
100
AcDbEntity
100
AcDbBlockEnd
0
ENDSEC
0
SECTION
2
ENTITIES
0
LINE
5
100
100
AcDbEntity
8
0
100
AcDbLine
10
0
20
0
30
0
11
127.99999713897705
21
0
31
0
0
LINE
5
101
100
AcDbEntity
8
0
100
AcDbLine
10
8.0040843282661598
20
14.953290184945986
30
0
11
31.873854176092706
21
14.953290184945981
31
0
0
LINE
5
102
100
AcDbEntity
8
0
100
AcDbLine
10
20.052568904863772
20
26.996742831532217
30
2.4421808494908933e-15
11
20.052568904863762
21
2.9999999329447755
31
0
0
LINE
5
103
100
AcDbEntity
8
0
100
AcDbLine
10
8.0040843282661598
20
14.953290184945986
30
0
11
8.0040843282661598
21
2.9030087713757675
31
0
0
LINE
5
104
100
AcDbEntity
8
0
100
AcDbLine
10
8.0040843282661598
20
2.9030087713757675
30
0
11
14.031931216037062
21
2.9030087713757684
31
0
0
LINE
5
105
100
AcDbEntity
8
0
100
AcDbLine
10
14.031931216037062
20
2.9030087713757684
30
0
11
14.031931216037062
21
8.9999997988343239
31
0
0
LINE
5
106
100
AcDbEntity
8
0
100
AcDbLine
10
17.114232053598734
20
0
30
0
11
17.114232053598734
21
11.978767990216967
31
0
0
LINE
5
107
100
AcDbEntity
8
0
100
AcDbLine
10
17.114232053598734
20
11.978767990216967
30
0
11
10.950535372355477
21
11.978767990216973
31
0
0
LINE
5
108
100
AcDbEntity
8
0
100
AcDbLine
10
10.950535372355477
20
11.978767990216973
30
0
11
10.950535372355478
21
5.9999998658895493
31
0
0
LINE
5
109
100
AcDbEntity
8
0
100
AcDbLine
10
31.871626619436668
20
26.966391080376873
30
0
11
26.056467401467842
21
26.966391080376908
31
0
0
LINE
5
110
100
AcDbEntity
8
0
100
AcDbLine
10
23.034040199975255
20
29.96498936676052
30
0
11
23.034040199975252
21
18.007165470305566
31
0
0
LINE
5
111
100
AcDbEntity
8
0
100
AcDbLine
10
28.993580313641317
20
18.007165470305559
30
0
11
28.993580313641317
21
23.981946267495793
31
0
0
LINE
5
112
100
AcDbEntity
8
0
100
AcDbLine
10
23.034040199975252
20
18.007165470305566
30
0
11
28.993580313641317
21
18.007165470305559
31
0
0
LINE
5
113
100
AcDbEntity
8
0
100
AcDbLine
10
31.873854176092706
20
14.953290184945981
30
0
11
31.871626619436668
21
26.966391080376873
31
0
0
LINE
5
114
100
AcDbEntity
8
0
100
AcDbLine
10
5.1098467153149389
20
0
30
0
11
5.1098467153149389
21
29.998456646623495
31
0
0
LINE
5
115
100
AcDbEntity
8
0
100
AcDbLine
10
5.1098467153149389
20
17.953507517365914
30
4.8843616989817889e-15
11
17.040667559887716
21
17.953507517365914
31
2.7971763929628058e-15
0
LINE
5
116
100
AcDbEntity
8
0
100
AcDbLine
10
8.0634872674175124
20
26.99674283153222
30
4.528845659005585e-15
11
8.0634872674174893
21
20.999892826484839
31
4.5288456590055858e-15
0
LINE
5
117
100
AcDbEntity
8
0
100
AcDbLine
10
17.040667559887716
20
17.953507517365914
30
2.7971763929628058e-15
11
17.040667559887755
21
23.939766938892049
31
2.7971763929628054e-15
0
LINE
5
118
100
AcDbEntity
8
0
100
AcDbLine
10
20.052568904863772
20
26.996742831532217
30
2.4421808494908933e-15
11
8.0634872674175124
21
26.99674283153222
31
4.528845659005585e-15
0
LINE
5
119
100
AcDbEntity
8
0
100
AcDbLine
10
17.040667559887755
20
23.939766938892049
30
2.7971763929628054e-15
11
10.929490726806923
21
23.939766938892049
31
4.1495736359171702e-15
0
LINE
5
120
100
AcDbEntity
8
0
100
AcDbLine
10
8.0634872674174893
20
20.999892826484839
30
4.5288456590055858e-15
11
13.999999687075615
21
20.999892826484839
31
3.1698562184976796e-15
0
LINE
5
121
100
AcDbEntity
8
0
100
AcDbLine
10
20.052568904863762
20
2.9999999329447755
30
0
11
32.043846082702132
21
2.9999999329447724
31
0
0
LINE
5
122
100
AcDbEntity
8
0
100
AcDbLine
10
34.999999217689037
20
0
30
0
11
34.999999217689037
21
11.999999731779102
31
0
0
LINE
5
123
100
AcDbEntity
8
0
100
AcDbLine
10
34.999999217689037
20
11.999999731779102
30
0
11
22.999999485909939
21
11.999999731779099
31
0
0
LINE
5
124
100
AcDbEntity
8
0
100
AcDbLine
10
22.999999485909939
20
11.999999731779099
30
0
11
22.999999485909939
21
5.9999998658895493
31
0
0
LINE
5
125
100
AcDbEntity
8
0
100
AcDbLine
10
22.999999485909939
20
5.9999998658895493
30
0
11
28.999999351799488
21
5.9999998658895493
31
0
0
LINE
5
126
100
AcDbEntity
8
0
100
AcDbLine
10
25.999999418854713
20
8.9999997988343239
30
0
11
32.043846082702132
21
8.9999997988343239
31
0
0
LINE
5
127
100
AcDbEntity
8
0
100
AcDbLine
10
32.043846082702132
20
8.9999997988343239
30
0
11
32.043846082702132
21
2.9999999329447724
31
0
0
LINE
5
128
100
AcDbEntity
8
0
100
AcDbLine
10
26.056467401467842
20
26.966391080376908
30
0
11
26.056467401467842
21
20.999999530613422
31
0
0
LINE
5
129
100
AcDbEntity
8
0
100
AcDbLine
10
23.034040199975255
20
29.96498936676052
30
0
11
46.999998949468136
21
29.96498936676052
31
0
0
LINE
5
130
100
AcDbEntity
8
0
100
AcDbLine
10
5.1098467153149389
20
29.998456646623495
30
0
11
17.150621956111355
21
29.998456646623495
31
0
0
LINE
5
131
100
AcDbEntity
8
0
100
AcDbLine
10
37.823765138270531
20
14.99978226524872
30
0
11
61.693534986097077
21
14.999782265248719
31
0
0
LINE
5
132
100
AcDbEntity
8
0
100
AcDbLine
10
49.87224971486814
20
27.043234911834951
30
2.4421808494908933e-15
11
49.872249714868133
21
3.0464920132475104
31
0
0
LINE
5
133
100
AcDbEntity
8
0
100
AcDbLine
10
61.693534986097077
20
14.999782265248719
30
0
11
61.691307429441039
21
27.012883160679607
31
0
0
LINE
5
134
100
AcDbEntity
8
0
100
AcDbLine
10
61.691307429441039
20
27.012883160679607
30
0
11
55.876148211472206
21
27.012883160679646
31
0
0
LINE
5
135
100
AcDbEntity
8
0
100
AcDbLine
10
55.876148211472206
20
27.012883160679646
30
0
11
55.876148211472206
21
21.046491610916156
31
0
0
LINE
5
136
100
AcDbEntity
8
0
100
AcDbLine
10
49.87224971486814
20
27.043234911834951
30
2.4421808494908933e-15
11
37.883168077421885
21
27.043234911834958
31
4.528845659005585e-15
0
LINE
5
137
100
AcDbEntity
8
0
100
AcDbLine
10
37.883168077421885
20
27.043234911834958
30
4.528845659005585e-15
11
37.883168077421857
21
21.046384906787576
31
4.5288456590055858e-15
0
LINE
5
138
100
AcDbEntity
8
0
100
AcDbLine
10
37.883168077421857
20
21.046384906787576
30
4.5288456590055858e-15
11
43.819680497079993
21
21.046384906787576
31
3.1698562184976796e-15
0
LINE
5
139
100
AcDbEntity
8
0
100
AcDbLine
10
37.823765138270531
20
14.99978226524872
30
0
11
37.823765138270531
21
2.949500851678502
31
0
0
LINE
5
140
100
AcDbEntity
8
0
100
AcDbLine
10
37.823765138270531
20
2.949500851678502
30
0
11
43.851612026041437
21
2.9495008516785033
31
0
0
LINE
5
141
100
AcDbEntity
8
0
100
AcDbLine
10
43.851612026041437
20
2.9495008516785033
30
0
11
43.851612026041437
21
9.0464918791370579
31
0
0
LINE
5
142
100
AcDbEntity
8
0
100
AcDbLine
10
49.872249714868133
20
3.0464920132475104
30
0
11
61.863526892706496
21
3.0464920132475068
31
0
0
LINE
5
143
100
AcDbEntity
8
0
100
AcDbLine
10
61.863526892706496
20
9.0464918791370579
30
0
11
61.863526892706496
21
3.0464920132475068
31
0
0
LINE
5
144
100
AcDbEntity
8
0
100
AcDbLine
10
55.819680228859092
20
9.0464918791370579
30
0
11
61.863526892706496
21
9.0464918791370579
31
0
0
LINE
5
145
100
AcDbEntity
8
0
100
AcDbLine
10
46.999998949468178
20
23.986259019194787
30
2.7971763929628054e-15
11
40.888822116387345
21
23.986259019194787
31
4.1495736359171702e-15
0
LINE
5
146
100
AcDbEntity
8
0
100
AcDbLine
10
46.999998949468136
20
17.953507515085132
30
2.7971763929628058e-15
11
46.999998949468178
21
23.986259019194787
31
2.7971763929628054e-15
0
LINE
5
147
100
AcDbEntity
8
0
100
AcDbLine
10
35.23388355880607
20
17.955854554246862
30
0
11
46.999998949468136
21
17.953507515085132
31
2.7971763929628058e-15
0
LINE
5
148
100
AcDbEntity
8
0
100
AcDbLine
10
58.952911703221737
20
18.053657550608293
30
0
11
58.952911703221737
21
24.028438347798531
31
0
0
LINE
5
149
100
AcDbEntity
8
0
100
AcDbLine
10
52.993371589555672
20
18.0536575506083
30
0
11
58.952911703221737
21
18.053657550608293
31
0
0
LINE
5
150
100
AcDbEntity
8
0
100
AcDbLine
10
52.993371589555672
20
29.997095272989867
30
0
11
52.993371589555672
21
18.0536575506083
31
0
0
LINE
5
151
100
AcDbEntity
8
0
100
AcDbLine
10
52.993371589555672
20
29.997095272989867
30
0
11
65.552831686665371
21
29.997095272989863
31
0
0
LINE
5
152
100
AcDbEntity
8
0
100
AcDbLine
10
52.959330875490366
20
6.0464919461922841
30
0
11
58.959330741379915
21
6.0464919461922841
31
0
0
LINE
5
153
100
AcDbEntity
8
0
100
AcDbLine
10
64.959330607269465
20
0.046492080302734662
30
0
11
64.959330607269465
21
12.046491812081836
31
0
0
LINE
5
154
100
AcDbEntity
8
0
100
AcDbLine
10
64.959330607269465
20
12.046491812081836
30
0
11
52.959330875490366
21
12.046491812081834
31
0
0
LINE
5
155
100
AcDbEntity
8
0
100
AcDbLine
10
52.959330875490366
20
12.046491812081834
30
0
11
52.959330875490366
21
6.0464919461922841
31
0
0
LINE
5
156
100
AcDbEntity
8
0
100
AcDbLine
10
40.909866761935902
20
12.025260070519707
30
0
11
40.909866761935902
21
6.0464919461922841
31
0
0
LINE
5
157
100
AcDbEntity
8
0
100
AcDbLine
10
47.073563443179154
20
12.025260070519701
30
0
11
40.909866761935902
21
12.025260070519707
31
0
0
LINE
5
158
100
AcDbEntity
8
0
100
AcDbLine
10
47.073563443179154
20
0.046492080302734662
30
0
11
47.073563443179154
21
12.025260070519701
31
0
0
LINE
5
159
100
AcDbEntity
8
0
100
AcDbLine
10
65.552831686665414
20
42.086373268513441
30
0
11
53.210908149695783
21
42.086373268513427
31
0
0
LINE
5
160
100
AcDbEntity
8
0
100
AcDbLine
10
65.552831686665371
20
29.997095272989863
30
0
11
65.552831686665414
21
42.086373268513441
31
0
0
LINE
5
161
100
AcDbEntity
8
0
100
AcDbLine
10
26.172377065144641
20
38.952657022565205
30
0
11
32.295423356907548
21
38.952657022565205
31
0
0
LINE
5
162
100
AcDbEntity
8
0
100
AcDbLine
10
26.137524882108295
20
57.052212106933013
30
0
11
26.137524882108295
21
50.965894901348179
31
0
0
LINE
5
163
100
AcDbEntity
8
0
100
AcDbLine
10
11.023973352461114
20
42.043154399769485
30
0
11
11.023973352461113
21
35.999999195337288
31
0
0
LINE
5
164
100
AcDbEntity
8
0
100
AcDbLine
10
32.123269725733074
20
57.052212106933041
30
0
11
26.137524882108295
21
57.052212106933013
31
0
0
LINE
5
165
100
AcDbEntity
8
0
100
AcDbLine
10
23.139553595491741
20
59.979348691100256
30
0
11
23.139553595491734
21
48.035328273588135
31
0
0
LINE
5
166
100
AcDbEntity
8
0
100
AcDbLine
10
29.006429876855776
20
48.035328273588135
30
0
11
29.006429876855776
21
53.931790875579956
31
0
0
LINE
5
167
100
AcDbEntity
8
0
100
AcDbLine
10
23.139553595491734
20
48.035328273588135
30
0
11
29.006429876855776
21
48.035328273588135
31
0
0
LINE
5
168
100
AcDbEntity
8
0
100
AcDbLine
10
32.12548986947931
20
45.079088660896616
30
0
11
32.123269725733074
21
57.052212106933041
31
0
0
LINE
5
169
100
AcDbEntity
8
0
100
AcDbLine
10
5.1098467153149389
20
29.998456646623495
30
0
11
5.1100004931890979
21
60.032342609790803
31
0
0
LINE
5
170
100
AcDbEntity
8
0
100
AcDbLine
10
5.1099387923115289
20
47.981733048001146
30
4.8843616989817889e-15
11
17.292238686797749
21
47.981670672849873
31
2.7971763929628058e-15
0
LINE
5
171
100
AcDbEntity
8
0
100
AcDbLine
10
8.3150645416229292
20
57.437593010384937
30
4.528845659005585e-15
11
8.3150645416229292
21
51.106220969257436
31
4.5288456590055858e-15
0
LINE
5
172
100
AcDbEntity
8
0
100
AcDbLine
10
17.292238686797749
20
47.981670672849873
30
2.7971763929628058e-15
11
17.292238686797749
21
53.920649318165452
31
2.7971763929628054e-15
0
LINE
5
173
100
AcDbEntity
8
0
100
AcDbLine
10
20.020504352686036
20
57.437593010384944
30
2.4421808494908933e-15
11
8.3150645416229292
21
57.437593010384937
31
4.528845659005585e-15
0
LINE
5
174
100
AcDbEntity
8
0
100
AcDbLine
10
17.292238686797749
20
53.920649318165452
30
2.7971763929628054e-15
11
11.264698510032375
21
53.920649318134593
31
4.1495736359171702e-15
0
LINE
5
175
100
AcDbEntity
8
0
100
AcDbLine
10
8.3150645416229292
20
51.106220969257436
30
4.5288456590055858e-15
11
14.251576961281032
21
51.106220969257436
31
3.1698562184976796e-15
0
LINE
5
176
100
AcDbEntity
8
0
100
AcDbLine
10
20.020504352686032
20
33.111056412506635
30
0
11
32.295423356907548
21
33.111056412506642
31
0
0
LINE
5
177
100
AcDbEntity
8
0
100
AcDbLine
10
35.233883558806077
20
42.084451585012161
30
0
11
23.038845390327989
21
42.084451585012147
31
0
0
LINE
5
178
100
AcDbEntity
8
0
100
AcDbLine
10
38.134745351627032
20
56.971265204036825
30
4.528845659005585e-15
11
38.134745351627323
21
51.053310566166481
31
4.5288456590055858e-15
0
LINE
5
179
100
AcDbEntity
8
0
100
AcDbLine
10
38.134745351627323
20
51.053310566166481
30
4.5288456590055858e-15
11
44.07125777128541
21
51.053310566166481
31
3.1698562184976796e-15
0
LINE
5
180
100
AcDbEntity
8
0
100
AcDbLine
10
62.115104166911912
20
39.052959275366909
30
0
11
62.115104166911912
21
33.052630284426513
31
0
0
LINE
5
181
100
AcDbEntity
8
0
100
AcDbLine
10
50.123826989073557
20
33.052630284426513
30
0
11
62.115104166911912
21
33.052630284426513
31
0
0
LINE
5
182
100
AcDbEntity
8
0
100
AcDbLine
10
56.127725485677622
20
57.098704187235995
30
0
11
56.127725485677622
21
50.999998860061169
31
0
0
LINE
5
183
100
AcDbEntity
8
0
100
AcDbLine
10
7.9353998570170514
20
45.079088660896616
30
0
11
32.12548986947931
21
45.079088660896616
31
0
0
LINE
5
184
100
AcDbEntity
8
0
100
AcDbLine
10
20.020504352686036
20
57.437593010384944
30
2.4421808494908933e-15
11
20.020504352686032
21
33.111056412506635
31
0
0
LINE
5
185
100
AcDbEntity
8
0
100
AcDbLine
10
7.9353998570170514
20
45.079088660896616
30
0
11
7.9353998570170505
21
33.011672420866311
31
0
0
LINE
5
186
100
AcDbEntity
8
0
100
AcDbLine
10
7.9353998570170505
20
33.011672420866311
30
0
11
14.921702599604572
21
33.011672420866319
31
0
0
LINE
5
187
100
AcDbEntity
8
0
100
AcDbLine
10
14.921702599604572
20
33.011672420866319
30
0
11
14.921702599604567
21
38.999999128282063
31
0
0
LINE
5
188
100
AcDbEntity
8
0
100
AcDbLine
10
17.150621956111355
20
29.998456646623495
30
0
11
17.150621956111365
21
42.043154399769485
31
0
0
LINE
5
189
100
AcDbEntity
8
0
100
AcDbLine
10
17.150621956111365
20
42.043154399769485
30
0
11
11.023973352461114
21
42.043154399769485
31
0
0
LINE
5
190
100
AcDbEntity
8
0
100
AcDbLine
10
53.210908149695783
20
36.052630217371288
30
0
11
59.210908015585339
21
36.052630217371288
31
0
0
LINE
5
191
100
AcDbEntity
8
0
100
AcDbLine
10
53.210908149695783
20
42.086373268513427
30
0
11
53.210908149695783
21
36.052630217371288
31
0
0
LINE
5
192
100
AcDbEntity
8
0
100
AcDbLine
10
23.038845390327989
20
42.084451585012147
30
0
11
23.038845390327992
21
36.028607920628701
31
0
0
LINE
5
193
100
AcDbEntity
8
0
100
AcDbLine
10
23.038845390327992
20
36.028607920628701
30
0
11
29.251576626004905
21
36.028607920628701
31
0
0
LINE
5
194
100
AcDbEntity
8
0
100
AcDbLine
10
38.075342412475948
20
45.044119932387744
30
0
11
38.075342412475948
21
33.118656088235142
31
0
0
LINE
5
195
100
AcDbEntity
8
0
100
AcDbLine
10
38.075342412475948
20
33.118656088235142
30
0
11
44.103189300246854
21
33.118656088235142
31
0
0
LINE
5
196
100
AcDbEntity
8
0
100
AcDbLine
10
44.103189300246854
20
33.118656088235142
30
0
11
44.103189300246854
21
38.99999912828207
31
0
0
LINE
5
197
100
AcDbEntity
8
0
100
AcDbLine
10
47.103788862003768
20
54.072080045750752
30
2.7971763929628054e-15
11
41.179847074181296
21
54.072080045750752
31
4.1495736359171702e-15
0
LINE
5
198
100
AcDbEntity
8
0
100
AcDbLine
10
47.103788862003725
20
48.07877738587824
30
2.7971763929628058e-15
11
47.103788862003768
21
54.072080045750752
31
2.7971763929628054e-15
0
LINE
5
199
100
AcDbEntity
8
0
100
AcDbLine
10
35.330360281979424
20
48.078837667548783
30
0
11
47.103788862003725
21
48.07877738587824
31
2.7971763929628058e-15
0
LINE
5
200
100
AcDbEntity
8
0
100
AcDbLine
10
40.963378423207473
20
42.011748744333332
30
0
11
40.963378423207487
21
36.447729002458232
31
0
0
LINE
5
201
100
AcDbEntity
8
0
100
AcDbLine
10
47.002147836173478
20
42.01067145944333
30
0
11
40.963378423207473
21
42.011748744333332
31
0
0
LINE
5
202
100
AcDbEntity
8
0
100
AcDbLine
10
46.999998949468136
20
29.96498936676052
30
0
11
47.002147836173478
21
42.01067145944333
31
0
0
LINE
5
203
100
AcDbEntity
8
0
100
AcDbLine
10
23.139553595491741
20
59.979348691100256
30
0
11
50.491345837296741
21
59.979348691100256
31
0
0
LINE
5
204
100
AcDbEntity
8
0
100
AcDbLine
10
5.1100004931890979
20
60.032342609790803
30
0
11
17.373937420816695
21
60.032279816646039
31
0
0
LINE
5
205
100
AcDbEntity
8
0
100
AcDbLine
10
38.075342412475948
20
45.044119932387744
30
0
11
61.945185784540115
21
45.044119932387744
31
0
0
LINE
5
206
100
AcDbEntity
8
0
100
AcDbLine
10
32.295423356907548
20
38.952657022565205
30
0
11
32.295423356907548
21
33.111056412506642
31
0
0
LINE
5
207
100
AcDbEntity
8
0
100
AcDbLine
10
53.085014793318734
20
59.946687302081365
30
0
11
53.085014793318734
21
48.060583209987215
31
0
0
LINE
5
208
100
AcDbEntity
8
0
100
AcDbLine
10
53.085014793318734
20
48.060583209987215
30
0
11
59.141529331256812
21
48.0605832099872
31
0
0
LINE
5
209
100
AcDbEntity
8
0
100
AcDbLine
10
59.141529331256812
20
48.0605832099872
30
0
11
59.141529331256812
21
53.999998793005943
31
0
0
LINE
5
210
100
AcDbEntity
8
0
100
AcDbLine
10
56.305155924476857
20
39.052959275366909
30
0
11
62.115104166911912
21
39.052959275366909
31
0
0
LINE
5
211
100
AcDbEntity
8
0
100
AcDbLine
10
61.942950535737438
20
57.098704187235995
30
0
11
56.127725485677622
21
57.098704187235995
31
0
0
LINE
5
212
100
AcDbEntity
8
0
100
AcDbLine
10
61.945185784540115
20
45.044119932387744
30
0
11
61.942950535737438
21
57.098704187235995
31
0
0
LINE
5
213
100
AcDbEntity
8
0
100
AcDbLine
10
50.123826989073549
20
56.971265204036818
30
2.4421808494908933e-15
11
50.123826989073557
21
33.052630284426513
31
0
0
LINE
5
214
100
AcDbEntity
8
0
100
AcDbLine
10
50.123826989073549
20
56.971265204036818
30
2.4421808494908933e-15
11
38.134745351627032
21
56.971265204036825
31
4.528845659005585e-15
0
LINE
5
215
100
AcDbEntity
8
0
100
AcDbLine
10
35.23388355880607
20
17.955854554246862
30
0
11
35.233883558806077
21
42.084451585012161
31
0
0
LINE
5
216
100
AcDbEntity
8
0
100
AcDbLine
10
35.330360281979424
20
48.078837667548783
30
0
11
35.330421214330606
21
59.979348691100256
31
0
0
LINE
5
217
100
AcDbEntity
8
0
100
AcDbLine
10
92.34070553832143
20
26.966391080376873
30
0
11
86.525546320352618
21
26.966391080376908
31
0
0
LINE
5
218
100
AcDbEntity
8
0
100
AcDbLine
10
83.503119118860027
20
29.96498936676052
30
0
11
83.503119118860027
21
18.007165470305566
31
0
0
LINE
5
219
100
AcDbEntity
8
0
100
AcDbLine
10
89.462659232526107
20
18.007165470305559
30
0
11
89.462659232526107
21
23.981946267495793
31
0
0
LINE
5
220
100
AcDbEntity
8
0
100
AcDbLine
10
83.503119118860027
20
18.007165470305566
30
0
11
89.462659232526107
21
18.007165470305559
31
0
0
LINE
5
221
100
AcDbEntity
8
0
100
AcDbLine
10
92.342933094977496
20
14.953290184945981
30
0
11
92.34070553832143
21
26.966391080376873
31
0
0
LINE
5
222
100
AcDbEntity
8
0
100
AcDbLine
10
110.34132863375292
20
27.043234911834951
30
2.4421808494908933e-15
11
110.34132863375292
21
3.0464920132475104
31
0
0
LINE
5
223
100
AcDbEntity
8
0
100
AcDbLine
10
80.489583271570808
20
33.111056412506635
30
0
11
92.764502275792324
21
33.111056412506642
31
0
0
LINE
5
224
100
AcDbEntity
8
0
100
AcDbLine
10
95.702962477690861
20
42.084451585012161
30
0
11
83.507924309212768
21
42.084451585012147
31
0
0
LINE
5
225
100
AcDbEntity
8
0
100
AcDbLine
10
122.16261390498187
20
14.999782265248719
30
0
11
122.1603863483258
21
27.012883160679607
31
0
0
LINE
5
226
100
AcDbEntity
8
0
100
AcDbLine
10
80.521647823748566
20
26.996742831532217
30
2.4421808494908933e-15
11
80.521647823748538
21
2.9999999329447755
31
0
0
LINE
5
227
100
AcDbEntity
8
0
100
AcDbLine
10
68.473163247150936
20
14.953290184945986
30
0
11
68.473163247150936
21
2.9030087713757675
31
0
0
LINE
5
228
100
AcDbEntity
8
0
100
AcDbLine
10
74.501010134921842
20
2.9030087713757684
30
0
11
74.501010134921842
21
8.9999997988343239
31
0
0
LINE
5
229
100
AcDbEntity
8
0
100
AcDbLine
10
77.583310972483503
20
0
30
0
11
77.583310972483503
21
11.978767990216967
31
0
0
LINE
5
230
100
AcDbEntity
8
0
100
AcDbLine
10
77.583310972483503
20
11.978767990216967
30
0
11
71.419614291240251
21
11.978767990216973
31
0
0
LINE
5
231
100
AcDbEntity
8
0
100
AcDbLine
10
71.419614291240251
20
11.978767990216973
30
0
11
71.419614291240251
21
5.9999998658895493
31
0
0
LINE
5
232
100
AcDbEntity
8
0
100
AcDbLine
10
98.603824270512092
20
51.053310566166481
30
4.5288456590055858e-15
11
104.54033669017019
21
51.053310566166481
31
3.1698562184976796e-15
0
LINE
5
233
100
AcDbEntity
8
0
100
AcDbLine
10
98.544421331360724
20
45.044119932387744
30
0
11
98.544421331360724
21
33.118656088235142
31
0
0
LINE
5
234
100
AcDbEntity
8
0
100
AcDbLine
10
122.41426470342489
20
45.044119932387744
30
0
11
122.41202945462221
21
57.098704187235995
31
0
0
LINE
5
235
100
AcDbEntity
8
0
100
AcDbLine
10
98.292844057155293
20
14.99978226524872
30
0
11
98.292844057155293
21
2.949500851678502
31
0
0
LINE
5
236
100
AcDbEntity
8
0
100
AcDbLine
10
92.512925001586908
20
8.9999997988343239
30
0
11
92.512925001586908
21
2.9999999329447724
31
0
0
LINE
5
237
100
AcDbEntity
8
0
100
AcDbLine
10
86.525546320352618
20
26.966391080376908
30
0
11
86.525546320352618
21
20.999999530613422
31
0
0
LINE
5
238
100
AcDbEntity
8
0
100
AcDbLine
10
65.547841662381373
20
30.000356300056069
30
0
11
77.619700874996141
21
29.998456646623495
31
0
0
LINE
5
239
100
AcDbEntity
8
0
100
AcDbLine
10
83.503119118860027
20
29.96498936676052
30
0
11
107.46907786835291
21
29.96498936676052
31
0
0
LINE
5
240
100
AcDbEntity
8
0
100
AcDbLine
10
65.545945008493931
20
17.955390166416059
30
4.8843616989817889e-15
11
77.509746478772485
21
17.953507517365914
31
2.7971763929628058e-15
0
LINE
5
241
100
AcDbEntity
8
0
100
AcDbLine
10
68.53256618630229
20
26.99674283153222
30
4.528845659005585e-15
11
68.532566186302276
21
20.999892826484839
31
4.5288456590055858e-15
0
LINE
5
242
100
AcDbEntity
8
0
100
AcDbLine
10
77.509746478772485
20
17.953507517365914
30
2.7971763929628058e-15
11
77.509746478772541
21
23.939766938892049
31
2.7971763929628054e-15
0
LINE
5
243
100
AcDbEntity
8
0
100
AcDbLine
10
80.521647823748566
20
26.996742831532217
30
2.4421808494908933e-15
11
68.53256618630229
21
26.99674283153222
31
4.528845659005585e-15
0
LINE
5
244
100
AcDbEntity
8
0
100
AcDbLine
10
77.509746478772541
20
23.939766938892049
30
2.7971763929628054e-15
11
71.398569645691708
21
23.939766938892049
31
4.1495736359171702e-15
0
LINE
5
245
100
AcDbEntity
8
0
100
AcDbLine
10
68.532566186302276
20
20.999892826484839
30
4.5288456590055858e-15
11
74.469078605960391
21
20.999892826484839
31
3.1698562184976796e-15
0
LINE
5
246
100
AcDbEntity
8
0
100
AcDbLine
10
113.42840979437514
20
6.0464919461922841
30
0
11
119.42840966026469
21
6.0464919461922841
31
0
0
LINE
5
247
100
AcDbEntity
8
0
100
AcDbLine
10
113.46245050844044
20
29.997095272989867
30
0
11
125.67998680035963
21
29.997095272989863
31
0
0
LINE
5
248
100
AcDbEntity
8
0
100
AcDbLine
10
122.41202945462221
20
57.098704187235995
30
0
11
116.59680440456242
21
57.098704187235995
31
0
0
LINE
5
249
100
AcDbEntity
8
0
100
AcDbLine
10
116.77423484336165
20
39.052959275366909
30
0
11
122.58418308579671
21
39.052959275366909
31
0
0
LINE
5
250
100
AcDbEntity
8
0
100
AcDbLine
10
98.544421331360724
20
33.118656088235142
30
0
11
104.57226821913162
21
33.118656088235142
31
0
0
LINE
5
251
100
AcDbEntity
8
0
100
AcDbLine
10
75.390781518489348
20
33.011672420866319
30
0
11
75.390781518489348
21
38.999999128282063
31
0
0
LINE
5
252
100
AcDbEntity
8
0
100
AcDbLine
10
77.619700874996141
20
29.998456646623495
30
0
11
77.619700874996141
21
42.043154399769485
31
0
0
LINE
5
253
100
AcDbEntity
8
0
100
AcDbLine
10
77.619700874996141
20
42.043154399769485
30
0
11
71.493052271345888
21
42.043154399769485
31
0
0
LINE
5
254
100
AcDbEntity
8
0
100
AcDbLine
10
83.507924309212768
20
42.084451585012147
30
0
11
83.507924309212768
21
36.028607920628701
31
0
0
LINE
5
255
100
AcDbEntity
8
0
100
AcDbLine
10
119.6106082501416
20
48.0605832099872
30
0
11
119.6106082501416
21
53.999998793005943
31
0
0
LINE
5
256
100
AcDbEntity
8
0
100
AcDbLine
10
113.5540937122035
20
48.060583209987215
30
0
11
119.6106082501416
21
48.0605832099872
31
0
0
LINE
5
257
100
AcDbEntity
8
0
100
AcDbLine
10
113.5540937122035
20
59.946687302081365
30
0
11
113.5540937122035
21
48.060583209987215
31
0
0
LINE
5
258
100
AcDbEntity
8
0
100
AcDbLine
10
113.67998706858057
20
42.086373268513427
30
0
11
113.67998706858057
21
36.052630217371288
31
0
0
LINE
5
259
100
AcDbEntity
8
0
100
AcDbLine
10
113.67998706858057
20
36.052630217371288
30
0
11
119.67998693447014
21
36.052630217371288
31
0
0
LINE
5
260
100
AcDbEntity
8
0
100
AcDbLine
10
116.59680440456242
20
57.098704187235995
30
0
11
116.59680440456242
21
50.999998860061169
31
0
0
LINE
5
261
100
AcDbEntity
8
0
100
AcDbLine
10
110.59290590795834
20
33.052630284426513
30
0
11
122.58418308579671
21
33.052630284426513
31
0
0
LINE
5
262
100
AcDbEntity
8
0
100
AcDbLine
10
122.58418308579671
20
39.052959275366909
30
0
11
122.58418308579671
21
33.052630284426513
31
0
0
LINE
5
263
100
AcDbEntity
8
0
100
AcDbLine
10
125.67998680035963
20
29.997095272989863
30
0
11
125.67998680035969
21
42.086373268513441
31
0
0
LINE
5
264
100
AcDbEntity
8
0
100
AcDbLine
10
125.67998680035969
20
42.086373268513441
30
0
11
113.67998706858057
21
42.086373268513427
31
0
0
LINE
5
265
100
AcDbEntity
8
0
100
AcDbLine
10
113.42840979437514
20
12.046491812081834
30
0
11
113.42840979437514
21
6.0464919461922841
31
0
0
LINE
5
266
100
AcDbEntity
8
0
100
AcDbLine
10
125.42840952615424
20
12.046491812081836
30
0
11
113.42840979437514
21
12.046491812081834
31
0
0
LINE
5
267
100
AcDbEntity
8
0
100
AcDbLine
10
125.42840952615424
20
0.046492080302734662
30
0
11
125.42840952615424
21
12.046491812081836
31
0
0
LINE
5
268
100
AcDbEntity
8
0
100
AcDbLine
10
110.59290590795834
20
56.971265204036818
30
2.4421808494908933e-15
11
110.59290590795834
21
33.052630284426513
31
0
0
LINE
5
269
100
AcDbEntity
8
0
100
AcDbLine
10
110.59290590795834
20
56.971265204036818
30
2.4421808494908933e-15
11
98.603824270511808
21
56.971265204036825
31
4.528845659005585e-15
0
LINE
5
270
100
AcDbEntity
8
0
100
AcDbLine
10
83.608632514376509
20
59.979348691100256
30
0
11
110.96042475618154
21
59.979348691100256
31
0
0
LINE
5
271
100
AcDbEntity
8
0
100
AcDbLine
10
68.473163247150936
20
14.953290184945986
30
0
11
92.342933094977496
21
14.953290184945981
31
0
0
LINE
5
272
100
AcDbEntity
8
0
100
AcDbLine
10
110.34132863375292
20
27.043234911834951
30
2.4421808494908933e-15
11
98.352246996306661
21
27.043234911834958
31
4.528845659005585e-15
0
LINE
5
273
100
AcDbEntity
8
0
100
AcDbLine
10
98.352246996306661
20
27.043234911834958
30
4.528845659005585e-15
11
98.352246996306633
21
21.046384906787576
31
4.5288456590055858e-15
0
LINE
5
274
100
AcDbEntity
8
0
100
AcDbLine
10
98.352246996306633
20
21.046384906787576
30
4.5288456590055858e-15
11
104.28875941596476
21
21.046384906787576
31
3.1698562184976796e-15
0
LINE
5
275
100
AcDbEntity
8
0
100
AcDbLine
10
95.702962477690861
20
17.955854554246862
30
0
11
95.702962477690861
21
42.084451585012161
31
0
0
LINE
5
276
100
AcDbEntity
8
0
100
AcDbLine
10
92.592348644617857
20
57.052212106933041
30
0
11
86.606603800993085
21
57.052212106933013
31
0
0
LINE
5
277
100
AcDbEntity
8
0
100
AcDbLine
10
83.608632514376509
20
59.979348691100256
30
0
11
83.608632514376509
21
48.035328273588135
31
0
0
LINE
5
278
100
AcDbEntity
8
0
100
AcDbLine
10
89.475508795740552
20
48.035328273588135
30
0
11
89.475508795740552
21
53.931790875579956
31
0
0
LINE
5
279
100
AcDbEntity
8
0
100
AcDbLine
10
83.608632514376509
20
48.035328273588135
30
0
11
89.475508795740552
21
48.035328273588135
31
0
0
LINE
5
280
100
AcDbEntity
8
0
100
AcDbLine
10
107.57286778088852
20
48.07877738587824
30
2.7971763929628058e-15
11
107.57286778088854
21
54.072080045750752
31
2.7971763929628054e-15
0
LINE
5
281
100
AcDbEntity
8
0
100
AcDbLine
10
95.7994392008642
20
48.078837667548783
30
0
11
107.57286778088852
21
48.07877738587824
31
2.7971763929628058e-15
0
LINE
5
282
100
AcDbEntity
8
0
100
AcDbLine
10
101.43245734209225
20
42.011748744333332
30
0
11
101.43245734209225
21
36.447729002458232
31
0
0
LINE
5
283
100
AcDbEntity
8
0
100
AcDbLine
10
107.47122675505827
20
42.01067145944333
30
0
11
101.43245734209225
21
42.011748744333332
31
0
0
LINE
5
284
100
AcDbEntity
8
0
100
AcDbLine
10
107.46907786835291
20
29.96498936676052
30
0
11
107.47122675505827
21
42.01067145944333
31
0
0
LINE
5
285
100
AcDbEntity
8
0
100
AcDbLine
10
98.544421331360724
20
45.044119932387744
30
0
11
122.41426470342489
21
45.044119932387744
31
0
0
LINE
5
286
100
AcDbEntity
8
0
100
AcDbLine
10
86.641455984029406
20
38.952657022565205
30
0
11
92.764502275792324
21
38.952657022565205
31
0
0
LINE
5
287
100
AcDbEntity
8
0
100
AcDbLine
10
86.606603800993085
20
57.052212106933013
30
0
11
86.606603800993085
21
50.965894901348179
31
0
0
LINE
5
288
100
AcDbEntity
8
0
100
AcDbLine
10
71.493052271345888
20
42.043154399769485
30
0
11
71.493052271345888
21
35.999999195337288
31
0
0
LINE
5
289
100
AcDbEntity
8
0
100
AcDbLine
10
83.507924309212768
20
36.028607920628701
30
0
11
89.720655544889667
21
36.028607920628701
31
0
0
LINE
5
290
100
AcDbEntity
8
0
100
AcDbLine
10
65.579079136881717
20
59.978595670750288
30
0
11
77.856453091661479
21
59.97853280880598
31
0
0
LINE
5
291
100
AcDbEntity
8
0
100
AcDbLine
10
92.764502275792324
20
38.952657022565205
30
0
11
92.764502275792324
21
33.111056412506642
31
0
0
LINE
5
292
100
AcDbEntity
8
0
100
AcDbLine
10
95.469078136573813
20
0
30
0
11
95.469078136573813
21
11.999999731779102
31
0
0
LINE
5
293
100
AcDbEntity
8
0
100
AcDbLine
10
98.292844057155293
20
14.99978226524872
30
0
11
122.16261390498187
21
14.999782265248719
31
0
0
LINE
5
294
100
AcDbEntity
8
0
100
AcDbLine
10
113.46245050844044
20
29.997095272989867
30
0
11
113.46245050844044
21
18.0536575506083
31
0
0
LINE
5
295
100
AcDbEntity
8
0
100
AcDbLine
10
113.46245050844044
20
18.0536575506083
30
0
11
119.42199062210649
21
18.053657550608293
31
0
0
LINE
5
296
100
AcDbEntity
8
0
100
AcDbLine
10
119.42199062210649
20
18.053657550608293
30
0
11
119.42199062210649
21
24.028438347798531
31
0
0
LINE
5
297
100
AcDbEntity
8
0
100
AcDbLine
10
116.28875914774389
20
9.0464918791370579
30
0
11
122.33260581159129
21
9.0464918791370579
31
0
0
LINE
5
298
100
AcDbEntity
8
0
100
AcDbLine
10
122.33260581159129
20
9.0464918791370579
30
0
11
122.33260581159129
21
3.0464920132475068
31
0
0
LINE
5
299
100
AcDbEntity
8
0
100
AcDbLine
10
110.34132863375292
20
3.0464920132475104
30
0
11
122.33260581159129
21
3.0464920132475068
31
0
0
LINE
5
300
100
AcDbEntity
8
0
100
AcDbLine
10
116.345227130357
20
27.012883160679646
30
0
11
116.345227130357
21
21.046491610916156
31
0
0
LINE
5
301
100
AcDbEntity
8
0
100
AcDbLine
10
122.1603863483258
20
27.012883160679607
30
0
11
116.345227130357
21
27.012883160679646
31
0
0
LINE
5
302
100
AcDbEntity
8
0
100
AcDbLine
10
80.521647823748538
20
2.9999999329447755
30
0
11
92.512925001586908
21
2.9999999329447724
31
0
0
LINE
5
303
100
AcDbEntity
8
0
100
AcDbLine
10
104.57226821913162
20
33.118656088235142
30
0
11
104.57226821913162
21
38.99999912828207
31
0
0
LINE
5
304
100
AcDbEntity
8
0
100
AcDbLine
10
107.57286778088854
20
54.072080045750752
30
2.7971763929628054e-15
11
101.64892599306609
21
54.072080045750752
31
4.1495736359171702e-15
0
LINE
5
305
100
AcDbEntity
8
0
100
AcDbLine
10
92.5945687883641
20
45.079088660896616
30
0
11
92.592348644617857
21
57.052212106933041
31
0
0
LINE
5
306
100
AcDbEntity
8
0
100
AcDbLine
10
65.5790177111963
20
47.981733048001146
30
4.8843616989817889e-15
11
77.761317605682521
21
47.981670672849873
31
2.7971763929628058e-15
0
LINE
5
307
100
AcDbEntity
8
0
100
AcDbLine
10
68.784143460507707
20
57.437593010384937
30
4.528845659005585e-15
11
68.784143460507707
21
51.106220969257436
31
4.5288456590055858e-15
0
LINE
5
308
100
AcDbEntity
8
0
100
AcDbLine
10
77.761317605682521
20
47.981670672849873
30
2.7971763929628058e-15
11
77.761317605682521
21
53.920649318165452
31
2.7971763929628054e-15
0
LINE
5
309
100
AcDbEntity
8
0
100
AcDbLine
10
80.489583271570808
20
57.437593010384944
30
2.4421808494908933e-15
11
68.784143460507707
21
57.437593010384937
31
4.528845659005585e-15
0
LINE
5
310
100
AcDbEntity
8
0
100
AcDbLine
10
77.761317605682521
20
53.920649318165452
30
2.7971763929628054e-15
11
71.733777428917151
21
53.920649318134593
31
4.1495736359171702e-15
0
LINE
5
311
100
AcDbEntity
8
0
100
AcDbLine
10
68.784143460507707
20
51.106220969257436
30
4.5288456590055858e-15
11
74.720655880165808
21
51.106220969257436
31
3.1698562184976796e-15
0
LINE
5
312
100
AcDbEntity
8
0
100
AcDbLine
10
107.54264236206394
20
0.046492080302734662
30
0
11
107.54264236206394
21
12.025260070519701
31
0
0
LINE
5
313
100
AcDbEntity
8
0
100
AcDbLine
10
83.469078404794715
20
5.9999998658895493
30
0
11
89.469078270684264
21
5.9999998658895493
31
0
0
LINE
5
314
100
AcDbEntity
8
0
100
AcDbLine
10
86.469078337739489
20
8.9999997988343239
30
0
11
92.512925001586908
21
8.9999997988343239
31
0
0
LINE
5
315
100
AcDbEntity
8
0
100
AcDbLine
10
95.469078136573813
20
11.999999731779102
30
0
11
83.469078404794715
21
11.999999731779099
31
0
0
LINE
5
316
100
AcDbEntity
8
0
100
AcDbLine
10
83.469078404794715
20
11.999999731779099
30
0
11
83.469078404794715
21
5.9999998658895493
31
0
0
LINE
5
317
100
AcDbEntity
8
0
100
AcDbLine
10
98.292844057155293
20
2.949500851678502
30
0
11
104.3206909449262
21
2.9495008516785033
31
0
0
LINE
5
318
100
AcDbEntity
8
0
100
AcDbLine
10
104.3206909449262
20
2.9495008516785033
30
0
11
104.3206909449262
21
9.0464918791370579
31
0
0
LINE
5
319
100
AcDbEntity
8
0
100
AcDbLine
10
107.46907786835295
20
23.986259019194787
30
2.7971763929628054e-15
11
101.35790103527212
21
23.986259019194787
31
4.1495736359171702e-15
0
LINE
5
320
100
AcDbEntity
8
0
100
AcDbLine
10
107.46907786835291
20
17.953507515085132
30
2.7971763929628058e-15
11
107.46907786835295
21
23.986259019194787
31
2.7971763929628054e-15
0
LINE
5
321
100
AcDbEntity
8
0
100
AcDbLine
10
95.702962477690861
20
17.955854554246862
30
0
11
107.46907786835291
21
17.953507515085132
31
2.7971763929628058e-15
0
LINE
5
322
100
AcDbEntity
8
0
100
AcDbLine
10
101.37894568082066
20
12.025260070519707
30
0
11
101.37894568082068
21
6.0464919461922841
31
0
0
LINE
5
323
100
AcDbEntity
8
0
100
AcDbLine
10
107.54264236206394
20
12.025260070519701
30
0
11
101.37894568082066
21
12.025260070519707
31
0
0
LINE
5
324
100
AcDbEntity
8
0
100
AcDbLine
10
68.404478775901822
20
45.079088660896616
30
0
11
92.5945687883641
21
45.079088660896616
31
0
0
LINE
5
325
100
AcDbEntity
8
0
100
AcDbLine
10
80.489583271570808
20
57.437593010384944
30
2.4421808494908933e-15
11
80.489583271570808
21
33.111056412506635
31
0
0
LINE
5
326
100
AcDbEntity
8
0
100
AcDbLine
10
68.404478775901822
20
45.079088660896616
30
0
11
68.404478775901822
21
33.011672420866311
31
0
0
LINE
5
327
100
AcDbEntity
8
0
100
AcDbLine
10
68.404478775901822
20
33.011672420866311
30
0
11
75.390781518489348
21
33.011672420866319
31
0
0
LINE
5
328
100
AcDbEntity
8
0
100
AcDbLine
10
98.603824270511808
20
56.971265204036825
30
4.528845659005585e-15
11
98.603824270512092
21
51.053310566166481
31
4.5288456590055858e-15
0
LINE
5
329
100
AcDbEntity
8
0
100
AcDbLine
10
68.473163247150936
20
2.9030087713757675
30
0
11
74.501010134921842
21
2.9030087713757684
31
0
0
LINE
5
330
100
AcDbEntity
8
0
100
AcDbLine
10
65.545945008493931
20
17.955390166416059
30
4.8843616989817889e-15
11
65.547841662381373
21
30.000356300056069
31
0
0
LINE
5
331
100
AcDbEntity
8
0
100
AcDbLine
10
65.5790177111963
20
47.981733048001146
30
4.8843616989817889e-15
11
65.579079136881717
21
59.978595670750288
31
0
0
LINE
5
332
100
AcDbEntity
8
0
100
AcDbLine
10
17.373937420816695
20
60.032279816646039
30
0
11
23.139553595491741
21
59.979348691100256
31
0
0
LINE
5
333
100
AcDbEntity
8
0
100
AcDbLine
10
50.491345837296741
20
59.979348691100256
30
0
11
65.579079136881717
21
59.978595670750288
31
0
0
LINE
5
334
100
AcDbEntity
8
0
100
AcDbLine
10
77.856453091661479
20
59.97853280880598
30
0
11
83.608632514376509
21
59.979348691100256
31
0
0
LINE
5
335
100
AcDbEntity
8
0
100
AcDbLine
10
110.96042475618154
20
59.979348691100256
30
0
11
127.99999713897705
21
59.979348691100256
31
0
0
LINE
5
336
100
AcDbEntity
8
0
100
AcDbLine
10
127.99999713897705
20
59.979348691100256
30
0
11
127.99999713897705
21
0
31
0
0
ENDSEC
0
SECTION
2
OBJECTS
0
DICTIONARY
5
C
100
AcDbDictionary
3
ACAD_GROUP
350
D
3
ACAD_MLINESTYLE
350
17
0
DICTIONARY
5
D
100
AcDbDictionary
0
DICTIONARY
5
1A
330
C
100
AcDbDictionary
0
DICTIONARY
5
17
100
AcDbDictionary
0
ENDSEC
0
EOF
