ISO-10303-21;
HEADER;
/* Generated by software containing ST-Developer
 * from STEP Tools, Inc. (www.steptools.com) 
 */

FILE_DESCRIPTION(
/* description */ (''),
/* implementation_level */ '2;1');

FILE_NAME(
/* name */ 
'C:\\Users\\daniel.bruns\\Documents\\git\\FabAcademy\\daniel-bruns\\da
ta\\wa12\\headphone_rubber.stp',
/* time_stamp */ '2018-06-07T22:18:58+02:00',
/* author */ ('daniel.bruns'),
/* organization */ (''),
/* preprocessor_version */ 'ST-DEVELOPER v17',
/* originating_system */ 'Autodesk Inventor 2018',
/* authorisation */ '');

FILE_SCHEMA (('AUTOMOTIVE_DESIGN { 1 0 10303 214 3 1 1 }'));
ENDSEC;

DATA;
#10=MECHANICAL_DESIGN_GEOMETRIC_PRESENTATION_REPRESENTATION('',(#13),#411);
#11=SHAPE_REPRESENTATION_RELATIONSHIP('SRR','None',#418,#12);
#12=ADVANCED_BREP_SHAPE_REPRESENTATION('',(#14),#410);
#13=STYLED_ITEM('',(#427),#14);
#14=MANIFOLD_SOLID_BREP('Volumenk\X\F6rper1',#225);
#15=FACE_BOUND('',#79,.T.);
#16=PLANE('',#264);
#17=PLANE('',#265);
#18=PLANE('',#268);
#19=PLANE('',#269);
#20=PLANE('',#270);
#21=PLANE('',#271);
#22=SPHERICAL_SURFACE('',#262,11.);
#23=SPHERICAL_SURFACE('',#266,11.);
#24=LINE('',#358,#40);
#25=LINE('',#359,#41);
#26=LINE('',#367,#42);
#27=LINE('',#368,#43);
#28=LINE('',#382,#44);
#29=LINE('',#384,#45);
#30=LINE('',#386,#46);
#31=LINE('',#387,#47);
#32=LINE('',#390,#48);
#33=LINE('',#392,#49);
#34=LINE('',#393,#50);
#35=LINE('',#399,#51);
#36=LINE('',#401,#52);
#37=LINE('',#402,#53);
#38=LINE('',#404,#54);
#39=LINE('',#406,#55);
#40=VECTOR('',#288,10.);
#41=VECTOR('',#289,10.);
#42=VECTOR('',#300,10.);
#43=VECTOR('',#301,10.);
#44=VECTOR('',#318,10.);
#45=VECTOR('',#319,10.);
#46=VECTOR('',#320,10.);
#47=VECTOR('',#321,10.);
#48=VECTOR('',#324,10.);
#49=VECTOR('',#325,10.);
#50=VECTOR('',#326,10.);
#51=VECTOR('',#333,10.);
#52=VECTOR('',#334,10.);
#53=VECTOR('',#335,10.);
#54=VECTOR('',#338,10.);
#55=VECTOR('',#341,10.);
#56=CYLINDRICAL_SURFACE('',#250,3.);
#57=CYLINDRICAL_SURFACE('',#256,3.);
#58=CYLINDRICAL_SURFACE('',#257,11.);
#59=FACE_OUTER_BOUND('',#72,.T.);
#60=FACE_OUTER_BOUND('',#73,.T.);
#61=FACE_OUTER_BOUND('',#74,.T.);
#62=FACE_OUTER_BOUND('',#75,.T.);
#63=FACE_OUTER_BOUND('',#76,.T.);
#64=FACE_OUTER_BOUND('',#77,.T.);
#65=FACE_OUTER_BOUND('',#78,.T.);
#66=FACE_OUTER_BOUND('',#80,.T.);
#67=FACE_OUTER_BOUND('',#81,.T.);
#68=FACE_OUTER_BOUND('',#82,.T.);
#69=FACE_OUTER_BOUND('',#83,.T.);
#70=FACE_OUTER_BOUND('',#84,.T.);
#71=FACE_OUTER_BOUND('',#85,.T.);
#72=EDGE_LOOP('',(#150,#151,#152,#153));
#73=EDGE_LOOP('',(#154,#155,#156,#157));
#74=EDGE_LOOP('',(#158,#159,#160,#161));
#75=EDGE_LOOP('',(#162,#163,#164,#165));
#76=EDGE_LOOP('',(#166,#167,#168,#169,#170,#171));
#77=EDGE_LOOP('',(#172,#173,#174,#175,#176));
#78=EDGE_LOOP('',(#177,#178,#179,#180));
#79=EDGE_LOOP('',(#181,#182,#183,#184));
#80=EDGE_LOOP('',(#185,#186,#187,#188));
#81=EDGE_LOOP('',(#189,#190,#191,#192,#193));
#82=EDGE_LOOP('',(#194,#195,#196,#197));
#83=EDGE_LOOP('',(#198,#199,#200,#201));
#84=EDGE_LOOP('',(#202,#203,#204,#205));
#85=EDGE_LOOP('',(#206,#207,#208,#209));
#86=CIRCLE('',#246,3.);
#87=CIRCLE('',#247,7.74596669241483);
#88=CIRCLE('',#248,3.);
#89=CIRCLE('',#249,10.6507042020704);
#90=CIRCLE('',#251,3.);
#91=CIRCLE('',#253,3.);
#92=CIRCLE('',#254,10.6507042020704);
#93=CIRCLE('',#255,7.74596669241483);
#94=CIRCLE('',#258,11.);
#95=CIRCLE('',#259,11.);
#96=CIRCLE('',#260,11.);
#97=CIRCLE('',#261,11.);
#98=CIRCLE('',#263,11.);
#99=CIRCLE('',#267,11.);
#100=VERTEX_POINT('',#346);
#101=VERTEX_POINT('',#347);
#102=VERTEX_POINT('',#349);
#103=VERTEX_POINT('',#351);
#104=VERTEX_POINT('',#355);
#105=VERTEX_POINT('',#356);
#106=VERTEX_POINT('',#361);
#107=VERTEX_POINT('',#362);
#108=VERTEX_POINT('',#370);
#109=VERTEX_POINT('',#373);
#110=VERTEX_POINT('',#377);
#111=VERTEX_POINT('',#380);
#112=VERTEX_POINT('',#381);
#113=VERTEX_POINT('',#383);
#114=VERTEX_POINT('',#385);
#115=VERTEX_POINT('',#389);
#116=VERTEX_POINT('',#391);
#117=VERTEX_POINT('',#395);
#118=VERTEX_POINT('',#398);
#119=VERTEX_POINT('',#400);
#120=EDGE_CURVE('',#100,#101,#86,.T.);
#121=EDGE_CURVE('',#101,#102,#87,.T.);
#122=EDGE_CURVE('',#102,#103,#88,.T.);
#123=EDGE_CURVE('',#103,#100,#89,.T.);
#124=EDGE_CURVE('',#104,#105,#90,.T.);
#125=EDGE_CURVE('',#105,#103,#24,.T.);
#126=EDGE_CURVE('',#102,#104,#25,.T.);
#127=EDGE_CURVE('',#106,#107,#91,.T.);
#128=EDGE_CURVE('',#107,#105,#92,.T.);
#129=EDGE_CURVE('',#104,#106,#93,.T.);
#130=EDGE_CURVE('',#100,#107,#26,.T.);
#131=EDGE_CURVE('',#106,#101,#27,.T.);
#132=EDGE_CURVE('',#108,#100,#94,.T.);
#133=EDGE_CURVE('',#103,#108,#95,.T.);
#134=EDGE_CURVE('',#105,#109,#96,.T.);
#135=EDGE_CURVE('',#109,#107,#97,.T.);
#136=EDGE_CURVE('',#110,#108,#98,.T.);
#137=EDGE_CURVE('',#111,#112,#28,.T.);
#138=EDGE_CURVE('',#113,#111,#29,.T.);
#139=EDGE_CURVE('',#113,#114,#30,.T.);
#140=EDGE_CURVE('',#114,#112,#31,.T.);
#141=EDGE_CURVE('',#115,#111,#32,.T.);
#142=EDGE_CURVE('',#112,#116,#33,.T.);
#143=EDGE_CURVE('',#116,#115,#34,.T.);
#144=EDGE_CURVE('',#109,#117,#99,.T.);
#145=EDGE_CURVE('',#114,#118,#35,.T.);
#146=EDGE_CURVE('',#119,#113,#36,.T.);
#147=EDGE_CURVE('',#118,#119,#37,.T.);
#148=EDGE_CURVE('',#119,#115,#38,.T.);
#149=EDGE_CURVE('',#118,#116,#39,.T.);
#150=ORIENTED_EDGE('',*,*,#120,.T.);
#151=ORIENTED_EDGE('',*,*,#121,.T.);
#152=ORIENTED_EDGE('',*,*,#122,.T.);
#153=ORIENTED_EDGE('',*,*,#123,.T.);
#154=ORIENTED_EDGE('',*,*,#124,.T.);
#155=ORIENTED_EDGE('',*,*,#125,.T.);
#156=ORIENTED_EDGE('',*,*,#122,.F.);
#157=ORIENTED_EDGE('',*,*,#126,.T.);
#158=ORIENTED_EDGE('',*,*,#127,.T.);
#159=ORIENTED_EDGE('',*,*,#128,.T.);
#160=ORIENTED_EDGE('',*,*,#124,.F.);
#161=ORIENTED_EDGE('',*,*,#129,.T.);
#162=ORIENTED_EDGE('',*,*,#120,.F.);
#163=ORIENTED_EDGE('',*,*,#130,.T.);
#164=ORIENTED_EDGE('',*,*,#127,.F.);
#165=ORIENTED_EDGE('',*,*,#131,.T.);
#166=ORIENTED_EDGE('',*,*,#130,.F.);
#167=ORIENTED_EDGE('',*,*,#132,.F.);
#168=ORIENTED_EDGE('',*,*,#133,.F.);
#169=ORIENTED_EDGE('',*,*,#125,.F.);
#170=ORIENTED_EDGE('',*,*,#134,.T.);
#171=ORIENTED_EDGE('',*,*,#135,.T.);
#172=ORIENTED_EDGE('',*,*,#123,.F.);
#173=ORIENTED_EDGE('',*,*,#133,.T.);
#174=ORIENTED_EDGE('',*,*,#136,.F.);
#175=ORIENTED_EDGE('',*,*,#136,.T.);
#176=ORIENTED_EDGE('',*,*,#132,.T.);
#177=ORIENTED_EDGE('',*,*,#121,.F.);
#178=ORIENTED_EDGE('',*,*,#131,.F.);
#179=ORIENTED_EDGE('',*,*,#129,.F.);
#180=ORIENTED_EDGE('',*,*,#126,.F.);
#181=ORIENTED_EDGE('',*,*,#137,.F.);
#182=ORIENTED_EDGE('',*,*,#138,.F.);
#183=ORIENTED_EDGE('',*,*,#139,.T.);
#184=ORIENTED_EDGE('',*,*,#140,.T.);
#185=ORIENTED_EDGE('',*,*,#141,.T.);
#186=ORIENTED_EDGE('',*,*,#137,.T.);
#187=ORIENTED_EDGE('',*,*,#142,.T.);
#188=ORIENTED_EDGE('',*,*,#143,.T.);
#189=ORIENTED_EDGE('',*,*,#128,.F.);
#190=ORIENTED_EDGE('',*,*,#135,.F.);
#191=ORIENTED_EDGE('',*,*,#144,.T.);
#192=ORIENTED_EDGE('',*,*,#144,.F.);
#193=ORIENTED_EDGE('',*,*,#134,.F.);
#194=ORIENTED_EDGE('',*,*,#145,.F.);
#195=ORIENTED_EDGE('',*,*,#139,.F.);
#196=ORIENTED_EDGE('',*,*,#146,.F.);
#197=ORIENTED_EDGE('',*,*,#147,.F.);
#198=ORIENTED_EDGE('',*,*,#146,.T.);
#199=ORIENTED_EDGE('',*,*,#138,.T.);
#200=ORIENTED_EDGE('',*,*,#141,.F.);
#201=ORIENTED_EDGE('',*,*,#148,.F.);
#202=ORIENTED_EDGE('',*,*,#147,.T.);
#203=ORIENTED_EDGE('',*,*,#148,.T.);
#204=ORIENTED_EDGE('',*,*,#143,.F.);
#205=ORIENTED_EDGE('',*,*,#149,.F.);
#206=ORIENTED_EDGE('',*,*,#145,.T.);
#207=ORIENTED_EDGE('',*,*,#149,.T.);
#208=ORIENTED_EDGE('',*,*,#142,.F.);
#209=ORIENTED_EDGE('',*,*,#140,.F.);
#210=TOROIDAL_SURFACE('',#245,7.74596669241483,3.);
#211=TOROIDAL_SURFACE('',#252,7.74596669241483,3.);
#212=ADVANCED_FACE('',(#59),#210,.T.);
#213=ADVANCED_FACE('',(#60),#56,.T.);
#214=ADVANCED_FACE('',(#61),#211,.T.);
#215=ADVANCED_FACE('',(#62),#57,.T.);
#216=ADVANCED_FACE('',(#63),#58,.T.);
#217=ADVANCED_FACE('',(#64),#22,.T.);
#218=ADVANCED_FACE('',(#65,#15),#16,.T.);
#219=ADVANCED_FACE('',(#66),#17,.F.);
#220=ADVANCED_FACE('',(#67),#23,.T.);
#221=ADVANCED_FACE('',(#68),#18,.T.);
#222=ADVANCED_FACE('',(#69),#19,.T.);
#223=ADVANCED_FACE('',(#70),#20,.T.);
#224=ADVANCED_FACE('',(#71),#21,.T.);
#225=CLOSED_SHELL('',(#212,#213,#214,#215,#216,#217,#218,#219,#220,#221,
#222,#223,#224));
#226=DERIVED_UNIT_ELEMENT(#228,1.);
#227=DERIVED_UNIT_ELEMENT(#413,3.);
#228=(
MASS_UNIT()
NAMED_UNIT(*)
SI_UNIT($,.GRAM.)
);
#229=DERIVED_UNIT((#226,#227));
#230=MEASURE_REPRESENTATION_ITEM('density measure',
POSITIVE_RATIO_MEASURE(1.),#229);
#231=PROPERTY_DEFINITION_REPRESENTATION(#236,#233);
#232=PROPERTY_DEFINITION_REPRESENTATION(#237,#234);
#233=REPRESENTATION('material name',(#235),#410);
#234=REPRESENTATION('density',(#230),#410);
#235=DESCRIPTIVE_REPRESENTATION_ITEM('Generisch','Generisch');
#236=PROPERTY_DEFINITION('material property','material name',#420);
#237=PROPERTY_DEFINITION('material property','density of part',#420);
#238=DATE_TIME_ROLE('creation_date');
#239=APPLIED_DATE_AND_TIME_ASSIGNMENT(#240,#238,(#420));
#240=DATE_AND_TIME(#241,#242);
#241=CALENDAR_DATE(2018,1,6);
#242=LOCAL_TIME(16,25,26.,#243);
#243=COORDINATED_UNIVERSAL_TIME_OFFSET(0,0,.BEHIND.);
#244=AXIS2_PLACEMENT_3D('placement',#344,#272,#273);
#245=AXIS2_PLACEMENT_3D('',#345,#274,#275);
#246=AXIS2_PLACEMENT_3D('',#348,#276,#277);
#247=AXIS2_PLACEMENT_3D('',#350,#278,#279);
#248=AXIS2_PLACEMENT_3D('',#352,#280,#281);
#249=AXIS2_PLACEMENT_3D('',#353,#282,#283);
#250=AXIS2_PLACEMENT_3D('',#354,#284,#285);
#251=AXIS2_PLACEMENT_3D('',#357,#286,#287);
#252=AXIS2_PLACEMENT_3D('',#360,#290,#291);
#253=AXIS2_PLACEMENT_3D('',#363,#292,#293);
#254=AXIS2_PLACEMENT_3D('',#364,#294,#295);
#255=AXIS2_PLACEMENT_3D('',#365,#296,#297);
#256=AXIS2_PLACEMENT_3D('',#366,#298,#299);
#257=AXIS2_PLACEMENT_3D('',#369,#302,#303);
#258=AXIS2_PLACEMENT_3D('',#371,#304,#305);
#259=AXIS2_PLACEMENT_3D('',#372,#306,#307);
#260=AXIS2_PLACEMENT_3D('',#374,#308,#309);
#261=AXIS2_PLACEMENT_3D('',#375,#310,#311);
#262=AXIS2_PLACEMENT_3D('',#376,#312,#313);
#263=AXIS2_PLACEMENT_3D('',#378,#314,#315);
#264=AXIS2_PLACEMENT_3D('',#379,#316,#317);
#265=AXIS2_PLACEMENT_3D('',#388,#322,#323);
#266=AXIS2_PLACEMENT_3D('',#394,#327,#328);
#267=AXIS2_PLACEMENT_3D('',#396,#329,#330);
#268=AXIS2_PLACEMENT_3D('',#397,#331,#332);
#269=AXIS2_PLACEMENT_3D('',#403,#336,#337);
#270=AXIS2_PLACEMENT_3D('',#405,#339,#340);
#271=AXIS2_PLACEMENT_3D('',#407,#342,#343);
#272=DIRECTION('axis',(0.,0.,1.));
#273=DIRECTION('refdir',(1.,0.,0.));
#274=DIRECTION('center_axis',(0.,-6.68973556321167E-17,1.));
#275=DIRECTION('ref_axis',(1.,0.,0.));
#276=DIRECTION('center_axis',(1.,0.,0.));
#277=DIRECTION('ref_axis',(0.,-0.968245836551854,-0.25));
#278=DIRECTION('center_axis',(0.,-6.68973556321167E-17,1.));
#279=DIRECTION('ref_axis',(1.,1.21156530393989E-16,8.10505150092003E-33));
#280=DIRECTION('center_axis',(1.,0.,0.));
#281=DIRECTION('ref_axis',(0.,3.70074341541719E-16,-1.));
#282=DIRECTION('center_axis',(0.,6.68973556321167E-17,-1.));
#283=DIRECTION('ref_axis',(1.,1.21156530393989E-16,0.));
#284=DIRECTION('center_axis',(1.,0.,0.));
#285=DIRECTION('ref_axis',(0.,0.612372435695795,-0.790569415042095));
#286=DIRECTION('center_axis',(1.,0.,0.));
#287=DIRECTION('ref_axis',(0.,0.,-1.));
#288=DIRECTION('',(1.,0.,0.));
#289=DIRECTION('',(-1.,0.,0.));
#290=DIRECTION('center_axis',(0.,-6.68973556321167E-17,1.));
#291=DIRECTION('ref_axis',(-1.,-1.23978388141719E-16,0.));
#292=DIRECTION('center_axis',(-1.,1.81289734169273E-16,6.70906790009669E-32));
#293=DIRECTION('ref_axis',(0.,3.70074341541719E-16,-1.));
#294=DIRECTION('center_axis',(0.,6.68973556321167E-17,-1.));
#295=DIRECTION('ref_axis',(-1.,9.28286146541863E-17,0.));
#296=DIRECTION('center_axis',(0.,-6.68973556321167E-17,1.));
#297=DIRECTION('ref_axis',(-1.,9.28286146541863E-17,6.20998884735782E-33));
#298=DIRECTION('center_axis',(1.,0.,0.));
#299=DIRECTION('ref_axis',(0.,-0.612372435695795,-0.790569415042095));
#300=DIRECTION('',(-1.,0.,0.));
#301=DIRECTION('',(1.,0.,0.));
#302=DIRECTION('center_axis',(1.,0.,0.));
#303=DIRECTION('ref_axis',(0.,-5.04646829375071E-17,1.));
#304=DIRECTION('center_axis',(1.,0.,0.));
#305=DIRECTION('ref_axis',(0.,0.890723542830247,-0.454545454545454));
#306=DIRECTION('center_axis',(1.,0.,0.));
#307=DIRECTION('ref_axis',(0.,0.890723542830247,-0.454545454545454));
#308=DIRECTION('center_axis',(1.,0.,0.));
#309=DIRECTION('ref_axis',(0.,0.890723542830247,-0.454545454545454));
#310=DIRECTION('center_axis',(1.,0.,0.));
#311=DIRECTION('ref_axis',(0.,0.890723542830247,-0.454545454545454));
#312=DIRECTION('center_axis',(1.,-6.05576195250085E-17,0.));
#313=DIRECTION('ref_axis',(0.,-1.,0.));
#314=DIRECTION('center_axis',(0.,-1.00929365875014E-16,1.));
#315=DIRECTION('ref_axis',(0.,1.,1.00929365875014E-16));
#316=DIRECTION('center_axis',(0.,6.68973556321167E-17,-1.));
#317=DIRECTION('ref_axis',(0.,1.,6.68973556321167E-17));
#318=DIRECTION('',(0.,-1.,-2.25514051876985E-16));
#319=DIRECTION('',(1.,0.,0.));
#320=DIRECTION('',(0.,-1.,8.67361737988404E-17));
#321=DIRECTION('',(1.,0.,0.));
#322=DIRECTION('center_axis',(1.,0.,0.));
#323=DIRECTION('ref_axis',(0.,0.,-1.));
#324=DIRECTION('',(0.,1.66533453693773E-16,-1.));
#325=DIRECTION('',(0.,0.,1.));
#326=DIRECTION('',(0.,1.,0.));
#327=DIRECTION('center_axis',(1.,-6.05576195250085E-17,0.));
#328=DIRECTION('ref_axis',(0.,-1.,0.));
#329=DIRECTION('center_axis',(0.,-1.00929365875014E-16,1.));
#330=DIRECTION('ref_axis',(0.,1.,1.00929365875014E-16));
#331=DIRECTION('center_axis',(1.,0.,0.));
#332=DIRECTION('ref_axis',(0.,0.,-1.));
#333=DIRECTION('',(0.,0.,1.));
#334=DIRECTION('',(0.,1.66533453693773E-16,-1.));
#335=DIRECTION('',(0.,1.,0.));
#336=DIRECTION('center_axis',(0.,-1.,-1.66533453693773E-16));
#337=DIRECTION('ref_axis',(0.,1.66533453693773E-16,-1.));
#338=DIRECTION('',(1.,0.,0.));
#339=DIRECTION('center_axis',(0.,0.,-1.));
#340=DIRECTION('ref_axis',(0.,1.,0.));
#341=DIRECTION('',(1.,0.,0.));
#342=DIRECTION('center_axis',(0.,1.,0.));
#343=DIRECTION('ref_axis',(0.,0.,1.));
#344=CARTESIAN_POINT('',(0.,0.,0.));
#345=CARTESIAN_POINT('Origin',(70.,1.5,3.));
#346=CARTESIAN_POINT('',(70.,-9.1507042020704,2.25));
#347=CARTESIAN_POINT('',(70.,-6.24596669241483,-5.18184688537006E-16));
#348=CARTESIAN_POINT('Origin',(70.,-6.24596669241483,3.));
#349=CARTESIAN_POINT('',(70.,9.24596669241483,5.18184688537006E-16));
#350=CARTESIAN_POINT('Origin',(70.,1.5,0.));
#351=CARTESIAN_POINT('',(70.,12.1507042020704,2.25));
#352=CARTESIAN_POINT('Origin',(70.,9.24596669241483,3.));
#353=CARTESIAN_POINT('Origin',(70.,1.5,2.25));
#354=CARTESIAN_POINT('Origin',(0.,9.24596669241484,3.));
#355=CARTESIAN_POINT('',(0.,9.24596669241484,5.55111512312578E-16));
#356=CARTESIAN_POINT('',(0.,12.1507042020704,2.25));
#357=CARTESIAN_POINT('Origin',(0.,9.24596669241484,3.));
#358=CARTESIAN_POINT('',(0.,12.1507042020704,2.25));
#359=CARTESIAN_POINT('',(0.,9.24596669241484,5.55111512312578E-16));
#360=CARTESIAN_POINT('Origin',(0.,1.5,3.));
#361=CARTESIAN_POINT('',(5.26599090956973E-16,-6.24596669241483,-5.18184688537006E-16));
#362=CARTESIAN_POINT('',(0.,-9.1507042020704,2.25));
#363=CARTESIAN_POINT('Origin',(5.26599090956973E-16,-6.24596669241483,3.));
#364=CARTESIAN_POINT('Origin',(0.,1.5,2.25));
#365=CARTESIAN_POINT('Origin',(0.,1.5,0.));
#366=CARTESIAN_POINT('Origin',(0.,-6.24596669241483,3.));
#367=CARTESIAN_POINT('',(0.,-9.1507042020704,2.25));
#368=CARTESIAN_POINT('',(0.,-6.24596669241483,-5.55111512312578E-16));
#369=CARTESIAN_POINT('Origin',(0.,1.5,5.));
#370=CARTESIAN_POINT('',(70.,12.5,5.));
#371=CARTESIAN_POINT('Origin',(70.,1.5,5.));
#372=CARTESIAN_POINT('Origin',(70.,1.5,5.));
#373=CARTESIAN_POINT('',(0.,12.5,5.));
#374=CARTESIAN_POINT('Origin',(0.,1.5,5.));
#375=CARTESIAN_POINT('Origin',(0.,1.5,5.));
#376=CARTESIAN_POINT('Origin',(70.,1.5,5.));
#377=CARTESIAN_POINT('',(81.,1.5,5.));
#378=CARTESIAN_POINT('Origin',(70.,1.5,5.));
#379=CARTESIAN_POINT('Origin',(0.,-8.29795897113271,-5.55111512312578E-16));
#380=CARTESIAN_POINT('',(70.,3.,0.));
#381=CARTESIAN_POINT('',(70.,0.,0.));
#382=CARTESIAN_POINT('',(70.,2.10102051443365,1.79000448686314E-15));
#383=CARTESIAN_POINT('',(0.,3.,0.));
#384=CARTESIAN_POINT('',(0.,3.,0.));
#385=CARTESIAN_POINT('',(0.,0.,0.));
#386=CARTESIAN_POINT('',(0.,11.8989794855664,0.));
#387=CARTESIAN_POINT('',(0.,0.,0.));
#388=CARTESIAN_POINT('Origin',(70.,12.5,9.43689570931383E-15));
#389=CARTESIAN_POINT('',(70.,3.,10.));
#390=CARTESIAN_POINT('',(70.,3.,10.));
#391=CARTESIAN_POINT('',(70.,0.,10.));
#392=CARTESIAN_POINT('',(70.,0.,0.));
#393=CARTESIAN_POINT('',(70.,0.,10.));
#394=CARTESIAN_POINT('Origin',(0.,1.5,5.));
#395=CARTESIAN_POINT('',(-11.,1.5,5.));
#396=CARTESIAN_POINT('Origin',(0.,1.5,5.));
#397=CARTESIAN_POINT('Origin',(0.,12.5,16.));
#398=CARTESIAN_POINT('',(0.,0.,10.));
#399=CARTESIAN_POINT('',(0.,0.,0.));
#400=CARTESIAN_POINT('',(0.,3.,10.));
#401=CARTESIAN_POINT('',(0.,3.,10.));
#402=CARTESIAN_POINT('',(0.,0.,10.));
#403=CARTESIAN_POINT('Origin',(0.,3.,10.));
#404=CARTESIAN_POINT('',(0.,3.,10.));
#405=CARTESIAN_POINT('Origin',(0.,0.,10.));
#406=CARTESIAN_POINT('',(0.,0.,10.));
#407=CARTESIAN_POINT('Origin',(0.,0.,0.));
#408=UNCERTAINTY_MEASURE_WITH_UNIT(LENGTH_MEASURE(0.01),#412,
'DISTANCE_ACCURACY_VALUE',
'Maximum model space distance between geometric entities at asserted c
onnectivities');
#409=UNCERTAINTY_MEASURE_WITH_UNIT(LENGTH_MEASURE(0.01),#412,
'DISTANCE_ACCURACY_VALUE',
'Maximum model space distance between geometric entities at asserted c
onnectivities');
#410=(
GEOMETRIC_REPRESENTATION_CONTEXT(3)
GLOBAL_UNCERTAINTY_ASSIGNED_CONTEXT((#408))
GLOBAL_UNIT_ASSIGNED_CONTEXT((#412,#415,#414))
REPRESENTATION_CONTEXT('','3D')
);
#411=(
GEOMETRIC_REPRESENTATION_CONTEXT(3)
GLOBAL_UNCERTAINTY_ASSIGNED_CONTEXT((#409))
GLOBAL_UNIT_ASSIGNED_CONTEXT((#412,#415,#414))
REPRESENTATION_CONTEXT('','3D')
);
#412=(
LENGTH_UNIT()
NAMED_UNIT(*)
SI_UNIT(.MILLI.,.METRE.)
);
#413=(
LENGTH_UNIT()
NAMED_UNIT(*)
SI_UNIT(.CENTI.,.METRE.)
);
#414=(
NAMED_UNIT(*)
SI_UNIT($,.STERADIAN.)
SOLID_ANGLE_UNIT()
);
#415=(
NAMED_UNIT(*)
PLANE_ANGLE_UNIT()
SI_UNIT($,.RADIAN.)
);
#416=SHAPE_DEFINITION_REPRESENTATION(#417,#418);
#417=PRODUCT_DEFINITION_SHAPE('',$,#420);
#418=SHAPE_REPRESENTATION('',(#244),#410);
#419=PRODUCT_DEFINITION_CONTEXT('part definition',#424,'design');
#420=PRODUCT_DEFINITION('headphone_rubber','headphone_rubber',#421,#419);
#421=PRODUCT_DEFINITION_FORMATION('',$,#426);
#422=PRODUCT_RELATED_PRODUCT_CATEGORY('headphone_rubber',
'headphone_rubber',(#426));
#423=APPLICATION_PROTOCOL_DEFINITION('international standard',
'automotive_design',2009,#424);
#424=APPLICATION_CONTEXT(
'Core Data for Automotive Mechanical Design Process');
#425=PRODUCT_CONTEXT('part definition',#424,'mechanical');
#426=PRODUCT('headphone_rubber','headphone_rubber',$,(#425));
#427=PRESENTATION_STYLE_ASSIGNMENT((#428));
#428=SURFACE_STYLE_USAGE(.BOTH.,#429);
#429=SURFACE_SIDE_STYLE('',(#430));
#430=SURFACE_STYLE_FILL_AREA(#431);
#431=FILL_AREA_STYLE('',(#432));
#432=FILL_AREA_STYLE_COLOUR('',#433);
#433=COLOUR_RGB('',0.749019607843137,0.749019607843137,0.749019607843137);
ENDSEC;
END-ISO-10303-21;
