  0
SECTION
  2
HEADER
  9
$ACADVER
  1
AC1014
  9
$ACADMAINTVER
 70
     9
  9
$DWGCODEPAGE
  3
MAC-ROMAN
  9
$INSBASE
 10
0.0
 20
0.0
 30
0.0
  9
$EXTMIN
 10
1.000000000000000E+20
 20
1.000000000000000E+20
 30
1.000000000000000E+20
  9
$EXTMAX
 10
-1.000000000000000E+20
 20
-1.000000000000000E+20
 30
-1.000000000000000E+20
  9
$LIMMIN
 10
0.0
 20
0.0
  9
$LIMMAX
 10
12.0
 20
9.0
  9
$ORTHOMODE
 70
     0
  9
$REGENMODE
 70
     1
  9
$FILLMODE
 70
     1
  9
$QTEXTMODE
 70
     0
  9
$MIRRTEXT
 70
     1
  9
$DRAGMODE
 70
     2
  9
$LTSCALE
 40
1.0
  9
$OSMODE
 70
    37
  9
$ATTMODE
 70
     1
  9
$TEXTSIZE
 40
0.2
  9
$TRACEWID
 40
0.05
  9
$TEXTSTYLE
  7
STANDARD
  9
$CLAYER
  8
0
  9
$CELTYPE
  6
BYLAYER
  9
$CECOLOR
 62
   256
  9
$CELTSCALE
 40
1.0
  9
$DELOBJ
 70
     1
  9
$DISPSILH
 70
     0
  9
$DIMSCALE
 40
1.0
  9
$DIMASZ
 40
0.18
  9
$DIMEXO
 40
0.0625
  9
$DIMDLI
 40
0.38
  9
$DIMRND
 40
0.0
  9
$DIMDLE
 40
0.0
  9
$DIMEXE
 40
0.18
  9
$DIMTP
 40
0.0
  9
$DIMTM
 40
0.0
  9
$DIMTXT
 40
0.18
  9
$DIMCEN
 40
0.09
  9
$DIMTSZ
 40
0.0
  9
$DIMTOL
 70
     0
  9
$DIMLIM
 70
     0
  9
$DIMTIH
 70
     1
  9
$DIMTOH
 70
     1
  9
$DIMSE1
 70
     0
  9
$DIMSE2
 70
     0
  9
$DIMTAD
 70
     0
  9
$DIMZIN
 70
     0
  9
$DIMBLK
  1

  9
$DIMASO
 70
     1
  9
$DIMSHO
 70
     1
  9
$DIMPOST
  1

  9
$DIMAPOST
  1

  9
$DIMALT
 70
     0
  9
$DIMALTD
 70
     2
  9
$DIMALTF
 40
25.4
  9
$DIMLFAC
 40
1.0
  9
$DIMTOFL
 70
     0
  9
$DIMTVP
 40
0.0
  9
$DIMTIX
 70
     0
  9
$DIMSOXD
 70
     0
  9
$DIMSAH
 70
     0
  9
$DIMBLK1
  1

  9
$DIMBLK2
  1

  9
$DIMSTYLE
  2
STANDARD
  9
$DIMCLRD
 70
     0
  9
$DIMCLRE
 70
     0
  9
$DIMCLRT
 70
     0
  9
$DIMTFAC
 40
1.0
  9
$DIMGAP
 40
0.09
  9
$DIMJUST
 70
     0
  9
$DIMSD1
 70
     0
  9
$DIMSD2
 70
     0
  9
$DIMTOLJ
 70
     1
  9
$DIMTZIN
 70
     0
  9
$DIMALTZ
 70
     0
  9
$DIMALTTZ
 70
     0
  9
$DIMFIT
 70
     3
  9
$DIMUPT
 70
     0
  9
$DIMUNIT
 70
     2
  9
$DIMDEC
 70
     4
  9
$DIMTDEC
 70
     4
  9
$DIMALTU
 70
     2
  9
$DIMALTTD
 70
     2
  9
$DIMTXSTY
  7
STANDARD
  9
$DIMAUNIT
 70
     0
  9
$LUNITS
 70
     2
  9
$LUPREC
 70
     4
  9
$SKETCHINC
 40
0.1
  9
$FILLETRAD
 40
0.5
  9
$AUNITS
 70
     0
  9
$AUPREC
 70
     0
  9
$MENU
  1
.
  9
$ELEVATION
 40
0.0
  9
$PELEVATION
 40
0.0
  9
$THICKNESS
 40
0.0
  9
$LIMCHECK
 70
     0
  9
$CHAMFERA
 40
0.0
  9
$CHAMFERB
 40
0.0
  9
$CHAMFERC
 40
0.0
  9
$CHAMFERD
 40
0.0
  9
$SKPOLY
 70
     0
  9
$TDCREATE
 40
2457940.004548611
  9
$TDUPDATE
 40
2457940.004548738
  9
$TDINDWG
 40
0.0000000116
  9
$TDUSRTIMER
 40
0.0000000116
  9
$USRTIMER
 70
     1
  9
$ANGBASE
 50
0.0
  9
$ANGDIR
 70
     0
  9
$PDMODE
 70
     0
  9
$PDSIZE
 40
0.0
  9
$PLINEWID
 40
0.0
  9
$COORDS
 70
     1
  9
$SPLFRAME
 70
     0
  9
$SPLINETYPE
 70
     6
  9
$SPLINESEGS
 70
     8
  9
$ATTDIA
 70
     0
  9
$ATTREQ
 70
     1
  9
$HANDLING
 70
     1
  9
$HANDSEED
  5
29E
  9
$SURFTAB1
 70
     6
  9
$SURFTAB2
 70
     6
  9
$SURFTYPE
 70
     6
  9
$SURFU
 70
     6
  9
$SURFV
 70
     6
  9
$UCSNAME
  2

  9
$UCSORG
 10
0.0
 20
0.0
 30
0.0
  9
$UCSXDIR
 10
1.0
 20
0.0
 30
0.0
  9
$UCSYDIR
 10
0.0
 20
1.0
 30
0.0
  9
$PUCSNAME
  2

  9
$PUCSORG
 10
0.0
 20
0.0
 30
0.0
  9
$PUCSXDIR
 10
1.0
 20
0.0
 30
0.0
  9
$PUCSYDIR
 10
0.0
 20
1.0
 30
0.0
  9
$USERI1
 70
     0
  9
$USERI2
 70
     0
  9
$USERI3
 70
     0
  9
$USERI4
 70
     0
  9
$USERI5
 70
     0
  9
$USERR1
 40
0.0
  9
$USERR2
 40
0.0
  9
$USERR3
 40
0.0
  9
$USERR4
 40
0.0
  9
$USERR5
 40
0.0
  9
$WORLDVIEW
 70
     1
  9
$SHADEDGE
 70
     3
  9
$SHADEDIF
 70
    70
  9
$TILEMODE
 70
     1
  9
$MAXACTVP
 70
    64
  9
$PINSBASE
 10
0.0
 20
0.0
 30
0.0
  9
$PLIMCHECK
 70
     0
  9
$PEXTMIN
 10
1.000000000000000E+20
 20
1.000000000000000E+20
 30
1.000000000000000E+20
  9
$PEXTMAX
 10
-1.000000000000000E+20
 20
-1.000000000000000E+20
 30
-1.000000000000000E+20
  9
$PLIMMIN
 10
0.0
 20
0.0
  9
$PLIMMAX
 10
12.0
 20
9.0
  9
$UNITMODE
 70
     0
  9
$VISRETAIN
 70
     1
  9
$PLINEGEN
 70
     0
  9
$PSLTSCALE
 70
     1
  9
$TREEDEPTH
 70
  3020
  9
$PICKSTYLE
 70
     1
  9
$CMLSTYLE
  2
STANDARD
  9
$CMLJUST
 70
     0
  9
$CMLSCALE
 40
1.0
  9
$PROXYGRAPHICS
 70
     1
  9
$MEASUREMENT
 70
     0
  0
ENDSEC
  0
SECTION
  2
CLASSES
  0
CLASS
  1
ACDBDICTIONARYWDFLT
  2
AcDbDictionaryWithDefault
  3
ObjectDBX Classes
 90
        0
280
     0
281
     0
  0
CLASS
  1
VISUALSTYLE
  2
AcDbVisualStyle
  3
ObjectDBX Classes
 90
     4095
280
     0
281
     0
  0
CLASS
  1
MATERIAL
  2
AcDbMaterial
  3
ObjectDBX Classes
 90
     1153
280
     0
281
     0
  0
CLASS
  1
SCALE
  2
AcDbScale
  3
ObjectDBX Classes
 90
     1153
280
     0
281
     0
  0
CLASS
  1
TABLESTYLE
  2
AcDbTableStyle
  3
ObjectDBX Classes
 90
     4095
280
     0
281
     0
  0
CLASS
  1
MLEADERSTYLE
  2
AcDbMLeaderStyle
  3
ACDB_MLEADERSTYLE_CLASS
 90
     4095
280
     0
281
     0
  0
CLASS
  1
SUN
  2
AcDbSun
  3
SCENEOE
 90
     1153
280
     0
281
     0
  0
CLASS
  1
DICTIONARYVAR
  2
AcDbDictionaryVar
  3
ObjectDBX Classes
 90
        0
280
     0
281
     0
  0
CLASS
  1
XRECORD
  2
AcDbXrecord
  3
ObjectDBX Classes
 90
        0
280
     0
281
     0
  0
CLASS
  1
LWPOLYLINE
  2
AcDbPolyline
  3
ObjectDBX Classes
 90
        0
280
     0
281
     1
  0
CLASS
  1
HATCH
  2
AcDbHatch
  3
ObjectDBX Classes
 90
        0
280
     0
281
     1
  0
CLASS
  1
ACDBPLACEHOLDER
  2
AcDbPlaceHolder
  3
ObjectDBX Classes
 90
        0
280
     0
281
     0
  0
CLASS
  1
LAYOUT
  2
AcDbLayout
  3
ObjectDBX Classes
 90
        0
280
     0
281
     0
  0
ENDSEC
  0
SECTION
  2
TABLES
  0
TABLE
  2
VPORT
  5
8
102
{ACAD_XDICTIONARY
360
293
102
}
330
0
100
AcDbSymbolTable
 70
     1
  0
VPORT
  5
29
330
8
100
AcDbSymbolTableRecord
100
AcDbViewportTableRecord
  2
*ACTIVE
 70
     0
 10
0.0
 20
0.0
 11
1.0
 21
1.0
 12
0.0
 22
0.0
 13
0.0
 23
0.0
 14
0.5
 24
0.5
 15
0.5
 25
0.5
 16
0.0
 26
0.0
 36
1.0
 17
0.0
 27
0.0
 37
-1000.0
 40
553.4872719999981
 41
1.407027818448023
 42
50.0
 43
1032.821310223344
 44
1293.658865617112
 50
0.0
 51
0.0
 71
     0
 72
   100
 73
     1
 74
     3
 75
     0
 76
     0
 77
     0
 78
     0
  0
ENDTAB
  0
TABLE
  2
LTYPE
  5
5
330
0
100
AcDbSymbolTable
 70
     1
  0
LTYPE
  5
14
330
5
100
AcDbSymbolTableRecord
100
AcDbLinetypeTableRecord
  2
BYBLOCK
 70
     0
  3

 72
    65
 73
     0
 40
0.0
  0
LTYPE
  5
15
330
5
100
AcDbSymbolTableRecord
100
AcDbLinetypeTableRecord
  2
BYLAYER
 70
     0
  3

 72
    65
 73
     0
 40
0.0
  0
LTYPE
  5
16
330
5
100
AcDbSymbolTableRecord
100
AcDbLinetypeTableRecord
  2
CONTINUOUS
 70
     0
  3
Solid line
 72
    65
 73
     0
 40
0.0
  0
ENDTAB
  0
TABLE
  2
LAYER
  5
2
330
0
100
AcDbSymbolTable
 70
     3
  0
LAYER
  5
10
330
2
100
AcDbSymbolTableRecord
100
AcDbLayerTableRecord
  2
0
 70
     0
 62
     7
  6
CONTINUOUS
  0
LAYER
  5
6E
330
2
100
AcDbSymbolTableRecord
100
AcDbLayerTableRecord
  2
PROFILEEDGES
 70
     0
 62
     7
  6
CONTINUOUS
  0
LAYER
  5
6F
330
2
100
AcDbSymbolTableRecord
100
AcDbLayerTableRecord
  2
SECTIONCUTEDGES
 70
     0
 62
     7
  6
CONTINUOUS
  0
ENDTAB
  0
TABLE
  2
STYLE
  5
3
330
0
100
AcDbSymbolTable
 70
     1
  0
STYLE
  5
11
330
3
100
AcDbSymbolTableRecord
100
AcDbTextStyleTableRecord
  2
STANDARD
 70
     0
 40
0.0
 41
1.0
 50
0.0
 71
     0
 42
0.2
  3
txt
  4

  0
ENDTAB
  0
TABLE
  2
VIEW
  5
6
330
0
100
AcDbSymbolTable
 70
     0
  0
ENDTAB
  0
TABLE
  2
UCS
  5
7
330
0
100
AcDbSymbolTable
 70
     0
  0
ENDTAB
  0
TABLE
  2
APPID
  5
9
330
0
100
AcDbSymbolTable
 70
     2
  0
APPID
  5
12
330
9
100
AcDbSymbolTableRecord
100
AcDbRegAppTableRecord
  2
ACAD
 70
     0
  0
APPID
  5
29D
330
9
100
AcDbSymbolTableRecord
100
AcDbRegAppTableRecord
  2
ACAD_MLEADERVER
 70
     0
  0
ENDTAB
  0
TABLE
  2
DIMSTYLE
  5
A
330
0
100
AcDbSymbolTable
 70
     1
  0
DIMSTYLE
105
27
330
A
100
AcDbSymbolTableRecord
100
AcDbDimStyleTableRecord
  2
STANDARD
 70
     0
  3

  4

  5

  6

  7

 40
1.0
 41
0.18
 42
0.0625
 43
0.38
 44
0.18
 45
0.0
 46
0.0
 47
0.0
 48
0.0
140
0.18
141
0.09
142
0.0
143
25.4
144
1.0
145
0.0
146
1.0
147
0.09
 71
     0
 72
     0
 73
     1
 74
     1
 75
     0
 76
     0
 77
     0
 78
     0
170
     0
171
     2
172
     0
173
     0
174
     0
175
     0
176
     0
177
     0
178
     0
270
     2
271
     4
272
     4
273
     2
274
     2
340
11
275
     0
280
     0
281
     0
282
     0
283
     1
284
     0
285
     0
286
     0
287
     3
288
     0
  0
ENDTAB
  0
TABLE
  2
BLOCK_RECORD
  5
1
330
0
100
AcDbSymbolTable
 70
     1
  0
BLOCK_RECORD
  5
1F
330
1
100
AcDbSymbolTableRecord
100
AcDbBlockTableRecord
  2
*MODEL_SPACE
  0
BLOCK_RECORD
  5
1B
330
1
100
AcDbSymbolTableRecord
100
AcDbBlockTableRecord
  2
*PAPER_SPACE
  0
ENDTAB
  0
ENDSEC
  0
SECTION
  2
BLOCKS
  0
BLOCK
  5
20
330
1F
100
AcDbEntity
  8
0
100
AcDbBlockBegin
  2
*MODEL_SPACE
 70
     0
 10
0.0
 20
0.0
 30
0.0
  3
*MODEL_SPACE
  1

  0
ENDBLK
  5
21
330
1F
100
AcDbEntity
  8
0
100
AcDbBlockEnd
  0
BLOCK
  5
1C
330
1B
100
AcDbEntity
 67
     1
  8
0
100
AcDbBlockBegin
  2
*PAPER_SPACE
 70
     0
 10
0.0
 20
0.0
 30
0.0
  3
*PAPER_SPACE
  1

  0
ENDBLK
  5
1D
330
1B
100
AcDbEntity
 67
     1
  8
0
100
AcDbBlockEnd
  0
ENDSEC
  0
SECTION
  2
ENTITIES
  0
LINE
  5
70
330
1F
100
AcDbEntity
  8
0
100
AcDbLine
 10
-105.3489067536878
 20
234.001093889128
 30
0.0
 11
-103.7347402826379
 21
240.2140511882731
 31
0.0
  0
LINE
  5
71
330
1F
100
AcDbEntity
  8
0
100
AcDbLine
 10
-103.6552908600667
 20
240.0300735968858
 30
0.0
 11
-105.2682210568106
 21
233.8218747409443
 31
0.0
  0
LINE
  5
72
330
1F
100
AcDbEntity
  8
0
100
AcDbLine
 10
-108.4885945391049
 20
234.9276368088545
 30
0.0
 11
-106.6797756557087
 21
241.8898149273965
 31
0.0
  0
LINE
  5
73
330
1F
100
AcDbEntity
  8
0
100
AcDbLine
 10
-112.5956176765359
 20
236.7969105242815
 30
0.0
 11
-110.5481016753573
 21
244.6778383670982
 31
0.0
  0
LINE
  5
74
330
1F
100
AcDbEntity
  8
0
100
AcDbLine
 10
-102.3170426631031
 20
230.8016216160779
 30
0.0
 11
-100.8349925562118
 21
236.5060605289486
 31
0.0
  0
LINE
  5
75
330
1F
100
AcDbEntity
  8
0
100
AcDbLine
 10
-103.7347402826379
 20
240.2140511882731
 30
0.0
 11
-100.5675435248934
 21
245.7975300764749
 31
0.0
  0
LINE
  5
76
330
1F
100
AcDbEntity
  8
0
100
AcDbLine
 10
-100.4905198273289
 20
245.6092761532397
 30
0.0
 11
-103.6552908600667
 21
240.0300735968858
 31
0.0
  0
LINE
  5
77
330
1F
100
AcDbEntity
  8
0
100
AcDbLine
 10
-106.6797756557087
 20
241.8898149273965
 30
0.0
 11
-103.1306464886822
 21
248.1466058031567
 31
0.0
  0
LINE
  5
78
330
1F
100
AcDbEntity
  8
0
100
AcDbLine
 10
-110.5481016753573
 20
244.6778383670982
 30
0.0
 11
-106.5306188712791
 21
251.7602939693384
 31
0.0
  0
LINE
  5
79
330
1F
100
AcDbEntity
  8
0
100
AcDbLine
 10
-100.8349925562118
 20
236.5060605289486
 30
0.0
 11
-97.9270246498363
 21
241.6325426059191
 31
0.0
  0
LINE
  5
7A
330
1F
100
AcDbEntity
  8
0
100
AcDbLine
 10
-100.5675435248934
 20
245.7975300764749
 30
0.0
 11
-96.06315570545445
 21
250.3710256946376
 31
0.0
  0
LINE
  5
7B
330
1F
100
AcDbEntity
  8
0
100
AcDbLine
 10
-95.98958187444694
 20
250.1792689758586
 30
0.0
 11
-100.4905198273289
 21
245.6092761532397
 31
0.0
  0
LINE
  5
7C
330
1F
100
AcDbEntity
  8
0
100
AcDbLine
 10
-106.5306188712791
 20
251.7602939693384
 30
0.0
 11
-100.816954078195
 21
257.5616196860205
 31
0.0
  0
LINE
  5
7D
330
1F
100
AcDbEntity
  8
0
100
AcDbLine
 10
-97.9270246498363
 20
241.6325426059191
 30
0.0
 11
-93.79131215115169
 21
245.8317065653561
 31
0.0
  0
LINE
  5
7E
330
1F
100
AcDbEntity
  8
0
100
AcDbLine
 10
-96.06315570545445
 20
250.3710256946376
 30
0.0
 11
-90.52854341036308
 21
253.6228618744422
 31
0.0
  0
LINE
  5
7F
330
1F
100
AcDbEntity
  8
0
100
AcDbLine
 10
-100.816954078195
 20
257.5616196860205
 30
0.0
 11
-93.796484109476
 21
261.6864647566968
 31
0.0
  0
LINE
  5
80
330
1F
100
AcDbEntity
  8
0
100
AcDbLine
 10
-90.52854341036308
 20
253.6228618744422
 30
0.0
 11
-84.34088132115048
 21
255.3314313541484
 31
0.0
  0
LINE
  5
81
330
1F
100
AcDbEntity
  8
0
100
AcDbLine
 10
-84.2762854653952
 20
255.1358755092108
 30
0.0
 11
-90.45920848475798
 21
253.4286146061513
 31
0.0
  0
LINE
  5
82
330
1F
100
AcDbEntity
  8
0
100
AcDbLine
 10
-93.796484109476
 20
261.6864647566968
 30
0.0
 11
-85.94764239161529
 21
263.8537278064294
 31
0.0
  0
LINE
  5
83
330
1F
100
AcDbEntity
  8
0
100
AcDbLine
 10
-88.70969703235536
 20
248.8173863228703
 30
0.0
 11
-83.02848296602724
 21
250.3861127370564
 31
0.0
  0
LINE
  5
84
330
1F
100
AcDbEntity
  8
0
100
AcDbLine
 10
-84.34088132115048
 20
255.3314313541484
 30
0.0
 11
-77.92184838360136
 21
255.3802979472589
 31
0.0
  0
LINE
  5
85
330
1F
100
AcDbEntity
  8
0
100
AcDbLine
 10
-85.94764239161529
 20
263.8537278064294
 30
0.0
 11
-77.80531451686078
 21
263.9157134399506
 31
0.0
  0
LINE
  5
86
330
1F
100
AcDbEntity
  8
0
100
AcDbLine
 10
-77.80531451686078
 20
263.9157134399506
 30
0.0
 11
-69.92438667404402
 21
261.868197438772
 31
0.0
  0
LINE
  5
87
330
1F
100
AcDbEntity
  8
0
100
AcDbLine
 10
-69.92438667404402
 20
261.868197438772
 30
0.0
 11
-62.84193107180386
 21
257.8507146346938
 31
0.0
  0
LINE
  5
88
330
1F
100
AcDbEntity
  8
0
100
AcDbLine
 10
-61.50477456745047
 20
245.9060654935121
 30
0.0
 11
-66.07476739006937
 21
250.4070034463941
 31
0.0
  0
LINE
  5
89
330
1F
100
AcDbEntity
  8
0
100
AcDbLine
 10
-62.84193107180386
 20
257.8507146346938
 30
0.0
 11
-57.04060535512171
 21
252.1370498416096
 31
0.0
  0
LINE
  5
8A
330
1F
100
AcDbEntity
  8
0
100
AcDbLine
 10
-66.30391431229619
 20
246.0409616819638
 30
0.0
 11
-62.10475035285927
 21
241.9052491832792
 31
0.0
  0
LINE
  5
8B
330
1F
100
AcDbEntity
  8
0
100
AcDbLine
 10
-61.55191657809178
 20
246.0945468990255
 30
0.0
 11
-58.30008039828719
 21
240.5599346039341
 31
0.0
  0
LINE
  5
8C
330
1F
100
AcDbEntity
  8
0
100
AcDbLine
 10
-58.25542893715781
 20
240.3756921038231
 30
0.0
 11
-61.50477456745047
 21
245.9060654935121
 31
0.0
  0
LINE
  5
8D
330
1F
100
AcDbEntity
  8
0
100
AcDbLine
 10
-57.04060535512171
 20
252.1370498416096
 30
0.0
 11
-52.91576028444544
 21
245.1165798728907
 31
0.0
  0
LINE
  5
8E
330
1F
100
AcDbEntity
  8
0
100
AcDbLine
 10
-62.10475035285927
 20
241.9052491832792
 30
0.0
 11
-59.11907059534499
 21
236.8236340644829
 31
0.0
  0
LINE
  5
8F
330
1F
100
AcDbEntity
  8
0
100
AcDbLine
 10
-58.30008039828719
 20
240.5599346039341
 30
0.0
 11
-56.59151091858095
 21
234.3722725147215
 31
0.0
  0
LINE
  5
90
330
1F
100
AcDbEntity
  8
0
100
AcDbLine
 10
-56.59133449949617
 20
234.349098402431
 30
0.0
 11
-58.25542893715781
 21
240.3756921038231
 31
0.0
  0
LINE
  5
91
330
1F
100
AcDbEntity
  8
0
100
AcDbLine
 10
-52.91576028444544
 20
245.1165798728907
 30
0.0
 11
-50.74849723471282
 21
237.26773815503
 31
0.0
  0
LINE
  5
92
330
1F
100
AcDbEntity
  8
0
100
AcDbLine
 10
-50.70929585778284
 20
237.0844574168099
 30
0.0
 11
-50.74849723471282
 21
237.26773815503
 31
0.0
  0
LINE
  5
93
330
1F
100
AcDbEntity
  8
0
100
AcDbLine
 10
-59.11907059534499
 20
236.8236340644829
 30
0.0
 11
-57.55034418115886
 21
231.1424199981548
 31
0.0
  0
LINE
  5
94
330
1F
100
AcDbEntity
  8
0
100
AcDbLine
 10
-53.85154199619168
 20
235.3435758827531
 30
0.0
 11
-53.79678257826876
 21
228.1504714546648
 31
0.0
  0
LINE
  5
95
330
1F
100
AcDbEntity
  8
0
100
AcDbLine
 10
-50.74849723471282
 20
237.26773815503
 30
0.0
 11
-50.68651160119163
 21
229.1254102802755
 31
0.0
  0
LINE
  5
96
330
1F
100
AcDbEntity
  8
0
100
AcDbLine
 10
-50.70929585778284
 20
237.0844574168099
 30
0.0
 11
-50.64735810591955
 21
228.9484191955722
 31
0.0
  0
LINE
  5
97
330
1F
100
AcDbEntity
  8
0
100
AcDbLine
 10
-56.54264432547052
 20
227.9532395771724
 30
0.0
 11
-58.15681079652047
 21
221.7402822780273
 31
0.0
  0
LINE
  5
98
330
1F
100
AcDbEntity
  8
0
100
AcDbLine
 10
-50.68651160119163
 20
229.1254102802755
 30
0.0
 11
-52.73402760237021
 21
221.2444824374587
 31
0.0
  0
LINE
  5
99
330
1F
100
AcDbEntity
  8
0
100
AcDbLine
 10
-50.64735810591955
 20
228.9484191955722
 30
0.0
 11
-52.69329247511087
 21
221.0735790842107
 31
0.0
  0
LINE
  5
9A
330
1F
100
AcDbEntity
  8
0
100
AcDbLine
 10
-53.16867652261938
 20
220.0490715815367
 30
0.0
 11
-52.69329247511087
 21
221.0735790842107
 31
0.0
  0
LINE
  5
9B
330
1F
100
AcDbEntity
  8
0
100
AcDbLine
 10
-57.50547722298469
 20
225.2487723342649
 30
0.0
 11
-58.63688841470921
 21
220.8939492425754
 31
0.0
  0
LINE
  5
9C
330
1F
100
AcDbEntity
  8
0
100
AcDbLine
 10
-52.73402760237021
 20
221.2444824374587
 30
0.0
 11
-56.75151040644842
 21
214.1620268352185
 31
0.0
  0
LINE
  5
9D
330
1F
100
AcDbEntity
  8
0
100
AcDbLine
 10
-52.69329247511087
 20
221.0735790842107
 30
0.0
 11
-56.70767191916279
 21
213.996594422526
 31
0.0
  0
LINE
  5
9E
330
1F
100
AcDbEntity
  8
0
100
AcDbLine
 10
-53.16867652261938
 20
220.0490715815367
 30
0.0
 11
-57.04788865759206
 21
213.2103745522113
 31
0.0
  0
LINE
  5
9F
330
1F
100
AcDbEntity
  8
0
100
AcDbLine
 10
-61.32400755426498
 20
216.1568033898255
 30
0.0
 11
-65.8283953737039
 21
211.5833077716628
 31
0.0
  0
LINE
  5
A0
330
1F
100
AcDbEntity
  8
0
100
AcDbLine
 10
-58.82690025992665
 20
215.7295732321904
 30
0.0
 11
-64.06413699700738
 21
210.4119850873706
 31
0.0
  0
LINE
  5
A1
330
1F
100
AcDbEntity
  8
0
100
AcDbLine
 10
-56.75151040644842
 20
214.1620268352185
 30
0.0
 11
-62.46517519953261
 21
208.3607011185364
 31
0.0
  0
LINE
  5
A2
330
1F
100
AcDbEntity
  8
0
100
AcDbLine
 10
-56.70767191916279
 20
213.996594422526
 30
0.0
 11
-62.41692311303892
 21
208.199750019942
 31
0.0
  0
LINE
  5
A3
330
1F
100
AcDbEntity
  8
0
100
AcDbLine
 10
-65.8283953737039
 20
211.5833077716628
 30
0.0
 11
-71.36300766879525
 21
208.3314715918582
 31
0.0
  0
LINE
  5
A4
330
1F
100
AcDbEntity
  8
0
100
AcDbLine
 10
-62.46517519953261
 20
208.3607011185364
 30
0.0
 11
-69.48564516825154
 21
204.2358560478601
 31
0.0
  0
LINE
  5
A5
330
1F
100
AcDbEntity
  8
0
100
AcDbLine
 10
-62.41692311303892
 20
208.199750019942
 30
0.0
 11
-69.43197002286023
 21
204.0780912427562
 31
0.0
  0
LINE
  5
A6
330
1F
100
AcDbEntity
  8
0
100
AcDbLine
 10
-71.36300766879525
 20
208.3314715918582
 30
0.0
 11
-77.55066975800786
 21
206.622902112152
 31
0.0
  0
LINE
  5
A7
330
1F
100
AcDbEntity
  8
0
100
AcDbLine
 10
-69.48564516825154
 20
204.2358560478601
 30
0.0
 11
-77.33448688611224
 21
202.0685929981275
 31
0.0
  0
LINE
  5
A8
330
1F
100
AcDbEntity
  8
0
100
AcDbLine
 10
-69.43197002286023
 20
204.0780912427562
 30
0.0
 11
-77.27474879463561
 21
201.9125023252709
 31
0.0
  0
LINE
  5
A9
330
1F
100
AcDbEntity
  8
0
100
AcDbLine
 10
-77.55066975800786
 20
206.622902112152
 30
0.0
 11
-83.96970269555699
 21
206.5740355190416
 31
0.0
  0
LINE
  5
AA
330
1F
100
AcDbEntity
  8
0
100
AcDbLine
 10
-77.33448688611224
 20
202.0685929981275
 30
0.0
 11
-85.47681476086676
 21
202.0066073646063
 31
0.0
  0
LINE
  5
AB
330
1F
100
AcDbEntity
  8
0
100
AcDbLine
 10
-77.27474879463561
 20
201.9125023252709
 30
0.0
 11
-85.41078701587331
 21
201.8505645734076
 31
0.0
  0
LINE
  5
AC
330
1F
100
AcDbEntity
  8
0
100
AcDbLine
 10
-83.96970269555699
 20
206.5740355190416
 30
0.0
 11
-90.18265999470212
 21
208.1882019900915
 31
0.0
  0
LINE
  5
AD
330
1F
100
AcDbEntity
  8
0
100
AcDbLine
 10
-85.47681476086676
 20
202.0066073646063
 30
0.0
 11
-93.35774260368353
 21
204.0541233657849
 31
0.0
  0
LINE
  5
AE
330
1F
100
AcDbEntity
  8
0
100
AcDbLine
 10
-85.41078701587331
 20
201.8505645734076
 30
0.0
 11
-93.28562712723479
 21
203.8964989425989
 31
0.0
  0
LINE
  5
AF
330
1F
100
AcDbEntity
  8
0
100
AcDbLine
 10
-92.39423538270869
 20
203.4503572204741
 30
0.0
 11
-93.28562712723479
 21
203.8964989425989
 31
0.0
  0
LINE
  5
B0
330
1F
100
AcDbEntity
  8
0
100
AcDbLine
 10
-92.2481089786961
 20
206.4300434300052
 30
0.0
 11
-97.75024023008393
 21
209.5510962017643
 31
0.0
  0
LINE
  5
B1
330
1F
100
AcDbEntity
  8
0
100
AcDbLine
 10
-93.35774260368353
 20
204.0541233657849
 30
0.0
 11
-100.4401982059237
 21
208.0716061698631
 31
0.0
  0
LINE
  5
B2
330
1F
100
AcDbEntity
  8
0
100
AcDbLine
 10
-93.28562712723479
 20
203.8964989425989
 30
0.0
 11
-100.3626117889194
 21
207.9108783866508
 31
0.0
  0
LINE
  5
B3
330
1F
100
AcDbEntity
  8
0
100
AcDbLine
 10
-95.76613888290392
 20
211.3553987478361
 30
0.0
 11
-100.3396345010666
 21
215.859786567275
 31
0.0
  0
LINE
  5
B4
330
1F
100
AcDbEntity
  8
0
100
AcDbLine
 10
-97.75024023008393
 20
209.5510962017643
 30
0.0
 11
-102.8752539047153
 21
214.5986683649014
 31
0.0
  0
LINE
  5
B5
330
1F
100
AcDbEntity
  8
0
100
AcDbLine
 10
-100.4401982059237
 20
208.0716061698631
 30
0.0
 11
-106.2415239226058
 21
213.7852709629473
 31
0.0
  0
LINE
  5
B6
330
1F
100
AcDbEntity
  8
0
100
AcDbLine
 10
-100.3626117889194
 20
207.9108783866508
 30
0.0
 11
-106.1594561915035
 21
213.6201295805269
 31
0.0
  0
LINE
  5
B7
330
1F
100
AcDbEntity
  8
0
100
AcDbLine
 10
-102.8752539047153
 20
214.5986683649014
 30
0.0
 11
-106.5192291657771
 21
220.8006998227387
 31
0.0
  0
LINE
  5
B8
330
1F
100
AcDbEntity
  8
0
100
AcDbLine
 10
-106.2415239226058
 20
213.7852709629473
 30
0.0
 11
-110.3663689932821
 21
220.8057409316662
 31
0.0
  0
LINE
  5
B9
330
1F
100
AcDbEntity
  8
0
100
AcDbLine
 10
-106.1594561915035
 20
213.6201295805269
 30
0.0
 11
-110.2811149686892
 21
220.6351764903482
 31
0.0
  0
LINE
  5
BA
330
1F
100
AcDbEntity
  8
0
100
AcDbLine
 10
-110.2811149686892
 20
220.6351764903482
 30
0.0
 11
-110.3663689932821
 21
220.8057409316662
 31
0.0
  0
LINE
  5
BB
330
1F
100
AcDbEntity
  8
0
100
AcDbLine
 10
-103.5914706808712
 20
221.3943988623663
 30
0.0
 11
-105.3000401605774
 21
227.5820609515789
 31
0.0
  0
LINE
  5
BC
330
1F
100
AcDbEntity
  8
0
100
AcDbLine
 10
-106.5192291657771
 20
220.8006998227387
 30
0.0
 11
-108.433835121182
 21
227.7345323807662
 31
0.0
  0
LINE
  5
BD
330
1F
100
AcDbEntity
  8
0
100
AcDbLine
 10
-110.3663689932821
 20
220.8057409316662
 30
0.0
 11
-112.5336320430147
 21
228.6545826495269
 31
0.0
  0
LINE
  5
BE
330
1F
100
AcDbEntity
  8
0
100
AcDbLine
 10
-105.3000401605774
 20
227.5820609515789
 30
0.0
 11
-105.3489067536878
 21
234.001093889128
 31
0.0
  0
LINE
  5
BF
330
1F
100
AcDbEntity
  8
0
100
AcDbLine
 10
-108.433835121182
 20
227.7345323807662
 30
0.0
 11
-108.4885945391049
 21
234.9276368088545
 31
0.0
  0
LINE
  5
C0
330
1F
100
AcDbEntity
  8
0
100
AcDbLine
 10
-112.5336320430147
 20
228.6545826495269
 30
0.0
 11
-112.5956176765359
 21
236.7969105242815
 31
0.0
  0
LINE
  5
C1
330
1F
100
AcDbEntity
  8
0
100
AcDbLine
 10
-57.55012711384355
 20
231.1139064031208
 30
0.0
 11
-59.04692562118125
 21
236.5346302829808
 31
0.0
  0
LINE
  5
C2
330
1F
100
AcDbEntity
  8
0
100
AcDbLine
 10
-59.04692562118125
 20
236.5346302829808
 30
0.0
 11
-62.0289618540799
 21
241.610044137316
 31
0.0
  0
LINE
  5
C3
330
1F
100
AcDbEntity
  8
0
100
AcDbLine
 10
-62.0289618540799
 20
241.610044137316
 30
0.0
 11
-66.2230014336456
 21
245.7407096880638
 31
0.0
  0
LINE
  5
C4
330
1F
100
AcDbEntity
  8
0
100
AcDbLine
 10
-77.04070508926435
 20
250.1253704158903
 30
0.0
 11
-82.92716053828747
 21
250.080558210362
 31
0.0
  0
LINE
  5
C5
330
1F
100
AcDbEntity
  8
0
100
AcDbLine
 10
-102.1921817624646
 20
230.5199666972715
 30
0.0
 11
-102.1473695569364
 21
224.6335112482483
 31
0.0
  0
LINE
  5
C6
330
1F
100
AcDbEntity
  8
0
100
AcDbLine
 10
-102.1473695569364
 20
224.6335112482483
 30
0.0
 11
-100.6109648599806
 21
219.0693517511021
 31
0.0
  0
LINE
  5
C7
330
1F
100
AcDbEntity
  8
0
100
AcDbLine
 10
-66.2230014336456
 20
245.7407096880638
 30
0.0
 11
-71.34322749350913
 21
248.6451289041883
 31
0.0
  0
LINE
  5
C8
330
1F
100
AcDbEntity
  8
0
100
AcDbLine
 10
-71.34322749350913
 20
248.6451289041883
 30
0.0
 11
-77.04070508926435
 21
250.1253704158903
 31
0.0
  0
LINE
  5
C9
330
1F
100
AcDbEntity
  8
0
100
AcDbLine
 10
-82.92716053828747
 20
250.080558210362
 30
0.0
 11
-88.60144162955517
 21
248.5137461653546
 31
0.0
  0
LINE
  5
CA
330
1F
100
AcDbEntity
  8
0
100
AcDbLine
 10
-88.60144162955517
 20
248.5137461653546
 30
0.0
 11
-93.67685548389039
 21
245.531709932456
 31
0.0
  0
LINE
  5
CB
330
1F
100
AcDbEntity
  8
0
100
AcDbLine
 10
-93.67685548389039
 20
245.531709932456
 30
0.0
 11
-97.8075210346382
 21
241.3376703528902
 31
0.0
  0
LINE
  5
CC
330
1F
100
AcDbEntity
  8
0
100
AcDbLine
 10
-97.8075210346382
 20
241.3376703528902
 30
0.0
 11
-100.7119402507627
 21
236.2174442930267
 31
0.0
  0
LINE
  5
CD
330
1F
100
AcDbEntity
  8
0
100
AcDbLine
 10
-100.7119402507627
 20
236.2174442930267
 30
0.0
 11
-102.1921817624646
 21
230.5199666972715
 31
0.0
  0
LINE
  5
CE
330
1F
100
AcDbEntity
  8
0
100
AcDbLine
 10
-102.0662247339727
 20
224.4550646902899
 30
0.0
 11
-102.1110013411444
 21
230.3368439994636
 31
0.0
  0
LINE
  5
CF
330
1F
100
AcDbEntity
  8
0
100
AcDbLine
 10
-102.1110013411444
 20
230.3368439994636
 30
0.0
 11
-100.631935718121
 21
236.0297955774383
 31
0.0
  0
LINE
  5
D0
330
1F
100
AcDbEntity
  8
0
100
AcDbLine
 10
-100.631935718121
 20
236.0297955774383
 30
0.0
 11
-97.72982374284013
 21
241.1459541822223
 31
0.0
  0
LINE
  5
D1
330
1F
100
AcDbEntity
  8
0
100
AcDbLine
 10
-97.72982374284013
 20
241.1459541822223
 30
0.0
 11
-93.60243955045026
 21
245.3366620597515
 31
0.0
  0
LINE
  5
D2
330
1F
100
AcDbEntity
  8
0
100
AcDbLine
 10
-93.60243955045026
 20
245.3366620597515
 30
0.0
 11
-88.53105755283795
 21
248.3163293936443
 31
0.0
  0
LINE
  5
D3
330
1F
100
AcDbEntity
  8
0
100
AcDbLine
 10
-88.53105755283795
 20
248.3163293936443
 30
0.0
 11
-82.86128405228547
 21
249.8818967792292
 31
0.0
  0
LINE
  5
D4
330
1F
100
AcDbEntity
  8
0
100
AcDbLine
 10
-82.86128405228547
 20
249.8818967792292
 30
0.0
 11
-76.97950474311172
 21
249.9266733864008
 31
0.0
  0
LINE
  5
D5
330
1F
100
AcDbEntity
  8
0
100
AcDbLine
 10
-76.97950474311172
 20
249.9266733864008
 30
0.0
 11
-71.28655316513701
 21
248.4476077633775
 31
0.0
  0
LINE
  5
D6
330
1F
100
AcDbEntity
  8
0
100
AcDbLine
 10
-71.28655316513701
 20
248.4476077633775
 30
0.0
 11
-66.17039456035299
 21
245.5454957880966
 31
0.0
  0
LINE
  5
D7
330
1F
100
AcDbEntity
  8
0
100
AcDbLine
 10
-66.17039456035299
 20
245.5454957880966
 30
0.0
 11
-61.97968668282387
 21
241.4181115957067
 31
0.0
  0
LINE
  5
D8
330
1F
100
AcDbEntity
  8
0
100
AcDbLine
 10
-61.97968668282387
 20
241.4181115957067
 30
0.0
 11
-59.00001934893104
 21
236.3467295980944
 31
0.0
  0
LINE
  5
D9
330
1F
100
AcDbEntity
  8
0
100
AcDbLine
 10
-59.00001934893104
 20
236.3467295980944
 30
0.0
 11
-57.54998598386594
 21
231.0953678082014
 31
0.0
  0
LINE
  5
DA
330
1F
100
AcDbEntity
  8
0
100
AcDbLine
 10
-100.5508345468366
 20
218.9670101963518
 30
0.0
 11
-102.0662247339727
 21
224.4550646902899
 31
0.0
  0
LINE
  5
DB
330
1F
100
AcDbEntity
  8
0
100
AcDbLine
 10
-84.78454732339328
 20
201.4733110685255
 30
0.0
 11
-92.39423538270869
 21
203.4503572204741
 31
0.0
  0
LINE
  5
DC
330
1F
100
AcDbEntity
  8
0
100
AcDbLine
 10
-76.92245589972602
 20
201.5331633276329
 30
0.0
 11
-84.78454732339328
 21
201.4733110685255
 31
0.0
  0
LINE
  5
DD
330
1F
100
AcDbEntity
  8
0
100
AcDbLine
 10
-69.34374964950946
 20
203.6258351652488
 30
0.0
 11
-76.92245589972602
 21
201.5331633276329
 31
0.0
  0
LINE
  5
DE
330
1F
100
AcDbEntity
  8
0
100
AcDbLine
 10
-62.56490487929159
 20
207.6087144539434
 30
0.0
 11
-69.34374964950946
 21
203.6258351652488
 31
0.0
  0
LINE
  5
DF
330
1F
100
AcDbEntity
  8
0
100
AcDbLine
 10
-57.04788865759206
 20
213.2103745522113
 30
0.0
 11
-62.56490487929159
 21
207.6087144539434
 31
0.0
  0
LINE
  5
E0
330
1F
100
AcDbEntity
  8
0
100
AcDbLine
 10
-189.8993137725006
 20
16.08643156616167
 30
0.0
 11
-192.8460856965141
 21
18.46398451740702
 31
0.0
  0
LINE
  5
E1
330
1F
100
AcDbEntity
  8
0
100
AcDbLine
 10
-189.8993137725006
 20
16.08643156616167
 30
0.0
 11
-184.9931444071674
 21
21.0678729947797
 31
0.0
  0
LINE
  5
E2
330
1F
100
AcDbEntity
  8
0
100
AcDbLine
 10
-192.8460856965141
 20
18.46398451740702
 30
0.0
 11
-187.4152853638404
 21
23.97810597413684
 31
0.0
  0
LINE
  5
E3
330
1F
100
AcDbEntity
  8
0
100
AcDbLine
 10
-187.4152853638404
 20
23.97810597413684
 30
0.0
 11
-181.0068533760867
 21
28.31759063838797
 31
0.0
  0
LINE
  5
E4
330
1F
100
AcDbEntity
  8
0
100
AcDbLine
 10
-184.9931444071674
 20
21.0678729947797
 30
0.0
 11
-179.2037854228244
 21
24.9881509311627
 31
0.0
  0
LINE
  5
E5
330
1F
100
AcDbEntity
  8
0
100
AcDbLine
 10
-181.0068533760867
 20
28.31759063838797
 30
0.0
 11
-173.8706617992335
 21
31.31323705800838
 31
0.0
  0
LINE
  5
E6
330
1F
100
AcDbEntity
  8
0
100
AcDbLine
 10
-179.2037854228244
 20
24.9881509311627
 30
0.0
 11
-172.7569705235794
 21
27.69440927118819
 31
0.0
  0
LINE
  5
E7
330
1F
100
AcDbEntity
  8
0
100
AcDbLine
 10
-173.8706617992335
 20
31.31323705800838
 30
0.0
 11
-166.2849588749642
 21
32.84824156538536
 31
0.0
  0
LINE
  5
E8
330
1F
100
AcDbEntity
  8
0
100
AcDbLine
 10
-172.7569705235794
 20
27.69440927118819
 30
0.0
 11
-165.9040683688714
 21
29.08112791824125
 31
0.0
  0
LINE
  5
E9
330
1F
100
AcDbEntity
  8
0
100
AcDbLine
 10
-165.9040683688714
 20
29.08112791824125
 30
0.0
 11
-158.9122814229899
 21
29.0942371320273
 31
0.0
  0
LINE
  5
EA
330
1F
100
AcDbEntity
  8
0
100
AcDbLine
 10
-166.2849588749642
 20
32.84824156538536
 30
0.0
 11
-158.5455198046419
 21
32.86275258554967
 31
0.0
  0
LINE
  5
EB
330
1F
100
AcDbEntity
  8
0
100
AcDbLine
 10
-158.5455198046419
 20
32.86275258554967
 30
0.0
 11
-150.954114137156
 21
31.35620431728933
 31
0.0
  0
LINE
  5
EC
330
1F
100
AcDbEntity
  8
0
100
AcDbLine
 10
-158.9122814229899
 20
29.0942371320273
 30
0.0
 11
-152.0542274264992
 21
27.73322576936221
 31
0.0
  0
LINE
  5
ED
330
1F
100
AcDbEntity
  8
0
100
AcDbLine
 10
-150.954114137156
 20
31.35620431728933
 30
0.0
 11
-143.8067394303262
 21
28.38733879438269
 31
0.0
  0
LINE
  5
EE
330
1F
100
AcDbEntity
  8
0
100
AcDbLine
 10
-152.0542274264992
 20
27.73322576936221
 30
0.0
 11
-145.5973097198707
 21
25.05116121422726
 31
0.0
  0
LINE
  5
EF
330
1F
100
AcDbEntity
  8
0
100
AcDbLine
 10
-145.5973097198707
 20
25.05116121422726
 30
0.0
 11
-139.7932908825159
 21
21.15262021999442
 31
0.0
  0
LINE
  5
F0
330
1F
100
AcDbEntity
  8
0
100
AcDbLine
 10
-143.8067394303262
 20
28.38733879438269
 30
0.0
 11
-137.3820799688176
 21
24.07191546676085
 31
0.0
  0
LINE
  5
F1
330
1F
100
AcDbEntity
  8
0
100
AcDbLine
 10
-139.7932908825159
 20
21.15262021999442
 30
0.0
 11
-134.8684762229174
 21
16.18961134264085
 31
0.0
  0
LINE
  5
F2
330
1F
100
AcDbEntity
  8
0
100
AcDbLine
 10
-137.3820799688176
 20
24.07191546676085
 30
0.0
 11
-131.9306405463043
 21
18.57819760764161
 31
0.0
  0
LINE
  5
F3
330
1F
100
AcDbEntity
  8
0
100
AcDbLine
 10
-131.9306405463043
 20
18.57819760764161
 30
0.0
 11
-127.6649789980998
 21
12.12039153676073
 31
0.0
  0
LINE
  5
F4
330
1F
100
AcDbEntity
  8
0
100
AcDbLine
 10
-134.8684762229174
 20
16.18961134264085
 30
0.0
 11
-131.0148898767633
 21
10.35564795392981
 31
0.0
  0
LINE
  5
F5
330
1F
100
AcDbEntity
  8
0
100
AcDbLine
 10
-127.6649789980998
 20
12.12039153676073
 30
0.0
 11
-124.7514183289363
 21
4.950294471864144
 31
0.0
  0
LINE
  5
F6
330
1F
100
AcDbEntity
  8
0
100
AcDbLine
 10
-131.0148898767633
 20
10.35564795392981
 30
0.0
 11
-128.3827875670744
 21
3.87820293452482
 31
0.0
  0
LINE
  5
F7
330
1F
100
AcDbEntity
  8
0
100
AcDbLine
 10
-124.7514183289363
 20
4.950294471864144
 30
0.0
 11
-123.3035615894744
 21
-2.652523331748553
 31
0.0
  0
LINE
  5
F8
330
1F
100
AcDbEntity
  8
0
100
AcDbLine
 10
-128.3827875670744
 20
3.87820293452482
 30
0.0
 11
-127.0747979623374
 21
-2.990160752845269
 31
0.0
  0
LINE
  5
F9
330
1F
100
AcDbEntity
  8
0
100
AcDbLine
 10
-127.0747979623374
 20
-2.990160752845269
 30
0.0
 11
-127.1419210677709
 21
-9.981637781113415
 31
0.0
  0
LINE
  5
FA
330
1F
100
AcDbEntity
  8
0
100
AcDbLine
 10
-123.3035615894744
 20
-2.652523331748553
 30
0.0
 11
-123.3778623639022
 21
-10.39161934406506
 31
0.0
  0
LINE
  5
FB
330
1F
100
AcDbEntity
  8
0
100
AcDbLine
 10
-123.3778623639022
 20
-10.39161934406506
 30
0.0
 11
-124.9714235803547
 21
-17.96523739241908
 31
0.0
  0
LINE
  5
FC
330
1F
100
AcDbEntity
  8
0
100
AcDbLine
 10
-127.1419210677709
 20
-9.981637781113415
 30
0.0
 11
-128.5815396770033
 21
-16.82362249375615
 31
0.0
  0
LINE
  5
FD
330
1F
100
AcDbEntity
  8
0
100
AcDbLine
 10
-124.9714235803547
 20
-17.96523739241908
 30
0.0
 11
-128.0221104710477
 21
-25.07807347853074
 31
0.0
  0
LINE
  5
FE
330
1F
100
AcDbEntity
  8
0
100
AcDbLine
 10
-128.5815396770033
 20
-16.82362249375615
 30
0.0
 11
-131.3375214199322
 21
-23.2493381099913
 31
0.0
  0
LINE
  5
FF
330
1F
100
AcDbEntity
  8
0
100
AcDbLine
 10
-128.0221104710477
 20
-25.07807347853074
 30
0.0
 11
-132.4109732776792
 21
-31.45279001791521
 31
0.0
  0
LINE
  5
100
330
1F
100
AcDbEntity
  8
0
100
AcDbLine
 10
-132.4109732776792
 20
-31.45279001791521
 30
0.0
 11
-137.9668852380563
 21
-36.84082954834489
 31
0.0
  0
LINE
  5
101
330
1F
100
AcDbEntity
  8
0
100
AcDbLine
 10
-131.3375214199322
 20
-23.2493381099913
 30
0.0
 11
-135.3024074278007
 21
-29.00823865546831
 31
0.0
  0
LINE
  5
102
330
1F
100
AcDbEntity
  8
0
100
AcDbLine
 10
-135.3024074278007
 20
-29.00823865546831
 30
0.0
 11
-140.3216022769456
 21
-33.8757780353194
 31
0.0
  0
LINE
  5
103
330
1F
100
AcDbEntity
  8
0
100
AcDbLine
 10
-137.9668852380563
 20
-36.84082954834489
 30
0.0
 11
-144.4732150135619
 21
-41.03210626854664
 31
0.0
  0
LINE
  5
104
330
1F
100
AcDbEntity
  8
0
100
AcDbLine
 10
-140.3216022769456
 20
-33.8757780353194
 30
0.0
 11
-146.1994018405367
 21
-37.66216534228265
 31
0.0
  0
LINE
  5
105
330
1F
100
AcDbEntity
  8
0
100
AcDbLine
 10
-144.4732150135619
 20
-41.03210626854664
 30
0.0
 11
-151.6762733919111
 21
-43.86319752299816
 31
0.0
  0
LINE
  5
106
330
1F
100
AcDbEntity
  8
0
100
AcDbLine
 10
-146.1994018405367
 20
-37.66216534228265
 30
0.0
 11
-152.7066240154982
 21
-40.21976502045288
 31
0.0
  0
LINE
  5
107
330
1F
100
AcDbEntity
  8
0
100
AcDbLine
 10
-151.6762733919111
 20
-43.86319752299816
 30
0.0
 11
-159.2952049186312
 21
-45.22371583749646
 31
0.0
  0
LINE
  5
108
330
1F
100
AcDbEntity
  8
0
100
AcDbLine
 10
-152.7066240154982
 20
-40.21976502045288
 30
0.0
 11
-159.5895447938731
 21
-41.44885334384554
 31
0.0
  0
LINE
  5
109
330
1F
100
AcDbEntity
  8
0
100
AcDbLine
 10
-159.5895447938731
 20
-41.44885334384554
 30
0.0
 11
-166.5797912510275
 21
-41.30150675811462
 31
0.0
  0
LINE
  5
10A
330
1F
100
AcDbEntity
  8
0
100
AcDbLine
 10
-167.0329387712837
 20
-45.0606130525702
 30
0.0
 11
-174.5877718893597
 21
-43.38024873166884
 31
0.0
  0
LINE
  5
10B
330
1F
100
AcDbEntity
  8
0
100
AcDbLine
 10
-166.5797912510275
 20
-41.30150675811462
 30
0.0
 11
-173.4048057118077
 21
-39.78347047454783
 31
0.0
  0
LINE
  5
10C
330
1F
100
AcDbEntity
  8
0
100
AcDbLine
 10
-174.5877718893597
 20
-43.38024873166884
 30
0.0
 11
-181.6651327204172
 21
-40.24814219453617
 31
0.0
  0
LINE
  5
10D
330
1F
100
AcDbEntity
  8
0
100
AcDbLine
 10
-173.4048057118077
 20
-39.78347047454783
 30
0.0
 11
-179.7984730848905
 21
-36.95393445773139
 31
0.0
  0
LINE
  5
10E
330
1F
100
AcDbEntity
  8
0
100
AcDbLine
 10
-159.2952049186312
 20
-45.22371583749646
 30
0.0
 11
-167.0329387712837
 21
-45.0606130525702
 31
0.0
  0
LINE
  5
10F
330
1F
100
AcDbEntity
  8
0
100
AcDbLine
 10
-185.5114969934465
 20
-32.92322554138022
 30
0.0
 11
-187.9890669005924
 21
-35.78641784427133
 31
0.0
  0
LINE
  5
110
330
1F
100
AcDbEntity
  8
0
100
AcDbLine
 10
-179.7984730848905
 20
-36.95393445773139
 30
0.0
 11
-185.5114969934465
 21
-32.92322554138022
 31
0.0
  0
LINE
  5
111
330
1F
100
AcDbEntity
  8
0
100
AcDbLine
 10
-181.6651327204172
 20
-40.24814219453617
 30
0.0
 11
-187.9890669005924
 21
-35.78641784427133
 31
0.0
  0
LINE
  5
112
330
1F
100
AcDbEntity
  8
0
100
AcDbLine
 10
-170.4296135216052
 20
-96.1317229751544
 30
0.0
 11
-174.4510214144576
 21
-89.512432762768
 31
0.0
  0
LINE
  5
113
330
1F
100
AcDbEntity
  8
0
100
AcDbLine
 10
-170.4296135216052
 20
-96.1317229751544
 30
0.0
 11
-175.7200412497568
 21
-99.47511609498152
 31
0.0
  0
LINE
  5
114
330
1F
100
AcDbEntity
  8
0
100
AcDbLine
 10
-175.7200412497568
 20
-99.47511609498152
 30
0.0
 11
-179.856208187717
 21
-92.66693098700017
 31
0.0
  0
LINE
  5
115
330
1F
100
AcDbEntity
  8
0
100
AcDbLine
 10
-174.4510214144576
 20
-89.512432762768
 30
0.0
 11
-178.2361882274323
 21
-82.75527089150532
 31
0.0
  0
LINE
  5
116
330
1F
100
AcDbEntity
  8
0
100
AcDbLine
 10
-179.856208187717
 20
-92.66693098700017
 30
0.0
 11
-183.7493924265794
 21
-85.71693977222253
 31
0.0
  0
LINE
  5
117
330
1F
100
AcDbEntity
  8
0
100
AcDbLine
 10
-183.7493924265794
 20
-85.71693977222253
 30
0.0
 11
-187.3947381922897
 21
-78.63381082721293
 31
0.0
  0
LINE
  5
118
330
1F
100
AcDbEntity
  8
0
100
AcDbLine
 10
-178.2361882274323
 20
-82.75527089150532
 30
0.0
 11
-181.7803929112096
 21
-75.86866523153165
 31
0.0
  0
LINE
  5
119
330
1F
100
AcDbEntity
  8
0
100
AcDbLine
 10
-181.7803929112096
 20
-75.86866523153165
 30
0.0
 11
-185.0792149564867
 21
-68.86120510177803
 31
0.0
  0
LINE
  5
11A
330
1F
100
AcDbEntity
  8
0
100
AcDbLine
 10
-187.3947381922897
 20
-78.63381082721293
 30
0.0
 11
-190.7876988273302
 21
-71.42637858457066
 31
0.0
  0
LINE
  5
11B
330
1F
100
AcDbEntity
  8
0
100
AcDbLine
 10
-185.0792149564867
 20
-68.86120510177803
 30
0.0
 11
-188.1285399074569
 21
-61.74163055691363
 31
0.0
  0
LINE
  5
11C
330
1F
100
AcDbEntity
  8
0
100
AcDbLine
 10
-190.7876988273302
 20
-71.42637858457066
 30
0.0
 11
-193.9240424615379
 21
-64.10363251418293
 31
0.0
  0
LINE
  5
11D
330
1F
100
AcDbEntity
  8
0
100
AcDbLine
 10
-188.1285399074569
 20
-61.74163055691363
 30
0.0
 11
-190.9245644935658
 21
-54.51882148631199
 31
0.0
  0
LINE
  5
11E
330
1F
100
AcDbEntity
  8
0
100
AcDbLine
 10
-193.9240424615379
 20
-64.10363251418293
 30
0.0
 11
-196.7998572903052
 21
-56.67470591110929
 31
0.0
  0
LINE
  5
11F
330
1F
100
AcDbEntity
  8
0
100
AcDbLine
 10
-190.9245644935658
 20
-54.51882148631199
 30
0.0
 11
-193.4638013731393
 21
-47.20178653860912
 31
0.0
  0
LINE
  5
120
330
1F
100
AcDbEntity
  8
0
100
AcDbLine
 10
-196.7998572903052
 20
-56.67470591110929
 30
0.0
 11
-199.411556453578
 21
-49.14886450407884
 31
0.0
  0
LINE
  5
121
330
1F
100
AcDbEntity
  8
0
100
AcDbLine
 10
-193.4638013731393
 20
-47.20178653860912
 30
0.0
 11
-195.7430834829714
 21
-39.79965188566678
 31
0.0
  0
LINE
  5
122
330
1F
100
AcDbEntity
  8
0
100
AcDbLine
 10
-199.411556453578
 20
-49.14886450407884
 30
0.0
 11
-201.7558825095665
 21
-41.53549489881031
 31
0.0
  0
LINE
  5
123
330
1F
100
AcDbEntity
  8
0
100
AcDbLine
 10
-195.7430834829714
 20
-39.79965188566678
 30
0.0
 11
-197.7595679884434
 21
-32.32164983995415
 31
0.0
  0
LINE
  5
124
330
1F
100
AcDbEntity
  8
0
100
AcDbLine
 10
-201.7558825095665
 20
-41.53549489881031
 30
0.0
 11
-203.82991149759
 21
-33.84409287056786
 31
0.0
  0
LINE
  5
125
330
1F
100
AcDbEntity
  8
0
100
AcDbLine
 10
-197.7595679884434
 20
-32.32164983995415
 30
0.0
 11
-199.5107398292496
 21
-24.77710733954641
 31
0.0
  0
LINE
  5
126
330
1F
100
AcDbEntity
  8
0
100
AcDbLine
 10
-203.82991149759
 20
-33.84409287056786
 30
0.0
 11
-205.6310565849867
 21
-26.08425152055555
 31
0.0
  0
LINE
  5
127
330
1F
100
AcDbEntity
  8
0
100
AcDbLine
 10
-199.5107398292496
 20
-24.77710733954641
 30
0.0
 11
-200.9944148563059
 21
-17.17543431510105
 31
0.0
  0
LINE
  5
128
330
1F
100
AcDbEntity
  8
0
100
AcDbLine
 10
-205.6310565849867
 20
-26.08425152055555
 30
0.0
 11
-207.1570712935405
 21
-18.26564931092173
 31
0.0
  0
LINE
  5
129
330
1F
100
AcDbEntity
  8
0
100
AcDbLine
 10
-200.9944148563059
 20
-17.17543431510105
 30
0.0
 11
-202.2087425559301
 21
-9.526111953321792
 31
0.0
  0
LINE
  5
12A
330
1F
100
AcDbEntity
  8
0
100
AcDbLine
 10
-207.1570712935405
 20
-18.26564931092173
 30
0.0
 11
-208.4060523014015
 21
-10.39803799329706
 31
0.0
  0
LINE
  5
12B
330
1F
100
AcDbEntity
  8
0
100
AcDbLine
 10
-202.2087425559301
 20
-9.526111953321792
 30
0.0
 11
-203.1522083578951
 21
-1.838680871548535
 31
0.0
  0
LINE
  5
12C
330
1F
100
AcDbEntity
  8
0
100
AcDbLine
 10
-208.4060523014015
 20
-10.39803799329706
 30
0.0
 11
-209.3764418170036
 21
-2.491230445922266
 31
0.0
  0
LINE
  5
12D
330
1F
100
AcDbEntity
  8
0
100
AcDbLine
 10
-209.3764418170036
 20
-2.491230445922266
 30
0.0
 11
-210.0670295220205
 21
5.444911565464206
 31
0.0
  0
LINE
  5
12E
330
1F
100
AcDbEntity
  8
0
100
AcDbLine
 10
-203.1522083578951
 20
-1.838680871548535
 30
0.0
 11
-203.8236355244763
 21
5.877270781777696
 31
0.0
  0
LINE
  5
12F
330
1F
100
AcDbEntity
  8
0
100
AcDbLine
 10
-203.8236355244763
 20
5.877270781777696
 30
0.0
 11
-204.2221866181382
 21
13.61211928593288
 31
0.0
  0
LINE
  5
130
330
1F
100
AcDbEntity
  8
0
100
AcDbLine
 10
-210.0670295220205
 20
5.444911565464206
 30
0.0
 11
-210.4769540809349
 21
13.40048968771357
 31
0.0
  0
LINE
  5
131
330
1F
100
AcDbEntity
  8
0
100
AcDbLine
 10
-210.4769540809349
 20
13.40048968771357
 30
0.0
 11
-210.6057042153392
 21
21.36558132598773
 31
0.0
  0
LINE
  5
132
330
1F
100
AcDbEntity
  8
0
100
AcDbLine
 10
-204.2221866181382
 20
13.61211928593288
 30
0.0
 11
-204.3473645460278
 21
21.35621735109582
 31
0.0
  0
LINE
  5
133
330
1F
100
AcDbEntity
  8
0
100
AcDbLine
 10
-204.3473645460278
 20
21.35621735109582
 30
0.0
 11
-204.1990131799744
 21
29.09990615093024
 31
0.0
  0
LINE
  5
134
330
1F
100
AcDbEntity
  8
0
100
AcDbLine
 10
-210.6057042153392
 20
21.36558132598773
 30
0.0
 11
-210.4531193416282
 21
29.33025201971563
 31
0.0
  0
LINE
  5
135
330
1F
100
AcDbEntity
  8
0
100
AcDbLine
 10
-210.4531193416282
 20
29.33025201971563
 30
0.0
 11
-210.0193897712858
 21
37.28456783334941
 31
0.0
  0
LINE
  5
136
330
1F
100
AcDbEntity
  8
0
100
AcDbLine
 10
-204.1990131799744
 20
29.09990615093024
 30
0.0
 11
-203.7773175512195
 21
36.83352736955607
 31
0.0
  0
LINE
  5
137
330
1F
100
AcDbEntity
  8
0
100
AcDbLine
 10
-210.0193897712858
 20
37.28456783334941
 30
0.0
 11
-209.3050564735202
 21
45.21860774646535
 31
0.0
  0
LINE
  5
138
330
1F
100
AcDbEntity
  8
0
100
AcDbLine
 10
-203.7773175512195
 20
36.83352736955607
 30
0.0
 11
-203.0828036196376
 21
44.54743524788399
 31
0.0
  0
LINE
  5
139
330
1F
100
AcDbEntity
  8
0
100
AcDbLine
 10
-209.3050564735202
 20
45.21860774646535
 30
0.0
 11
-208.3110104005391
 21
53.12247602775678
 31
0.0
  0
LINE
  5
13A
330
1F
100
AcDbEntity
  8
0
100
AcDbLine
 10
-203.0828036196376
 20
44.54743524788399
 30
0.0
 11
-202.1163376177319
 21
52.23200861428836
 31
0.0
  0
LINE
  5
13B
330
1F
100
AcDbEntity
  8
0
100
AcDbLine
 10
-202.1163376177319
 20
52.23200861428836
 30
0.0
 11
-200.8791249702264
 21
59.87766288461366
 31
0.0
  0
LINE
  5
13C
330
1F
100
AcDbEntity
  8
0
100
AcDbLine
 10
-208.3110104005391
 20
53.12247602775678
 30
0.0
 11
-207.0384913763104
 21
60.98631457748488
 31
0.0
  0
LINE
  5
13D
330
1F
100
AcDbEntity
  8
0
100
AcDbLine
 10
-207.0384913763104
 20
60.98631457748488
 30
0.0
 11
-205.4890865501909
 21
68.80031522299363
 31
0.0
  0
LINE
  5
13E
330
1F
100
AcDbEntity
  8
0
100
AcDbLine
 10
-200.8791249702264
 20
59.87766288461366
 30
0.0
 11
-199.3727087905997
 21
67.47486201654706
 31
0.0
  0
LINE
  5
13F
330
1F
100
AcDbEntity
  8
0
100
AcDbLine
 10
-205.4890865501909
 20
68.80031522299363
 30
0.0
 11
-203.664728417355
 21
76.55473195195327
 31
0.0
  0
LINE
  5
140
330
1F
100
AcDbEntity
  8
0
100
AcDbLine
 10
-199.3727087905997
 20
67.47486201654706
 30
0.0
 11
-197.5989679564364
 21
75.01413040344727
 31
0.0
  0
LINE
  5
141
330
1F
100
AcDbEntity
  8
0
100
AcDbLine
 10
-197.5989679564364
 20
75.01413040344727
 30
0.0
 11
-195.5601147659978
 21
82.48606469279493
 31
0.0
  0
LINE
  5
142
330
1F
100
AcDbEntity
  8
0
100
AcDbLine
 10
-195.5601147659978
 20
82.48606469279493
 30
0.0
 11
-201.5676924084896
 21
84.23989306807408
 31
0.0
  0
LINE
  5
143
330
1F
100
AcDbEntity
  8
0
100
AcDbLine
 10
-203.664728417355
 20
76.55473195195327
 30
0.0
 11
-201.5676924084896
 21
84.23989306807408
 31
0.0
  0
LINE
  5
144
330
1F
100
AcDbEntity
  8
0
100
AcDbLine
 10
-227.5837103912698
 20
27.06586629619634
 30
0.0
 11
-225.8102378744159
 21
33.38541607154605
 31
0.0
  0
LINE
  5
145
330
1F
100
AcDbEntity
  8
0
100
AcDbLine
 10
-239.7200355399694
 20
30.24163723688084
 30
0.0
 11
-237.8268551126317
 21
36.98775133257726
 31
0.0
  0
LINE
  5
146
330
1F
100
AcDbEntity
  8
0
100
AcDbLine
 10
-221.5996523369757
 20
45.81702465768613
 30
0.0
 11
-219.1677909692142
 21
51.91357814462823
 31
0.0
  0
LINE
  5
147
330
1F
100
AcDbEntity
  8
0
100
AcDbLine
 10
-229.1329278076419
 20
20.68763460332384
 30
0.0
 11
-227.5837103912698
 21
27.06586629619634
 31
0.0
  0
LINE
  5
148
330
1F
100
AcDbEntity
  8
0
100
AcDbLine
 10
-241.3738238352452
 20
23.43288024334574
 30
0.0
 11
-239.7200355399694
 21
30.24163723688084
 31
0.0
  0
LINE
  5
149
330
1F
100
AcDbEntity
  8
0
100
AcDbLine
 10
-217.853337958846
 20
-94.93627476320907
 30
0.0
 11
-220.3939414293574
 21
-88.88422980825523
 31
0.0
  0
LINE
  5
14A
330
1F
100
AcDbEntity
  8
0
100
AcDbLine
 10
-229.3328711127192
 20
-99.99554622773681
 30
0.0
 11
-232.0449631909944
 21
-93.53499330391028
 31
0.0
  0
LINE
  5
14B
330
1F
100
AcDbEntity
  8
0
100
AcDbLine
 10
-230.4559578621052
 20
14.25867624242699
 30
0.0
 11
-229.1329278076419
 21
20.68763460332384
 31
0.0
  0
LINE
  5
14C
330
1F
100
AcDbEntity
  8
0
100
AcDbLine
 10
-242.7861573110031
 20
16.56997257415316
 30
0.0
 11
-241.3738238352452
 21
23.43288024334574
 31
0.0
  0
LINE
  5
14D
330
1F
100
AcDbEntity
  8
0
100
AcDbLine
 10
-231.5511504054196
 20
7.787009731842309
 30
0.0
 11
-230.4559578621052
 21
14.25867624242699
 31
0.0
  0
LINE
  5
14E
330
1F
100
AcDbEntity
  8
0
100
AcDbLine
 10
-243.9552744343107
 20
9.661473990915638
 30
0.0
 11
-242.7861573110031
 21
16.56997257415316
 31
0.0
  0
LINE
  5
14F
330
1F
100
AcDbEntity
  8
0
100
AcDbLine
 10
-232.4171394586824
 20
1.280706857645023
 30
0.0
 11
-231.5511504054196
 21
7.787009731842309
 31
0.0
  0
LINE
  5
150
330
1F
100
AcDbEntity
  8
0
100
AcDbLine
 10
-244.8797170238322
 20
2.716001118512557
 30
0.0
 11
-243.9552744343107
 21
9.661473990915638
 31
0.0
  0
LINE
  5
151
330
1F
100
AcDbEntity
  8
0
100
AcDbLine
 10
-233.052844917044
 20
-5.252117393883914
 30
0.0
 11
-232.4171394586824
 21
1.280706857645023
 31
0.0
  0
LINE
  5
152
330
1F
100
AcDbEntity
  8
0
100
AcDbLine
 10
-245.558332068545
 20
-4.257783301993604
 30
0.0
 11
-244.8797170238322
 21
2.716001118512557
 31
0.0
  0
LINE
  5
153
330
1F
100
AcDbEntity
  8
0
100
AcDbLine
 10
-233.4574738968693
 20
-11.80331495767656
 30
0.0
 11
-233.052844917044
 21
-5.252117393883914
 31
0.0
  0
LINE
  5
154
330
1F
100
AcDbEntity
  8
0
100
AcDbLine
 10
-245.9902731658325
 20
-11.25118121796277
 30
0.0
 11
-245.558332068545
 21
-4.257783301993604
 31
0.0
  0
LINE
  5
155
330
1F
100
AcDbEntity
  8
0
100
AcDbLine
 10
-233.6305217246623
 20
-18.36471485255062
 30
0.0
 11
-233.4574738968693
 21
-11.80331495767656
 31
0.0
  0
LINE
  5
156
330
1F
100
AcDbEntity
  8
0
100
AcDbLine
 10
-246.1750015771597
 20
-18.25547011382177
 30
0.0
 11
-245.9902731658325
 21
-11.25118121796277
 31
0.0
  0
LINE
  5
157
330
1F
100
AcDbEntity
  8
0
100
AcDbLine
 10
-233.5717725665189
 20
-24.92813337246648
 30
0.0
 11
-233.6305217246623
 21
-18.36471485255062
 31
0.0
  0
LINE
  5
158
330
1F
100
AcDbEntity
  8
0
100
AcDbLine
 10
-246.1122869000151
 20
-25.26191389022357
 30
0.0
 11
-246.1750015771597
 21
-18.25547011382177
 31
0.0
  0
LINE
  5
159
330
1F
100
AcDbEntity
  8
0
100
AcDbLine
 10
-233.281299697327
 20
-31.48538429365432
 30
0.0
 11
-233.5717725665189
 21
-24.92813337246648
 31
0.0
  0
LINE
  5
15A
330
1F
100
AcDbEntity
  8
0
100
AcDbLine
 10
-245.8022073552796
 20
-32.26177376014528
 30
0.0
 11
-246.1122869000151
 21
-25.26191389022357
 31
0.0
  0
LINE
  5
15B
330
1F
100
AcDbEntity
  8
0
100
AcDbLine
 10
-232.7594654093735
 20
-38.02828908488232
 30
0.0
 11
-233.281299697327
 21
-31.48538429365432
 31
0.0
  0
LINE
  5
15C
330
1F
100
AcDbEntity
  8
0
100
AcDbLine
 10
-245.2451496896667
 20
-39.24631914834276
 30
0.0
 11
-245.8022073552796
 21
-32.26177376014528
 31
0.0
  0
LINE
  5
15D
330
1F
100
AcDbEntity
  8
0
100
AcDbLine
 10
-232.0069205604757
 20
-44.5486871081287
 30
0.0
 11
-232.7594654093735
 21
-38.02828908488232
 31
0.0
  0
LINE
  5
15E
330
1F
100
AcDbEntity
  8
0
100
AcDbLine
 10
-244.4418086933516
 20
-46.20683858055811
 30
0.0
 11
-245.2451496896667
 21
-39.24631914834276
 31
0.0
  0
LINE
  5
15F
330
1F
100
AcDbEntity
  8
0
100
AcDbLine
 10
-231.0246037621989
 20
-51.03844579693829
 30
0.0
 11
-232.0069205604757
 21
-44.5486871081287
 31
0.0
  0
LINE
  5
160
330
1F
100
AcDbEntity
  8
0
100
AcDbLine
 10
-243.3931863333942
 20
-53.13465054890741
 30
0.0
 11
-244.4418086933516
 21
-46.20683858055811
 31
0.0
  0
LINE
  5
161
330
1F
100
AcDbEntity
  8
0
100
AcDbLine
 10
-215.1006155949003
 20
-100.8948344648643
 30
0.0
 11
-226.3943422932471
 21
-106.3563037219146
 31
0.0
  0
LINE
  5
162
330
1F
100
AcDbEntity
  8
0
100
AcDbLine
 10
-215.1006155949003
 20
-100.8948344648643
 30
0.0
 11
-217.853337958846
 21
-94.93627476320907
 31
0.0
  0
LINE
  5
163
330
1F
100
AcDbEntity
  8
0
100
AcDbLine
 10
-226.3943422932471
 20
-106.3563037219146
 30
0.0
 11
-229.3328711127192
 21
-99.99554622773681
 31
0.0
  0
LINE
  5
164
330
1F
100
AcDbEntity
  8
0
100
AcDbLine
 10
-225.8102378744159
 20
33.38541607154605
 30
0.0
 11
-223.8147222206827
 21
39.63840187089519
 31
0.0
  0
LINE
  5
165
330
1F
100
AcDbEntity
  8
0
100
AcDbLine
 10
-237.8268551126317
 20
36.98775133257726
 30
0.0
 11
-235.6966438225265
 21
43.66280843960746
 31
0.0
  0
LINE
  5
166
330
1F
100
AcDbEntity
  8
0
100
AcDbLine
 10
-219.1677909692142
 20
51.91357814462823
 30
0.0
 11
-230.7360486010846
 21
56.76654883744386
 31
0.0
  0
LINE
  5
167
330
1F
100
AcDbEntity
  8
0
100
AcDbLine
 10
-233.3320585756919
 20
50.2584830929737
 30
0.0
 11
-230.7360486010846
 21
56.76654883744386
 31
0.0
  0
LINE
  5
168
330
1F
100
AcDbEntity
  8
0
100
AcDbLine
 10
-223.8147222206827
 20
39.63840187089519
 30
0.0
 11
-221.5996523369757
 21
45.81702465768613
 31
0.0
  0
LINE
  5
169
330
1F
100
AcDbEntity
  8
0
100
AcDbLine
 10
-235.6966438225265
 20
43.66280843960746
 30
0.0
 11
-233.3320585756919
 21
50.2584830929737
 31
0.0
  0
LINE
  5
16A
330
1F
100
AcDbEntity
  8
0
100
AcDbLine
 10
-229.8137402091727
 20
-57.48947079976606
 30
0.0
 11
-231.0246037621989
 21
-51.03844579693829
 31
0.0
  0
LINE
  5
16B
330
1F
100
AcDbEntity
  8
0
100
AcDbLine
 10
-242.1005905040366
 20
-60.02111433989135
 30
0.0
 11
-243.3931863333942
 21
-53.13465054890741
 31
0.0
  0
LINE
  5
16C
330
1F
100
AcDbEntity
  8
0
100
AcDbLine
 10
-228.3758401509674
 20
-63.89371607565663
 30
0.0
 11
-229.8137402091727
 21
-57.48947079976606
 31
0.0
  0
LINE
  5
16D
330
1F
100
AcDbEntity
  8
0
100
AcDbLine
 10
-240.5656333954309
 20
-66.85764081152497
 30
0.0
 11
-242.1005905040366
 21
-60.02111433989135
 31
0.0
  0
LINE
  5
16E
330
1F
100
AcDbEntity
  8
0
100
AcDbLine
 10
-226.7126970084354
 20
-70.2431939296701
 30
0.0
 11
-228.3758401509674
 21
-63.89371607565663
 31
0.0
  0
LINE
  5
16F
330
1F
100
AcDbEntity
  8
0
100
AcDbLine
 10
-238.7902294828356
 20
-73.63570310614499
 30
0.0
 11
-240.5656333954309
 21
-66.85764081152497
 31
0.0
  0
LINE
  5
170
330
1F
100
AcDbEntity
  8
0
100
AcDbLine
 10
-224.8263851368662
 20
-76.52998497553241
 30
0.0
 11
-226.7126970084354
 21
-70.2431939296701
 31
0.0
  0
LINE
  5
171
330
1F
100
AcDbEntity
  8
0
100
AcDbLine
 10
-236.7765931387863
 20
-80.34684728553272
 30
0.0
 11
-238.7902294828356
 21
-73.63570310614499
 31
0.0
  0
LINE
  5
172
330
1F
100
AcDbEntity
  8
0
100
AcDbLine
 10
-222.7192572387477
 20
-82.74624801309193
 30
0.0
 11
-224.8263851368662
 21
-76.52998497553241
 31
0.0
  0
LINE
  5
173
330
1F
100
AcDbEntity
  8
0
100
AcDbLine
 10
-234.5272358712196
 20
-86.98270287508952
 30
0.0
 11
-236.7765931387863
 21
-80.34684728553272
 31
0.0
  0
LINE
  5
174
330
1F
100
AcDbEntity
  8
0
100
AcDbLine
 10
-220.3939414293574
 20
-88.88422980825523
 30
0.0
 11
-222.7192572387477
 21
-82.74624801309193
 31
0.0
  0
LINE
  5
175
330
1F
100
AcDbEntity
  8
0
100
AcDbLine
 10
-232.0449631909944
 20
-93.53499330391028
 30
0.0
 11
-234.5272358712196
 21
-86.98270287508952
 31
0.0
  0
LINE
  5
176
330
1F
100
AcDbEntity
  8
0
100
AcDbLine
 10
-53.79678257826876
 20
228.1504714546648
 30
0.0
 11
-55.50007695590168
 21
221.5944591561168
 31
0.0
  0
LINE
  5
177
330
1F
100
AcDbEntity
  8
0
100
AcDbLine
 10
-55.76614795159654
 20
242.2774084407806
 30
0.0
 11
-53.85154199619168
 21
235.3435758827531
 31
0.0
  0
LINE
  5
178
330
1F
100
AcDbEntity
  8
0
100
AcDbLine
 10
-59.41012321265839
 20
248.479439898618
 30
0.0
 11
-55.76614795159654
 21
242.2774084407806
 31
0.0
  0
LINE
  5
179
330
1F
100
AcDbEntity
  8
0
100
AcDbLine
 10
-64.53513688728974
 20
253.5270120617551
 30
0.0
 11
-59.41012321265839
 21
248.479439898618
 31
0.0
  0
LINE
  5
17A
330
1F
100
AcDbEntity
  8
0
100
AcDbLine
 10
-70.79192776305001
 20
257.0761412287815
 30
0.0
 11
-64.53513688728974
 21
253.5270120617551
 31
0.0
  0
LINE
  5
17B
330
1F
100
AcDbEntity
  8
0
100
AcDbLine
 10
-84.94721030968024
 20
258.8302006942548
 30
0.0
 11
-77.75410588159194
 21
258.8849601121777
 31
0.0
  0
LINE
  5
17C
330
1F
100
AcDbEntity
  8
0
100
AcDbLine
 10
-91.8810428677078
 20
256.91559473885
 30
0.0
 11
-84.94721030968024
 21
258.8302006942548
 31
0.0
  0
LINE
  5
17D
330
1F
100
AcDbEntity
  8
0
100
AcDbLine
 10
-98.08307432554516
 20
253.2716194777881
 30
0.0
 11
-91.8810428677078
 21
256.91559473885
 31
0.0
  0
LINE
  5
17E
330
1F
100
AcDbEntity
  8
0
100
AcDbLine
 10
-103.1306464886822
 20
248.1466058031567
 30
0.0
 11
-98.08307432554516
 21
253.2716194777881
 31
0.0
  0
LINE
  5
17F
330
1F
100
AcDbEntity
  8
0
100
AcDbLine
 10
-77.69358643798914
 20
204.6445379242511
 30
0.0
 11
-85.1569746862175
 21
204.5877208989609
 31
0.0
  0
LINE
  5
180
330
1F
100
AcDbEntity
  8
0
100
AcDbLine
 10
-70.49921230563422
 20
206.6310859759876
 30
0.0
 11
-77.69358643798914
 21
204.6445379242511
 31
0.0
  0
LINE
  5
181
330
1F
100
AcDbEntity
  8
0
100
AcDbLine
 10
-64.06413699700738
 20
210.4119850873706
 30
0.0
 11
-70.49921230563422
 21
206.6310859759876
 31
0.0
  0
LINE
  5
182
330
1F
100
AcDbEntity
  8
0
100
AcDbLine
 10
-17.59206964933185
 20
127.72421285815
 30
0.0
 11
-21.91242914625445
 21
123.1797767603144
 31
0.0
  0
LINE
  5
183
330
1F
100
AcDbEntity
  8
0
100
AcDbLine
 10
31.47963263416256
 20
55.80515420734234
 30
0.0
 11
34.11740762774466
 21
48.98802632366357
 31
0.0
  0
LINE
  5
184
330
1F
100
AcDbEntity
  8
0
100
AcDbLine
 10
25.6726417690569
 20
53.43951206987958
 30
0.0
 11
28.2305051462656
 21
46.82890965161551
 31
0.0
  0
LINE
  5
185
330
1F
100
AcDbEntity
  8
0
100
AcDbLine
 10
40.39069830755783
 20
-15.52539818619204
 30
0.0
 11
40.50416868466248
 21
-22.61270048412905
 31
0.0
  0
LINE
  5
186
330
1F
100
AcDbEntity
  8
0
100
AcDbLine
 10
22.14650950014797
 20
75.6387834672121
 30
0.0
 11
25.4904485654399
 21
69.13884800393157
 31
0.0
  0
LINE
  5
187
330
1F
100
AcDbEntity
  8
0
100
AcDbLine
 10
-17.59206964933185
 20
127.72421285815
 30
0.0
 11
-12.38416416463478
 21
122.5950014215196
 31
0.0
  0
LINE
  5
188
330
1F
100
AcDbEntity
  8
0
100
AcDbLine
 10
25.4904485654399
 20
69.13884800393157
 30
0.0
 11
28.60278356339012
 21
62.52488849696963
 31
0.0
  0
LINE
  5
189
330
1F
100
AcDbEntity
  8
0
100
AcDbLine
 10
18.57513709552408
 20
82.0165878422841
 30
0.0
 11
22.14650950014797
 21
75.6387834672121
 31
0.0
  0
LINE
  5
18A
330
1F
100
AcDbEntity
  8
0
100
AcDbLine
 10
13.15908901344005
 20
78.85686810747946
 30
0.0
 11
16.62226638921607
 21
72.67227985499761
 31
0.0
  0
LINE
  5
18B
330
1F
100
AcDbEntity
  8
0
100
AcDbLine
 10
16.62226638921607
 20
72.67227985499761
 30
0.0
 11
19.86490053789767
 21
66.36926048594698
 31
0.0
  0
LINE
  5
18C
330
1F
100
AcDbEntity
  8
0
100
AcDbLine
 10
46.65750407065469
 20
-15.31432673483952
 30
0.0
 11
46.77451943820947
 21
-22.62304734127629
 31
0.0
  0
LINE
  5
18D
330
1F
100
AcDbEntity
  8
0
100
AcDbLine
 10
46.28248402571244
 20
-8.014295949624355
 30
0.0
 11
46.65750407065469
 21
-15.31432673483952
 31
0.0
  0
LINE
  5
18E
330
1F
100
AcDbEntity
  8
0
100
AcDbLine
 10
40.02703952657352
 20
-8.446522450608262
 30
0.0
 11
40.39069830755783
 21
-15.52539818619204
 31
0.0
  0
LINE
  5
18F
330
1F
100
AcDbEntity
  8
0
100
AcDbLine
 10
19.86490053789767
 20
66.36926048594698
 30
0.0
 11
22.88294708403269
 21
59.95567144125555
 31
0.0
  0
LINE
  5
190
330
1F
100
AcDbEntity
  8
0
100
AcDbLine
 10
-21.91242914625445
 20
123.1797767603144
 30
0.0
 11
-16.86229759838467
 21
118.2059552176741
 31
0.0
  0
LINE
  5
191
330
1F
100
AcDbEntity
  8
0
100
AcDbLine
 10
-16.86229759838467
 20
118.2059552176741
 30
0.0
 11
-11.99094565506996
 21
113.0569106817249
 31
0.0
  0
LINE
  5
192
330
1F
100
AcDbEntity
  8
0
100
AcDbLine
 10
-7.360623636432187
 20
117.285092753689
 30
0.0
 11
-2.527713675663741
 21
111.8011096382607
 31
0.0
  0
LINE
  5
193
330
1F
100
AcDbEntity
  8
0
100
AcDbLine
 10
-11.99094565506996
 20
113.0569106817249
 30
0.0
 11
-7.304449110037016
 21
107.7390652982808
 31
0.0
  0
LINE
  5
194
330
1F
100
AcDbEntity
  8
0
100
AcDbLine
 10
-2.527713675663741
 20
111.8011096382607
 30
0.0
 11
2.10853787070672
 21
106.1498919731929
 31
0.0
  0
LINE
  5
195
330
1F
100
AcDbEntity
  8
0
100
AcDbLine
 10
2.10853787070672
 20
106.1498919731929
 30
0.0
 11
6.542348437923341
 21
100.3384882397361
 31
0.0
  0
LINE
  5
196
330
1F
100
AcDbEntity
  8
0
100
AcDbLine
 10
-2.808653196116472
 20
102.259051750013
 30
0.0
 11
1.490834705223873
 21
96.62370498383693
 31
0.0
  0
LINE
  5
197
330
1F
100
AcDbEntity
  8
0
100
AcDbLine
 10
6.542348437923341
 20
100.3384882397361
 30
0.0
 11
10.76818795574213
 21
94.37414671121527
 31
0.0
  0
LINE
  5
198
330
1F
100
AcDbEntity
  8
0
100
AcDbLine
 10
1.490834705223873
 20
96.62370498383693
 30
0.0
 11
5.58865205768546
 21
90.84005368602446
 31
0.0
  0
LINE
  5
199
330
1F
100
AcDbEntity
  8
0
100
AcDbLine
 10
10.76818795574213
 20
94.37414671121527
 30
0.0
 11
14.78078574581114
 21
88.26430641262071
 31
0.0
  0
LINE
  5
19A
330
1F
100
AcDbEntity
  8
0
100
AcDbLine
 10
5.58865205768546
 20
90.84005368602446
 30
0.0
 11
9.479687858562487
 21
84.91531151567509
 31
0.0
  0
LINE
  5
19B
330
1F
100
AcDbEntity
  8
0
100
AcDbLine
 10
14.78078574581114
 20
88.26430641262071
 30
0.0
 11
18.57513709552408
 21
82.0165878422841
 31
0.0
  0
LINE
  5
19C
330
1F
100
AcDbEntity
  8
0
100
AcDbLine
 10
9.479687858562487
 20
84.91531151567509
 30
0.0
 11
13.15908901344005
 21
78.85686810747946
 31
0.0
  0
LINE
  5
19D
330
1F
100
AcDbEntity
  8
0
100
AcDbLine
 10
28.60278356339012
 20
62.52488849696963
 30
0.0
 11
31.47963263416256
 21
55.80515420734234
 31
0.0
  0
LINE
  5
19E
330
1F
100
AcDbEntity
  8
0
100
AcDbLine
 10
22.88294708403269
 20
59.95567144125555
 30
0.0
 11
25.6726417690569
 21
53.43951206987958
 31
0.0
  0
LINE
  5
19F
330
1F
100
AcDbEntity
  8
0
100
AcDbLine
 10
40.50416868466248
 20
-22.61270048412905
 30
0.0
 11
40.36730913195927
 21
-29.69958970660579
 31
0.0
  0
LINE
  5
1A0
330
1F
100
AcDbEntity
  8
0
100
AcDbLine
 10
46.77451943820947
 20
-22.62304734127629
 30
0.0
 11
46.6333841809592
 21
-29.93134196713518
 31
0.0
  0
LINE
  5
1A1
330
1F
100
AcDbEntity
  8
0
100
AcDbLine
 10
46.6333841809592
 20
-29.93134196713518
 30
0.0
 11
40.36730913195927
 21
-29.69958970660579
 31
0.0
  0
LINE
  5
1A2
330
1F
100
AcDbEntity
  8
0
100
AcDbLine
 10
34.11740762774466
 20
48.98802632366357
 30
0.0
 11
36.51281857926731
 21
42.08200750870782
 31
0.0
  0
LINE
  5
1A3
330
1F
100
AcDbEntity
  8
0
100
AcDbLine
 10
28.2305051462656
 20
46.82890965161551
 30
0.0
 11
30.55334692055347
 21
40.13210926035058
 31
0.0
  0
LINE
  5
1A4
330
1F
100
AcDbEntity
  8
0
100
AcDbLine
 10
-12.38416416463478
 20
122.5950014215196
 30
0.0
 11
-7.360623636432187
 21
117.285092753689
 31
0.0
  0
LINE
  5
1A5
330
1F
100
AcDbEntity
  8
0
100
AcDbLine
 10
32.63826992751022
 20
33.35746348039383
 30
0.0
 11
34.4826737469088
 21
26.51342198871573
 31
0.0
  0
LINE
  5
1A6
330
1F
100
AcDbEntity
  8
0
100
AcDbLine
 10
36.51281857926731
 20
42.08200750870782
 30
0.0
 11
38.66287781241365
 21
35.09571129446388
 31
0.0
  0
LINE
  5
1A7
330
1F
100
AcDbEntity
  8
0
100
AcDbLine
 10
30.55334692055347
 20
40.13210926035058
 30
0.0
 11
32.63826992751022
 21
33.35746348039383
 31
0.0
  0
LINE
  5
1A8
330
1F
100
AcDbEntity
  8
0
100
AcDbLine
 10
40.56490366579838
 20
28.037851338907
 30
0.0
 11
42.21652383766981
 21
20.91723055788907
 31
0.0
  0
LINE
  5
1A9
330
1F
100
AcDbEntity
  8
0
100
AcDbLine
 10
34.4826737469088
 20
26.51342198871573
 30
0.0
 11
36.08425794607965
 21
19.60852101608843
 31
0.0
  0
LINE
  5
1AA
330
1F
100
AcDbEntity
  8
0
100
AcDbLine
 10
38.66287781241365
 20
35.09571129446388
 30
0.0
 11
40.56490366579838
 21
28.037851338907
 31
0.0
  0
LINE
  5
1AB
330
1F
100
AcDbEntity
  8
0
100
AcDbLine
 10
42.21652383766981
 20
20.91723055788907
 30
0.0
 11
43.61567834476342
 21
13.74273014570165
 31
0.0
  0
LINE
  5
1AC
330
1F
100
AcDbEntity
  8
0
100
AcDbLine
 10
36.08425794607965
 20
19.60852101608843
 30
0.0
 11
37.44102494912531
 21
12.6513727002718
 31
0.0
  0
LINE
  5
1AD
330
1F
100
AcDbEntity
  8
0
100
AcDbLine
 10
43.61567834476342
 20
13.74273014570165
 30
0.0
 11
44.76062209161574
 21
6.523298498006597
 31
0.0
  0
LINE
  5
1AE
330
1F
100
AcDbEntity
  8
0
100
AcDbLine
 10
38.55128252839696
 20
5.650654344524783
 30
0.0
 11
39.4136459151253
 21
-1.38490240516134
 31
0.0
  0
LINE
  5
1AF
330
1F
100
AcDbEntity
  8
0
100
AcDbLine
 10
44.76062209161574
 20
6.523298498006597
 30
0.0
 11
45.64992704713495
 21
-0.732059949050746
 31
0.0
  0
LINE
  5
1B0
330
1F
100
AcDbEntity
  8
0
100
AcDbLine
 10
45.64992704713495
 20
-0.732059949050746
 30
0.0
 11
46.28248402571244
 21
-8.014295949624355
 31
0.0
  0
LINE
  5
1B1
330
1F
100
AcDbEntity
  8
0
100
AcDbLine
 10
37.44102494912531
 20
12.6513727002718
 30
0.0
 11
38.55128252839696
 21
5.650654344524783
 31
0.0
  0
LINE
  5
1B2
330
1F
100
AcDbEntity
  8
0
100
AcDbLine
 10
39.4136459151253
 20
-1.38490240516134
 30
0.0
 11
40.02703952657352
 21
-8.446522450608262
 31
0.0
  0
LINE
  5
1B3
330
1F
100
AcDbEntity
  8
0
100
AcDbLine
 10
-66.12541219625443
 20
250.5989347184644
 30
0.0
 11
-61.55191657809178
 21
246.0945468990255
 31
0.0
  0
LINE
  5
1B4
330
1F
100
AcDbEntity
  8
0
100
AcDbLine
 10
-71.70889108445624
 20
253.7661314762089
 30
0.0
 11
-66.12541219625443
 21
250.5989347184644
 31
0.0
  0
LINE
  5
1B5
330
1F
100
AcDbEntity
  8
0
100
AcDbLine
 10
-77.92184838360136
 20
255.3802979472589
 30
0.0
 11
-71.70889108445624
 21
253.7661314762089
 31
0.0
  0
LINE
  5
1B6
330
1F
100
AcDbEntity
  8
0
100
AcDbLine
 10
-77.75410588159194
 20
258.8849601121777
 30
0.0
 11
-70.79192776305001
 21
257.0761412287815
 31
0.0
  0
LINE
  5
1B7
330
1F
100
AcDbEntity
  8
0
100
AcDbLine
 10
-44.02306441655684
 20
-1.00102270959352
 30
0.0
 11
-38.23221149726366
 21
3.067380153771722
 31
0.0
  0
LINE
  5
1B8
330
1F
100
AcDbEntity
  8
0
100
AcDbLine
 10
-45.87962687840759
 20
2.290603353721764
 30
0.0
 11
-40.69937378984903
 21
5.930025178481344
 31
0.0
  0
LINE
  5
1B9
330
1F
100
AcDbEntity
  8
0
100
AcDbLine
 10
-40.69937378984903
 20
5.930025178481344
 30
0.0
 11
-36.33524807665282
 21
10.51639847766629
 31
0.0
  0
LINE
  5
1BA
330
1F
100
AcDbEntity
  8
0
100
AcDbLine
 10
-93.04783603741936
 20
12.96832393145489
 30
0.0
 11
-89.04615166004915
 21
7.131166957770146
 31
0.0
  0
LINE
  5
1BB
330
1F
100
AcDbEntity
  8
0
100
AcDbLine
 10
-89.73512245812427
 20
14.78699241608962
 30
0.0
 11
-86.15538418049607
 21
9.565317670977572
 31
0.0
  0
LINE
  5
1BC
330
1F
100
AcDbEntity
  8
0
100
AcDbLine
 10
-64.48765682786721
 20
-5.510134029435435
 30
0.0
 11
-57.41180827194229
 21
-5.375054034098823
 31
0.0
  0
LINE
  5
1BD
330
1F
100
AcDbEntity
  8
0
100
AcDbLine
 10
-95.82452159302696
 20
19.47800109063912
 30
0.0
 11
-93.04783603741936
 21
12.96832393145489
 31
0.0
  0
LINE
  5
1BE
330
1F
100
AcDbEntity
  8
0
100
AcDbLine
 10
-89.04615166004915
 20
7.131166957770146
 30
0.0
 11
-83.97549869494019
 21
2.19412757176598
 31
0.0
  0
LINE
  5
1BF
330
1F
100
AcDbEntity
  8
0
100
AcDbLine
 10
-78.03358767950358
 20
-1.650293434856205
 30
0.0
 11
-71.45210049538153
 21
-4.252197706108714
 31
0.0
  0
LINE
  5
1C0
330
1F
100
AcDbEntity
  8
0
100
AcDbLine
 10
-76.3040083351339
 20
1.709793112686805
 30
0.0
 11
-70.4164871378215
 21
-0.6177608461408615
 31
0.0
  0
LINE
  5
1C1
330
1F
100
AcDbEntity
  8
0
100
AcDbLine
 10
-71.45210049538153
 20
-4.252197706108714
 30
0.0
 11
-64.48765682786721
 21
-5.510134029435435
 31
0.0
  0
LINE
  5
1C2
330
1F
100
AcDbEntity
  8
0
100
AcDbLine
 10
-83.97549869494019
 20
2.19412757176598
 30
0.0
 11
-78.03358767950358
 21
-1.650293434856205
 31
0.0
  0
LINE
  5
1C3
330
1F
100
AcDbEntity
  8
0
100
AcDbLine
 10
-81.61939163335322
 20
5.148850203383008
 30
0.0
 11
-76.3040083351339
 21
1.709793112686805
 31
0.0
  0
LINE
  5
1C4
330
1F
100
AcDbEntity
  8
0
100
AcDbLine
 10
-86.15538418049607
 20
9.565317670977572
 30
0.0
 11
-81.61939163335322
 21
5.148850203383008
 31
0.0
  0
LINE
  5
1C5
330
1F
100
AcDbEntity
  8
0
100
AcDbLine
 10
-92.21902839147474
 20
20.61027539000761
 30
0.0
 11
-89.73512245812427
 21
14.78699241608962
 31
0.0
  0
LINE
  5
1C6
330
1F
100
AcDbEntity
  8
0
100
AcDbLine
 10
-57.41180827194229
 20
-5.375054034098823
 30
0.0
 11
-50.50045022613983
 21
-3.852224643048527
 31
0.0
  0
LINE
  5
1C7
330
1F
100
AcDbEntity
  8
0
100
AcDbLine
 10
-70.4164871378215
 20
-0.6177608461408615
 30
0.0
 11
-64.1863892020693
 21
-1.743057691863297
 31
0.0
  0
LINE
  5
1C8
330
1F
100
AcDbEntity
  8
0
100
AcDbLine
 10
-50.50045022613983
 20
-3.852224643048527
 30
0.0
 11
-44.02306441655684
 21
-1.00102270959352
 31
0.0
  0
LINE
  5
1C9
330
1F
100
AcDbEntity
  8
0
100
AcDbLine
 10
-51.67402337120841
 20
-0.2599617923339962
 30
0.0
 11
-45.87962687840759
 21
2.290603353721764
 31
0.0
  0
LINE
  5
1CA
330
1F
100
AcDbEntity
  8
0
100
AcDbLine
 10
-64.1863892020693
 20
-1.743057691863297
 30
0.0
 11
-57.85663314594816
 21
-1.622220818125115
 31
0.0
  0
LINE
  5
1CB
330
1F
100
AcDbEntity
  8
0
100
AcDbLine
 10
-57.85663314594816
 20
-1.622220818125115
 30
0.0
 11
-51.67402337120841
 21
-0.2599617923339962
 31
0.0
  0
LINE
  5
1CC
330
1F
100
AcDbEntity
  8
0
100
AcDbLine
 10
-38.23221149726366
 20
3.067380153771722
 30
0.0
 11
-33.35368342259448
 21
8.194352283224882
 31
0.0
  0
LINE
  5
1CD
330
1F
100
AcDbEntity
  8
0
100
AcDbLine
 10
-59.59391581390498
 20
65.99899358628505
 30
0.0
 11
-59.80865463420915
 21
62.22599563313106
 31
0.0
  0
LINE
  5
1CE
330
1F
100
AcDbEntity
  8
0
100
AcDbLine
 10
-36.33524807665282
 20
10.51639847766629
 30
0.0
 11
-32.95741197354943
 21
15.87089532990444
 31
0.0
  0
LINE
  5
1CF
330
1F
100
AcDbEntity
  8
0
100
AcDbLine
 10
-33.35368342259448
 20
8.194352283224882
 30
0.0
 11
-29.57769956154476
 21
14.1799871929581
 31
0.0
  0
LINE
  5
1D0
330
1F
100
AcDbEntity
  8
0
100
AcDbLine
 10
-97.32181722288617
 20
33.48331143527912
 30
0.0
 11
-97.26794219286546
 21
26.40637870473368
 31
0.0
  0
LINE
  5
1D1
330
1F
100
AcDbEntity
  8
0
100
AcDbLine
 10
-93.55844599008472
 20
33.13883606667872
 30
0.0
 11
-93.51025165765209
 21
26.80811015361168
 31
0.0
  0
LINE
  5
1D2
330
1F
100
AcDbEntity
  8
0
100
AcDbLine
 10
-97.32181722288617
 20
33.48331143527912
 30
0.0
 11
-93.55844599008472
 21
33.13883606667872
 31
0.0
  0
LINE
  5
1D3
330
1F
100
AcDbEntity
  8
0
100
AcDbLine
 10
-32.95741197354943
 20
15.87089532990444
 30
0.0
 11
-30.69757115943797
 21
21.78473780116904
 31
0.0
  0
LINE
  5
1D4
330
1F
100
AcDbEntity
  8
0
100
AcDbLine
 10
-29.57769956154476
 20
14.1799871929581
 30
0.0
 11
-27.05148982780826
 21
20.79089815686464
 31
0.0
  0
LINE
  5
1D5
330
1F
100
AcDbEntity
  8
0
100
AcDbLine
 10
-93.51025165765209
 20
26.80811015361168
 30
0.0
 11
-92.21902839147474
 21
20.61027539000761
 31
0.0
  0
LINE
  5
1D6
330
1F
100
AcDbEntity
  8
0
100
AcDbLine
 10
-27.05148982780826
 20
20.79089815686464
 30
0.0
 11
-25.87355401766502
 21
27.76931822294746
 31
0.0
  0
LINE
  5
1D7
330
1F
100
AcDbEntity
  8
0
100
AcDbLine
 10
-30.69757115943797
 20
21.78473780116904
 30
0.0
 11
-29.64383940287957
 21
28.02733843434087
 31
0.0
  0
LINE
  5
1D8
330
1F
100
AcDbEntity
  8
0
100
AcDbLine
 10
-29.64383940287957
 20
28.02733843434087
 30
0.0
 11
-29.83730290585057
 21
34.35529111692907
 31
0.0
  0
LINE
  5
1D9
330
1F
100
AcDbEntity
  8
0
100
AcDbLine
 10
-97.26794219286546
 20
26.40637870473368
 30
0.0
 11
-95.82452159302696
 21
19.47800109063912
 31
0.0
  0
LINE
  5
1DA
330
1F
100
AcDbEntity
  8
0
100
AcDbLine
 10
-25.87355401766502
 20
27.76931822294746
 30
0.0
 11
-26.0898211906784
 21
34.84315084051778
 31
0.0
  0
LINE
  5
1DB
330
1F
100
AcDbEntity
  8
0
100
AcDbLine
 10
-29.83730290585057
 20
34.35529111692907
 30
0.0
 11
-31.2704183059073
 21
40.52186176277244
 31
0.0
  0
LINE
  5
1DC
330
1F
100
AcDbEntity
  8
0
100
AcDbLine
 10
-26.0898211906784
 20
34.84315084051778
 30
0.0
 11
-27.69185884332364
 21
41.73657921477625
 31
0.0
  0
LINE
  5
1DD
330
1F
100
AcDbEntity
  8
0
100
AcDbLine
 10
-31.2704183059073
 20
40.52186176277244
 30
0.0
 11
-33.88730680048392
 21
46.28660875522662
 31
0.0
  0
LINE
  5
1DE
330
1F
100
AcDbEntity
  8
0
100
AcDbLine
 10
-27.69185884332364
 20
41.73657921477625
 30
0.0
 11
-30.61720170190981
 21
48.1808207179513
 31
0.0
  0
LINE
  5
1DF
330
1F
100
AcDbEntity
  8
0
100
AcDbLine
 10
-30.61720170190981
 20
48.1808207179513
 30
0.0
 11
-34.75178731478369
 21
53.92460703024925
 31
0.0
  0
LINE
  5
1E0
330
1F
100
AcDbEntity
  8
0
100
AcDbLine
 10
-33.88730680048392
 20
46.28660875522662
 30
0.0
 11
-37.58593292508148
 21
51.42475803979412
 31
0.0
  0
LINE
  5
1E1
330
1F
100
AcDbEntity
  8
0
100
AcDbLine
 10
-34.75178731478369
 20
53.92460703024925
 30
0.0
 11
-39.93440347730056
 21
58.74398137797778
 31
0.0
  0
LINE
  5
1E2
330
1F
100
AcDbEntity
  8
0
100
AcDbLine
 10
-37.58593292508148
 20
51.42475803979412
 30
0.0
 11
-42.22208303230412
 21
55.73596732065216
 31
0.0
  0
LINE
  5
1E3
330
1F
100
AcDbEntity
  8
0
100
AcDbLine
 10
-39.93440347730056
 20
58.74398137797778
 30
0.0
 11
-45.96297407939385
 21
62.45103086336391
 31
0.0
  0
LINE
  5
1E4
330
1F
100
AcDbEntity
  8
0
100
AcDbLine
 10
-42.22208303230412
 20
55.73596732065216
 30
0.0
 11
-47.61498834631077
 21
59.05213763506845
 31
0.0
  0
LINE
  5
1E5
330
1F
100
AcDbEntity
  8
0
100
AcDbLine
 10
-52.60243828338398
 20
64.90121340257573
 30
0.0
 11
-59.59391581390498
 21
65.99899358628505
 31
0.0
  0
LINE
  5
1E6
330
1F
100
AcDbEntity
  8
0
100
AcDbLine
 10
-53.55437334338163
 20
61.24396772351655
 30
0.0
 11
-59.80865463420915
 21
62.22599563313106
 31
0.0
  0
LINE
  5
1E7
330
1F
100
AcDbEntity
  8
0
100
AcDbLine
 10
-45.96297407939385
 20
62.45103086336391
 30
0.0
 11
-52.60243828338398
 21
64.90121340257573
 31
0.0
  0
LINE
  5
1E8
330
1F
100
AcDbEntity
  8
0
100
AcDbLine
 10
-47.61498834631077
 20
59.05213763506845
 30
0.0
 11
-53.55437334338163
 21
61.24396772351655
 31
0.0
  0
LINE
  5
1E9
330
1F
100
AcDbEntity
  8
0
100
AcDbLine
 10
-66.07476739006937
 20
250.4070034463941
 30
0.0
 11
-71.65396994642326
 21
253.5717744791319
 31
0.0
  0
LINE
  5
1EA
330
1F
100
AcDbEntity
  8
0
100
AcDbLine
 10
-71.43039638926669
 20
248.9489295883394
 30
0.0
 11
-66.30391431229619
 21
246.0409616819638
 31
0.0
  0
LINE
  5
1EB
330
1F
100
AcDbEntity
  8
0
100
AcDbLine
 10
-71.65396994642326
 20
253.5717744791319
 30
0.0
 11
-77.86216880236476
 21
255.1847046758757
 31
0.0
  0
LINE
  5
1EC
330
1F
100
AcDbEntity
  8
0
100
AcDbLine
 10
-77.1348353021374
 20
250.4309796952306
 30
0.0
 11
-71.43039638926669
 21
248.9489295883394
 31
0.0
  0
LINE
  5
1ED
330
1F
100
AcDbEntity
  8
0
100
AcDbLine
 10
-77.86216880236476
 20
255.1847046758757
 30
0.0
 11
-84.2762854653952
 21
255.1358755092108
 31
0.0
  0
LINE
  5
1EE
330
1F
100
AcDbEntity
  8
0
100
AcDbLine
 10
-83.02848296602724
 20
250.3861127370564
 30
0.0
 11
-77.1348353021374
 21
250.4309796952306
 31
0.0
  0
LINE
  5
1EF
330
1F
100
AcDbEntity
  8
0
100
AcDbLine
 10
-90.45920848475798
 20
253.4286146061513
 30
0.0
 11
-95.98958187444694
 21
250.1792689758586
 31
0.0
  0
LINE
  5
1F0
330
1F
100
AcDbEntity
  8
0
100
AcDbLine
 10
-93.79131215115169
 20
245.8317065653561
 30
0.0
 11
-88.70969703235536
 21
248.8173863228703
 31
0.0
  0
LINE
  5
1F1
330
1F
100
AcDbEntity
  8
0
100
AcDbLine
 10
-102.2721757049289
 20
224.9079739521881
 30
0.0
 11
-102.3170426631031
 21
230.8016216160779
 31
0.0
  0
LINE
  5
1F2
330
1F
100
AcDbEntity
  8
0
100
AcDbLine
 10
-105.2682210568106
 20
233.8218747409443
 30
0.0
 11
-105.2193918901457
 21
227.4077580779139
 31
0.0
  0
LINE
  5
1F3
330
1F
100
AcDbEntity
  8
0
100
AcDbLine
 10
-100.7034492907428
 20
219.2267598858599
 30
0.0
 11
-102.2721757049289
 21
224.9079739521881
 31
0.0
  0
LINE
  5
1F4
330
1F
100
AcDbEntity
  8
0
100
AcDbLine
 10
-105.2193918901457
 20
227.4077580779139
 30
0.0
 11
-103.5301185202185
 21
221.289977727997
 31
0.0
  0
LINE
  5
1F5
330
1F
100
AcDbEntity
  8
0
100
AcDbLine
 10
-93.68876424435905
 20
210.1770197566084
 30
0.0
 11
-97.71776953322848
 21
214.1451447670636
 31
0.0
  0
LINE
  5
1F6
330
1F
100
AcDbEntity
  8
0
100
AcDbLine
 10
-6.744641119449445
 20
27.52088956209393
 30
0.0
 11
-8.066284200160794
 21
33.26808220486019
 31
0.0
  0
LINE
  5
1F7
330
1F
100
AcDbEntity
  8
0
100
AcDbLine
 10
4.104179141884759
 20
36.29443833175637
 30
0.0
 11
5.525242401842021
 21
30.11491495534227
 31
0.0
  0
LINE
  5
1F8
330
1F
100
AcDbEntity
  8
0
100
AcDbLine
 10
-8.066284200160794
 20
33.26808220486019
 30
0.0
 11
-9.590363568684317
 21
38.96493623004807
 31
0.0
  0
LINE
  5
1F9
330
1F
100
AcDbEntity
  8
0
100
AcDbLine
 10
2.465451388925991
 20
42.41983638413888
 30
0.0
 11
4.104179141884759
 21
36.29443833175637
 31
0.0
  0
LINE
  5
1FA
330
1F
100
AcDbEntity
  8
0
100
AcDbLine
 10
0.6111095893430467
 20
48.48344475199777
 30
0.0
 11
2.465451388925991
 21
42.41983638413888
 31
0.0
  0
LINE
  5
1FB
330
1F
100
AcDbEntity
  8
0
100
AcDbLine
 10
-9.590363568684317
 20
38.96493623004807
 30
0.0
 11
-11.31497223161348
 21
44.60432348981384
 31
0.0
  0
LINE
  5
1FC
330
1F
100
AcDbEntity
  8
0
100
AcDbLine
 10
-1.456526024953238
 20
54.47767638874178
 30
0.0
 11
0.6111095893430467
 21
48.48344475199777
 31
0.0
  0
LINE
  5
1FD
330
1F
100
AcDbEntity
  8
0
100
AcDbLine
 10
-11.31497223161348
 20
44.60432348981384
 30
0.0
 11
-13.23795228469659
 21
50.17918774119281
 31
0.0
  0
LINE
  5
1FE
330
1F
100
AcDbEntity
  8
0
100
AcDbLine
 10
-13.23795228469659
 20
50.17918774119281
 30
0.0
 11
-15.35689761289919
 21
55.68255347517298
 31
0.0
  0
LINE
  5
1FF
330
1F
100
AcDbEntity
  8
0
100
AcDbLine
 10
-21.65214183406473
 20
93.87800522573676
 30
0.0
 11
-18.17838507695676
 21
88.57338988238757
 31
0.0
  0
LINE
  5
200
330
1F
100
AcDbEntity
  8
0
100
AcDbLine
 10
-28.78991955839535
 20
81.8895028908147
 30
0.0
 11
-32.02064595283056
 21
86.82299766330188
 31
0.0
  0
LINE
  5
201
330
1F
100
AcDbEntity
  8
0
100
AcDbLine
 10
-42.73036318627334
 20
100.89543874569
 30
0.0
 11
-46.6245582627868
 21
105.3240060548677
 31
0.0
  0
LINE
  5
202
330
1F
100
AcDbEntity
  8
0
100
AcDbLine
 10
-37.35462879003344
 20
113.7707460731857
 30
0.0
 11
-33.16749413083243
 21
109.0090412005412
 31
0.0
  0
LINE
  5
203
330
1F
100
AcDbEntity
  8
0
100
AcDbLine
 10
-41.70755290540714
 20
118.3813839460019
 30
0.0
 11
-37.35462879003344
 21
113.7707460731857
 31
0.0
  0
LINE
  5
204
330
1F
100
AcDbEntity
  8
0
100
AcDbLine
 10
-46.6245582627868
 20
105.3240060548677
 30
0.0
 11
-50.67294386253714
 21
109.612075287237
 31
0.0
  0
LINE
  5
205
330
1F
100
AcDbEntity
  8
0
100
AcDbLine
 10
-3.734868339692314
 20
60.39503105491805
 30
0.0
 11
-1.456526024953238
 21
54.47767638874178
 31
0.0
  0
LINE
  5
206
330
1F
100
AcDbEntity
  8
0
100
AcDbLine
 10
-15.35689761289919
 20
55.68255347517298
 30
0.0
 11
-17.66915690103832
 21
61.10753464475073
 31
0.0
  0
LINE
  5
207
330
1F
100
AcDbEntity
  8
0
100
AcDbLine
 10
-6.22106659535214
 20
66.22810470283326
 30
0.0
 11
-3.734868339692314
 21
60.39503105491805
 31
0.0
  0
LINE
  5
208
330
1F
100
AcDbEntity
  8
0
100
AcDbLine
 10
-17.66915690103832
 20
61.10753464475073
 30
0.0
 11
-20.17183695122154
 21
66.44734328104785
 31
0.0
  0
LINE
  5
209
330
1F
100
AcDbEntity
  8
0
100
AcDbLine
 10
-8.912009954151516
 20
71.96959874081521
 30
0.0
 11
-6.22106659535214
 21
66.22810470283326
 31
0.0
  0
LINE
  5
20A
330
1F
100
AcDbEntity
  8
0
100
AcDbLine
 10
-20.17183695122154
 20
66.44734328104785
 30
0.0
 11
-22.86180630294023
 21
71.69529798670916
 31
0.0
  0
LINE
  5
20B
330
1F
100
AcDbEntity
  8
0
100
AcDbLine
 10
-11.80433139246375
 20
77.61232916552346
 30
0.0
 11
-8.912009954151516
 21
71.96959874081521
 31
0.0
  0
LINE
  5
20C
330
1F
100
AcDbEntity
  8
0
100
AcDbLine
 10
-14.89441191378081
 20
83.14923555088217
 30
0.0
 11
-11.80433139246375
 21
77.61232916552346
 31
0.0
  0
LINE
  5
20D
330
1F
100
AcDbEntity
  8
0
100
AcDbLine
 10
-22.86180630294023
 20
71.69529798670916
 30
0.0
 11
-25.73569915128708
 21
76.84483229595303
 31
0.0
  0
LINE
  5
20E
330
1F
100
AcDbEntity
  8
0
100
AcDbLine
 10
-18.17838507695676
 20
88.57338988238757
 30
0.0
 11
-14.89441191378081
 21
83.14923555088217
 31
0.0
  0
LINE
  5
20F
330
1F
100
AcDbEntity
  8
0
100
AcDbLine
 10
-25.73569915128708
 20
76.84483229595303
 30
0.0
 11
-28.78991955839535
 21
81.8895028908147
 31
0.0
  0
LINE
  5
210
330
1F
100
AcDbEntity
  8
0
100
AcDbLine
 10
-33.16749413083243
 20
109.0090412005412
 30
0.0
 11
-29.1513880500917
 21
104.1022273772251
 31
0.0
  0
LINE
  5
211
330
1F
100
AcDbEntity
  8
0
100
AcDbLine
 10
-38.99523121672722
 20
96.33191457286773
 30
0.0
 11
-42.73036318627334
 21
100.89543874569
 31
0.0
  0
LINE
  5
212
330
1F
100
AcDbEntity
  8
0
100
AcDbLine
 10
-32.02064595283056
 20
86.82299766330188
 30
0.0
 11
-35.42383591130422
 21
91.63914361337469
 31
0.0
  0
LINE
  5
213
330
1F
100
AcDbEntity
  8
0
100
AcDbLine
 10
-25.31133567181358
 20
99.05644421893051
 30
0.0
 11
-21.65214183406473
 21
93.87800522573676
 31
0.0
  0
LINE
  5
214
330
1F
100
AcDbEntity
  8
0
100
AcDbLine
 10
-29.1513880500917
 20
104.1022273772251
 30
0.0
 11
-25.31133567181358
 21
99.05644421893051
 31
0.0
  0
LINE
  5
215
330
1F
100
AcDbEntity
  8
0
100
AcDbLine
 10
-35.42383591130422
 20
91.63914361337469
 30
0.0
 11
-38.99523121672722
 21
96.33191457286773
 31
0.0
  0
LINE
  5
216
330
1F
100
AcDbEntity
  8
0
100
AcDbLine
 10
5.525242401842021
 20
30.11491495534227
 30
0.0
 11
6.726863073559886
 21
23.88899833931302
 31
0.0
  0
LINE
  5
217
330
1F
100
AcDbEntity
  8
0
100
AcDbLine
 10
-5.627088023000085
 20
21.73054943542823
 30
0.0
 11
-6.744641119449445
 21
27.52088956209393
 31
0.0
  0
LINE
  5
218
330
1F
100
AcDbEntity
  8
0
100
AcDbLine
 10
-4.715023241129607
 20
15.90430694652249
 30
0.0
 11
-5.627088023000085
 21
21.73054943542823
 31
0.0
  0
LINE
  5
219
330
1F
100
AcDbEntity
  8
0
100
AcDbLine
 10
-41.70755290540714
 20
118.3813839460019
 30
0.0
 11
-50.67294386253714
 21
109.612075287237
 31
0.0
  0
LINE
  5
21A
330
1F
100
AcDbEntity
  8
0
100
AcDbLine
 10
6.726863073559886
 20
23.88899833931302
 30
0.0
 11
7.707537637769382
 21
17.6244786172943
 31
0.0
  0
LINE
  5
21B
330
1F
100
AcDbEntity
  8
0
100
AcDbLine
 10
-4.009587988371446
 20
10.04945213961014
 30
0.0
 11
-4.715023241129607
 21
15.90430694652249
 31
0.0
  0
LINE
  5
21C
330
1F
100
AcDbEntity
  8
0
100
AcDbLine
 10
7.707537637769382
 20
17.6244786172943
 30
0.0
 11
8.466039032437683
 21
11.32919422477199
 31
0.0
  0
LINE
  5
21D
330
1F
100
AcDbEntity
  8
0
100
AcDbLine
 10
-3.511664935538949
 20
4.173310859882732
 30
0.0
 11
-4.009587988371446
 21
10.04945213961014
 31
0.0
  0
LINE
  5
21E
330
1F
100
AcDbEntity
  8
0
100
AcDbLine
 10
8.466039032437683
 20
11.32919422477199
 30
0.0
 11
9.001418188121052
 21
5.011022091305828
 31
0.0
  0
LINE
  5
21F
330
1F
100
AcDbEntity
  8
0
100
AcDbLine
 10
9.001418188121052
 20
5.011022091305828
 30
0.0
 11
9.313005215481015
 21
-1.322132215422361
 31
0.0
  0
LINE
  5
220
330
1F
100
AcDbEntity
  8
0
100
AcDbLine
 10
-3.603646365256009
 20
-19.39686320986618
 30
0.0
 11
-3.267896610936967
 21
-13.50922906631301
 31
0.0
  0
LINE
  5
221
330
1F
100
AcDbEntity
  8
0
100
AcDbLine
 10
-3.221877105289837
 20
-1.71676441292135
 30
0.0
 11
-3.511664935538949
 21
4.173310859882732
 31
0.0
  0
LINE
  5
222
330
1F
100
AcDbEntity
  8
0
100
AcDbLine
 10
8.90251748468839
 20
-20.33221080580087
 30
0.0
 11
-3.603646365256009
 21
-19.39686320986618
 31
0.0
  0
LINE
  5
223
330
1F
100
AcDbEntity
  8
0
100
AcDbLine
 10
9.263523907198245
 20
-14.00168126149298
 30
0.0
 11
8.90251748468839
 21
-20.33221080580087
 31
0.0
  0
LINE
  5
224
330
1F
100
AcDbEntity
  8
0
100
AcDbLine
 10
-3.140587092573568
 20
-7.613403764254564
 30
0.0
 11
-3.221877105289837
 21
-1.71676441292135
 31
0.0
  0
LINE
  5
225
330
1F
100
AcDbEntity
  8
0
100
AcDbLine
 10
9.400410243478762
 20
-7.662344381393579
 30
0.0
 11
9.263523907198245
 21
-14.00168126149298
 31
0.0
  0
LINE
  5
226
330
1F
100
AcDbEntity
  8
0
100
AcDbLine
 10
-3.267896610936967
 20
-13.50922906631301
 30
0.0
 11
-3.140587092573568
 21
-7.613403764254564
 31
0.0
  0
LINE
  5
227
330
1F
100
AcDbEntity
  8
0
100
AcDbLine
 10
9.313005215481015
 20
-1.322132215422361
 30
0.0
 11
9.400410243478762
 21
-7.662344381393579
 31
0.0
  0
LINE
  5
228
330
1F
100
AcDbEntity
  8
0
100
AcDbLine
 10
52.92999479585893
 20
79.60903960727397
 30
0.0
 11
49.22618709826423
 21
85.91290563503577
 31
0.0
  0
LINE
  5
229
330
1F
100
AcDbEntity
  8
0
100
AcDbLine
 10
86.92697316572863
 20
68.68797499616885
 30
0.0
 11
79.238167007363
 21
66.56490179853712
 31
0.0
  0
LINE
  5
22A
330
1F
100
AcDbEntity
  8
0
100
AcDbLine
 10
93.8042978297306
 20
72.72871569675007
 30
0.0
 11
86.92697316572863
 21
68.68797499616885
 31
0.0
  0
LINE
  5
22B
330
1F
100
AcDbEntity
  8
0
100
AcDbLine
 10
78.88638938905865
 20
69.08832397005597
 30
0.0
 11
71.57517741816578
 21
69.03266542708751
 31
0.0
  0
LINE
  5
22C
330
1F
100
AcDbEntity
  8
0
100
AcDbLine
 10
85.93407236227496
 20
71.03436689501139
 30
0.0
 11
78.88638938905865
 21
69.08832397005597
 31
0.0
  0
LINE
  5
22D
330
1F
100
AcDbEntity
  8
0
100
AcDbLine
 10
92.2379383900368
 20
74.73817459260614
 30
0.0
 11
85.93407236227496
 21
71.03436689501139
 31
0.0
  0
LINE
  5
22E
330
1F
100
AcDbEntity
  8
0
100
AcDbLine
 10
97.36838942018345
 20
79.94733868908061
 30
0.0
 11
92.2379383900368
 21
74.73817459260614
 31
0.0
  0
LINE
  5
22F
330
1F
100
AcDbEntity
  8
0
100
AcDbLine
 10
100.9757936934815
 20
86.30686325981097
 30
0.0
 11
97.36838942018345
 21
79.94733868908061
 31
0.0
  0
LINE
  5
230
330
1F
100
AcDbEntity
  8
0
100
AcDbLine
 10
47.28014417330879
 20
92.96058860825208
 30
0.0
 11
47.22448563034033
 21
100.2718005791449
 31
0.0
  0
LINE
  5
231
330
1F
100
AcDbEntity
  8
0
100
AcDbLine
 10
52.67040878038014
 20
113.7078191049773
 30
0.0
 11
57.8008598105268
 21
118.9169832014518
 31
0.0
  0
LINE
  5
232
330
1F
100
AcDbEntity
  8
0
100
AcDbLine
 10
49.22618709826423
 20
85.91290563503577
 30
0.0
 11
47.28014417330879
 21
92.96058860825208
 31
0.0
  0
LINE
  5
233
330
1F
100
AcDbEntity
  8
0
100
AcDbLine
 10
47.22448563034033
 20
100.2718005791449
 30
0.0
 11
49.06300450708208
 21
107.348294534247
 31
0.0
  0
LINE
  5
234
330
1F
100
AcDbEntity
  8
0
100
AcDbLine
 10
44.69600023698181
 20
100.5851192093374
 30
0.0
 11
46.70176799292166
 21
108.3053572660721
 31
0.0
  0
LINE
  5
235
330
1F
100
AcDbEntity
  8
0
100
AcDbLine
 10
78.46362078239771
 20
124.6224923669705
 30
0.0
 11
85.54011473749976
 21
122.7839734902287
 31
0.0
  0
LINE
  5
236
330
1F
100
AcDbEntity
  8
0
100
AcDbLine
 10
71.26185878797344
 20
66.504180033729
 30
0.0
 11
63.54162073123872
 21
68.50994778966879
 31
0.0
  0
LINE
  5
237
330
1F
100
AcDbEntity
  8
0
100
AcDbLine
 10
70.80063119320056
 20
127.0902559955209
 30
0.0
 11
78.77693941259015
 21
127.1509777603289
 31
0.0
  0
LINE
  5
238
330
1F
100
AcDbEntity
  8
0
100
AcDbLine
 10
78.77693941259015
 20
127.1509777603289
 30
0.0
 11
86.49717746932488
 21
125.1452100043891
 31
0.0
  0
LINE
  5
239
330
1F
100
AcDbEntity
  8
0
100
AcDbLine
 10
63.54162073123872
 20
68.50994778966879
 30
0.0
 11
56.60357430242862
 21
72.44551530847725
 31
0.0
  0
LINE
  5
23A
330
1F
100
AcDbEntity
  8
0
100
AcDbLine
 10
63.11182503483496
 20
124.9671827978891
 30
0.0
 11
70.80063119320056
 21
127.0902559955209
 31
0.0
  0
LINE
  5
23B
330
1F
100
AcDbEntity
  8
0
100
AcDbLine
 10
86.49717746932488
 20
125.1452100043891
 30
0.0
 11
93.43522389813495
 21
121.2096424855807
 31
0.0
  0
LINE
  5
23C
330
1F
100
AcDbEntity
  8
0
100
AcDbLine
 10
93.43522389813495
 20
121.2096424855807
 30
0.0
 11
99.11826230056072
 21
115.6124776264778
 31
0.0
  0
LINE
  5
23D
330
1F
100
AcDbEntity
  8
0
100
AcDbLine
 10
99.11826230056072
 20
115.6124776264778
 30
0.0
 11
103.1590030011419
 21
108.7351529624759
 31
0.0
  0
LINE
  5
23E
330
1F
100
AcDbEntity
  8
0
100
AcDbLine
 10
103.1590030011419
 20
108.7351529624759
 30
0.0
 11
105.2820761987737
 21
101.0463468041102
 31
0.0
  0
LINE
  5
23F
330
1F
100
AcDbEntity
  8
0
100
AcDbLine
 10
105.2820761987737
 20
101.0463468041102
 30
0.0
 11
105.3427979635818
 21
93.07003858472062
 31
0.0
  0
LINE
  5
240
330
1F
100
AcDbEntity
  8
0
100
AcDbLine
 10
105.3427979635818
 20
93.07003858472062
 30
0.0
 11
103.337030207642
 21
85.34980052798585
 31
0.0
  0
LINE
  5
241
330
1F
100
AcDbEntity
  8
0
100
AcDbLine
 10
103.337030207642
 20
85.34980052798585
 30
0.0
 11
99.40146268883355
 21
78.41175409917585
 31
0.0
  0
LINE
  5
242
330
1F
100
AcDbEntity
  8
0
100
AcDbLine
 10
99.40146268883355
 20
78.41175409917585
 30
0.0
 11
93.8042978297306
 21
72.72871569675007
 31
0.0
  0
LINE
  5
243
330
1F
100
AcDbEntity
  8
0
100
AcDbLine
 10
79.238167007363
 20
66.56490179853712
 30
0.0
 11
71.26185878797344
 21
66.504180033729
 31
0.0
  0
LINE
  5
244
330
1F
100
AcDbEntity
  8
0
100
AcDbLine
 10
56.60357430242862
 20
72.44551530847725
 30
0.0
 11
50.92053590000287
 21
78.04268016758019
 31
0.0
  0
LINE
  5
245
330
1F
100
AcDbEntity
  8
0
100
AcDbLine
 10
50.92053590000287
 20
78.04268016758019
 30
0.0
 11
46.87979519942166
 21
84.92000483158212
 31
0.0
  0
LINE
  5
246
330
1F
100
AcDbEntity
  8
0
100
AcDbLine
 10
46.87979519942166
 20
84.92000483158212
 30
0.0
 11
44.7567220017899
 21
92.60881098994776
 31
0.0
  0
LINE
  5
247
330
1F
100
AcDbEntity
  8
0
100
AcDbLine
 10
44.7567220017899
 20
92.60881098994776
 30
0.0
 11
44.69600023698181
 21
100.5851192093374
 31
0.0
  0
LINE
  5
248
330
1F
100
AcDbEntity
  8
0
100
AcDbLine
 10
46.70176799292166
 20
108.3053572660721
 30
0.0
 11
50.63733551173002
 21
115.2434036948821
 31
0.0
  0
LINE
  5
249
330
1F
100
AcDbEntity
  8
0
100
AcDbLine
 10
50.63733551173002
 20
115.2434036948821
 30
0.0
 11
56.23450037083299
 21
120.9264420973079
 31
0.0
  0
LINE
  5
24A
330
1F
100
AcDbEntity
  8
0
100
AcDbLine
 10
56.23450037083299
 20
120.9264420973079
 30
0.0
 11
63.11182503483496
 21
124.9671827978891
 31
0.0
  0
LINE
  5
24B
330
1F
100
AcDbEntity
  8
0
100
AcDbLine
 10
64.10472583828863
 20
122.6207908990466
 30
0.0
 11
71.15240881150488
 21
124.566833824002
 31
0.0
  0
LINE
  5
24C
330
1F
100
AcDbEntity
  8
0
100
AcDbLine
 10
57.8008598105268
 20
118.9169832014518
 30
0.0
 11
64.10472583828863
 21
122.6207908990466
 31
0.0
  0
LINE
  5
24D
330
1F
100
AcDbEntity
  8
0
100
AcDbLine
 10
49.06300450708208
 20
107.348294534247
 30
0.0
 11
52.67040878038014
 21
113.7078191049773
 31
0.0
  0
LINE
  5
24E
330
1F
100
AcDbEntity
  8
0
100
AcDbLine
 10
71.57517741816578
 20
69.03266542708751
 30
0.0
 11
64.4986834630637
 21
70.87118430382922
 31
0.0
  0
LINE
  5
24F
330
1F
100
AcDbEntity
  8
0
100
AcDbLine
 10
102.8143125702233
 20
93.38335721491298
 30
0.0
 11
100.9757936934815
 21
86.30686325981097
 31
0.0
  0
LINE
  5
250
330
1F
100
AcDbEntity
  8
0
100
AcDbLine
 10
102.7586540272548
 20
100.6945691858058
 30
0.0
 11
102.8143125702233
 21
93.38335721491298
 31
0.0
  0
LINE
  5
251
330
1F
100
AcDbEntity
  8
0
100
AcDbLine
 10
100.8126111022994
 20
107.7422521590221
 30
0.0
 11
102.7586540272548
 21
100.6945691858058
 31
0.0
  0
LINE
  5
252
330
1F
100
AcDbEntity
  8
0
100
AcDbLine
 10
97.10880340470464
 20
114.046118186784
 30
0.0
 11
100.8126111022994
 21
107.7422521590221
 31
0.0
  0
LINE
  5
253
330
1F
100
AcDbEntity
  8
0
100
AcDbLine
 10
91.89963930823012
 20
119.1765692169306
 30
0.0
 11
97.10880340470464
 21
114.046118186784
 31
0.0
  0
LINE
  5
254
330
1F
100
AcDbEntity
  8
0
100
AcDbLine
 10
85.54011473749976
 20
122.7839734902287
 30
0.0
 11
91.89963930823012
 21
119.1765692169306
 31
0.0
  0
LINE
  5
255
330
1F
100
AcDbEntity
  8
0
100
AcDbLine
 10
71.15240881150488
 20
124.566833824002
 30
0.0
 11
78.46362078239771
 21
124.6224923669705
 31
0.0
  0
LINE
  5
256
330
1F
100
AcDbEntity
  8
0
100
AcDbLine
 10
64.4986834630637
 20
70.87118430382922
 30
0.0
 11
58.13915889233346
 21
74.47858857712738
 31
0.0
  0
LINE
  5
257
330
1F
100
AcDbEntity
  8
0
100
AcDbLine
 10
-56.59151091858095
 20
234.3722725147215
 30
0.0
 11
-56.59133449949617
 21
234.349098402431
 31
0.0
  0
LINE
  5
258
330
1F
100
AcDbEntity
  8
0
100
AcDbLine
 10
-56.59133449949617
 20
234.349098402431
 30
0.0
 11
-56.54264432547052
 21
227.9532395771724
 31
0.0
  0
LINE
  5
259
330
1F
100
AcDbEntity
  8
0
100
AcDbLine
 10
-57.55034418115886
 20
231.1424199981548
 30
0.0
 11
-57.55012711384355
 21
231.1139064031208
 31
0.0
  0
LINE
  5
25A
330
1F
100
AcDbEntity
  8
0
100
AcDbLine
 10
-58.15681079652047
 20
221.7402822780273
 30
0.0
 11
-58.63688841470921
 21
220.8939492425754
 31
0.0
  0
LINE
  5
25B
330
1F
100
AcDbEntity
  8
0
100
AcDbLine
 10
-58.63688841470921
 20
220.8939492425754
 30
0.0
 11
-61.32400755426498
 21
216.1568033898255
 31
0.0
  0
LINE
  5
25C
330
1F
100
AcDbEntity
  8
0
100
AcDbLine
 10
-90.18265999470212
 20
208.1882019900915
 30
0.0
 11
-93.68876424435905
 21
210.1770197566084
 31
0.0
  0
LINE
  5
25D
330
1F
100
AcDbEntity
  8
0
100
AcDbLine
 10
-93.68876424435905
 20
210.1770197566084
 30
0.0
 11
-95.76613888290392
 21
211.3553987478361
 31
0.0
  0
LINE
  5
25E
330
1F
100
AcDbEntity
  8
0
100
AcDbLine
 10
-100.3396345010666
 20
215.859786567275
 30
0.0
 11
-103.5301185202185
 21
221.289977727997
 31
0.0
  0
LINE
  5
25F
330
1F
100
AcDbEntity
  8
0
100
AcDbLine
 10
-103.5301185202185
 20
221.289977727997
 30
0.0
 11
-103.5914706808712
 21
221.3943988623663
 31
0.0
  0
LINE
  5
260
330
1F
100
AcDbEntity
  8
0
100
AcDbLine
 10
-55.14441112308128
 20
222.2214655661075
 30
0.0
 11
-55.50007695590168
 21
221.5944591561168
 31
0.0
  0
LINE
  5
261
330
1F
100
AcDbEntity
  8
0
100
AcDbLine
 10
-55.50007695590168
 20
221.5944591561168
 30
0.0
 11
-58.82690025992665
 21
215.7295732321904
 31
0.0
  0
LINE
  5
262
330
1F
100
AcDbEntity
  8
0
100
AcDbLine
 10
-85.1569746862175
 20
204.5877208989609
 30
0.0
 11
-92.2481089786961
 21
206.4300434300052
 31
0.0
  0
LINE
  5
263
330
1F
100
AcDbEntity
  8
0
100
AcDbLine
 10
-92.2481089786961
 20
206.4300434300052
 30
0.0
 11
-92.38075947503474
 21
206.464506886496
 31
0.0
  0
LINE
  5
264
330
1F
100
AcDbEntity
  8
0
100
AcDbLine
 10
-100.6109648599806
 20
219.0693517511021
 30
0.0
 11
-100.7034492907428
 21
219.2267598858599
 31
0.0
  0
LINE
  5
265
330
1F
100
AcDbEntity
  8
0
100
AcDbLine
 10
-57.55012711384355
 20
231.1139064031208
 30
0.0
 11
-57.54998598386594
 21
231.0953678082014
 31
0.0
  0
LINE
  5
266
330
1F
100
AcDbEntity
  8
0
100
AcDbLine
 10
-57.54998598386594
 20
231.0953678082014
 30
0.0
 11
-57.50547722298469
 21
225.2487723342649
 31
0.0
  0
LINE
  5
267
330
1F
100
AcDbEntity
  8
0
100
AcDbLine
 10
-97.71776953322848
 20
214.1451447670636
 30
0.0
 11
-100.5508345468366
 21
218.9670101963518
 31
0.0
  0
LINE
  5
268
330
1F
100
AcDbEntity
  8
0
100
AcDbLine
 10
-100.5508345468366
 20
218.9670101963518
 30
0.0
 11
-100.6109648599806
 21
219.0693517511021
 31
0.0
  0
LINE
  5
269
330
1F
100
AcDbEntity
  8
0
100
AcDbLine
 10
-7.304449110037016
 20
107.7390652982808
 30
0.0
 11
-2.808653196116472
 21
102.259051750013
 31
0.0
  0
LINE
  5
26A
330
1F
100
AcDbEntity
  8
0
100
AcDbLine
 10
52.92999479585893
 20
79.60903960727397
 30
0.0
 11
58.13915889233346
 21
74.47858857712738
 31
0.0
  0
ENDSEC
  0
SECTION
  2
OBJECTS
  0
DICTIONARY
  5
C
330
0
100
AcDbDictionary
  3
ACAD_GROUP
350
D
  3
ACAD_LAYOUT
350
1A
  3
ACAD_MATERIAL
350
43
  3
ACAD_MLEADERSTYLE
350
6B
  3
ACAD_MLINESTYLE
350
17
  3
ACAD_PLOTSETTINGS
350
19
  3
ACAD_SCALELIST
350
47
  3
ACAD_VISUALSTYLE
350
2A
  3
ACDBHEADERROUNDTRIPXREC
350
26B
  3
ACDBVARIABLEDICTIONARY
350
28C
  0
DICTIONARY
  5
293
330
8
100
AcDbDictionary
280
     1
  3
ACAD_XREC_ROUNDTRIP
360
294
  0
DICTIONARY
  5
D
102
{ACAD_REACTORS
330
C
102
}
330
C
100
AcDbDictionary
  0
DICTIONARY
  5
1A
102
{ACAD_REACTORS
330
C
102
}
330
C
100
AcDbDictionary
  0
DICTIONARY
  5
43
102
{ACAD_REACTORS
330
C
102
}
330
C
100
AcDbDictionary
  3
BYBLOCK
350
45
  3
BYLAYER
350
44
  3
GLOBAL
350
46
  0
DICTIONARY
  5
6B
102
{ACAD_REACTORS
330
C
102
}
330
C
100
AcDbDictionary
  3
STANDARD
350
6C
  0
DICTIONARY
  5
17
102
{ACAD_REACTORS
330
C
102
}
330
C
100
AcDbDictionary
  3
STANDARD
350
18
  0
DICTIONARY
  5
19
102
{ACAD_REACTORS
330
C
102
}
330
C
100
AcDbDictionary
  0
DICTIONARY
  5
47
102
{ACAD_REACTORS
330
C
102
}
330
C
100
AcDbDictionary
  3
A0
350
48
  3
A1
350
49
  3
A2
350
4A
  3
A3
350
4B
  3
A4
350
4C
  3
A5
350
4D
  3
A6
350
4E
  3
A7
350
4F
  3
A8
350
50
  3
A9
350
51
  3
B0
350
52
  3
B1
350
53
  3
B2
350
54
  3
B3
350
55
  3
B4
350
56
  3
B5
350
57
  3
B6
350
58
  3
B7
350
59
  3
B8
350
5A
  3
B9
350
5B
  3
C0
350
5C
  3
C1
350
5D
  3
C2
350
5E
  3
C3
350
5F
  3
C4
350
60
  3
C5
350
61
  3
C6
350
62
  3
C7
350
63
  3
C8
350
64
  3
C9
350
65
  3
D0
350
66
  3
D1
350
67
  3
D2
350
68
  0
DICTIONARY
  5
2A
102
{ACAD_REACTORS
330
C
102
}
330
C
100
AcDbDictionary
  3
2DWIREFRAME
350
2F
  3
BASIC
350
32
  3
BRIGHTEN
350
36
  3
COLORCHANGE
350
3A
  3
CONCEPTUAL
350
34
  3
DIM
350
35
  3
EDGECOLOROFF
350
3D
  3
FACEPATTERN
350
39
  3
FLAT
350
2B
  3
FLATWITHEDGES
350
2C
  3
GOURAUD
350
2D
  3
GOURAUDWITHEDGES
350
2E
  3
HIDDEN
350
31
  3
JITTEROFF
350
3B
  3
LINEPATTERN
350
38
  3
OVERHANGOFF
350
3C
  3
REALISTIC
350
33
  3
SHADED
350
42
  3
SHADED_WITH_EDGES
350
41
  3
SHADES_OF_GRAY
350
3E
  3
SKETCHY
350
3F
  3
THICKEN
350
37
  3
WIREFRAME
350
30
  3
X-RAY
350
40
  0
DICTIONARY
  5
26B
102
{ACAD_REACTORS
330
C
102
}
330
C
100
AcDbDictionary
  3
CEPSNID
350
275
  3
CEPSNTYPE
350
274
  3
DIMSTYLEDATA
350
28B
  3
FINGERPRINTGUID
350
276
  3
HYPERLINKBASE
350
26E
  3
INSUNITS
350
273
  3
LAYOUTDICT
350
270
  3
LWETCUNION
350
272
  3
PLOTSETDICT
350
271
  3
PSVPSCALE
350
278
  3
PUCSBASE
350
27B
  3
PUCSORGBACK
350
281
  3
PUCSORGBOTTOM
350
27D
  3
PUCSORGFRONT
350
280
  3
PUCSORGLEFT
350
27E
  3
PUCSORGRIGHT
350
27F
  3
PUCSORGTOP
350
27C
  3
PUCSORTHOREF
350
279
  3
PUCSORTHOVIEW
350
27A
  3
STYLESHEET
350
26F
  3
TSTACKALIGN
350
26C
  3
TSTACKSIZE
350
26D
  3
UCSBASE
350
284
  3
UCSORGBACK
350
28A
  3
UCSORGBOTTOM
350
286
  3
UCSORGFRONT
350
289
  3
UCSORGLEFT
350
287
  3
UCSORGRIGHT
350
288
  3
UCSORGTOP
350
285
  3
UCSORTHOREF
350
282
  3
UCSORTHOVIEW
350
283
  3
VERSIONGUID
350
277
  0
DICTIONARY
  5
28C
102
{ACAD_REACTORS
330
C
102
}
330
C
100
AcDbDictionary
  3
CANNOSCALE
350
295
  3
CMLEADERSTYLE
350
28E
  3
CTABLESTYLE
350
28D
  3
DIMASSOC
350
291
  3
HIDETEXT
350
292
  3
MSLTSCALE
350
296
  0
XRECORD
  5
294
102
{ACAD_REACTORS
330
293
102
}
330
293
100
AcDbXrecord
102
VTR_0.000_0.000_1.000_1.000_VISUALSTYLE
340
2F
102
VTR_0.000_0.000_1.000_1.000_GRIDDISPLAY
 70
     3
102
VTR_0.000_0.000_1.000_1.000_GRIDMAJOR
 70
     5
102
VTR_0.000_0.000_1.000_1.000_DEFAULTLIGHTING
280
     1
102
VTR_0.000_0.000_1.000_1.000_DEFAULTLIGHTINGTYPE
 70
     1
102
VTR_0.000_0.000_1.000_1.000_BRIGHTNESS
141
0.0
102
VTR_0.000_0.000_1.000_1.000_CONTRAST
142
0.0
  0
MATERIAL
  5
45
102
{ACAD_REACTORS
330
43
102
}
102
{ACAD_XDICTIONARY
360
299
102
}
330
43
100
AcDbMaterial
  1
BYBLOCK
  0
MATERIAL
  5
44
102
{ACAD_REACTORS
330
43
102
}
102
{ACAD_XDICTIONARY
360
297
102
}
330
43
100
AcDbMaterial
  1
BYLAYER
  0
MATERIAL
  5
46
102
{ACAD_REACTORS
330
43
102
}
102
{ACAD_XDICTIONARY
360
29B
102
}
330
43
100
AcDbMaterial
  1
GLOBAL
  0
ACAD_PROXY_OBJECT
  5
6C
102
{ACAD_REACTORS
330
6B
102
}
330
6B
100
AcDbProxyObject
 90
      499
 91
      505
 93
      610
310
40901902A4063FBFFFFFE056BD1B81E855B9FC0AD7A3703D0AD73F4214DD185B99185C9900AD7A3703D0AC73F90141901A02B5E8DC0F42B1CFC02B5E8DC0F42B1CFE5764000000000000300FC0
340
14
340
0
340
11
340
0
 94
        0
1001
ACAD_MLEADERVER
1070
     2
  0
MLINESTYLE
  5
18
102
{ACAD_REACTORS
330
17
102
}
330
17
100
AcDbMlineStyle
  2
Standard
 70
     0
  3

 62
   256
 51
90.0
 52
90.0
 71
     2
 49
0.5
 62
   256
  6
BYLAYER
 49
-0.5
 62
   256
  6
BYLAYER
  0
ACAD_PROXY_OBJECT
  5
48
102
{ACAD_REACTORS
330
47
102
}
330
47
100
AcDbProxyObject
 90
      499
 91
      503
 93
       41
310
903313A31580
  0
ACAD_PROXY_OBJECT
  5
49
102
{ACAD_REACTORS
330
47
102
}
330
47
100
AcDbProxyObject
 90
      499
 91
      503
 93
      105
310
903313A324000000000000004000
  0
ACAD_PROXY_OBJECT
  5
4A
102
{ACAD_REACTORS
330
47
102
}
330
47
100
AcDbProxyObject
 90
      499
 91
      503
 93
      105
310
903313A344000000000000104000
  0
ACAD_PROXY_OBJECT
  5
4B
102
{ACAD_REACTORS
330
47
102
}
330
47
100
AcDbProxyObject
 90
      499
 91
      503
 93
      105
310
903313A354000000000000144000
  0
ACAD_PROXY_OBJECT
  5
4C
102
{ACAD_REACTORS
330
47
102
}
330
47
100
AcDbProxyObject
 90
      499
 91
      503
 93
      105
310
903313A384000000000000204000
  0
ACAD_PROXY_OBJECT
  5
4D
102
{ACAD_REACTORS
330
47
102
}
330
47
100
AcDbProxyObject
 90
      499
 91
      503
 93
      113
310
904313A31304000000000000244000
  0
ACAD_PROXY_OBJECT
  5
4E
102
{ACAD_REACTORS
330
47
102
}
330
47
100
AcDbProxyObject
 90
      499
 91
      503
 93
      113
310
904313A31364000000000000304000
  0
ACAD_PROXY_OBJECT
  5
4F
102
{ACAD_REACTORS
330
47
102
}
330
47
100
AcDbProxyObject
 90
      499
 91
      503
 93
      113
310
904313A32304000000000000344000
  0
ACAD_PROXY_OBJECT
  5
50
102
{ACAD_REACTORS
330
47
102
}
330
47
100
AcDbProxyObject
 90
      499
 91
      503
 93
      113
310
904313A333040000000000003E4000
  0
ACAD_PROXY_OBJECT
  5
51
102
{ACAD_REACTORS
330
47
102
}
330
47
100
AcDbProxyObject
 90
      499
 91
      503
 93
      113
310
904313A34304000000000000444000
  0
ACAD_PROXY_OBJECT
  5
52
102
{ACAD_REACTORS
330
47
102
}
330
47
100
AcDbProxyObject
 90
      499
 91
      503
 93
      113
310
904313A35304000000000000494000
  0
ACAD_PROXY_OBJECT
  5
53
102
{ACAD_REACTORS
330
47
102
}
330
47
100
AcDbProxyObject
 90
      499
 91
      503
 93
      121
310
905313A3130304000000000000594000
  0
ACAD_PROXY_OBJECT
  5
54
102
{ACAD_REACTORS
330
47
102
}
330
47
100
AcDbProxyObject
 90
      499
 91
      503
 93
      105
310
903323A310000000000000010100
  0
ACAD_PROXY_OBJECT
  5
55
102
{ACAD_REACTORS
330
47
102
}
330
47
100
AcDbProxyObject
 90
      499
 91
      503
 93
      105
310
903343A310000000000000410100
  0
ACAD_PROXY_OBJECT
  5
56
102
{ACAD_REACTORS
330
47
102
}
330
47
100
AcDbProxyObject
 90
      499
 91
      503
 93
      105
310
903383A310000000000000810100
  0
ACAD_PROXY_OBJECT
  5
57
102
{ACAD_REACTORS
330
47
102
}
330
47
100
AcDbProxyObject
 90
      499
 91
      503
 93
      113
310
90431303A310000000000000910100
  0
ACAD_PROXY_OBJECT
  5
58
102
{ACAD_REACTORS
330
47
102
}
330
47
100
AcDbProxyObject
 90
      499
 91
      503
 93
      121
310
9053130303A310000000000001650100
  0
ACAD_PROXY_OBJECT
  5
59
102
{ACAD_REACTORS
330
47
102
}
330
47
100
AcDbProxyObject
 90
      499
 91
      503
 93
      257
310
90E312F31323822203D2031272D3022000000000000200FC000000000000284000
  0
ACAD_PROXY_OBJECT
  5
5A
102
{ACAD_REACTORS
330
47
102
}
330
47
100
AcDbProxyObject
 90
      499
 91
      503
 93
      249
310
90D312F363422203D2031272D3022000000000000240FC000000000000284000
  0
ACAD_PROXY_OBJECT
  5
5B
102
{ACAD_REACTORS
330
47
102
}
330
47
100
AcDbProxyObject
 90
      499
 91
      503
 93
      249
310
90D312F333222203D2031272D3022000000000000280FC000000000000284000
  0
ACAD_PROXY_OBJECT
  5
5C
102
{ACAD_REACTORS
330
47
102
}
330
47
100
AcDbProxyObject
 90
      499
 91
      503
 93
      249
310
90D312F313622203D2031272D30220000000000002C0FC000000000000284000
  0
ACAD_PROXY_OBJECT
  5
5D
102
{ACAD_REACTORS
330
47
102
}
330
47
100
AcDbProxyObject
 90
      499
 91
      503
 93
      249
310
90D332F333222203D2031272D30220000000000002E0FC000000000000284000
  0
ACAD_PROXY_OBJECT
  5
5E
102
{ACAD_REACTORS
330
47
102
}
330
47
100
AcDbProxyObject
 90
      499
 91
      503
 93
      241
310
90C312F3822203D2031272D3022000000000000300FC000000000000284000
  0
ACAD_PROXY_OBJECT
  5
5F
102
{ACAD_REACTORS
330
47
102
}
330
47
100
AcDbProxyObject
 90
      499
 91
      503
 93
      249
310
90D332F313622203D2031272D3022000000000000320FC000000000000284000
  0
ACAD_PROXY_OBJECT
  5
60
102
{ACAD_REACTORS
330
47
102
}
330
47
100
AcDbProxyObject
 90
      499
 91
      503
 93
      241
310
90C312F3422203D2031272D3022000000000000340FC000000000000284000
  0
ACAD_PROXY_OBJECT
  5
61
102
{ACAD_REACTORS
330
47
102
}
330
47
100
AcDbProxyObject
 90
      499
 91
      503
 93
      241
310
90C332F3822203D2031272D3022000000000000360FC000000000000284000
  0
ACAD_PROXY_OBJECT
  5
62
102
{ACAD_REACTORS
330
47
102
}
330
47
100
AcDbProxyObject
 90
      499
 91
      503
 93
      241
310
90C312F3222203D2031272D3022000000000000380FC000000000000284000
  0
ACAD_PROXY_OBJECT
  5
63
102
{ACAD_REACTORS
330
47
102
}
330
47
100
AcDbProxyObject
 90
      499
 91
      503
 93
      241
310
90C332F3422203D2031272D30220000000000003A0FC000000000000284000
  0
ACAD_PROXY_OBJECT
  5
64
102
{ACAD_REACTORS
330
47
102
}
330
47
100
AcDbProxyObject
 90
      499
 91
      503
 93
      161
310
90A3122203D2031272D30224000000000000284000
  0
ACAD_PROXY_OBJECT
  5
65
102
{ACAD_REACTORS
330
47
102
}
330
47
100
AcDbProxyObject
 90
      499
 91
      503
 93
      257
310
90E312D312F3222203D2031272D30220000000000003E0FC000000000000284000
  0
ACAD_PROXY_OBJECT
  5
66
102
{ACAD_REACTORS
330
47
102
}
330
47
100
AcDbProxyObject
 90
      499
 91
      503
 93
      225
310
90A3322203D2031272D302200000000000002100000000000000284000
  0
ACAD_PROXY_OBJECT
  5
67
102
{ACAD_REACTORS
330
47
102
}
330
47
100
AcDbProxyObject
 90
      499
 91
      503
 93
      225
310
90A3622203D2031272D302200000000000006100000000000000284000
  0
ACAD_PROXY_OBJECT
  5
68
102
{ACAD_REACTORS
330
47
102
}
330
47
100
AcDbProxyObject
 90
      499
 91
      503
 93
      249
310
90D31272D3022203D2031272D30220000000000000A100000000000000284000
  0
ACAD_PROXY_OBJECT
  5
2F
102
{ACAD_REACTORS
330
2A
102
}
330
2A
100
AcDbProxyObject
 90
      499
 91
      501
 93
      436
310
42CC9915DA5C99599C985B595049028333333333333E33F0000000000000F90107901411070040501600405405064090741402480A0340
1001
ACAD
1000
AcDbSavedByObjectVersion
1070
     0
  0
ACAD_PROXY_OBJECT
  5
32
102
{ACAD_REACTORS
330
2A
102
}
330
2A
100
AcDbProxyObject
 90
      499
 91
      501
 93
      388
310
4150985CDA58D07406404333333333333E33F0000000000000F90107A41107004050150841D405064090741402480A0350
1001
ACAD
1000
AcDbSavedByObjectVersion
1070
     0
  0
ACAD_PROXY_OBJECT
  5
36
102
{ACAD_REACTORS
330
2A
102
}
330
2A
100
AcDbProxyObject
 90
      499
 91
      501
 93
      428
310
42109C9A59DA1D195B90C409028333333333333E33F0000000000000F9010790141107004050150841D405064090741402480A029950
1001
ACAD
1000
AcDbSavedByObjectVersion
1070
     0
  0
ACAD_PROXY_OBJECT
  5
3A
102
{ACAD_REACTORS
330
2A
102
}
330
2A
100
AcDbProxyObject
 90
      499
 91
      501
 93
      452
310
42D0DBDB1BDC90DA185B99D95104090240C333333333333E33F0000000000000F90108901411070040501508421405064090741402480A0350
1001
ACAD
1000
AcDbSavedByObjectVersion
1070
     0
  0
ACAD_PROXY_OBJECT
  5
34
102
{ACAD_REACTORS
330
2A
102
}
330
2A
100
AcDbProxyObject
 90
      499
 91
      501
 93
      500
310
4290DBDB98D95C1D1D585B10940D028333333333333E33F0000000000000F90107902409070040501000000000018199010841D405064090740C02480A0340
1001
ACAD
1000
AcDbSavedByObjectVersion
1070
     0
  0
ACAD_PROXY_OBJECT
  5
35
102
{ACAD_REACTORS
330
2A
102
}
330
2A
100
AcDbProxyObject
 90
      499
 91
      501
 93
      412
310
40D11A5B50B409028333333333333E33F0000000000000F9010790141107004050150841D405064090741402480A02677FFFFFD0
1001
ACAD
1000
AcDbSavedByObjectVersion
1070
     0
  0
ACAD_PROXY_OBJECT
  5
3D
102
{ACAD_REACTORS
330
2A
102
}
330
2A
100
AcDbProxyObject
 90
      499
 91
      501
 93
      452
310
43115919D950DBDB1BDC93D999916409028333333333333E33F0000000000000F9010790141107004050150841D405064090741402480A0350
1001
ACAD
1000
AcDbSavedByObjectVersion
1070
     0
  0
ACAD_PROXY_OBJECT
  5
39
102
{ACAD_REACTORS
330
2A
102
}
330
2A
100
AcDbProxyObject
 90
      499
 91
      501
 93
      444
310
42D19858D95C185D1D195C9B90F409028333333333333E33F0000000000000F9010790141107004050150841D405064090741402480A0350
1001
ACAD
1000
AcDbSavedByObjectVersion
1070
     0
  0
ACAD_PROXY_OBJECT
  5
2B
102
{ACAD_REACTORS
330
2A
102
}
330
2A
100
AcDbProxyObject
 90
      499
 91
      501
 93
      380
310
41119B185D240901404333333333333E33F0000000000000F9010740A907004050150841D405064090741402480A1B50
1001
ACAD
1000
AcDbSavedByObjectVersion
1070
     0
  0
ACAD_PROXY_OBJECT
  5
2C
102
{ACAD_REACTORS
330
2A
102
}
330
2A
100
AcDbProxyObject
 90
      499
 91
      501
 93
      468
310
43519B185D15DA5D1A115919D95CD0140901404333333333333E33F0000000000000F90107409019070040501600405405064090741402480A1B50
1001
ACAD
1000
AcDbSavedByObjectVersion
1070
     0
  0
ACAD_PROXY_OBJECT
  5
2D
102
{ACAD_REACTORS
330
2A
102
}
330
2A
100
AcDbProxyObject
 90
      499
 91
      501
 93
      404
310
41D1DBDD5C985D5910240902404333333333333E33F0000000000000F9010740A9070040501641D405064090741402480A1B50
1001
ACAD
1000
AcDbSavedByObjectVersion
1070
     0
  0
ACAD_PROXY_OBJECT
  5
2E
102
{ACAD_REACTORS
330
2A
102
}
330
2A
100
AcDbProxyObject
 90
      499
 91
      501
 93
      492
310
4411DBDD5C985D5915DA5D1A115919D95CD0340902404333333333333E33F0000000000000F90107409019070040501600405405064090741402480A1B50
1001
ACAD
1000
AcDbSavedByObjectVersion
1070
     0
  0
ACAD_PROXY_OBJECT
  5
31
102
{ACAD_REACTORS
330
2A
102
}
330
2A
100
AcDbProxyObject
 90
      499
 91
      501
 93
      476
310
41921A5919195B90640502408333333333333E33F0000000000000F901079024090700405020000000000001110200405405064090740C02480A0340
1001
ACAD
1000
AcDbSavedByObjectVersion
1070
     0
  0
ACAD_PROXY_OBJECT
  5
3B
102
{ACAD_REACTORS
330
2A
102
}
330
2A
100
AcDbProxyObject
 90
      499
 91
      501
 93
      428
310
42529A5D1D195C93D999914409028333333333333E33F0000000000000F9010790141107004050150A41D405064090741402480A0350
1001
ACAD
1000
AcDbSavedByObjectVersion
1070
     0
  0
ACAD_PROXY_OBJECT
  5
38
102
{ACAD_REACTORS
330
2A
102
}
330
2A
100
AcDbProxyObject
 90
      499
 91
      501
 93
      444
310
42D31A5B995C185D1D195C9B90E409028333333333333E33F0000000000000F9010790141107004050750841D405064090741402483A0350
1001
ACAD
1000
AcDbSavedByObjectVersion
1070
     0
  0
ACAD_PROXY_OBJECT
  5
3C
102
{ACAD_REACTORS
330
2A
102
}
330
2A
100
AcDbProxyObject
 90
      499
 91
      501
 93
      444
310
42D3DD995C9A185B99D3D999915409028333333333333E33F0000000000000F9010790141107004050150941D405064090741402480A0350
1001
ACAD
1000
AcDbSavedByObjectVersion
1070
     0
  0
ACAD_PROXY_OBJECT
  5
33
102
{ACAD_REACTORS
330
2A
102
}
330
2A
100
AcDbProxyObject
 90
      499
 91
      501
 93
      428
310
425499585B1A5CDD1A58D08409038333333333333E33F0000000000000F9010740A907004050150800405405064090740C02480A1B40
1001
ACAD
1000
AcDbSavedByObjectVersion
1070
     0
  0
ACAD_PROXY_OBJECT
  5
42
102
{ACAD_REACTORS
330
2A
102
}
330
2A
100
AcDbProxyObject
 90
      499
 91
      501
 93
      420
310
4194DA1859195911B40902404333333333333E33F0000000000000F9010740A41107004050150800405405064090840C02480A0B40
1001
ACAD
1000
AcDbSavedByObjectVersion
1070
     0
  0
ACAD_PROXY_OBJECT
  5
41
102
{ACAD_REACTORS
330
2A
102
}
330
2A
100
AcDbProxyObject
 90
      499
 91
      501
 93
      516
310
4454DA18591959081DDA5D1A08195919D95CD1A40902404333333333333E33F0000000000000F901074090142907004050250800405405064090740C02480A0B40
1001
ACAD
1000
AcDbSavedByObjectVersion
1070
     0
  0
ACAD_PROXY_OBJECT
  5
3E
102
{ACAD_REACTORS
330
2A
102
}
330
2A
100
AcDbProxyObject
 90
      499
 91
      501
 93
      532
310
4394DA1859195CC81BD98811DC985E5174090240C333333333333E33F0000000000000F901079024090741D01000000000000111010841D405064090740C02480A0340
1001
ACAD
1000
AcDbSavedByObjectVersion
1070
     0
  0
ACAD_PROXY_OBJECT
  5
3F
102
{ACAD_REACTORS
330
2A
102
}
330
2A
100
AcDbProxyObject
 90
      499
 91
      501
 93
      476
310
41D4DAD95D18DA1E51840502408333333333333E33F0000000000000F901079024090741D01000000000000111010B41D405064090741802480A0340
1001
ACAD
1000
AcDbSavedByObjectVersion
1070
     0
  0
ACAD_PROXY_OBJECT
  5
37
102
{ACAD_REACTORS
330
2A
102
}
330
2A
100
AcDbProxyObject
 90
      499
 91
      501
 93
      412
310
41D51A1A58DAD95B90D409028333333333333E33F0000000000000F9010790141107004050150C41D405064090741402480A0350
1001
ACAD
1000
AcDbSavedByObjectVersion
1070
     0
  0
ACAD_PROXY_OBJECT
  5
30
102
{ACAD_REACTORS
330
2A
102
}
330
2A
100
AcDbProxyObject
 90
      499
 91
      501
 93
      420
310
4255DA5C99599C985B595059028333333333333E33F0000000000000F90107901411070040501600405405064090740C02480A0340
1001
ACAD
1000
AcDbSavedByObjectVersion
1070
     0
  0
ACAD_PROXY_OBJECT
  5
40
102
{ACAD_REACTORS
330
2A
102
}
330
2A
100
AcDbProxyObject
 90
      499
 91
      501
 93
      404
310
41560B54985E51940902404000000000000E03F0000000000000F9010740501907004050150841D405064090740C02480A1B40
1001
ACAD
1000
AcDbSavedByObjectVersion
1070
     0
  0
XRECORD
  5
275
102
{ACAD_REACTORS
330
26B
102
}
330
26B
100
AcDbXrecord
340
0
  0
XRECORD
  5
274
102
{ACAD_REACTORS
330
26B
102
}
330
26B
100
AcDbXrecord
 90
        0
  0
XRECORD
  5
28B
102
{ACAD_REACTORS
330
26B
102
}
330
26B
100
AcDbXrecord
1000
DSTYLE
1002
{
1070
   340
340
11
1002
}
  0
XRECORD
  5
276
102
{ACAD_REACTORS
330
26B
102
}
330
26B
100
AcDbXrecord
  1
{19F622EC-D133-486A-A3AE-8E41CD800847}
  0
XRECORD
  5
26E
102
{ACAD_REACTORS
330
26B
102
}
330
26B
100
AcDbXrecord
  1

  0
XRECORD
  5
273
102
{ACAD_REACTORS
330
26B
102
}
330
26B
100
AcDbXrecord
 90
        1
  0
XRECORD
  5
270
102
{ACAD_REACTORS
330
26B
102
}
330
26B
100
AcDbXrecord
340
1A
  0
XRECORD
  5
272
102
{ACAD_REACTORS
330
26B
102
}
330
26B
100
AcDbXrecord
 90
    10781
  0
XRECORD
  5
271
102
{ACAD_REACTORS
330
26B
102
}
330
26B
100
AcDbXrecord
340
19
  0
XRECORD
  5
278
102
{ACAD_REACTORS
330
26B
102
}
330
26B
100
AcDbXrecord
 40
0.0
  0
XRECORD
  5
27B
102
{ACAD_REACTORS
330
26B
102
}
330
26B
100
AcDbXrecord
340
0
  0
XRECORD
  5
281
102
{ACAD_REACTORS
330
26B
102
}
330
26B
100
AcDbXrecord
 10
0.0
 20
0.0
 30
0.0
  0
XRECORD
  5
27D
102
{ACAD_REACTORS
330
26B
102
}
330
26B
100
AcDbXrecord
 10
0.0
 20
0.0
 30
0.0
  0
XRECORD
  5
280
102
{ACAD_REACTORS
330
26B
102
}
330
26B
100
AcDbXrecord
 10
0.0
 20
0.0
 30
0.0
  0
XRECORD
  5
27E
102
{ACAD_REACTORS
330
26B
102
}
330
26B
100
AcDbXrecord
 10
0.0
 20
0.0
 30
0.0
  0
XRECORD
  5
27F
102
{ACAD_REACTORS
330
26B
102
}
330
26B
100
AcDbXrecord
 10
0.0
 20
0.0
 30
0.0
  0
XRECORD
  5
27C
102
{ACAD_REACTORS
330
26B
102
}
330
26B
100
AcDbXrecord
 10
0.0
 20
0.0
 30
0.0
  0
XRECORD
  5
279
102
{ACAD_REACTORS
330
26B
102
}
330
26B
100
AcDbXrecord
340
0
  0
XRECORD
  5
27A
102
{ACAD_REACTORS
330
26B
102
}
330
26B
100
AcDbXrecord
 70
     0
  0
XRECORD
  5
26F
102
{ACAD_REACTORS
330
26B
102
}
330
26B
100
AcDbXrecord
  1

  0
XRECORD
  5
26C
102
{ACAD_REACTORS
330
26B
102
}
330
26B
100
AcDbXrecord
 90
        1
  0
XRECORD
  5
26D
102
{ACAD_REACTORS
330
26B
102
}
330
26B
100
AcDbXrecord
 90
       70
  0
XRECORD
  5
284
102
{ACAD_REACTORS
330
26B
102
}
330
26B
100
AcDbXrecord
340
0
  0
XRECORD
  5
28A
102
{ACAD_REACTORS
330
26B
102
}
330
26B
100
AcDbXrecord
 10
0.0
 20
0.0
 30
0.0
  0
XRECORD
  5
286
102
{ACAD_REACTORS
330
26B
102
}
330
26B
100
AcDbXrecord
 10
0.0
 20
0.0
 30
0.0
  0
XRECORD
  5
289
102
{ACAD_REACTORS
330
26B
102
}
330
26B
100
AcDbXrecord
 10
0.0
 20
0.0
 30
0.0
  0
XRECORD
  5
287
102
{ACAD_REACTORS
330
26B
102
}
330
26B
100
AcDbXrecord
 10
0.0
 20
0.0
 30
0.0
  0
XRECORD
  5
288
102
{ACAD_REACTORS
330
26B
102
}
330
26B
100
AcDbXrecord
 10
0.0
 20
0.0
 30
0.0
  0
XRECORD
  5
285
102
{ACAD_REACTORS
330
26B
102
}
330
26B
100
AcDbXrecord
 10
0.0
 20
0.0
 30
0.0
  0
XRECORD
  5
282
102
{ACAD_REACTORS
330
26B
102
}
330
26B
100
AcDbXrecord
340
0
  0
XRECORD
  5
283
102
{ACAD_REACTORS
330
26B
102
}
330
26B
100
AcDbXrecord
 70
     0
  0
XRECORD
  5
277
102
{ACAD_REACTORS
330
26B
102
}
330
26B
100
AcDbXrecord
  1
{FAEB1C32-E019-11D5-929B-00C0DF256EC4}
  0
DICTIONARYVAR
  5
295
102
{ACAD_REACTORS
330
28C
102
}
330
28C
100
DictionaryVariables
280
     0
  1
1:1
  0
DICTIONARYVAR
  5
28E
102
{ACAD_REACTORS
330
28C
102
}
330
28C
100
DictionaryVariables
280
     0
  1
Standard
  0
DICTIONARYVAR
  5
28D
102
{ACAD_REACTORS
330
28C
102
}
330
28C
100
DictionaryVariables
280
     0
  1
Standard
  0
DICTIONARYVAR
  5
291
102
{ACAD_REACTORS
330
28C
102
}
330
28C
100
DictionaryVariables
280
     0
  1
2
  0
DICTIONARYVAR
  5
292
102
{ACAD_REACTORS
330
28C
102
}
330
28C
100
DictionaryVariables
280
     0
  1
1
  0
DICTIONARYVAR
  5
296
102
{ACAD_REACTORS
330
28C
102
}
330
28C
100
DictionaryVariables
280
     0
  1
1
  0
DICTIONARY
  5
299
330
45
100
AcDbDictionary
280
     1
  3
ACAD_XREC_ROUNDTRIP
360
29A
  0
DICTIONARY
  5
297
330
44
100
AcDbDictionary
280
     1
  3
ACAD_XREC_ROUNDTRIP
360
298
  0
DICTIONARY
  5
29B
330
46
100
AcDbDictionary
280
     1
  3
ACAD_XREC_ROUNDTRIP
360
29C
  0
XRECORD
  5
29A
102
{ACAD_REACTORS
330
299
102
}
330
299
100
AcDbXrecord
102
MATERIAL
148
0.0
149
0.0
149
0.0
 93
        0
 94
      127
282
     0
 72
     1
 77
     1
171
     1
175
     1
179
     1
273
     0
  0
XRECORD
  5
298
102
{ACAD_REACTORS
330
297
102
}
330
297
100
AcDbXrecord
102
MATERIAL
148
0.0
149
0.0
149
0.0
 93
        0
 94
      127
282
     0
 72
     1
 77
     1
171
     1
175
     1
179
     1
273
     0
  0
XRECORD
  5
29C
102
{ACAD_REACTORS
330
29B
102
}
330
29B
100
AcDbXrecord
102
MATERIAL
148
0.0
149
0.0
149
0.0
 93
        0
 94
      127
282
     0
 72
     1
 77
     1
171
     1
175
     1
179
     1
273
     0
  0
ENDSEC
  0
EOF
