  0
SECTION
  2
HEADER
  9
$ACADVER
  1
AC1014
  9
$HANDSEED
  5
FFFF
  9
$MEASUREMENT
 70
     1
  0
ENDSEC
  0
SECTION
  2
TABLES
  0
TABLE
  2
VPORT
  5
8
330
0
100
AcDbSymbolTable
 70
     4
  0
VPORT
  5
2E
330
8
100
AcDbSymbolTableRecord
100
AcDbViewportTableRecord
  2
*ACTIVE
 70
     0
 10
0.0
 20
0.0
 11
1.0
 21
1.0
 12
210.0
 22
148.5
 13
0.0
 23
0.0
 14
10.0
 24
10.0
 15
10.0
 25
10.0
 16
0.0
 26
0.0
 36
1.0
 17
0.0
 27
0.0
 37
0.0
 40
341.0
 41
1.24
 42
50.0
 43
0.0
 44
0.0
 50
0.0
 51
0.0
 71
     0
 72
   100
 73
     1
 74
     3
 75
     0
 76
     0
 77
     0
 78
     0
  0
ENDTAB
  0
TABLE
  2
LTYPE
  5
5
330
0
100
AcDbSymbolTable
 70
     1
  0
LTYPE
  5
14
330
5
100
AcDbSymbolTableRecord
100
AcDbLinetypeTableRecord
  2
BYBLOCK
 70
     0
  3

 72
    65
 73
     0
 40
0.0
  0
LTYPE
  5
15
330
5
100
AcDbSymbolTableRecord
100
AcDbLinetypeTableRecord
  2
BYLAYER
 70
     0
  3

 72
    65
 73
     0
 40
0.0
  0
LTYPE
  5
16
330
5
100
AcDbSymbolTableRecord
100
AcDbLinetypeTableRecord
  2
CONTINUOUS
 70
     0
  3
Solid line
 72
    65
 73
     0
 40
0.0
  0
ENDTAB
  0
TABLE
  2
LAYER
  5
2
100
AcDbSymbolTable
 70
1
  0
LAYER
  5
50
100
AcDbSymbolTableRecord
100
AcDbLayerTableRecord
  2
0
 70
0
  6
CONTINUOUS
  0
ENDTAB
  0
TABLE
  2
STYLE
  5
3
330
0
100
AcDbSymbolTable
 70
     1
  0
STYLE
  5
11
330
3
100
AcDbSymbolTableRecord
100
AcDbTextStyleTableRecord
  2
STANDARD
 70
     0
 40
0.0
 41
1.0
 50
0.0
 71
     0
 42
2.5
  3
txt
  4

  0
ENDTAB
  0
TABLE
  2
VIEW
  5
6
330
0
100
AcDbSymbolTable
 70
     0
  0
ENDTAB
  0
TABLE
  2
UCS
  5
7
330
0
100
AcDbSymbolTable
 70
     0
  0
ENDTAB
  0
TABLE
  2
APPID
  5
9
330
0
100
AcDbSymbolTable
 70
     2
  0
APPID
  5
12
330
9
100
AcDbSymbolTableRecord
100
AcDbRegAppTableRecord
  2
ACAD
 70
     0
  0
ENDTAB
  0
TABLE
  2
DIMSTYLE
  5
A
330
0
100
AcDbSymbolTable
 70
     1
  0
DIMSTYLE
105
27
330
A
100
AcDbSymbolTableRecord
100
AcDbDimStyleTableRecord
  2
ISO-25
 70
     0
  3

  4

  5

  6

  7

 40
1.0
 41
2.5
 42
0.625
 43
3.75
 44
1.25
 45
0.0
 46
0.0
 47
0.0
 48
0.0
140
2.5
141
2.5
142
0.0
143
0.03937007874016
144
1.0
145
0.0
146
1.0
147
0.625
 71
     0
 72
     0
 73
     0
 74
     0
 75
     0
 76
     0
 77
     1
 78
     8
170
     0
171
     3
172
     1
173
     0
174
     0
175
     0
176
     0
177
     0
178
     0
270
     2
271
     2
272
     2
273
     2
274
     3
340
11
275
     0
280
     0
281
     0
282
     0
283
     0
284
     8
285
     0
286
     0
287
     3
288
     0
  0
ENDTAB
  0
TABLE
  2
BLOCK_RECORD
  5
1
330
0
100
AcDbSymbolTable
 70
     1
  0
BLOCK_RECORD
  5
1F
330
1
100
AcDbSymbolTableRecord
100
AcDbBlockTableRecord
  2
*MODEL_SPACE
  0
BLOCK_RECORD
  5
1B
330
1
100
AcDbSymbolTableRecord
100
AcDbBlockTableRecord
  2
*PAPER_SPACE
  0
ENDTAB
  0
ENDSEC
  0
SECTION
  2
BLOCKS
  0
BLOCK
  5
20
330
1F
100
AcDbEntity
  8
0
100
AcDbBlockBegin
  2
*MODEL_SPACE
 70
     0
 10
0.0
 20
0.0
 30
0.0
  3
*MODEL_SPACE
  1

  0
ENDBLK
  5
21
330
1F
100
AcDbEntity
  8
0
100
AcDbBlockEnd
  0
BLOCK
  5
1C
330
1B
100
AcDbEntity
 67
     1
  8
0
100
AcDbBlockBegin
  2
*PAPER_SPACE
  1

  0
ENDBLK
  5
1D
330
1B
100
AcDbEntity
 67
     1
  8
0
100
AcDbBlockEnd
  0
ENDSEC
  0
SECTION
  2
ENTITIES
  0
SPLINE
  5
100
100
AcDbEntity
  8
0
 62
7
100
AcDbSpline
 70
8
 71
3
 72
8
 73
4
 74
0
 40
0
 40
0
 40
0
 40
0
 40
1
 40
1
 40
1
 40
1
 10
163.043326
 20
10.561254
 30
0.0
 10
157.751910
 20
14.097142
 30
0.0
 10
157.538062
 20
14.404494
 30
0.0
 10
158.507078
 20
17.080958
 30
0.0
  0
SPLINE
  5
101
100
AcDbEntity
  8
0
 62
7
100
AcDbSpline
 70
8
 71
3
 72
8
 73
4
 74
0
 40
0
 40
0
 40
0
 40
0
 40
1
 40
1
 40
1
 40
1
 10
158.507078
 20
17.080958
 30
0.0
 10
159.242710
 20
19.112798
 30
0.0
 10
159.199422
 20
20.090470
 30
0.0
 10
158.350590
 20
20.615070
 30
0.0
  0
SPLINE
  5
102
100
AcDbEntity
  8
0
 62
7
100
AcDbSpline
 70
8
 71
3
 72
8
 73
4
 74
0
 40
0
 40
0
 40
0
 40
0
 40
1
 40
1
 40
1
 40
1
 10
158.350590
 20
20.615070
 30
0.0
 10
156.921702
 20
21.498174
 30
0.0
 10
161.172686
 20
27.272078
 30
0.0
 10
163.251758
 20
27.272078
 30
0.0
  0
SPLINE
  5
103
100
AcDbEntity
  8
0
 62
7
100
AcDbSpline
 70
8
 71
3
 72
8
 73
4
 74
0
 40
0
 40
0
 40
0
 40
0
 40
1
 40
1
 40
1
 40
1
 10
163.251758
 20
27.272078
 30
0.0
 10
163.991390
 20
27.272078
 30
0.0
 10
164.740350
 20
28.284582
 30
0.0
 10
164.916102
 20
29.522078
 30
0.0
  0
SPLINE
  5
104
100
AcDbEntity
  8
0
 62
7
100
AcDbSpline
 70
8
 71
3
 72
8
 73
4
 74
0
 40
0
 40
0
 40
0
 40
0
 40
1
 40
1
 40
1
 40
1
 10
164.916102
 20
29.522078
 30
0.0
 10
165.091854
 20
30.759582
 30
0.0
 10
165.729350
 20
31.772078
 30
0.0
 10
166.332774
 20
31.772078
 30
0.0
  0
SPLINE
  5
105
100
AcDbEntity
  8
0
 62
7
100
AcDbSpline
 70
8
 71
3
 72
8
 73
4
 74
0
 40
0
 40
0
 40
0
 40
0
 40
1
 40
1
 40
1
 40
1
 10
166.332774
 20
31.772078
 30
0.0
 10
166.936182
 20
31.772078
 30
0.0
 10
167.132550
 20
32.069406
 30
0.0
 10
166.769142
 20
32.432814
 30
0.0
  0
SPLINE
  5
106
100
AcDbEntity
  8
0
 62
7
100
AcDbSpline
 70
8
 71
3
 72
8
 73
4
 74
0
 40
0
 40
0
 40
0
 40
0
 40
1
 40
1
 40
1
 40
1
 10
166.769142
 20
32.432814
 30
0.0
 10
166.405742
 20
32.796230
 30
0.0
 10
167.118238
 20
33.610046
 30
0.0
 10
168.352478
 20
34.241310
 30
0.0
  0
SPLINE
  5
107
100
AcDbEntity
  8
0
 62
7
100
AcDbSpline
 70
8
 71
3
 72
8
 73
4
 74
0
 40
0
 40
0
 40
0
 40
0
 40
1
 40
1
 40
1
 40
1
 10
168.352478
 20
34.241310
 30
0.0
 10
169.586718
 20
34.872574
 30
0.0
 10
170.534862
 20
36.145398
 30
0.0
 10
170.459454
 20
37.069806
 30
0.0
  0
SPLINE
  5
108
100
AcDbEntity
  8
0
 62
7
100
AcDbSpline
 70
8
 71
3
 72
8
 73
4
 74
0
 40
0
 40
0
 40
0
 40
0
 40
1
 40
1
 40
1
 40
1
 10
170.459454
 20
37.069806
 30
0.0
 10
170.384014
 20
37.994222
 30
0.0
 10
170.721550
 20
38.503838
 30
0.0
 10
171.209454
 20
38.202302
 30
0.0
  0
SPLINE
  5
109
100
AcDbEntity
  8
0
 62
7
100
AcDbSpline
 70
8
 71
3
 72
8
 73
4
 74
0
 40
0
 40
0
 40
0
 40
0
 40
1
 40
1
 40
1
 40
1
 10
171.209454
 20
38.202302
 30
0.0
 10
171.697358
 20
37.900758
 30
0.0
 10
172.153982
 20
38.018102
 30
0.0
 10
172.224174
 20
38.463062
 30
0.0
  0
SPLINE
  5
10a
100
AcDbEntity
  8
0
 62
7
100
AcDbSpline
 70
8
 71
3
 72
8
 73
4
 74
0
 40
0
 40
0
 40
0
 40
0
 40
1
 40
1
 40
1
 40
1
 10
172.224174
 20
38.463062
 30
0.0
 10
172.294334
 20
38.908022
 30
0.0
 10
172.488542
 20
40.172078
 30
0.0
 10
172.655678
 20
41.272078
 30
0.0
  0
SPLINE
  5
10b
100
AcDbEntity
  8
0
 62
7
100
AcDbSpline
 70
8
 71
3
 72
8
 73
4
 74
0
 40
0
 40
0
 40
0
 40
0
 40
1
 40
1
 40
1
 40
1
 10
172.655678
 20
41.272078
 30
0.0
 10
172.822814
 20
42.372078
 30
0.0
 10
173.587870
 20
45.522078
 30
0.0
 10
174.355798
 20
48.272078
 30
0.0
  0
SPLINE
  5
10c
100
AcDbEntity
  8
0
 62
7
100
AcDbSpline
 70
8
 71
3
 72
8
 73
4
 74
0
 40
0
 40
0
 40
0
 40
0
 40
1
 40
1
 40
1
 40
1
 10
174.355798
 20
48.272078
 30
0.0
 10
175.717198
 20
53.147270
 30
0.0
 10
175.678174
 20
53.411126
 30
0.0
 10
172.792030
 20
58.842822
 30
0.0
  0
SPLINE
  5
10d
100
AcDbEntity
  8
0
 62
7
100
AcDbSpline
 70
8
 71
3
 72
8
 73
4
 74
0
 40
0
 40
0
 40
0
 40
0
 40
1
 40
1
 40
1
 40
1
 10
172.792030
 20
58.842822
 30
0.0
 10
170.210150
 20
63.701886
 30
0.0
 10
169.274014
 20
64.578318
 30
0.0
 10
165.464270
 20
65.703198
 30
0.0
  0
SPLINE
  5
10e
100
AcDbEntity
  8
0
 62
7
100
AcDbSpline
 70
8
 71
3
 72
8
 73
4
 74
0
 40
0
 40
0
 40
0
 40
0
 40
1
 40
1
 40
1
 40
1
 10
165.464270
 20
65.703198
 30
0.0
 10
163.021406
 20
66.424486
 30
0.0
 10
161.096550
 20
67.605238
 30
0.0
 10
161.096550
 20
68.382462
 30
0.0
  0
SPLINE
  5
10f
100
AcDbEntity
  8
0
 62
7
100
AcDbSpline
 70
8
 71
3
 72
8
 73
4
 74
0
 40
0
 40
0
 40
0
 40
0
 40
1
 40
1
 40
1
 40
1
 10
161.096550
 20
68.382462
 30
0.0
 10
161.096550
 20
69.146750
 30
0.0
 10
160.431918
 20
69.772078
 30
0.0
 10
159.619598
 20
69.772078
 30
0.0
  0
SPLINE
  5
110
100
AcDbEntity
  8
0
 62
7
100
AcDbSpline
 70
8
 71
3
 72
8
 73
4
 74
0
 40
0
 40
0
 40
0
 40
0
 40
1
 40
1
 40
1
 40
1
 10
159.619598
 20
69.772078
 30
0.0
 10
158.807278
 20
69.772078
 30
0.0
 10
157.405534
 20
70.897078
 30
0.0
 10
156.504590
 20
72.272078
 30
0.0
  0
SPLINE
  5
111
100
AcDbEntity
  8
0
 62
7
100
AcDbSpline
 70
8
 71
3
 72
8
 73
4
 74
0
 40
0
 40
0
 40
0
 40
0
 40
1
 40
1
 40
1
 40
1
 10
156.504590
 20
72.272078
 30
0.0
 10
155.603662
 20
73.647078
 30
0.0
 10
154.050078
 20
74.772078
 30
0.0
 10
153.052198
 20
74.772078
 30
0.0
  0
SPLINE
  5
112
100
AcDbEntity
  8
0
 62
7
100
AcDbSpline
 70
8
 71
3
 72
8
 73
4
 74
0
 40
0
 40
0
 40
0
 40
0
 40
1
 40
1
 40
1
 40
1
 10
153.052198
 20
74.772078
 30
0.0
 10
152.054310
 20
74.772078
 30
0.0
 10
148.393566
 20
77.508206
 30
0.0
 10
144.917206
 20
80.852374
 30
0.0
  0
SPLINE
  5
113
100
AcDbEntity
  8
0
 62
7
100
AcDbSpline
 70
8
 71
3
 72
8
 73
4
 74
0
 40
0
 40
0
 40
0
 40
0
 40
1
 40
1
 40
1
 40
1
 10
144.917206
 20
80.852374
 30
0.0
 10
141.440846
 20
84.196542
 30
0.0
 10
137.696550
 20
87.363422
 30
0.0
 10
136.596550
 20
87.889878
 30
0.0
  0
SPLINE
  5
114
100
AcDbEntity
  8
0
 62
7
100
AcDbSpline
 70
8
 71
3
 72
8
 73
4
 74
0
 40
0
 40
0
 40
0
 40
0
 40
1
 40
1
 40
1
 40
1
 10
136.596550
 20
87.889878
 30
0.0
 10
135.496550
 20
88.416334
 30
0.0
 10
132.796550
 20
89.947806
 30
0.0
 10
130.596550
 20
91.293126
 30
0.0
  0
SPLINE
  5
115
100
AcDbEntity
  8
0
 62
7
100
AcDbSpline
 70
8
 71
3
 72
8
 73
4
 74
0
 40
0
 40
0
 40
0
 40
0
 40
1
 40
1
 40
1
 40
1
 10
130.596550
 20
91.293126
 30
0.0
 10
127.398766
 20
92.063846
 30
0.0
 10
124.160150
 20
94.585758
 30
0.0
 10
122.346550
 20
95.584326
 30
0.0
  0
SPLINE
  5
116
100
AcDbEntity
  8
0
 62
7
100
AcDbSpline
 70
8
 71
3
 72
8
 73
4
 74
0
 40
0
 40
0
 40
0
 40
0
 40
1
 40
1
 40
1
 40
1
 10
122.346550
 20
95.584326
 30
0.0
 10
120.828270
 20
95.204238
 30
0.0
 10
113.096550
 20
96.972198
 30
0.0
 10
113.096550
 20
97.699462
 30
0.0
  0
SPLINE
  5
117
100
AcDbEntity
  8
0
 62
7
100
AcDbSpline
 70
8
 71
3
 72
8
 73
4
 74
0
 40
0
 40
0
 40
0
 40
0
 40
1
 40
1
 40
1
 40
1
 10
113.096550
 20
97.699462
 30
0.0
 10
113.096550
 20
99.081110
 30
0.0
 10
108.621366
 20
100.496102
 30
0.0
 10
106.596550
 20
99.754678
 30
0.0
  0
SPLINE
  5
118
100
AcDbEntity
  8
0
 62
7
100
AcDbSpline
 70
8
 71
3
 72
8
 73
4
 74
0
 40
0
 40
0
 40
0
 40
0
 40
1
 40
1
 40
1
 40
1
 10
106.596550
 20
99.754678
 30
0.0
 10
105.496550
 20
99.351886
 30
0.0
 10
104.190742
 20
99.259806
 30
0.0
 10
103.694758
 20
99.550038
 30
0.0
  0
SPLINE
  5
119
100
AcDbEntity
  8
0
 62
7
100
AcDbSpline
 70
8
 71
3
 72
8
 73
4
 74
0
 40
0
 40
0
 40
0
 40
0
 40
1
 40
1
 40
1
 40
1
 10
103.694758
 20
99.550038
 30
0.0
 10
103.198782
 20
99.840270
 30
0.0
 10
100.048782
 20
100.283158
 30
0.0
 10
96.694758
 20
100.534238
 30
0.0
  0
SPLINE
  5
11a
100
AcDbEntity
  8
0
 62
7
100
AcDbSpline
 70
8
 71
3
 72
8
 73
4
 74
0
 40
0
 40
0
 40
0
 40
0
 40
1
 40
1
 40
1
 40
1
 10
96.694758
 20
100.534238
 30
0.0
 10
93.340742
 20
100.785318
 30
0.0
 10
89.838630
 20
101.391534
 30
0.0
 10
88.912294
 20
101.881406
 30
0.0
  0
SPLINE
  5
11b
100
AcDbEntity
  8
0
 62
7
100
AcDbSpline
 70
8
 71
3
 72
8
 73
4
 74
0
 40
0
 40
0
 40
0
 40
0
 40
1
 40
1
 40
1
 40
1
 10
88.912294
 20
101.881406
 30
0.0
 10
87.985950
 20
102.371278
 30
0.0
 10
86.531774
 20
102.772078
 30
0.0
 10
85.680798
 20
102.772078
 30
0.0
  0
SPLINE
  5
11c
100
AcDbEntity
  8
0
 62
7
100
AcDbSpline
 70
8
 71
3
 72
8
 73
4
 74
0
 40
0
 40
0
 40
0
 40
0
 40
1
 40
1
 40
1
 40
1
 10
85.680798
 20
102.772078
 30
0.0
 10
83.120966
 20
102.772078
 30
0.0
 10
75.340448
 20
109.092998
 30
0.0
 10
74.614880
 20
111.762062
 30
0.0
  0
SPLINE
  5
11d
100
AcDbEntity
  8
0
 62
7
100
AcDbSpline
 70
8
 71
3
 72
8
 73
4
 74
0
 40
0
 40
0
 40
0
 40
0
 40
1
 40
1
 40
1
 40
1
 10
74.614880
 20
111.762062
 30
0.0
 10
74.242584
 20
113.131550
 30
0.0
 10
73.416352
 20
114.574430
 30
0.0
 10
72.778800
 20
114.968462
 30
0.0
  0
SPLINE
  5
11e
100
AcDbEntity
  8
0
 62
7
100
AcDbSpline
 70
8
 71
3
 72
8
 73
4
 74
0
 40
0
 40
0
 40
0
 40
0
 40
1
 40
1
 40
1
 40
1
 10
72.778800
 20
114.968462
 30
0.0
 10
71.364672
 20
115.842438
 30
0.0
 10
71.480608
 20
132.129582
 30
0.0
 10
72.922824
 20
135.201782
 30
0.0
  0
SPLINE
  5
11f
100
AcDbEntity
  8
0
 62
7
100
AcDbSpline
 70
8
 71
3
 72
8
 73
4
 74
0
 40
0
 40
0
 40
0
 40
0
 40
1
 40
1
 40
1
 40
1
 10
72.922824
 20
135.201782
 30
0.0
 10
73.457360
 20
136.340438
 30
0.0
 10
74.457888
 20
138.766358
 30
0.0
 10
75.146208
 20
140.592694
 30
0.0
  0
SPLINE
  5
120
100
AcDbEntity
  8
0
 62
7
100
AcDbSpline
 70
8
 71
3
 72
8
 73
4
 74
0
 40
0
 40
0
 40
0
 40
0
 40
1
 40
1
 40
1
 40
1
 10
75.146208
 20
140.592694
 30
0.0
 10
76.589968
 20
144.423478
 30
0.0
 10
83.687382
 20
151.772078
 30
0.0
 10
85.943454
 20
151.772078
 30
0.0
  0
SPLINE
  5
121
100
AcDbEntity
  8
0
 62
7
100
AcDbSpline
 70
8
 71
3
 72
8
 73
4
 74
0
 40
0
 40
0
 40
0
 40
0
 40
1
 40
1
 40
1
 40
1
 10
85.943454
 20
151.772078
 30
0.0
 10
87.354894
 20
151.772078
 30
0.0
 10
99.218886
 20
160.378166
 30
0.0
 10
99.894502
 20
161.892102
 30
0.0
  0
SPLINE
  5
122
100
AcDbEntity
  8
0
 62
7
100
AcDbSpline
 70
8
 71
3
 72
8
 73
4
 74
0
 40
0
 40
0
 40
0
 40
0
 40
1
 40
1
 40
1
 40
1
 10
99.894502
 20
161.892102
 30
0.0
 10
100.058374
 20
162.259318
 30
0.0
 10
101.001878
 20
162.348086
 30
0.0
 10
101.991198
 20
162.089382
 30
0.0
  0
SPLINE
  5
123
100
AcDbEntity
  8
0
 62
7
100
AcDbSpline
 70
8
 71
3
 72
8
 73
4
 74
0
 40
0
 40
0
 40
0
 40
0
 40
1
 40
1
 40
1
 40
1
 10
101.991198
 20
162.089382
 30
0.0
 10
103.147382
 20
161.787030
 30
0.0
 10
104.714718
 20
162.718030
 30
0.0
 10
106.378686
 20
164.695542
 30
0.0
  0
SPLINE
  5
124
100
AcDbEntity
  8
0
 62
7
100
AcDbSpline
 70
8
 71
3
 72
8
 73
4
 74
0
 40
0
 40
0
 40
0
 40
0
 40
1
 40
1
 40
1
 40
1
 10
106.378686
 20
164.695542
 30
0.0
 10
107.802502
 20
166.387638
 30
0.0
 10
109.416158
 20
167.772078
 30
0.0
 10
109.964598
 20
167.772078
 30
0.0
  0
SPLINE
  5
125
100
AcDbEntity
  8
0
 62
7
100
AcDbSpline
 70
8
 71
3
 72
8
 73
4
 74
0
 40
0
 40
0
 40
0
 40
0
 40
1
 40
1
 40
1
 40
1
 10
109.964598
 20
167.772078
 30
0.0
 10
110.513046
 20
167.772078
 30
0.0
 10
111.240118
 20
168.649062
 30
0.0
 10
111.580310
 20
169.720926
 30
0.0
  0
SPLINE
  5
126
100
AcDbEntity
  8
0
 62
7
100
AcDbSpline
 70
8
 71
3
 72
8
 73
4
 74
0
 40
0
 40
0
 40
0
 40
0
 40
1
 40
1
 40
1
 40
1
 10
111.580310
 20
169.720926
 30
0.0
 10
111.920510
 20
170.792790
 30
0.0
 10
113.064142
 20
171.944406
 30
0.0
 10
114.121718
 20
172.280070
 30
0.0
  0
SPLINE
  5
127
100
AcDbEntity
  8
0
 62
7
100
AcDbSpline
 70
8
 71
3
 72
8
 73
4
 74
0
 40
0
 40
0
 40
0
 40
0
 40
1
 40
1
 40
1
 40
1
 10
114.121718
 20
172.280070
 30
0.0
 10
115.179302
 20
172.615726
 30
0.0
 10
117.047102
 20
174.326246
 30
0.0
 10
118.272390
 20
176.081222
 30
0.0
  0
SPLINE
  5
128
100
AcDbEntity
  8
0
 62
7
100
AcDbSpline
 70
8
 71
3
 72
8
 73
4
 74
0
 40
0
 40
0
 40
0
 40
0
 40
1
 40
1
 40
1
 40
1
 10
118.272390
 20
176.081222
 30
0.0
 10
119.497678
 20
177.836190
 30
0.0
 10
120.746870
 20
179.497078
 30
0.0
 10
121.048366
 20
179.772078
 30
0.0
  0
SPLINE
  5
129
100
AcDbEntity
  8
0
 62
7
100
AcDbSpline
 70
8
 71
3
 72
8
 73
4
 74
0
 40
0
 40
0
 40
0
 40
0
 40
1
 40
1
 40
1
 40
1
 10
121.048366
 20
179.772078
 30
0.0
 10
122.235470
 20
180.854846
 30
0.0
 10
128.096550
 20
192.995470
 30
0.0
 10
128.096550
 20
194.371670
 30
0.0
  0
SPLINE
  5
12a
100
AcDbEntity
  8
0
 62
7
100
AcDbSpline
 70
8
 71
3
 72
8
 73
4
 74
0
 40
0
 40
0
 40
0
 40
0
 40
1
 40
1
 40
1
 40
1
 10
128.096550
 20
194.371670
 30
0.0
 10
128.096550
 20
195.176422
 30
0.0
 10
128.722134
 20
196.074910
 30
0.0
 10
129.486726
 20
196.368310
 30
0.0
  0
SPLINE
  5
12b
100
AcDbEntity
  8
0
 62
7
100
AcDbSpline
 70
8
 71
3
 72
8
 73
4
 74
0
 40
0
 40
0
 40
0
 40
0
 40
1
 40
1
 40
1
 40
1
 10
129.486726
 20
196.368310
 30
0.0
 10
130.251318
 20
196.661710
 30
0.0
 10
130.904150
 20
197.885086
 30
0.0
 10
130.937462
 20
199.086926
 30
0.0
  0
SPLINE
  5
12c
100
AcDbEntity
  8
0
 62
7
100
AcDbSpline
 70
8
 71
3
 72
8
 73
4
 74
0
 40
0
 40
0
 40
0
 40
0
 40
1
 40
1
 40
1
 40
1
 10
130.937462
 20
199.086926
 30
0.0
 10
130.970742
 20
200.288758
 30
0.0
 10
131.150398
 20
204.571430
 30
0.0
 10
131.336662
 20
208.603958
 30
0.0
  0
SPLINE
  5
12d
100
AcDbEntity
  8
0
 62
7
100
AcDbSpline
 70
8
 71
3
 72
8
 73
4
 74
0
 40
0
 40
0
 40
0
 40
0
 40
1
 40
1
 40
1
 40
1
 10
131.336662
 20
208.603958
 30
0.0
 10
131.668806
 20
215.795318
 30
0.0
 10
131.617046
 20
215.976710
 30
0.0
 10
128.635926
 20
218.067838
 30
0.0
  0
SPLINE
  5
12e
100
AcDbEntity
  8
0
 62
7
100
AcDbSpline
 70
8
 71
3
 72
8
 73
4
 74
0
 40
0
 40
0
 40
0
 40
0
 40
1
 40
1
 40
1
 40
1
 10
128.635926
 20
218.067838
 30
0.0
 10
126.964270
 20
219.240438
 30
0.0
 10
125.454982
 20
220.528310
 30
0.0
 10
125.281942
 20
220.929782
 30
0.0
  0
SPLINE
  5
12f
100
AcDbEntity
  8
0
 62
7
100
AcDbSpline
 70
8
 71
3
 72
8
 73
4
 74
0
 40
0
 40
0
 40
0
 40
0
 40
1
 40
1
 40
1
 40
1
 10
125.281942
 20
220.929782
 30
0.0
 10
125.108910
 20
221.331246
 30
0.0
 10
124.247590
 20
221.383526
 30
0.0
 10
123.367902
 20
221.045958
 30
0.0
  0
SPLINE
  5
130
100
AcDbEntity
  8
0
 62
7
100
AcDbSpline
 70
8
 71
3
 72
8
 73
4
 74
0
 40
0
 40
0
 40
0
 40
0
 40
1
 40
1
 40
1
 40
1
 10
123.367902
 20
221.045958
 30
0.0
 10
122.305406
 20
220.638246
 30
0.0
 10
122.011198
 20
220.824966
 30
0.0
 10
122.491518
 20
221.602142
 30
0.0
  0
SPLINE
  5
131
100
AcDbEntity
  8
0
 62
7
100
AcDbSpline
 70
8
 71
3
 72
8
 73
4
 74
0
 40
0
 40
0
 40
0
 40
0
 40
1
 40
1
 40
1
 40
1
 10
122.491518
 20
221.602142
 30
0.0
 10
122.889206
 20
222.245606
 30
0.0
 10
122.814070
 20
222.772078
 30
0.0
 10
122.324550
 20
222.772078
 30
0.0
  0
SPLINE
  5
132
100
AcDbEntity
  8
0
 62
7
100
AcDbSpline
 70
8
 71
3
 72
8
 73
4
 74
0
 40
0
 40
0
 40
0
 40
0
 40
1
 40
1
 40
1
 40
1
 10
122.324550
 20
222.772078
 30
0.0
 10
121.835030
 20
222.772078
 30
0.0
 10
120.832430
 20
223.897078
 30
0.0
 10
120.096550
 20
225.272078
 30
0.0
  0
SPLINE
  5
133
100
AcDbEntity
  8
0
 62
7
100
AcDbSpline
 70
8
 71
3
 72
8
 73
4
 74
0
 40
0
 40
0
 40
0
 40
0
 40
1
 40
1
 40
1
 40
1
 10
120.096550
 20
225.272078
 30
0.0
 10
119.302750
 20
226.755310
 30
0.0
 10
117.879270
 20
227.772078
 30
0.0
 10
116.596550
 20
227.772078
 30
0.0
  0
SPLINE
  5
134
100
AcDbEntity
  8
0
 62
7
100
AcDbSpline
 70
8
 71
3
 72
8
 73
4
 74
0
 40
0
 40
0
 40
0
 40
0
 40
1
 40
1
 40
1
 40
1
 10
116.596550
 20
227.772078
 30
0.0
 10
115.351238
 20
227.772078
 30
0.0
 10
113.901766
 20
228.767518
 30
0.0
 10
113.178078
 20
230.119742
 30
0.0
  0
SPLINE
  5
135
100
AcDbEntity
  8
0
 62
7
100
AcDbSpline
 70
8
 71
3
 72
8
 73
4
 74
0
 40
0
 40
0
 40
0
 40
0
 40
1
 40
1
 40
1
 40
1
 10
113.178078
 20
230.119742
 30
0.0
 10
112.487038
 20
231.410966
 30
0.0
 10
110.498502
 20
233.032270
 30
0.0
 10
108.759102
 20
233.722654
 30
0.0
  0
SPLINE
  5
136
100
AcDbEntity
  8
0
 62
7
100
AcDbSpline
 70
8
 71
3
 72
8
 73
4
 74
0
 40
0
 40
0
 40
0
 40
0
 40
1
 40
1
 40
1
 40
1
 10
108.759102
 20
233.722654
 30
0.0
 10
106.141966
 20
234.761414
 30
0.0
 10
102.311126
 20
238.627590
 30
0.0
 10
98.306094
 20
244.272078
 30
0.0
  0
SPLINE
  5
137
100
AcDbEntity
  8
0
 62
7
100
AcDbSpline
 70
8
 71
3
 72
8
 73
4
 74
0
 40
0
 40
0
 40
0
 40
0
 40
1
 40
1
 40
1
 40
1
 10
98.306094
 20
244.272078
 30
0.0
 10
97.915846
 20
244.822078
 30
0.0
 10
95.346550
 20
246.804862
 30
0.0
 10
92.596550
 20
248.678270
 30
0.0
  0
SPLINE
  5
138
100
AcDbEntity
  8
0
 62
7
100
AcDbSpline
 70
8
 71
3
 72
8
 73
4
 74
0
 40
0
 40
0
 40
0
 40
0
 40
1
 40
1
 40
1
 40
1
 10
92.596550
 20
248.678270
 30
0.0
 10
89.846550
 20
250.551686
 30
0.0
 10
86.206774
 20
253.589182
 30
0.0
 10
84.508158
 20
255.428276
 30
0.0
  0
SPLINE
  5
139
100
AcDbEntity
  8
0
 62
7
100
AcDbSpline
 70
8
 71
3
 72
8
 73
4
 74
0
 40
0
 40
0
 40
0
 40
0
 40
1
 40
1
 40
1
 40
1
 10
84.508158
 20
255.428276
 30
0.0
 10
82.809544
 20
257.267364
 30
0.0
 10
80.897048
 20
258.772076
 30
0.0
 10
80.258160
 20
258.772076
 30
0.0
  0
SPLINE
  5
13a
100
AcDbEntity
  8
0
 62
7
100
AcDbSpline
 70
8
 71
3
 72
8
 73
4
 74
0
 40
0
 40
0
 40
0
 40
0
 40
1
 40
1
 40
1
 40
1
 10
80.258160
 20
258.772076
 30
0.0
 10
79.619272
 20
258.772076
 30
0.0
 10
79.096552
 20
259.415508
 30
0.0
 10
79.096552
 20
260.201924
 30
0.0
  0
SPLINE
  5
13b
100
AcDbEntity
  8
0
 62
7
100
AcDbSpline
 70
8
 71
3
 72
8
 73
4
 74
0
 40
0
 40
0
 40
0
 40
0
 40
1
 40
1
 40
1
 40
1
 10
79.096552
 20
260.201924
 30
0.0
 10
79.096552
 20
260.988340
 30
0.0
 10
77.071552
 20
262.643108
 30
0.0
 10
74.596552
 20
263.879180
 30
0.0
  0
SPLINE
  5
13c
100
AcDbEntity
  8
0
 62
7
100
AcDbSpline
 70
8
 71
3
 72
8
 73
4
 74
0
 40
0
 40
0
 40
0
 40
0
 40
1
 40
1
 40
1
 40
1
 10
74.596552
 20
263.879180
 30
0.0
 10
72.121552
 20
265.115252
 30
0.0
 10
70.096552
 20
266.710148
 30
0.0
 10
70.096552
 20
267.423380
 30
0.0
  0
SPLINE
  5
13d
100
AcDbEntity
  8
0
 62
7
100
AcDbSpline
 70
8
 71
3
 72
8
 73
4
 74
0
 40
0
 40
0
 40
0
 40
0
 40
1
 40
1
 40
1
 40
1
 10
70.096552
 20
267.423380
 30
0.0
 10
70.096552
 20
268.405388
 30
0.0
 10
68.579392
 20
268.588332
 30
0.0
 10
63.846552
 20
268.177028
 30
0.0
  0
SPLINE
  5
13e
100
AcDbEntity
  8
0
 62
7
100
AcDbSpline
 70
8
 71
3
 72
8
 73
4
 74
0
 40
0
 40
0
 40
0
 40
0
 40
1
 40
1
 40
1
 40
1
 10
63.846552
 20
268.177028
 30
0.0
 10
58.364656
 20
267.700628
 30
0.0
 10
57.197144
 20
267.211948
 30
0.0
 10
54.346552
 20
264.200660
 30
0.0
  0
SPLINE
  5
13f
100
AcDbEntity
  8
0
 62
7
100
AcDbSpline
 70
8
 71
3
 72
8
 73
4
 74
0
 40
0
 40
0
 40
0
 40
0
 40
1
 40
1
 40
1
 40
1
 10
54.346552
 20
264.200660
 30
0.0
 10
52.559056
 20
262.312388
 30
0.0
 10
51.096552
 20
259.868484
 30
0.0
 10
51.096552
 20
258.769756
 30
0.0
  0
SPLINE
  5
140
100
AcDbEntity
  8
0
 62
7
100
AcDbSpline
 70
8
 71
3
 72
8
 73
4
 74
0
 40
0
 40
0
 40
0
 40
0
 40
1
 40
1
 40
1
 40
1
 10
51.096552
 20
258.769756
 30
0.0
 10
51.096552
 20
257.671036
 30
0.0
 10
50.660752
 20
256.772076
 30
0.0
 10
50.128096
 20
256.772076
 30
0.0
  0
SPLINE
  5
141
100
AcDbEntity
  8
0
 62
7
100
AcDbSpline
 70
8
 71
3
 72
8
 73
4
 74
0
 40
0
 40
0
 40
0
 40
0
 40
1
 40
1
 40
1
 40
1
 10
50.128096
 20
256.772076
 30
0.0
 10
49.595448
 20
256.772076
 30
0.0
 10
47.253224
 20
254.184582
 30
0.0
 10
44.923168
 20
251.022078
 30
0.0
  0
SPLINE
  5
142
100
AcDbEntity
  8
0
 62
7
100
AcDbSpline
 70
8
 71
3
 72
8
 73
4
 74
0
 40
0
 40
0
 40
0
 40
0
 40
1
 40
1
 40
1
 40
1
 10
44.923168
 20
251.022078
 30
0.0
 10
42.593104
 20
247.859574
 30
0.0
 10
39.653904
 20
244.151678
 30
0.0
 10
38.391624
 20
242.782294
 30
0.0
  0
SPLINE
  5
143
100
AcDbEntity
  8
0
 62
7
100
AcDbSpline
 70
8
 71
3
 72
8
 73
4
 74
0
 40
0
 40
0
 40
0
 40
0
 40
1
 40
1
 40
1
 40
1
 10
38.391624
 20
242.782294
 30
0.0
 10
37.129336
 20
241.412918
 30
0.0
 10
36.096552
 20
239.921030
 30
0.0
 10
36.096552
 20
239.466982
 30
0.0
  0
SPLINE
  5
144
100
AcDbEntity
  8
0
 62
7
100
AcDbSpline
 70
8
 71
3
 72
8
 73
4
 74
0
 40
0
 40
0
 40
0
 40
0
 40
1
 40
1
 40
1
 40
1
 10
36.096552
 20
239.466982
 30
0.0
 10
36.096552
 20
239.012942
 30
0.0
 10
33.621552
 20
236.126622
 30
0.0
 10
30.596552
 20
233.052934
 30
0.0
  0
SPLINE
  5
145
100
AcDbEntity
  8
0
 62
7
100
AcDbSpline
 70
8
 71
3
 72
8
 73
4
 74
0
 40
0
 40
0
 40
0
 40
0
 40
1
 40
1
 40
1
 40
1
 10
30.596552
 20
233.052934
 30
0.0
 10
27.571552
 20
229.979254
 30
0.0
 10
25.096552
 20
227.166126
 30
0.0
 10
25.096552
 20
226.801558
 30
0.0
  0
SPLINE
  5
146
100
AcDbEntity
  8
0
 62
7
100
AcDbSpline
 70
8
 71
3
 72
8
 73
4
 74
0
 40
0
 40
0
 40
0
 40
0
 40
1
 40
1
 40
1
 40
1
 10
25.096552
 20
226.801558
 30
0.0
 10
25.096552
 20
226.436990
 30
0.0
 10
23.100200
 20
226.601878
 30
0.0
 10
20.660208
 20
227.167982
 30
0.0
  0
SPLINE
  5
147
100
AcDbEntity
  8
0
 62
7
100
AcDbSpline
 70
8
 71
3
 72
8
 73
4
 74
0
 40
0
 40
0
 40
0
 40
0
 40
1
 40
1
 40
1
 40
1
 10
20.660208
 20
227.167982
 30
0.0
 10
16.309088
 20
228.177486
 30
0.0
 10
14.096552
 20
230.588062
 30
0.0
 10
14.096552
 20
234.319134
 30
0.0
  0
SPLINE
  5
148
100
AcDbEntity
  8
0
 62
7
100
AcDbSpline
 70
8
 71
3
 72
8
 73
4
 74
0
 40
0
 40
0
 40
0
 40
0
 40
1
 40
1
 40
1
 40
1
 10
14.096552
 20
234.319134
 30
0.0
 10
14.096552
 20
235.118254
 30
0.0
 10
13.748824
 20
235.772078
 30
0.0
 10
13.323824
 20
235.772078
 30
0.0
  0
SPLINE
  5
149
100
AcDbEntity
  8
0
 62
7
100
AcDbSpline
 70
8
 71
3
 72
8
 73
4
 74
0
 40
0
 40
0
 40
0
 40
0
 40
1
 40
1
 40
1
 40
1
 10
13.323824
 20
235.772078
 30
0.0
 10
12.609534
 20
235.772078
 30
0.0
 10
12.227590
 20
238.771766
 30
0.0
 10
11.891391
 20
247.022078
 30
0.0
  0
SPLINE
  5
14a
100
AcDbEntity
  8
0
 62
7
100
AcDbSpline
 70
8
 71
3
 72
8
 73
4
 74
0
 40
0
 40
0
 40
0
 40
0
 40
1
 40
1
 40
1
 40
1
 10
11.891391
 20
247.022078
 30
0.0
 10
11.818551
 20
248.809582
 30
0.0
 10
12.108739
 20
252.072078
 30
0.0
 10
12.536255
 20
254.272078
 30
0.0
  0
SPLINE
  5
14b
100
AcDbEntity
  8
0
 62
7
100
AcDbSpline
 70
8
 71
3
 72
8
 73
4
 74
0
 40
0
 40
0
 40
0
 40
0
 40
1
 40
1
 40
1
 40
1
 10
12.536255
 20
254.272078
 30
0.0
 10
12.963776
 20
256.472076
 30
0.0
 10
13.440568
 20
259.172076
 30
0.0
 10
13.595800
 20
260.272076
 30
0.0
  0
SPLINE
  5
14c
100
AcDbEntity
  8
0
 62
7
100
AcDbSpline
 70
8
 71
3
 72
8
 73
4
 74
0
 40
0
 40
0
 40
0
 40
0
 40
1
 40
1
 40
1
 40
1
 10
13.595800
 20
260.272076
 30
0.0
 10
14.035600
 20
263.388620
 30
0.0
 10
19.497640
 20
278.232604
 30
0.0
 10
20.341792
 20
278.605412
 30
0.0
  0
SPLINE
  5
14d
100
AcDbEntity
  8
0
 62
7
100
AcDbSpline
 70
8
 71
3
 72
8
 73
4
 74
0
 40
0
 40
0
 40
0
 40
0
 40
1
 40
1
 40
1
 40
1
 10
20.341792
 20
278.605412
 30
0.0
 10
20.756912
 20
278.788748
 30
0.0
 10
21.096552
 20
279.572428
 30
0.0
 10
21.096552
 20
280.346940
 30
0.0
  0
SPLINE
  5
14e
100
AcDbEntity
  8
0
 62
7
100
AcDbSpline
 70
8
 71
3
 72
8
 73
4
 74
0
 40
0
 40
0
 40
0
 40
0
 40
1
 40
1
 40
1
 40
1
 10
21.096552
 20
280.346940
 30
0.0
 10
21.096552
 20
281.121444
 30
0.0
 10
21.996552
 20
282.317191
 30
0.0
 10
23.096552
 20
283.004152
 30
0.0
  0
SPLINE
  5
14f
100
AcDbEntity
  8
0
 62
7
100
AcDbSpline
 70
8
 71
3
 72
8
 73
4
 74
0
 40
0
 40
0
 40
0
 40
0
 40
1
 40
1
 40
1
 40
1
 10
23.096552
 20
283.004152
 30
0.0
 10
24.196552
 20
283.691113
 30
0.0
 10
25.096552
 20
284.804094
 30
0.0
 10
25.096552
 20
285.477442
 30
0.0
  0
SPLINE
  5
150
100
AcDbEntity
  8
0
 62
7
100
AcDbSpline
 70
8
 71
3
 72
8
 73
4
 74
0
 40
0
 40
0
 40
0
 40
0
 40
1
 40
1
 40
1
 40
1
 10
25.096552
 20
285.477442
 30
0.0
 10
25.096552
 20
286.803800
 30
0.0
 10
29.076840
 20
289.351536
 30
0.0
 10
29.126960
 20
288.057263
 30
0.0
  0
SPLINE
  5
151
100
AcDbEntity
  8
0
 62
7
100
AcDbSpline
 70
8
 71
3
 72
8
 73
4
 74
0
 40
0
 40
0
 40
0
 40
0
 40
1
 40
1
 40
1
 40
1
 10
29.126960
 20
288.057263
 30
0.0
 10
29.143680
 20
287.625412
 30
0.0
 10
29.616048
 20
288.059583
 30
0.0
 10
30.176656
 20
289.022079
 30
0.0
  0
SPLINE
  5
152
100
AcDbEntity
  8
0
 62
7
100
AcDbSpline
 70
8
 71
3
 72
8
 73
4
 74
0
 40
0
 40
0
 40
0
 40
0
 40
1
 40
1
 40
1
 40
1
 10
30.176656
 20
289.022079
 30
0.0
 10
30.737256
 20
289.984579
 30
0.0
 10
31.826216
 20
290.772079
 30
0.0
 10
32.596552
 20
290.772079
 30
0.0
  0
SPLINE
  5
153
100
AcDbEntity
  8
0
 62
7
100
AcDbSpline
 70
8
 71
3
 72
8
 73
4
 74
0
 40
0
 40
0
 40
0
 40
0
 40
1
 40
1
 40
1
 40
1
 10
32.596552
 20
290.772079
 30
0.0
 10
33.366896
 20
290.772079
 30
0.0
 10
34.357032
 20
291.359391
 30
0.0
 10
34.796864
 20
292.077217
 30
0.0
  0
SPLINE
  5
154
100
AcDbEntity
  8
0
 62
7
100
AcDbSpline
 70
8
 71
3
 72
8
 73
4
 74
0
 40
0
 40
0
 40
0
 40
0
 40
1
 40
1
 40
1
 40
1
 10
34.796864
 20
292.077217
 30
0.0
 10
35.236696
 20
292.795042
 30
0.0
 10
37.381712
 20
294.707542
 30
0.0
 10
39.563560
 20
296.327217
 30
0.0
  0
SPLINE
  5
155
100
AcDbEntity
  8
0
 62
7
100
AcDbSpline
 70
8
 71
3
 72
8
 73
4
 74
0
 40
0
 40
0
 40
0
 40
0
 40
1
 40
1
 40
1
 40
1
 10
39.563560
 20
296.327217
 30
0.0
 10
41.745416
 20
297.946891
 30
0.0
 10
44.300664
 20
299.947079
 30
0.0
 10
45.241888
 20
300.772079
 30
0.0
  0
SPLINE
  5
156
100
AcDbEntity
  8
0
 62
7
100
AcDbSpline
 70
8
 71
3
 72
8
 73
4
 74
0
 40
0
 40
0
 40
0
 40
0
 40
1
 40
1
 40
1
 40
1
 10
45.241888
 20
300.772079
 30
0.0
 10
50.375424
 20
305.271719
 30
0.0
 10
50.376688
 20
305.272079
 30
0.0
 10
61.071768
 20
305.272079
 30
0.0
  0
SPLINE
  5
157
100
AcDbEntity
  8
0
 62
7
100
AcDbSpline
 70
8
 71
3
 72
8
 73
4
 74
0
 40
0
 40
0
 40
0
 40
0
 40
1
 40
1
 40
1
 40
1
 10
61.071768
 20
305.272079
 30
0.0
 10
66.860400
 20
305.272079
 30
0.0
 10
72.946552
 20
304.740272
 30
0.0
 10
74.596552
 20
304.090285
 30
0.0
  0
SPLINE
  5
158
100
AcDbEntity
  8
0
 62
7
100
AcDbSpline
 70
8
 71
3
 72
8
 73
4
 74
0
 40
0
 40
0
 40
0
 40
0
 40
1
 40
1
 40
1
 40
1
 10
74.596552
 20
304.090285
 30
0.0
 10
76.246552
 20
303.440298
 30
0.0
 10
80.971552
 20
301.884961
 30
0.0
 10
85.096550
 20
300.633979
 30
0.0
  0
SPLINE
  5
159
100
AcDbEntity
  8
0
 62
7
100
AcDbSpline
 70
8
 71
3
 72
8
 73
4
 74
0
 40
0
 40
0
 40
0
 40
0
 40
1
 40
1
 40
1
 40
1
 10
85.096550
 20
300.633979
 30
0.0
 10
91.339558
 20
298.740673
 30
0.0
 10
93.438270
 20
297.514147
 30
0.0
 10
97.618758
 20
293.315772
 30
0.0
  0
SPLINE
  5
15a
100
AcDbEntity
  8
0
 62
7
100
AcDbSpline
 70
8
 71
3
 72
8
 73
4
 74
0
 40
0
 40
0
 40
0
 40
0
 40
1
 40
1
 40
1
 40
1
 10
97.618758
 20
293.315772
 30
0.0
 10
100.380974
 20
290.541740
 30
0.0
 10
104.378462
 20
284.897079
 30
0.0
 10
106.502062
 20
280.772076
 30
0.0
  0
SPLINE
  5
15b
100
AcDbEntity
  8
0
 62
7
100
AcDbSpline
 70
8
 71
3
 72
8
 73
4
 74
0
 40
0
 40
0
 40
0
 40
0
 40
1
 40
1
 40
1
 40
1
 10
106.502062
 20
280.772076
 30
0.0
 10
111.865718
 20
270.353444
 30
0.0
 10
116.769262
 20
264.082292
 30
0.0
 10
123.954446
 20
258.452148
 30
0.0
  0
SPLINE
  5
15c
100
AcDbEntity
  8
0
 62
7
100
AcDbSpline
 70
8
 71
3
 72
8
 73
4
 74
0
 40
0
 40
0
 40
0
 40
0
 40
1
 40
1
 40
1
 40
1
 10
123.954446
 20
258.452148
 30
0.0
 10
131.349110
 20
252.657886
 30
0.0
 10
132.274358
 20
253.479886
 30
0.0
 10
129.811286
 20
263.655460
 30
0.0
  0
SPLINE
  5
15d
100
AcDbEntity
  8
0
 62
7
100
AcDbSpline
 70
8
 71
3
 72
8
 73
4
 74
0
 40
0
 40
0
 40
0
 40
0
 40
1
 40
1
 40
1
 40
1
 10
129.811286
 20
263.655460
 30
0.0
 10
128.156198
 20
270.493052
 30
0.0
 10
126.677142
 20
285.006422
 30
0.0
 10
127.098782
 20
290.272079
 30
0.0
  0
SPLINE
  5
15e
100
AcDbEntity
  8
0
 62
7
100
AcDbSpline
 70
8
 71
3
 72
8
 73
4
 74
0
 40
0
 40
0
 40
0
 40
0
 40
1
 40
1
 40
1
 40
1
 10
127.098782
 20
290.272079
 30
0.0
 10
127.230902
 20
291.922079
 30
0.0
 10
127.402670
 20
294.172079
 30
0.0
 10
127.480478
 20
295.272079
 30
0.0
  0
SPLINE
  5
15f
100
AcDbEntity
  8
0
 62
7
100
AcDbSpline
 70
8
 71
3
 72
8
 73
4
 74
0
 40
0
 40
0
 40
0
 40
0
 40
1
 40
1
 40
1
 40
1
 10
127.480478
 20
295.272079
 30
0.0
 10
127.689502
 20
298.226874
 30
0.0
 10
133.127798
 20
308.386656
 30
0.0
 10
136.185782
 20
311.535240
 30
0.0
  0
SPLINE
  5
160
100
AcDbEntity
  8
0
 62
7
100
AcDbSpline
 70
8
 71
3
 72
8
 73
4
 74
0
 40
0
 40
0
 40
0
 40
0
 40
1
 40
1
 40
1
 40
1
 10
136.185782
 20
311.535240
 30
0.0
 10
141.185198
 20
316.682780
 30
0.0
 10
143.652262
 20
318.552994
 30
0.0
 10
148.365982
 20
320.768703
 30
0.0
  0
SPLINE
  5
161
100
AcDbEntity
  8
0
 62
7
100
AcDbSpline
 70
8
 71
3
 72
8
 73
4
 74
0
 40
0
 40
0
 40
0
 40
0
 40
1
 40
1
 40
1
 40
1
 10
148.365982
 20
320.768703
 30
0.0
 10
150.960078
 20
321.988075
 30
0.0
 10
152.913518
 20
323.275168
 30
0.0
 10
152.706950
 20
323.628911
 30
0.0
  0
SPLINE
  5
162
100
AcDbEntity
  8
0
 62
7
100
AcDbSpline
 70
8
 71
3
 72
8
 73
4
 74
0
 40
0
 40
0
 40
0
 40
0
 40
1
 40
1
 40
1
 40
1
 10
152.706950
 20
323.628911
 30
0.0
 10
160.980166
 20
325.498270
 30
0.0
 10
163.963014
 20
325.458031
 30
0.0
 10
167.946726
 20
323.944867
 30
0.0
  0
SPLINE
  5
163
100
AcDbEntity
  8
0
 62
7
100
AcDbSpline
 70
8
 71
3
 72
8
 73
4
 74
0
 40
0
 40
0
 40
0
 40
0
 40
1
 40
1
 40
1
 40
1
 10
167.946726
 20
323.944867
 30
0.0
 10
171.723726
 20
322.586460
 30
0.0
 10
176.713758
 20
317.362743
 30
0.0
 10
181.963126
 20
309.272079
 30
0.0
  0
SPLINE
  5
164
100
AcDbEntity
  8
0
 62
7
100
AcDbSpline
 70
8
 71
3
 72
8
 73
4
 74
0
 40
0
 40
0
 40
0
 40
0
 40
1
 40
1
 40
1
 40
1
 10
181.963126
 20
309.272079
 30
0.0
 10
184.461078
 20
305.422079
 30
0.0
 10
187.875494
 20
300.460363
 30
0.0
 10
189.550702
 20
298.246044
 30
0.0
  0
SPLINE
  5
165
100
AcDbEntity
  8
0
 62
7
100
AcDbSpline
 70
8
 71
3
 72
8
 73
4
 74
0
 40
0
 40
0
 40
0
 40
0
 40
1
 40
1
 40
1
 40
1
 10
189.550702
 20
298.246044
 30
0.0
 10
192.811966
 20
293.935258
 30
0.0
 10
196.350822
 20
286.461400
 30
0.0
 10
197.824566
 20
280.772076
 30
0.0
  0
SPLINE
  5
166
100
AcDbEntity
  8
0
 62
7
100
AcDbSpline
 70
8
 71
3
 72
8
 73
4
 74
0
 40
0
 40
0
 40
0
 40
0
 40
1
 40
1
 40
1
 40
1
 10
200.926030
 20
281.506079
 30
0.0
 10
202.328886
 20
284.212288
 30
0.0
 10
204.018582
 20
285.965390
 30
0.0
 10
205.608710
 20
286.364487
 30
0.0
  0
SPLINE
  5
167
100
AcDbEntity
  8
0
 62
7
100
AcDbSpline
 70
8
 71
3
 72
8
 73
4
 74
0
 40
0
 40
0
 40
0
 40
0
 40
1
 40
1
 40
1
 40
1
 10
205.608710
 20
286.364487
 30
0.0
 10
206.977022
 20
286.707912
 30
0.0
 10
208.096550
 20
287.391096
 30
0.0
 10
208.096550
 20
287.882675
 30
0.0
  0
SPLINE
  5
168
100
AcDbEntity
  8
0
 62
7
100
AcDbSpline
 70
8
 71
3
 72
8
 73
4
 74
0
 40
0
 40
0
 40
0
 40
0
 40
1
 40
1
 40
1
 40
1
 10
208.096550
 20
287.882675
 30
0.0
 10
208.096550
 20
289.226554
 30
0.0
 10
215.321510
 20
295.772079
 30
0.0
 10
216.804886
 20
295.772079
 30
0.0
  0
SPLINE
  5
169
100
AcDbEntity
  8
0
 62
7
100
AcDbSpline
 70
8
 71
3
 72
8
 73
4
 74
0
 40
0
 40
0
 40
0
 40
0
 40
1
 40
1
 40
1
 40
1
 10
216.804886
 20
295.772079
 30
0.0
 10
217.515302
 20
295.772079
 30
0.0
 10
218.096550
 20
296.155462
 30
0.0
 10
218.096550
 20
296.624041
 30
0.0
  0
SPLINE
  5
16a
100
AcDbEntity
  8
0
 62
7
100
AcDbSpline
 70
8
 71
3
 72
8
 73
4
 74
0
 40
0
 40
0
 40
0
 40
0
 40
1
 40
1
 40
1
 40
1
 10
218.096550
 20
296.624041
 30
0.0
 10
218.096550
 20
297.092619
 30
0.0
 10
221.359046
 20
298.921478
 30
0.0
 10
225.346550
 20
300.688170
 30
0.0
  0
SPLINE
  5
16b
100
AcDbEntity
  8
0
 62
7
100
AcDbSpline
 70
8
 71
3
 72
8
 73
4
 74
0
 40
0
 40
0
 40
0
 40
0
 40
1
 40
1
 40
1
 40
1
 10
225.346550
 20
300.688170
 30
0.0
 10
229.334046
 20
302.454862
 30
0.0
 10
233.369766
 20
304.316373
 30
0.0
 10
234.314806
 20
304.824859
 30
0.0
  0
SPLINE
  5
16c
100
AcDbEntity
  8
0
 62
7
100
AcDbSpline
 70
8
 71
3
 72
8
 73
4
 74
0
 40
0
 40
0
 40
0
 40
0
 40
1
 40
1
 40
1
 40
1
 10
234.314806
 20
304.824859
 30
0.0
 10
236.822510
 20
306.174149
 30
0.0
 10
244.982070
 20
307.999630
 30
0.0
 10
249.596550
 20
308.243740
 30
0.0
  0
SPLINE
  5
16d
100
AcDbEntity
  8
0
 62
7
100
AcDbSpline
 70
8
 71
3
 72
8
 73
4
 74
0
 40
0
 40
0
 40
0
 40
0
 40
1
 40
1
 40
1
 40
1
 10
249.596550
 20
308.243740
 30
0.0
 10
251.796550
 20
308.360122
 30
0.0
 10
254.773678
 20
308.785240
 30
0.0
 10
256.212390
 20
309.188448
 30
0.0
  0
SPLINE
  5
16e
100
AcDbEntity
  8
0
 62
7
100
AcDbSpline
 70
8
 71
3
 72
8
 73
4
 74
0
 40
0
 40
0
 40
0
 40
0
 40
1
 40
1
 40
1
 40
1
 10
256.212390
 20
309.188448
 30
0.0
 10
258.556118
 20
309.845291
 30
0.0
 10
275.218478
 20
307.552665
 30
0.0
 10
279.096550
 20
306.039744
 30
0.0
  0
SPLINE
  5
16f
100
AcDbEntity
  8
0
 62
7
100
AcDbSpline
 70
8
 71
3
 72
8
 73
4
 74
0
 40
0
 40
0
 40
0
 40
0
 40
1
 40
1
 40
1
 40
1
 10
279.096550
 20
306.039744
 30
0.0
 10
279.921550
 20
305.717894
 30
0.0
 10
280.925118
 20
305.523027
 30
0.0
 10
281.326710
 20
305.606708
 30
0.0
  0
SPLINE
  5
170
100
AcDbEntity
  8
0
 62
7
100
AcDbSpline
 70
8
 71
3
 72
8
 73
4
 74
0
 40
0
 40
0
 40
0
 40
0
 40
1
 40
1
 40
1
 40
1
 10
281.326710
 20
305.606708
 30
0.0
 10
282.644342
 20
305.881265
 30
0.0
 10
293.096550
 20
301.647468
 30
0.0
 10
293.096550
 20
300.839192
 30
0.0
  0
SPLINE
  5
171
100
AcDbEntity
  8
0
 62
7
100
AcDbSpline
 70
8
 71
3
 72
8
 73
4
 74
0
 40
0
 40
0
 40
0
 40
0
 40
1
 40
1
 40
1
 40
1
 10
293.096550
 20
300.839192
 30
0.0
 10
293.096550
 20
300.405137
 30
0.0
 10
295.234046
 20
299.014456
 30
0.0
 10
297.846550
 20
297.748791
 30
0.0
  0
SPLINE
  5
172
100
AcDbEntity
  8
0
 62
7
100
AcDbSpline
 70
8
 71
3
 72
8
 73
4
 74
0
 40
0
 40
0
 40
0
 40
0
 40
1
 40
1
 40
1
 40
1
 10
297.846550
 20
297.748791
 30
0.0
 10
311.277406
 20
291.242002
 30
0.0
 10
311.393230
 20
291.166582
 30
0.0
 10
317.774430
 20
284.772079
 30
0.0
  0
SPLINE
  5
173
100
AcDbEntity
  8
0
 62
7
100
AcDbSpline
 70
8
 71
3
 72
8
 73
4
 74
0
 40
0
 40
0
 40
0
 40
0
 40
1
 40
1
 40
1
 40
1
 10
317.774430
 20
284.772079
 30
0.0
 10
323.748998
 20
278.785060
 30
0.0
 10
325.772174
 20
275.627188
 30
0.0
 10
326.103238
 20
271.772076
 30
0.0
  0
SPLINE
  5
174
100
AcDbEntity
  8
0
 62
7
100
AcDbSpline
 70
8
 71
3
 72
8
 73
4
 74
0
 40
0
 40
0
 40
0
 40
0
 40
1
 40
1
 40
1
 40
1
 10
326.103238
 20
271.772076
 30
0.0
 10
326.590310
 20
266.100364
 30
0.0
 10
326.016038
 20
260.834428
 30
0.0
 10
324.775118
 20
259.593508
 30
0.0
  0
SPLINE
  5
175
100
AcDbEntity
  8
0
 62
7
100
AcDbSpline
 70
8
 71
3
 72
8
 73
4
 74
0
 40
0
 40
0
 40
0
 40
0
 40
1
 40
1
 40
1
 40
1
 10
324.775118
 20
259.593508
 30
0.0
 10
323.407342
 20
258.225724
 30
0.0
 10
323.096550
 20
257.509340
 30
0.0
 10
323.096550
 20
255.724332
 30
0.0
  0
SPLINE
  5
176
100
AcDbEntity
  8
0
 62
7
100
AcDbSpline
 70
8
 71
3
 72
8
 73
4
 74
0
 40
0
 40
0
 40
0
 40
0
 40
1
 40
1
 40
1
 40
1
 10
323.096550
 20
255.724332
 30
0.0
 10
323.096550
 20
254.227006
 30
0.0
 10
318.201190
 20
249.882454
 30
0.0
 10
314.096550
 20
247.736982
 30
0.0
  0
SPLINE
  5
177
100
AcDbEntity
  8
0
 62
7
100
AcDbSpline
 70
8
 71
3
 72
8
 73
4
 74
0
 40
0
 40
0
 40
0
 40
0
 40
1
 40
1
 40
1
 40
1
 10
314.096550
 20
247.736982
 30
0.0
 10
312.171550
 20
246.730798
 30
0.0
 10
309.409734
 20
244.780854
 30
0.0
 10
307.959182
 20
243.403782
 30
0.0
  0
SPLINE
  5
178
100
AcDbEntity
  8
0
 62
7
100
AcDbSpline
 70
8
 71
3
 72
8
 73
4
 74
0
 40
0
 40
0
 40
0
 40
0
 40
1
 40
1
 40
1
 40
1
 10
307.959182
 20
243.403782
 30
0.0
 10
305.402110
 20
240.976238
 30
0.0
 10
305.179574
 20
240.942830
 30
0.0
 10
300.649262
 20
242.306254
 30
0.0
  0
SPLINE
  5
179
100
AcDbEntity
  8
0
 62
7
100
AcDbSpline
 70
8
 71
3
 72
8
 73
4
 74
0
 40
0
 40
0
 40
0
 40
0
 40
1
 40
1
 40
1
 40
1
 10
300.649262
 20
242.306254
 30
0.0
 10
290.994582
 20
245.211886
 30
0.0
 10
286.666054
 20
248.404774
 30
0.0
 10
283.309878
 20
255.096468
 30
0.0
  0
SPLINE
  5
17a
100
AcDbEntity
  8
0
 62
7
100
AcDbSpline
 70
8
 71
3
 72
8
 73
4
 74
0
 40
0
 40
0
 40
0
 40
0
 40
1
 40
1
 40
1
 40
1
 10
283.309878
 20
255.096468
 30
0.0
 10
281.606342
 20
258.493052
 30
0.0
 10
278.273942
 20
263.426940
 30
0.0
 10
275.904550
 20
266.060652
 30
0.0
  0
SPLINE
  5
17b
100
AcDbEntity
  8
0
 62
7
100
AcDbSpline
 70
8
 71
3
 72
8
 73
4
 74
0
 40
0
 40
0
 40
0
 40
0
 40
1
 40
1
 40
1
 40
1
 10
275.904550
 20
266.060652
 30
0.0
 10
271.957934
 20
270.447540
 30
0.0
 10
271.135182
 20
270.892036
 30
0.0
 10
266.096550
 20
271.359500
 30
0.0
  0
SPLINE
  5
17c
100
AcDbEntity
  8
0
 62
7
100
AcDbSpline
 70
8
 71
3
 72
8
 73
4
 74
0
 40
0
 40
0
 40
0
 40
0
 40
1
 40
1
 40
1
 40
1
 10
266.096550
 20
271.359500
 30
0.0
 10
263.071550
 20
271.640148
 30
0.0
 10
260.048462
 20
272.053140
 30
0.0
 10
259.378582
 20
272.277252
 30
0.0
  0
SPLINE
  5
17d
100
AcDbEntity
  8
0
 62
7
100
AcDbSpline
 70
8
 71
3
 72
8
 73
4
 74
0
 40
0
 40
0
 40
0
 40
0
 40
1
 40
1
 40
1
 40
1
 10
259.378582
 20
272.277252
 30
0.0
 10
258.708694
 20
272.501364
 30
0.0
 10
257.872102
 20
272.217892
 30
0.0
 10
257.519478
 20
271.647380
 30
0.0
  0
SPLINE
  5
17e
100
AcDbEntity
  8
0
 62
7
100
AcDbSpline
 70
8
 71
3
 72
8
 73
4
 74
0
 40
0
 40
0
 40
0
 40
0
 40
1
 40
1
 40
1
 40
1
 10
257.519478
 20
271.647380
 30
0.0
 10
257.166862
 20
271.076836
 30
0.0
 10
255.897582
 20
270.856180
 30
0.0
 10
254.698862
 20
271.157044
 30
0.0
  0
SPLINE
  5
17f
100
AcDbEntity
  8
0
 62
7
100
AcDbSpline
 70
8
 71
3
 72
8
 73
4
 74
0
 40
0
 40
0
 40
0
 40
0
 40
1
 40
1
 40
1
 40
1
 10
254.698862
 20
271.157044
 30
0.0
 10
253.500134
 20
271.457908
 30
0.0
 10
251.285302
 20
271.063836
 30
0.0
 10
249.777022
 20
270.281324
 30
0.0
  0
SPLINE
  5
180
100
AcDbEntity
  8
0
 62
7
100
AcDbSpline
 70
8
 71
3
 72
8
 73
4
 74
0
 40
0
 40
0
 40
0
 40
0
 40
1
 40
1
 40
1
 40
1
 10
249.777022
 20
270.281324
 30
0.0
 10
248.268734
 20
269.498820
 30
0.0
 10
246.373598
 20
269.112268
 30
0.0
 10
245.565622
 20
269.422324
 30
0.0
  0
SPLINE
  5
181
100
AcDbEntity
  8
0
 62
7
100
AcDbSpline
 70
8
 71
3
 72
8
 73
4
 74
0
 40
0
 40
0
 40
0
 40
0
 40
1
 40
1
 40
1
 40
1
 10
245.565622
 20
269.422324
 30
0.0
 10
244.757630
 20
269.732372
 30
0.0
 10
244.096550
 20
269.487924
 30
0.0
 10
244.096550
 20
268.879068
 30
0.0
  0
SPLINE
  5
182
100
AcDbEntity
  8
0
 62
7
100
AcDbSpline
 70
8
 71
3
 72
8
 73
4
 74
0
 40
0
 40
0
 40
0
 40
0
 40
1
 40
1
 40
1
 40
1
 10
244.096550
 20
268.879068
 30
0.0
 10
244.096550
 20
268.270220
 30
0.0
 10
242.572830
 20
267.772076
 30
0.0
 10
240.710502
 20
267.772076
 30
0.0
  0
SPLINE
  5
183
100
AcDbEntity
  8
0
 62
7
100
AcDbSpline
 70
8
 71
3
 72
8
 73
4
 74
0
 40
0
 40
0
 40
0
 40
0
 40
1
 40
1
 40
1
 40
1
 10
240.710502
 20
267.772076
 30
0.0
 10
236.668358
 20
267.772076
 30
0.0
 10
226.602526
 20
261.422452
 30
0.0
 10
222.224110
 20
256.110660
 30
0.0
  0
SPLINE
  5
184
100
AcDbEntity
  8
0
 62
7
100
AcDbSpline
 70
8
 71
3
 72
8
 73
4
 74
0
 40
0
 40
0
 40
0
 40
0
 40
1
 40
1
 40
1
 40
1
 10
222.224110
 20
256.110660
 30
0.0
 10
220.633006
 20
254.180382
 30
0.0
 10
217.221006
 20
251.311821
 30
0.0
 10
215.495462
 20
247.772838
 30
0.0
  0
SPLINE
  5
185
100
AcDbEntity
  8
0
 62
7
100
AcDbSpline
 70
8
 71
3
 72
8
 73
4
 74
0
 40
0
 40
0
 40
0
 40
0
 40
1
 40
1
 40
1
 40
1
 10
215.495462
 20
247.772838
 30
0.0
 10
213.769926
 20
244.233854
 30
0.0
 10
212.278022
 20
243.036518
 30
0.0
 10
211.326526
 20
242.039198
 30
0.0
  0
SPLINE
  5
186
100
AcDbEntity
  8
0
 62
7
100
AcDbSpline
 70
8
 71
3
 72
8
 73
4
 74
0
 40
0
 40
0
 40
0
 40
0
 40
1
 40
1
 40
1
 40
1
 10
211.326526
 20
242.039198
 30
0.0
 10
210.375038
 20
241.041878
 30
0.0
 10
208.196254
 20
239.518550
 30
0.0
 10
208.021222
 20
238.739382
 30
0.0
  0
SPLINE
  5
187
100
AcDbEntity
  8
0
 62
7
100
AcDbSpline
 70
8
 71
3
 72
8
 73
4
 74
0
 40
0
 40
0
 40
0
 40
0
 40
1
 40
1
 40
1
 40
1
 10
208.021222
 20
238.739382
 30
0.0
 10
202.858894
 20
235.016654
 30
0.0
 10
204.668950
 20
236.768966
 30
0.0
 10
201.715142
 20
233.499294
 30
0.0
  0
SPLINE
  5
188
100
AcDbEntity
  8
0
 62
7
100
AcDbSpline
 70
8
 71
3
 72
8
 73
4
 74
0
 40
0
 40
0
 40
0
 40
0
 40
1
 40
1
 40
1
 40
1
 10
201.715142
 20
233.499294
 30
0.0
 10
200.932254
 20
232.532182
 30
0.0
 10
198.140246
 20
230.151910
 30
0.0
 10
197.932318
 20
229.848590
 30
0.0
  0
SPLINE
  5
189
100
AcDbEntity
  8
0
 62
7
100
AcDbSpline
 70
8
 71
3
 72
8
 73
4
 74
0
 40
0
 40
0
 40
0
 40
0
 40
1
 40
1
 40
1
 40
1
 10
197.932318
 20
229.848590
 30
0.0
 10
197.208694
 20
228.792974
 30
0.0
 10
191.144366
 20
219.793950
 30
0.0
 10
189.436222
 20
214.560478
 30
0.0
  0
SPLINE
  5
18a
100
AcDbEntity
  8
0
 62
7
100
AcDbSpline
 70
8
 71
3
 72
8
 73
4
 74
0
 40
0
 40
0
 40
0
 40
0
 40
1
 40
1
 40
1
 40
1
 10
189.436222
 20
214.560478
 30
0.0
 10
188.486870
 20
211.651862
 30
0.0
 10
187.124846
 20
208.147078
 30
0.0
 10
186.409502
 20
206.772078
 30
0.0
  0
SPLINE
  5
18b
100
AcDbEntity
  8
0
 62
7
100
AcDbSpline
 70
8
 71
3
 72
8
 73
4
 74
0
 40
0
 40
0
 40
0
 40
0
 40
1
 40
1
 40
1
 40
1
 10
186.409502
 20
206.772078
 30
0.0
 10
185.694158
 20
205.397078
 30
0.0
 10
185.106102
 20
203.709582
 30
0.0
 10
185.102710
 20
203.022078
 30
0.0
  0
SPLINE
  5
18c
100
AcDbEntity
  8
0
 62
7
100
AcDbSpline
 70
8
 71
3
 72
8
 73
4
 74
0
 40
0
 40
0
 40
0
 40
0
 40
1
 40
1
 40
1
 40
1
 10
185.102710
 20
203.022078
 30
0.0
 10
185.099510
 20
202.334582
 30
0.0
 10
184.704062
 20
201.772078
 30
0.0
 10
184.224358
 20
201.772078
 30
0.0
  0
SPLINE
  5
18d
100
AcDbEntity
  8
0
 62
7
100
AcDbSpline
 70
8
 71
3
 72
8
 73
4
 74
0
 40
0
 40
0
 40
0
 40
0
 40
1
 40
1
 40
1
 40
1
 10
184.224358
 20
201.772078
 30
0.0
 10
183.744646
 20
201.772078
 30
0.0
 10
183.056782
 20
199.924838
 30
0.0
 10
182.695750
 20
197.667110
 30
0.0
  0
SPLINE
  5
18e
100
AcDbEntity
  8
0
 62
7
100
AcDbSpline
 70
8
 71
3
 72
8
 73
4
 74
0
 40
0
 40
0
 40
0
 40
0
 40
1
 40
1
 40
1
 40
1
 10
182.695750
 20
197.667110
 30
0.0
 10
182.334726
 20
195.409366
 30
0.0
 10
181.377206
 20
192.281718
 30
0.0
 10
180.567950
 20
190.716766
 30
0.0
  0
SPLINE
  5
18f
100
AcDbEntity
  8
0
 62
7
100
AcDbSpline
 70
8
 71
3
 72
8
 73
4
 74
0
 40
0
 40
0
 40
0
 40
0
 40
1
 40
1
 40
1
 40
1
 10
180.567950
 20
190.716766
 30
0.0
 10
179.758678
 20
189.151814
 30
0.0
 10
179.096550
 20
186.311550
 30
0.0
 10
179.096550
 20
184.405070
 30
0.0
  0
SPLINE
  5
190
100
AcDbEntity
  8
0
 62
7
100
AcDbSpline
 70
8
 71
3
 72
8
 73
4
 74
0
 40
0
 40
0
 40
0
 40
0
 40
1
 40
1
 40
1
 40
1
 10
179.096550
 20
184.405070
 30
0.0
 10
179.096550
 20
182.498590
 30
0.0
 10
178.588118
 20
180.769270
 30
0.0
 10
177.966710
 20
180.562126
 30
0.0
  0
SPLINE
  5
191
100
AcDbEntity
  8
0
 62
7
100
AcDbSpline
 70
8
 71
3
 72
8
 73
4
 74
0
 40
0
 40
0
 40
0
 40
0
 40
1
 40
1
 40
1
 40
1
 10
177.966710
 20
180.562126
 30
0.0
 10
176.868566
 20
180.196086
 30
0.0
 10
173.684662
 20
169.849158
 30
0.0
 10
172.489622
 20
162.762958
 30
0.0
  0
SPLINE
  5
192
100
AcDbEntity
  8
0
 62
7
100
AcDbSpline
 70
8
 71
3
 72
8
 73
4
 74
0
 40
0
 40
0
 40
0
 40
0
 40
1
 40
1
 40
1
 40
1
 10
172.489622
 20
162.762958
 30
0.0
 10
171.937686
 20
159.490230
 30
0.0
 10
172.201838
 20
159.035510
 30
0.0
 10
176.410670
 20
156.012958
 30
0.0
  0
SPLINE
  5
193
100
AcDbEntity
  8
0
 62
7
100
AcDbSpline
 70
8
 71
3
 72
8
 73
4
 74
0
 40
0
 40
0
 40
0
 40
0
 40
1
 40
1
 40
1
 40
1
 10
176.410670
 20
156.012958
 30
0.0
 10
178.892726
 20
154.230470
 30
0.0
 10
181.375470
 20
152.772078
 30
0.0
 10
181.927870
 20
152.772078
 30
0.0
  0
SPLINE
  5
194
100
AcDbEntity
  8
0
 62
7
100
AcDbSpline
 70
8
 71
3
 72
8
 73
4
 74
0
 40
0
 40
0
 40
0
 40
0
 40
1
 40
1
 40
1
 40
1
 10
181.927870
 20
152.772078
 30
0.0
 10
184.269230
 20
152.772078
 30
0.0
 10
193.096550
 20
147.539870
 30
0.0
 10
193.096550
 20
146.152070
 30
0.0
  0
SPLINE
  5
195
100
AcDbEntity
  8
0
 62
7
100
AcDbSpline
 70
8
 71
3
 72
8
 73
4
 74
0
 40
0
 40
0
 40
0
 40
0
 40
1
 40
1
 40
1
 40
1
 10
193.096550
 20
146.152070
 30
0.0
 10
194.173158
 20
144.006542
 30
0.0
 10
196.683662
 20
145.965750
 30
0.0
 10
198.419750
 20
144.306014
 30
0.0
  0
SPLINE
  5
196
100
AcDbEntity
  8
0
 62
7
100
AcDbSpline
 70
8
 71
3
 72
8
 73
4
 74
0
 40
0
 40
0
 40
0
 40
0
 40
1
 40
1
 40
1
 40
1
 10
198.419750
 20
144.306014
 30
0.0
 10
199.263422
 20
143.462350
 30
0.0
 10
200.435838
 20
142.772078
 30
0.0
 10
201.025118
 20
142.772078
 30
0.0
  0
SPLINE
  5
197
100
AcDbEntity
  8
0
 62
7
100
AcDbSpline
 70
8
 71
3
 72
8
 73
4
 74
0
 40
0
 40
0
 40
0
 40
0
 40
1
 40
1
 40
1
 40
1
 10
201.025118
 20
142.772078
 30
0.0
 10
201.614406
 20
142.772078
 30
0.0
 10
202.096550
 20
142.370854
 30
0.0
 10
202.096550
 20
141.880486
 30
0.0
  0
SPLINE
  5
198
100
AcDbEntity
  8
0
 62
7
100
AcDbSpline
 70
8
 71
3
 72
8
 73
4
 74
0
 40
0
 40
0
 40
0
 40
0
 40
1
 40
1
 40
1
 40
1
 10
202.096550
 20
141.880486
 30
0.0
 10
202.096550
 20
141.390110
 30
0.0
 10
203.298542
 20
140.687214
 30
0.0
 10
204.767630
 20
140.318494
 30
0.0
  0
SPLINE
  5
199
100
AcDbEntity
  8
0
 62
7
100
AcDbSpline
 70
8
 71
3
 72
8
 73
4
 74
0
 40
0
 40
0
 40
0
 40
0
 40
1
 40
1
 40
1
 40
1
 10
204.767630
 20
140.318494
 30
0.0
 10
206.236718
 20
139.949774
 30
0.0
 10
208.599222
 20
138.735118
 30
0.0
 10
210.017630
 20
137.619246
 30
0.0
  0
SPLINE
  5
19a
100
AcDbEntity
  8
0
 62
7
100
AcDbSpline
 70
8
 71
3
 72
8
 73
4
 74
0
 40
0
 40
0
 40
0
 40
0
 40
1
 40
1
 40
1
 40
1
 10
210.017630
 20
137.619246
 30
0.0
 10
212.298238
 20
135.825078
 30
0.0
 10
216.696118
 20
133.614118
 30
0.0
 10
219.596550
 20
132.803598
 30
0.0
  0
SPLINE
  5
19b
100
AcDbEntity
  8
0
 62
7
100
AcDbSpline
 70
8
 71
3
 72
8
 73
4
 74
0
 40
0
 40
0
 40
0
 40
0
 40
1
 40
1
 40
1
 40
1
 10
219.596550
 20
132.803598
 30
0.0
 10
220.739078
 20
132.484318
 30
0.0
 10
228.552310
 20
127.190558
 30
0.0
 10
231.574838
 20
124.687846
 30
0.0
  0
SPLINE
  5
19c
100
AcDbEntity
  8
0
 62
7
100
AcDbSpline
 70
8
 71
3
 72
8
 73
4
 74
0
 40
0
 40
0
 40
0
 40
0
 40
1
 40
1
 40
1
 40
1
 10
231.574838
 20
124.687846
 30
0.0
 10
245.447446
 20
113.201054
 30
0.0
 10
246.633302
 20
111.959006
 30
0.0
 10
250.135966
 20
105.246918
 30
0.0
  0
SPLINE
  5
19d
100
AcDbEntity
  8
0
 62
7
100
AcDbSpline
 70
8
 71
3
 72
8
 73
4
 74
0
 40
0
 40
0
 40
0
 40
0
 40
1
 40
1
 40
1
 40
1
 10
250.135966
 20
105.246918
 30
0.0
 10
252.137846
 20
101.410758
 30
0.0
 10
255.197926
 20
96.046478
 30
0.0
 10
256.936150
 20
93.326294
 30
0.0
  0
SPLINE
  5
19e
100
AcDbEntity
  8
0
 62
7
100
AcDbSpline
 70
8
 71
3
 72
8
 73
4
 74
0
 40
0
 40
0
 40
0
 40
0
 40
1
 40
1
 40
1
 40
1
 10
256.936150
 20
93.326294
 30
0.0
 10
258.674366
 20
90.606118
 30
0.0
 10
260.096550
 20
87.825758
 30
0.0
 10
260.096550
 20
87.147726
 30
0.0
  0
SPLINE
  5
19f
100
AcDbEntity
  8
0
 62
7
100
AcDbSpline
 70
8
 71
3
 72
8
 73
4
 74
0
 40
0
 40
0
 40
0
 40
0
 40
1
 40
1
 40
1
 40
1
 10
260.096550
 20
87.147726
 30
0.0
 10
260.096550
 20
86.469686
 30
0.0
 10
260.800758
 20
85.210726
 30
0.0
 10
261.661446
 20
84.350030
 30
0.0
  0
SPLINE
  5
1a0
100
AcDbEntity
  8
0
 62
7
100
AcDbSpline
 70
8
 71
3
 72
8
 73
4
 74
0
 40
0
 40
0
 40
0
 40
0
 40
1
 40
1
 40
1
 40
1
 10
261.661446
 20
84.350030
 30
0.0
 10
263.453830
 20
82.557646
 30
0.0
 10
263.981398
 20
73.219190
 30
0.0
 10
262.735166
 20
65.344070
 30
0.0
  0
SPLINE
  5
1a1
100
AcDbEntity
  8
0
 62
7
100
AcDbSpline
 70
8
 71
3
 72
8
 73
4
 74
0
 40
0
 40
0
 40
0
 40
0
 40
1
 40
1
 40
1
 40
1
 10
262.735166
 20
65.344070
 30
0.0
 10
261.944310
 20
60.346494
 30
0.0
 10
252.548870
 20
33.310790
 30
0.0
 10
250.809806
 20
31.028430
 30
0.0
  0
SPLINE
  5
1a2
100
AcDbEntity
  8
0
 62
7
100
AcDbSpline
 70
8
 71
3
 72
8
 73
4
 74
0
 40
0
 40
0
 40
0
 40
0
 40
1
 40
1
 40
1
 40
1
 10
250.809806
 20
31.028430
 30
0.0
 10
249.509662
 20
29.322094
 30
0.0
 10
239.097390
 20
23.437910
 30
0.0
 10
238.476606
 20
24.058678
 30
0.0
  0
SPLINE
  5
1a3
100
AcDbEntity
  8
0
 62
7
100
AcDbSpline
 70
8
 71
3
 72
8
 73
4
 74
0
 40
0
 40
0
 40
0
 40
0
 40
1
 40
1
 40
1
 40
1
 10
238.476606
 20
24.058678
 30
0.0
 10
238.200910
 20
24.334374
 30
0.0
 10
236.929086
 20
23.513710
 30
0.0
 10
235.650350
 20
22.234966
 30
0.0
  0
LWPOLYLINE
  5
1a4
100
AcDbEntity
  8
0
 62
7
100
AcDbPolyline
 90
3
 70
1
 10
197.824566
 20
280.772076
 30
0.0
 10
198.731198
 20
277.272076
 30
0.0
 10
200.926030
 20
281.506079
 30
0.0
  0
SPLINE
  5
1a5
100
AcDbEntity
  8
0
 62
7
100
AcDbSpline
 70
8
 71
3
 72
8
 73
4
 74
0
 40
0
 40
0
 40
0
 40
0
 40
1
 40
1
 40
1
 40
1
 10
215.883198
 20
46.477054
 30
0.0
 10
221.236462
 20
58.446886
 30
0.0
 10
224.000982
 20
67.578470
 30
0.0
 10
223.541086
 20
71.772078
 30
0.0
  0
SPLINE
  5
1a6
100
AcDbEntity
  8
0
 62
7
100
AcDbSpline
 70
8
 71
3
 72
8
 73
4
 74
0
 40
0
 40
0
 40
0
 40
0
 40
1
 40
1
 40
1
 40
1
 10
223.541086
 20
71.772078
 30
0.0
 10
222.602718
 20
80.328870
 30
0.0
 10
222.106958
 20
82.884430
 30
0.0
 10
220.973662
 20
85.006686
 30
0.0
  0
SPLINE
  5
1a7
100
AcDbEntity
  8
0
 62
7
100
AcDbSpline
 70
8
 71
3
 72
8
 73
4
 74
0
 40
0
 40
0
 40
0
 40
0
 40
1
 40
1
 40
1
 40
1
 10
220.973662
 20
85.006686
 30
0.0
 10
219.548510
 20
87.675470
 30
0.0
 10
214.366582
 20
92.708766
 30
0.0
 10
213.714982
 20
92.057166
 30
0.0
  0
SPLINE
  5
1a8
100
AcDbEntity
  8
0
 62
7
100
AcDbSpline
 70
8
 71
3
 72
8
 73
4
 74
0
 40
0
 40
0
 40
0
 40
0
 40
1
 40
1
 40
1
 40
1
 10
213.714982
 20
92.057166
 30
0.0
 10
213.466510
 20
91.808710
 30
0.0
 10
212.371326
 20
92.430406
 30
0.0
 10
211.281238
 20
93.438750
 30
0.0
  0
SPLINE
  5
1a9
100
AcDbEntity
  8
0
 62
7
100
AcDbSpline
 70
8
 71
3
 72
8
 73
4
 74
0
 40
0
 40
0
 40
0
 40
0
 40
1
 40
1
 40
1
 40
1
 10
211.281238
 20
93.438750
 30
0.0
 10
205.637006
 20
98.659662
 30
0.0
 10
204.222806
 20
99.772078
 30
0.0
 10
203.229766
 20
99.772078
 30
0.0
  0
SPLINE
  5
1aa
100
AcDbEntity
  8
0
 62
7
100
AcDbSpline
 70
8
 71
3
 72
8
 73
4
 74
0
 40
0
 40
0
 40
0
 40
0
 40
1
 40
1
 40
1
 40
1
 10
203.229766
 20
99.772078
 30
0.0
 10
202.633094
 20
99.772078
 30
0.0
 10
200.671510
 20
100.670398
 30
0.0
 10
198.870718
 20
101.768334
 30
0.0
  0
SPLINE
  5
1ab
100
AcDbEntity
  8
0
 62
7
100
AcDbSpline
 70
8
 71
3
 72
8
 73
4
 74
0
 40
0
 40
0
 40
0
 40
0
 40
1
 40
1
 40
1
 40
1
 10
198.870718
 20
101.768334
 30
0.0
 10
197.069926
 20
102.866286
 30
0.0
 10
194.809046
 20
103.766286
 30
0.0
 10
193.846550
 20
103.768334
 30
0.0
  0
SPLINE
  5
1ac
100
AcDbEntity
  8
0
 62
7
100
AcDbSpline
 70
8
 71
3
 72
8
 73
4
 74
0
 40
0
 40
0
 40
0
 40
0
 40
1
 40
1
 40
1
 40
1
 10
193.846550
 20
103.768334
 30
0.0
 10
192.884046
 20
103.770734
 30
0.0
 10
192.096550
 20
104.409358
 30
0.0
 10
192.096550
 20
105.188254
 30
0.0
  0
SPLINE
  5
1ad
100
AcDbEntity
  8
0
 62
7
100
AcDbSpline
 70
8
 71
3
 72
8
 73
4
 74
0
 40
0
 40
0
 40
0
 40
0
 40
1
 40
1
 40
1
 40
1
 10
192.096550
 20
105.188254
 30
0.0
 10
192.096550
 20
105.967158
 30
0.0
 10
190.746550
 20
107.202006
 30
0.0
 10
189.096550
 20
107.932366
 30
0.0
  0
SPLINE
  5
1ae
100
AcDbEntity
  8
0
 62
7
100
AcDbSpline
 70
8
 71
3
 72
8
 73
4
 74
0
 40
0
 40
0
 40
0
 40
0
 40
1
 40
1
 40
1
 40
1
 10
189.096550
 20
107.932366
 30
0.0
 10
187.446550
 20
108.662726
 30
0.0
 10
186.096550
 20
109.714406
 30
0.0
 10
186.096550
 20
110.269438
 30
0.0
  0
SPLINE
  5
1af
100
AcDbEntity
  8
0
 62
7
100
AcDbSpline
 70
8
 71
3
 72
8
 73
4
 74
0
 40
0
 40
0
 40
0
 40
0
 40
1
 40
1
 40
1
 40
1
 10
186.096550
 20
110.269438
 30
0.0
 10
186.096550
 20
112.199590
 30
0.0
 10
180.236302
 20
116.794126
 30
0.0
 10
176.931358
 20
117.455118
 30
0.0
  0
SPLINE
  5
1b0
100
AcDbEntity
  8
0
 62
7
100
AcDbSpline
 70
8
 71
3
 72
8
 73
4
 74
0
 40
0
 40
0
 40
0
 40
0
 40
1
 40
1
 40
1
 40
1
 10
176.931358
 20
117.455118
 30
0.0
 10
175.102126
 20
117.820958
 30
0.0
 10
173.091190
 20
118.604446
 30
0.0
 10
172.462614
 20
119.196190
 30
0.0
  0
SPLINE
  5
1b1
100
AcDbEntity
  8
0
 62
7
100
AcDbSpline
 70
8
 71
3
 72
8
 73
4
 74
0
 40
0
 40
0
 40
0
 40
0
 40
1
 40
1
 40
1
 40
1
 10
172.462614
 20
119.196190
 30
0.0
 10
169.032782
 20
122.424998
 30
0.0
 10
166.868070
 20
123.772078
 30
0.0
 10
165.109286
 20
123.772078
 30
0.0
  0
SPLINE
  5
1b2
100
AcDbEntity
  8
0
 62
7
100
AcDbSpline
 70
8
 71
3
 72
8
 73
4
 74
0
 40
0
 40
0
 40
0
 40
0
 40
1
 40
1
 40
1
 40
1
 10
165.109286
 20
123.772078
 30
0.0
 10
164.028870
 20
123.772078
 30
0.0
 10
161.726758
 20
124.634494
 30
0.0
 10
159.993486
 20
125.688558
 30
0.0
  0
SPLINE
  5
1b3
100
AcDbEntity
  8
0
 62
7
100
AcDbSpline
 70
8
 71
3
 72
8
 73
4
 74
0
 40
0
 40
0
 40
0
 40
0
 40
1
 40
1
 40
1
 40
1
 10
159.993486
 20
125.688558
 30
0.0
 10
156.110502
 20
128.049950
 30
0.0
 10
150.347982
 20
127.460246
 30
0.0
 10
147.949246
 20
124.456030
 30
0.0
  0
SPLINE
  5
1b4
100
AcDbEntity
  8
0
 62
7
100
AcDbSpline
 70
8
 71
3
 72
8
 73
4
 74
0
 40
0
 40
0
 40
0
 40
0
 40
1
 40
1
 40
1
 40
1
 10
147.949246
 20
124.456030
 30
0.0
 10
146.386870
 20
122.499286
 30
0.0
 10
146.464206
 20
122.197398
 30
0.0
 10
149.449246
 20
118.600526
 30
0.0
  0
SPLINE
  5
1b5
100
AcDbEntity
  8
0
 62
7
100
AcDbSpline
 70
8
 71
3
 72
8
 73
4
 74
0
 40
0
 40
0
 40
0
 40
0
 40
1
 40
1
 40
1
 40
1
 10
149.449246
 20
118.600526
 30
0.0
 10
151.180262
 20
116.514710
 30
0.0
 10
153.203182
 20
114.800014
 30
0.0
 10
153.944622
 20
114.790110
 30
0.0
  0
SPLINE
  5
1b6
100
AcDbEntity
  8
0
 62
7
100
AcDbSpline
 70
8
 71
3
 72
8
 73
4
 74
0
 40
0
 40
0
 40
0
 40
0
 40
1
 40
1
 40
1
 40
1
 10
153.944622
 20
114.790110
 30
0.0
 10
155.971526
 20
114.762990
 30
0.0
 10
174.081358
 20
105.761646
 30
0.0
 10
176.932766
 20
103.364030
 30
0.0
  0
SPLINE
  5
1b7
100
AcDbEntity
  8
0
 62
7
100
AcDbSpline
 70
8
 71
3
 72
8
 73
4
 74
0
 40
0
 40
0
 40
0
 40
0
 40
1
 40
1
 40
1
 40
1
 10
176.932766
 20
103.364030
 30
0.0
 10
178.301102
 20
102.213462
 30
0.0
 10
180.360222
 20
100.186486
 30
0.0
 10
181.508598
 20
98.859646
 30
0.0
  0
SPLINE
  5
1b8
100
AcDbEntity
  8
0
 62
7
100
AcDbSpline
 70
8
 71
3
 72
8
 73
4
 74
0
 40
0
 40
0
 40
0
 40
0
 40
1
 40
1
 40
1
 40
1
 10
181.508598
 20
98.859646
 30
0.0
 10
182.656966
 20
97.532806
 30
0.0
 10
184.398638
 20
95.732806
 30
0.0
 10
185.378966
 20
94.859646
 30
0.0
  0
SPLINE
  5
1b9
100
AcDbEntity
  8
0
 62
7
100
AcDbSpline
 70
8
 71
3
 72
8
 73
4
 74
0
 40
0
 40
0
 40
0
 40
0
 40
1
 40
1
 40
1
 40
1
 10
185.378966
 20
94.859646
 30
0.0
 10
187.112614
 20
93.315526
 30
0.0
 10
187.522198
 20
93.159446
 30
0.0
 10
190.529158
 20
92.897078
 30
0.0
  0
SPLINE
  5
1ba
100
AcDbEntity
  8
0
 62
7
100
AcDbSpline
 70
8
 71
3
 72
8
 73
4
 74
0
 40
0
 40
0
 40
0
 40
0
 40
1
 40
1
 40
1
 40
1
 10
190.529158
 20
92.897078
 30
0.0
 10
191.317102
 20
92.828358
 30
0.0
 10
192.240118
 20
91.895102
 30
0.0
 10
192.580310
 20
90.823230
 30
0.0
  0
SPLINE
  5
1bb
100
AcDbEntity
  8
0
 62
7
100
AcDbSpline
 70
8
 71
3
 72
8
 73
4
 74
0
 40
0
 40
0
 40
0
 40
0
 40
1
 40
1
 40
1
 40
1
 10
192.580310
 20
90.823230
 30
0.0
 10
192.920510
 20
89.751366
 30
0.0
 10
193.963342
 20
88.622046
 30
0.0
 10
194.897702
 20
88.313630
 30
0.0
  0
SPLINE
  5
1bc
100
AcDbEntity
  8
0
 62
7
100
AcDbSpline
 70
8
 71
3
 72
8
 73
4
 74
0
 40
0
 40
0
 40
0
 40
0
 40
1
 40
1
 40
1
 40
1
 10
194.897702
 20
88.313630
 30
0.0
 10
197.285598
 20
87.525438
 30
0.0
 10
202.537830
 20
82.711150
 30
0.0
 10
203.994022
 20
79.975774
 30
0.0
  0
SPLINE
  5
1bd
100
AcDbEntity
  8
0
 62
7
100
AcDbSpline
 70
8
 71
3
 72
8
 73
4
 74
0
 40
0
 40
0
 40
0
 40
0
 40
1
 40
1
 40
1
 40
1
 10
203.994022
 20
79.975774
 30
0.0
 10
205.233454
 20
77.647590
 30
0.0
 10
206.649574
 20
70.383950
 30
0.0
 10
207.645190
 20
61.248030
 30
0.0
  0
SPLINE
  5
1be
100
AcDbEntity
  8
0
 62
7
100
AcDbSpline
 70
8
 71
3
 72
8
 73
4
 74
0
 40
0
 40
0
 40
0
 40
0
 40
1
 40
1
 40
1
 40
1
 10
207.645190
 20
61.248030
 30
0.0
 10
208.138998
 20
56.716758
 30
0.0
 10
207.787342
 20
55.490710
 30
0.0
 10
204.059926
 20
48.748030
 30
0.0
  0
SPLINE
  5
1bf
100
AcDbEntity
  8
0
 62
7
100
AcDbSpline
 70
8
 71
3
 72
8
 73
4
 74
0
 40
0
 40
0
 40
0
 40
0
 40
1
 40
1
 40
1
 40
1
 10
204.059926
 20
48.748030
 30
0.0
 10
200.789078
 20
42.831246
 30
0.0
 10
199.561758
 20
39.149838
 30
0.0
 10
198.175126
 20
31.096342
 30
0.0
  0
SPLINE
  5
1c0
100
AcDbEntity
  8
0
 62
7
100
AcDbSpline
 70
8
 71
3
 72
8
 73
4
 74
0
 40
0
 40
0
 40
0
 40
0
 40
1
 40
1
 40
1
 40
1
 10
198.175126
 20
31.096342
 30
0.0
 10
196.476286
 20
21.229478
 30
0.0
 10
196.265246
 20
20.738382
 30
0.0
 10
191.222638
 20
14.917630
 30
0.0
  0
SPLINE
  5
1c1
100
AcDbEntity
  8
0
 62
7
100
AcDbSpline
 70
8
 71
3
 72
8
 73
4
 74
0
 40
0
 40
0
 40
0
 40
0
 40
1
 40
1
 40
1
 40
1
 10
191.222638
 20
14.917630
 30
0.0
 10
185.745646
 20
8.595446
 30
0.0
 10
184.993006
 20
8.253510
 30
0.0
 10
174.596550
 20
7.363870
 30
0.0
  0
SPLINE
  5
1c2
100
AcDbEntity
  8
0
 62
7
100
AcDbSpline
 70
8
 71
3
 72
8
 73
4
 74
0
 40
0
 40
0
 40
0
 40
0
 40
1
 40
1
 40
1
 40
1
 10
174.596550
 20
7.363870
 30
0.0
 10
168.945742
 20
6.880318
 30
0.0
 10
168.273366
 20
7.066398
 30
0.0
 10
163.043326
 20
10.561254
 30
0.0
  0
LWPOLYLINE
  5
1c3
100
AcDbEntity
  8
0
 62
7
100
AcDbPolyline
 90
7
 70
1
 10
235.650350
 20
22.234966
 30
0.0
 10
233.325358
 20
19.909990
 30
0.0
 10
224.460958
 20
22.754758
 30
0.0
 10
215.596550
 20
25.599526
 30
0.0
 10
213.773182
 20
31.640790
 30
0.0
 10
211.949806
 20
37.682046
 30
0.0
 10
215.883198
 20
46.477054
 30
0.0
  0
SPLINE
  5
1c4
100
AcDbEntity
  8
0
 62
7
100
AcDbSpline
 70
8
 71
3
 72
8
 73
4
 74
0
 40
0
 40
0
 40
0
 40
0
 40
1
 40
1
 40
1
 40
1
 10
142.296550
 20
288.572079
 30
0.0
 10
143.764542
 20
290.040065
 30
0.0
 10
148.823758
 20
293.780107
 30
0.0
 10
148.823758
 20
292.343140
 30
0.0
  0
SPLINE
  5
1c5
100
AcDbEntity
  8
0
 62
7
100
AcDbSpline
 70
8
 71
3
 72
8
 73
4
 74
0
 40
0
 40
0
 40
0
 40
0
 40
1
 40
1
 40
1
 40
1
 10
148.823758
 20
292.343140
 30
0.0
 10
148.823758
 20
291.655460
 30
0.0
 10
149.877454
 20
293.238292
 30
0.0
 10
150.909406
 20
292.424160
 30
0.0
  0
SPLINE
  5
1c6
100
AcDbEntity
  8
0
 62
7
100
AcDbSpline
 70
8
 71
3
 72
8
 73
4
 74
0
 40
0
 40
0
 40
0
 40
0
 40
1
 40
1
 40
1
 40
1
 10
150.909406
 20
292.424160
 30
0.0
 10
151.930854
 20
291.618315
 30
0.0
 10
154.508910
 20
289.693052
 30
0.0
 10
154.803550
 20
289.398415
 30
0.0
  0
SPLINE
  5
1c7
100
AcDbEntity
  8
0
 62
7
100
AcDbSpline
 70
8
 71
3
 72
8
 73
4
 74
0
 40
0
 40
0
 40
0
 40
0
 40
1
 40
1
 40
1
 40
1
 10
154.803550
 20
289.398415
 30
0.0
 10
155.098182
 20
289.103778
 30
0.0
 10
155.023830
 20
285.917319
 30
0.0
 10
154.638310
 20
282.317395
 30
0.0
  0
SPLINE
  5
1c8
100
AcDbEntity
  8
0
 62
7
100
AcDbSpline
 70
8
 71
3
 72
8
 73
4
 74
0
 40
0
 40
0
 40
0
 40
0
 40
1
 40
1
 40
1
 40
1
 10
154.638310
 20
282.317395
 30
0.0
 10
153.857726
 20
275.028468
 30
0.0
 10
153.988422
 20
275.112692
 30
0.0
 10
142.721550
 20
279.628481
 30
0.0
  0
SPLINE
  5
1c9
100
AcDbEntity
  8
0
 62
7
100
AcDbSpline
 70
8
 71
3
 72
8
 73
4
 74
0
 40
0
 40
0
 40
0
 40
0
 40
1
 40
1
 40
1
 40
1
 10
142.721550
 20
279.628481
 30
0.0
 10
141.096550
 20
285.662079
 30
0.0
 10
141.636550
 20
287.912079
 30
0.0
 10
142.296550
 20
288.572079
 30
0.0
  0
LWPOLYLINE
  5
1ca
100
AcDbEntity
  8
0
 62
7
100
AcDbPolyline
 90
2
 70
1
 10
163.043326
 20
10.561254
 30
0.0
 10
163.043326
 20
10.561254
 30
0.0
  0
SPLINE
  5
1cb
100
AcDbEntity
  8
0
 62
7
100
AcDbSpline
 70
8
 71
3
 72
8
 73
4
 74
0
 40
0
 40
0
 40
0
 40
0
 40
1
 40
1
 40
1
 40
1
 10
164.940030
 20
279.522076
 30
0.0
 10
163.975646
 20
284.142999
 30
0.0
 10
164.563566
 20
286.528593
 30
0.0
 10
167.404510
 20
289.522079
 30
0.0
  0
SPLINE
  5
1cc
100
AcDbEntity
  8
0
 62
7
100
AcDbSpline
 70
8
 71
3
 72
8
 73
4
 74
0
 40
0
 40
0
 40
0
 40
0
 40
1
 40
1
 40
1
 40
1
 10
167.404510
 20
289.522079
 30
0.0
 10
171.001158
 20
293.311864
 30
0.0
 10
174.189174
 20
293.662413
 30
0.0
 10
177.057590
 20
290.583518
 30
0.0
  0
SPLINE
  5
1cd
100
AcDbEntity
  8
0
 62
7
100
AcDbSpline
 70
8
 71
3
 72
8
 73
4
 74
0
 40
0
 40
0
 40
0
 40
0
 40
1
 40
1
 40
1
 40
1
 10
177.057590
 20
290.583518
 30
0.0
 10
180.775462
 20
286.592858
 30
0.0
 10
179.231766
 20
280.772076
 30
0.0
 10
174.455566
 20
280.772076
 30
0.0
  0
SPLINE
  5
1ce
100
AcDbEntity
  8
0
 62
7
100
AcDbSpline
 70
8
 71
3
 72
8
 73
4
 74
0
 40
0
 40
0
 40
0
 40
0
 40
1
 40
1
 40
1
 40
1
 10
174.455566
 20
280.772076
 30
0.0
 10
173.223030
 20
280.772076
 30
0.0
 10
171.936470
 20
280.322076
 30
0.0
 10
171.596550
 20
279.772076
 30
0.0
  0
SPLINE
  5
1cf
100
AcDbEntity
  8
0
 62
7
100
AcDbSpline
 70
8
 71
3
 72
8
 73
4
 74
0
 40
0
 40
0
 40
0
 40
0
 40
1
 40
1
 40
1
 40
1
 10
171.596550
 20
279.772076
 30
0.0
 10
170.882262
 20
278.616332
 30
0.0
 10
165.173798
 20
278.401940
 30
0.0
 10
164.940030
 20
279.522076
 30
0.0
  0
LWPOLYLINE
  5
1d0
100
AcDbEntity
  8
0
 62
7
100
AcDbPolyline
 90
2
 70
1
 10
142.296550
 20
288.572079
 30
0.0
 10
142.296550
 20
288.572079
 30
0.0
  0
SPLINE
  5
1d1
100
AcDbEntity
  8
0
 62
7
100
AcDbSpline
 70
8
 71
3
 72
8
 73
4
 74
0
 40
0
 40
0
 40
0
 40
0
 40
1
 40
1
 40
1
 40
1
 10
310.909046
 20
143.455190
 30
0.0
 10
311.630918
 20
143.744062
 30
0.0
 10
312.493430
 20
143.708542
 30
0.0
 10
312.825718
 20
143.376310
 30
0.0
  0
SPLINE
  5
1d2
100
AcDbEntity
  8
0
 62
7
100
AcDbSpline
 70
8
 71
3
 72
8
 73
4
 74
0
 40
0
 40
0
 40
0
 40
0
 40
1
 40
1
 40
1
 40
1
 10
312.825718
 20
143.376310
 30
0.0
 10
313.158006
 20
143.044022
 30
0.0
 10
312.567382
 20
142.807670
 30
0.0
 10
311.513222
 20
142.851094
 30
0.0
  0
SPLINE
  5
1d3
100
AcDbEntity
  8
0
 62
7
100
AcDbSpline
 70
8
 71
3
 72
8
 73
4
 74
0
 40
0
 40
0
 40
0
 40
0
 40
1
 40
1
 40
1
 40
1
 10
311.513222
 20
142.851094
 30
0.0
 10
310.348270
 20
142.899094
 30
0.0
 10
310.111318
 20
143.136030
 30
0.0
 10
310.909046
 20
143.455254
 30
0.0
  0
LWPOLYLINE
  5
1d4
100
AcDbEntity
  8
0
 62
7
100
AcDbPolyline
 90
2
 70
1
 10
164.940030
 20
279.522076
 30
0.0
 10
164.940030
 20
279.522076
 30
0.0
  0
LWPOLYLINE
  5
1d5
100
AcDbEntity
  8
0
 62
7
100
AcDbPolyline
 90
2
 70
1
 10
310.909046
 20
143.455254
 30
0.0
 10
310.909046
 20
143.455190
 30
0.0
  0
ENDSEC
  0
SECTION
  2
OBJECTS
  0
DICTIONARY
  5
C
330
0
100
AcDbDictionary
  3
ACAD_GROUP
350
D
  3
ACAD_MLINESTYLE
350
17
  0
DICTIONARY
  5
D
330
C
100
AcDbDictionary
  0
DICTIONARY
  5
1A
330
C
100
AcDbDictionary
  0
DICTIONARY
  5
17
330
C
100
AcDbDictionary
  3
STANDARD
350
18
  0
DICTIONARY
  5
19
330
C
100
AcDbDictionary
  0
ENDSEC
  0
EOF
