  0
SECTION
  2
HEADER
  9
$ACADVER
  1
AC1015
  9
$ACADMAINTVER
 70
     6
  9
$DWGCODEPAGE
  3
ANSI_1252
  9
$INSBASE
 10
0.0
 20
0.0
 30
0.0
  9
$EXTMIN
 10
1.000000000000000E+20
 20
1.000000000000000E+20
 30
1.000000000000000E+20
  9
$EXTMAX
 10
-1.000000000000000E+20
 20
-1.000000000000000E+20
 30
-1.000000000000000E+20
  9
$LIMMIN
 10
0.0
 20
0.0
  9
$LIMMAX
 10
12.0
 20
9.0
  9
$ORTHOMODE
 70
     0
  9
$REGENMODE
 70
     1
  9
$FILLMODE
 70
     1
  9
$QTEXTMODE
 70
     0
  9
$MIRRTEXT
 70
     1
  9
$LTSCALE
 40
1.0
  9
$ATTMODE
 70
     1
  9
$TEXTSIZE
 40
0.2
  9
$TRACEWID
 40
0.05
  9
$TEXTSTYLE
  7
Standard
  9
$CLAYER
  8
0
  9
$CELTYPE
  6
ByLayer
  9
$CECOLOR
 62
   256
  9
$CELTSCALE
 40
1.0
  9
$DISPSILH
 70
     0
  9
$DIMSCALE
 40
1.0
  9
$DIMASZ
 40
0.18
  9
$DIMEXO
 40
0.0625
  9
$DIMDLI
 40
0.38
  9
$DIMRND
 40
0.0
  9
$DIMDLE
 40
0.0
  9
$DIMEXE
 40
0.18
  9
$DIMTP
 40
0.0
  9
$DIMTM
 40
0.0
  9
$DIMTXT
 40
0.18
  9
$DIMCEN
 40
0.09
  9
$DIMTSZ
 40
0.0
  9
$DIMTOL
 70
     0
  9
$DIMLIM
 70
     0
  9
$DIMTIH
 70
     1
  9
$DIMTOH
 70
     1
  9
$DIMSE1
 70
     0
  9
$DIMSE2
 70
     0
  9
$DIMTAD
 70
     0
  9
$DIMZIN
 70
     0
  9
$DIMBLK
  1

  9
$DIMASO
 70
     1
  9
$DIMSHO
 70
     1
  9
$DIMPOST
  1

  9
$DIMAPOST
  1

  9
$DIMALT
 70
     0
  9
$DIMALTD
 70
     2
  9
$DIMALTF
 40
25.4
  9
$DIMLFAC
 40
1.0
  9
$DIMTOFL
 70
     0
  9
$DIMTVP
 40
0.0
  9
$DIMTIX
 70
     0
  9
$DIMSOXD
 70
     0
  9
$DIMSAH
 70
     0
  9
$DIMBLK1
  1

  9
$DIMBLK2
  1

  9
$DIMSTYLE
  2
Standard
  9
$DIMCLRD
 70
     0
  9
$DIMCLRE
 70
     0
  9
$DIMCLRT
 70
     0
  9
$DIMTFAC
 40
1.0
  9
$DIMGAP
 40
0.09
  9
$DIMJUST
 70
     0
  9
$DIMSD1
 70
     0
  9
$DIMSD2
 70
     0
  9
$DIMTOLJ
 70
     1
  9
$DIMTZIN
 70
     0
  9
$DIMALTZ
 70
     0
  9
$DIMALTTZ
 70
     0
  9
$DIMUPT
 70
     0
  9
$DIMDEC
 70
     4
  9
$DIMTDEC
 70
     4
  9
$DIMALTU
 70
     2
  9
$DIMALTTD
 70
     2
  9
$DIMTXSTY
  7
Standard
  9
$DIMAUNIT
 70
     0
  9
$DIMADEC
 70
     0
  9
$DIMALTRND
 40
0.0
  9
$DIMAZIN
 70
     0
  9
$DIMDSEP
 70
    46
  9
$DIMATFIT
 70
     3
  9
$DIMFRAC
 70
     0
  9
$DIMLDRBLK
  1

  9
$DIMLUNIT
 70
     2
  9
$DIMLWD
 70
    -2
  9
$DIMLWE
 70
    -2
  9
$DIMTMOVE
 70
     0
  9
$LUNITS
 70
     2
  9
$LUPREC
 70
     4
  9
$SKETCHINC
 40
0.1
  9
$FILLETRAD
 40
0.5
  9
$AUNITS
 70
     0
  9
$AUPREC
 70
     0
  9
$MENU
  1
.
  9
$ELEVATION
 40
0.0
  9
$PELEVATION
 40
0.0
  9
$THICKNESS
 40
0.0
  9
$LIMCHECK
 70
     0
  9
$CHAMFERA
 40
0.5
  9
$CHAMFERB
 40
0.5
  9
$CHAMFERC
 40
1.0
  9
$CHAMFERD
 40
0.0
  9
$SKPOLY
 70
     0
  9
$TDCREATE
 40
2458159.427780231
  9
$TDUCREATE
 40
2458159.386113565
  9
$TDUPDATE
 40
2458159.427780243
  9
$TDUUPDATE
 40
2458159.386113577
  9
$TDINDWG
 40
0.0000000116
  9
$TDUSRTIMER
 40
0.0000000116
  9
$USRTIMER
 70
     1
  9
$ANGBASE
 50
0.0
  9
$ANGDIR
 70
     0
  9
$PDMODE
 70
     0
  9
$PDSIZE
 40
0.0
  9
$PLINEWID
 40
0.0
  9
$SPLFRAME
 70
     0
  9
$SPLINETYPE
 70
     6
  9
$SPLINESEGS
 70
     8
  9
$HANDSEED
  5
210
  9
$SURFTAB1
 70
     6
  9
$SURFTAB2
 70
     6
  9
$SURFTYPE
 70
     6
  9
$SURFU
 70
     6
  9
$SURFV
 70
     6
  9
$UCSBASE
  2

  9
$UCSNAME
  2

  9
$UCSORG
 10
0.0
 20
0.0
 30
0.0
  9
$UCSXDIR
 10
1.0
 20
0.0
 30
0.0
  9
$UCSYDIR
 10
0.0
 20
1.0
 30
0.0
  9
$UCSORTHOREF
  2

  9
$UCSORTHOVIEW
 70
     0
  9
$UCSORGTOP
 10
0.0
 20
0.0
 30
0.0
  9
$UCSORGBOTTOM
 10
0.0
 20
0.0
 30
0.0
  9
$UCSORGLEFT
 10
0.0
 20
0.0
 30
0.0
  9
$UCSORGRIGHT
 10
0.0
 20
0.0
 30
0.0
  9
$UCSORGFRONT
 10
0.0
 20
0.0
 30
0.0
  9
$UCSORGBACK
 10
0.0
 20
0.0
 30
0.0
  9
$PUCSBASE
  2

  9
$PUCSNAME
  2

  9
$PUCSORG
 10
0.0
 20
0.0
 30
0.0
  9
$PUCSXDIR
 10
1.0
 20
0.0
 30
0.0
  9
$PUCSYDIR
 10
0.0
 20
1.0
 30
0.0
  9
$PUCSORTHOREF
  2

  9
$PUCSORTHOVIEW
 70
     0
  9
$PUCSORGTOP
 10
0.0
 20
0.0
 30
0.0
  9
$PUCSORGBOTTOM
 10
0.0
 20
0.0
 30
0.0
  9
$PUCSORGLEFT
 10
0.0
 20
0.0
 30
0.0
  9
$PUCSORGRIGHT
 10
0.0
 20
0.0
 30
0.0
  9
$PUCSORGFRONT
 10
0.0
 20
0.0
 30
0.0
  9
$PUCSORGBACK
 10
0.0
 20
0.0
 30
0.0
  9
$USERI1
 70
     0
  9
$USERI2
 70
     0
  9
$USERI3
 70
     0
  9
$USERI4
 70
     0
  9
$USERI5
 70
     0
  9
$USERR1
 40
0.0
  9
$USERR2
 40
0.0
  9
$USERR3
 40
0.0
  9
$USERR4
 40
0.0
  9
$USERR5
 40
0.0
  9
$WORLDVIEW
 70
     1
  9
$SHADEDGE
 70
     3
  9
$SHADEDIF
 70
    70
  9
$TILEMODE
 70
     1
  9
$MAXACTVP
 70
    64
  9
$PINSBASE
 10
0.0
 20
0.0
 30
0.0
  9
$PLIMCHECK
 70
     0
  9
$PEXTMIN
 10
1.000000000000000E+20
 20
1.000000000000000E+20
 30
1.000000000000000E+20
  9
$PEXTMAX
 10
-1.000000000000000E+20
 20
-1.000000000000000E+20
 30
-1.000000000000000E+20
  9
$PLIMMIN
 10
0.0
 20
0.0
  9
$PLIMMAX
 10
12.0
 20
9.0
  9
$UNITMODE
 70
     0
  9
$VISRETAIN
 70
     1
  9
$PLINEGEN
 70
     0
  9
$PSLTSCALE
 70
     1
  9
$TREEDEPTH
 70
  3020
  9
$CMLSTYLE
  2
Standard
  9
$CMLJUST
 70
     0
  9
$CMLSCALE
 40
1.0
  9
$PROXYGRAPHICS
 70
     1
  9
$MEASUREMENT
 70
     0
  9
$CELWEIGHT
370
    -1
  9
$ENDCAPS
280
     0
  9
$JOINSTYLE
280
     0
  9
$LWDISPLAY
290
     1
  9
$INSUNITS
 70
     1
  9
$HYPERLINKBASE
  1

  9
$STYLESHEET
  1

  9
$XEDIT
290
     1
  9
$CEPSNTYPE
380
     0
  9
$PSTYLEMODE
290
     1
  9
$FINGERPRINTGUID
  2
{CF9491BD-DD9F-4EC8-966D-1D4DC3296C3B}
  9
$VERSIONGUID
  2
{FAEB1C32-E019-11D5-929B-00C0DF256EC4}
  9
$EXTNAMES
290
     1
  9
$PSVPSCALE
 40
0.0
  9
$OLESTARTUP
290
     0
  0
ENDSEC
  0
SECTION
  2
CLASSES
  0
CLASS
  1
ACDBDICTIONARYWDFLT
  2
AcDbDictionaryWithDefault
  3
ObjectDBX Classes
 90
        0
280
     0
281
     0
  0
CLASS
  1
VISUALSTYLE
  2
AcDbVisualStyle
  3
ObjectDBX Classes
 90
     4095
280
     0
281
     0
  0
CLASS
  1
ACDBPLACEHOLDER
  2
AcDbPlaceHolder
  3
ObjectDBX Classes
 90
        0
280
     0
281
     0
  0
CLASS
  1
LAYOUT
  2
AcDbLayout
  3
ObjectDBX Classes
 90
        0
280
     0
281
     0
  0
ENDSEC
  0
SECTION
  2
TABLES
  0
TABLE
  2
VPORT
  5
8
330
0
100
AcDbSymbolTable
 70
     1
  0
VPORT
  5
29
330
8
100
AcDbSymbolTableRecord
100
AcDbViewportTableRecord
  2
*Active
 70
     0
 10
0.0
 20
0.0
 11
1.0
 21
1.0
 12
0.0
 22
0.0
 13
0.0
 23
0.0
 14
0.5
 24
0.5
 15
0.5
 25
0.5
 16
0.0
 26
0.0
 36
1.0
 17
79.99994030118056
 27
250.0000373723958
 37
0.0
 40
500.0000747447916
 41
0.3199997133680985
 42
50.0
 43
0.0
 44
0.0
 50
0.0
 51
0.0
 71
     0
 72
   100
 73
     1
 74
     3
 75
     0
 76
     0
 77
     0
 78
     0
281
     0
 65
     1
110
0.0
120
0.0
130
0.0
111
1.0
121
0.0
131
0.0
112
0.0
122
1.0
132
0.0
 79
     0
146
0.0
  0
ENDTAB
  0
TABLE
  2
LTYPE
  5
5
330
0
100
AcDbSymbolTable
 70
     1
  0
LTYPE
  5
14
330
5
100
AcDbSymbolTableRecord
100
AcDbLinetypeTableRecord
  2
ByBlock
 70
     0
  3

 72
    65
 73
     0
 40
0.0
  0
LTYPE
  5
15
330
5
100
AcDbSymbolTableRecord
100
AcDbLinetypeTableRecord
  2
ByLayer
 70
     0
  3

 72
    65
 73
     0
 40
0.0
  0
LTYPE
  5
16
330
5
100
AcDbSymbolTableRecord
100
AcDbLinetypeTableRecord
  2
Continuous
 70
     0
  3
Solid line
 72
    65
 73
     0
 40
0.0
  0
ENDTAB
  0
TABLE
  2
LAYER
  5
2
330
0
100
AcDbSymbolTable
 70
     1
  0
LAYER
  5
10
330
2
100
AcDbSymbolTableRecord
100
AcDbLayerTableRecord
  2
0
 70
     0
 62
     7
  6
Continuous
370
    -3
390
F
  0
ENDTAB
  0
TABLE
  2
STYLE
  5
3
330
0
100
AcDbSymbolTable
 70
     1
  0
STYLE
  5
11
330
3
100
AcDbSymbolTableRecord
100
AcDbTextStyleTableRecord
  2
Standard
 70
     0
 40
0.0
 41
1.0
 50
0.0
 71
     0
 42
0.2
  3
txt
  4

  0
ENDTAB
  0
TABLE
  2
VIEW
  5
6
330
0
100
AcDbSymbolTable
 70
     0
  0
ENDTAB
  0
TABLE
  2
UCS
  5
7
330
0
100
AcDbSymbolTable
 70
     0
  0
ENDTAB
  0
TABLE
  2
APPID
  5
9
330
0
100
AcDbSymbolTable
 70
     1
  0
APPID
  5
12
330
9
100
AcDbSymbolTableRecord
100
AcDbRegAppTableRecord
  2
ACAD
 70
     0
  0
ENDTAB
  0
TABLE
  2
DIMSTYLE
  5
A
330
0
100
AcDbSymbolTable
 70
     1
100
AcDbDimStyleTable
  0
DIMSTYLE
105
27
330
A
100
AcDbSymbolTableRecord
100
AcDbDimStyleTableRecord
  2
Standard
 70
     0
340
11
  0
ENDTAB
  0
TABLE
  2
BLOCK_RECORD
  5
1
330
0
100
AcDbSymbolTable
 70
     9
  0
BLOCK_RECORD
  5
1F
330
1
100
AcDbSymbolTableRecord
100
AcDbBlockTableRecord
  2
*Model_Space
340
22
  0
BLOCK_RECORD
  5
1B
330
1
100
AcDbSymbolTableRecord
100
AcDbBlockTableRecord
  2
*Paper_Space
340
1E
  0
BLOCK_RECORD
  5
23
330
1
100
AcDbSymbolTableRecord
100
AcDbBlockTableRecord
  2
*Paper_Space0
340
26
  0
BLOCK_RECORD
  5
3B
330
1
100
AcDbSymbolTableRecord
100
AcDbBlockTableRecord
  2
block 2
340
0
102
{BLKREFS
331
3C
102
}
  0
BLOCK_RECORD
  5
77
330
1
100
AcDbSymbolTableRecord
100
AcDbBlockTableRecord
  2
block 3
340
0
102
{BLKREFS
331
78
102
}
  0
BLOCK_RECORD
  5
B5
330
1
100
AcDbSymbolTableRecord
100
AcDbBlockTableRecord
  2
block 4
340
0
102
{BLKREFS
331
B6
102
}
  0
BLOCK_RECORD
  5
103
330
1
100
AcDbSymbolTableRecord
100
AcDbBlockTableRecord
  2
block 5
340
0
102
{BLKREFS
331
104
102
}
  0
BLOCK_RECORD
  5
108
330
1
100
AcDbSymbolTableRecord
100
AcDbBlockTableRecord
  2
block 6
340
0
102
{BLKREFS
331
109
102
}
  0
BLOCK_RECORD
  5
10D
330
1
100
AcDbSymbolTableRecord
100
AcDbBlockTableRecord
  2
block 7
340
0
102
{BLKREFS
331
10E
102
}
  0
BLOCK_RECORD
  5
16D
330
1
100
AcDbSymbolTableRecord
100
AcDbBlockTableRecord
  2
block 8
340
0
102
{BLKREFS
331
16E
102
}
  0
BLOCK_RECORD
  5
1A2
330
1
100
AcDbSymbolTableRecord
100
AcDbBlockTableRecord
  2
block 9
340
0
102
{BLKREFS
331
1A3
102
}
  0
ENDTAB
  0
ENDSEC
  0
SECTION
  2
BLOCKS
  0
BLOCK
  5
20
330
1F
100
AcDbEntity
  8
0
100
AcDbBlockBegin
  2
*Model_Space
 70
     0
 71
     0
 10
0.0
 20
0.0
 30
0.0
  3
*Model_Space
  1

  0
ENDBLK
  5
21
330
1F
100
AcDbEntity
  8
0
100
AcDbBlockEnd
  0
BLOCK
  5
1C
330
1B
100
AcDbEntity
 67
     1
  8
0
100
AcDbBlockBegin
  2
*Paper_Space
 70
     0
 71
     0
 10
0.0
 20
0.0
 30
0.0
  3
*Paper_Space
  1

  0
ENDBLK
  5
1D
330
1B
100
AcDbEntity
 67
     1
  8
0
100
AcDbBlockEnd
  0
BLOCK
  5
24
330
23
100
AcDbEntity
  8
0
100
AcDbBlockBegin
  2
*Paper_Space0
 70
     0
 71
     0
 10
0.0
 20
0.0
 30
0.0
  3
*Paper_Space0
  1

  0
ENDBLK
  5
25
330
23
100
AcDbEntity
  8
0
100
AcDbBlockEnd
  0
BLOCK
  5
3D
330
3B
100
AcDbEntity
  8
0
100
AcDbBlockBegin
  2
block 2
 70
     0
 71
     0
 10
0.0
 20
0.0
 30
0.0
  3
block 2
  1

  0
POLYLINE
  5
3F
330
3B
100
AcDbEntity
  8
0
 62
     7
370
    25
100
AcDb2dPolyline
 66
     1
 10
0.0
 20
0.0
 30
0.0
  0
VERTEX
  5
40
330
3F
100
AcDbEntity
  8
0
 62
     7
370
    25
100
AcDbVertex
100
AcDb2dVertex
 10
58.15614012217971
 20
248.8303585532438
 30
0.0
  0
VERTEX
  5
41
330
3F
100
AcDbEntity
  8
0
 62
     7
370
    25
100
AcDbVertex
100
AcDb2dVertex
 10
58.85449542799471
 20
249.0910144776578
 30
0.0
  0
VERTEX
  5
42
330
3F
100
AcDbEntity
  8
0
 62
     7
370
    25
100
AcDbVertex
100
AcDb2dVertex
 10
59.55667478979833
 20
249.2942062093778
 30
0.0
  0
VERTEX
  5
43
330
3F
100
AcDbEntity
  8
0
 62
     7
370
    25
100
AcDbVertex
100
AcDb2dVertex
 10
60.25714882933675
 20
249.4409672770495
 30
0.0
  0
VERTEX
  5
44
330
3F
100
AcDbEntity
  8
0
 62
     7
370
    25
100
AcDbVertex
100
AcDb2dVertex
 10
60.95262748042156
 20
249.5344327175643
 30
0.0
  0
VERTEX
  5
45
330
3F
100
AcDbEntity
  8
0
 62
     7
370
    25
100
AcDbVertex
100
AcDb2dVertex
 10
61.64171547938123
 20
249.5790122531434
 30
0.0
  0
VERTEX
  5
46
330
3F
100
AcDbEntity
  8
0
 62
     7
370
    25
100
AcDbVertex
100
AcDb2dVertex
 10
62.32427502239636
 20
249.5800802327439
 30
0.0
  0
VERTEX
  5
47
330
3F
100
AcDbEntity
  8
0
 62
     7
370
    25
100
AcDbVertex
100
AcDb2dVertex
 10
63.67290932652968
 20
249.4736612332045
 30
0.0
  0
VERTEX
  5
48
330
3F
100
AcDbEntity
  8
0
 62
     7
370
    25
100
AcDbVertex
100
AcDb2dVertex
 10
65.00488659399183
 20
249.2523827501869
 30
0.0
  0
VERTEX
  5
49
330
3F
100
AcDbEntity
  8
0
 62
     7
370
    25
100
AcDbVertex
100
AcDb2dVertex
 10
66.31598658281337
 20
248.9297840089481
 30
0.0
  0
VERTEX
  5
4A
330
3F
100
AcDbEntity
  8
0
 62
     7
370
    25
100
AcDbVertex
100
AcDb2dVertex
 10
66.95646428447616
 20
248.7251108861694
 30
0.0
  0
VERTEX
  5
4B
330
3F
100
AcDbEntity
  8
0
 62
     7
370
    25
100
AcDbVertex
100
AcDb2dVertex
 10
67.58021604755807
 20
248.4852977894411
 30
0.0
  0
VERTEX
  5
4C
330
3F
100
AcDbEntity
  8
0
 62
     7
370
    25
100
AcDbVertex
100
AcDb2dVertex
 10
68.18097179827593
 20
248.2047292131224
 30
0.0
  0
VERTEX
  5
4D
330
3F
100
AcDbEntity
  8
0
 62
     7
370
    25
100
AcDbVertex
100
AcDb2dVertex
 10
68.75160018897529
 20
247.8779963573013
 30
0.0
  0
VERTEX
  5
4E
330
3F
100
AcDbEntity
  8
0
 62
     7
370
    25
100
AcDbVertex
100
AcDb2dVertex
 10
69.2844703331563
 20
247.5006894997568
 30
0.0
  0
VERTEX
  5
4F
330
3F
100
AcDbEntity
  8
0
 62
     7
370
    25
100
AcDbVertex
100
AcDb2dVertex
 10
69.77162406024806
 20
247.0700181131457
 30
0.0
  0
VERTEX
  5
50
330
3F
100
AcDbEntity
  8
0
 62
     7
370
    25
100
AcDbVertex
100
AcDb2dVertex
 10
70.20503429776991
 20
246.5857410407841
 30
0.0
  0
VERTEX
  5
51
330
3F
100
AcDbEntity
  8
0
 62
     7
370
    25
100
AcDbVertex
100
AcDb2dVertex
 10
70.57684622801551
 20
246.0508555157442
 30
0.0
  0
VERTEX
  5
52
330
3F
100
AcDbEntity
  8
0
 62
     7
370
    25
100
AcDbVertex
100
AcDb2dVertex
 10
70.87960121925926
 20
245.4723206309062
 30
0.0
  0
VERTEX
  5
53
330
3F
100
AcDbEntity
  8
0
 62
     7
370
    25
100
AcDbVertex
100
AcDb2dVertex
 10
71.10646075696296
 20
244.8609195351389
 30
0.0
  0
VERTEX
  5
54
330
3F
100
AcDbEntity
  8
0
 62
     7
370
    25
100
AcDbVertex
100
AcDb2dVertex
 10
71.251258120208
 20
244.2307771199319
 30
0.0
  0
VERTEX
  5
55
330
3F
100
AcDbEntity
  8
0
 62
     7
370
    25
100
AcDbVertex
100
AcDb2dVertex
 10
71.30872231290198
 20
243.598016432156
 30
0.0
  0
VERTEX
  5
56
330
3F
100
AcDbEntity
  8
0
 62
     7
370
    25
100
AcDbVertex
100
AcDb2dVertex
 10
71.27451251473344
 20
242.9797251454183
 30
0.0
  0
VERTEX
  5
57
330
3F
100
AcDbEntity
  8
0
 62
     7
370
    25
100
AcDbVertex
100
AcDb2dVertex
 10
71.14537311046885
 20
242.3931287371448
 30
0.0
  0
VERTEX
  5
58
330
3F
100
AcDbEntity
  8
0
 62
     7
370
    25
100
AcDbVertex
100
AcDb2dVertex
 10
70.91928871924934
 20
241.854246901342
 30
0.0
  0
VERTEX
  5
59
330
3F
100
AcDbEntity
  8
0
 62
     7
370
    25
100
AcDbVertex
100
AcDb2dVertex
 10
70.59557032197783
 20
241.377307882364
 30
0.0
  0
VERTEX
  5
5A
330
3F
100
AcDbEntity
  8
0
 62
     7
370
    25
100
AcDbVertex
100
AcDb2dVertex
 10
70.17499306513854
 20
240.9730259271699
 30
0.0
  0
VERTEX
  5
5B
330
3F
100
AcDbEntity
  8
0
 62
     7
370
    25
100
AcDbVertex
100
AcDb2dVertex
 10
69.65993406461627
 20
240.6483256776851
 30
0.0
  0
VERTEX
  5
5C
330
3F
100
AcDbEntity
  8
0
 62
     7
370
    25
100
AcDbVertex
100
AcDb2dVertex
 10
69.05430350378677
 20
240.4061010141172
 30
0.0
  0
VERTEX
  5
5D
330
3F
100
AcDbEntity
  8
0
 62
     7
370
    25
100
AcDbVertex
100
AcDb2dVertex
 10
68.3635790844716
 20
240.2455940154594
 30
0.0
  0
VERTEX
  5
5E
330
3F
100
AcDbEntity
  8
0
 62
     7
370
    25
100
AcDbVertex
100
AcDb2dVertex
 10
67.59463377216383
 20
240.1631184295425
 30
0.0
  0
VERTEX
  5
5F
330
3F
100
AcDbEntity
  8
0
 62
     7
370
    25
100
AcDbVertex
100
AcDb2dVertex
 10
66.75563244316352
 20
240.1528175940416
 30
0.0
  0
VERTEX
  5
60
330
3F
100
AcDbEntity
  8
0
 62
     7
370
    25
100
AcDbVertex
100
AcDb2dVertex
 10
65.85601465910023
 20
240.2070089460246
 30
0.0
  0
VERTEX
  5
61
330
3F
100
AcDbEntity
  8
0
 62
     7
370
    25
100
AcDbVertex
100
AcDb2dVertex
 10
64.90639131406854
 20
240.3168385900944
 30
0.0
  0
VERTEX
  5
62
330
3F
100
AcDbEntity
  8
0
 62
     7
370
    25
100
AcDbVertex
100
AcDb2dVertex
 10
62.90482528809324
 20
240.6665157818472
 30
0.0
  0
VERTEX
  5
63
330
3F
100
AcDbEntity
  8
0
 62
     7
370
    25
100
AcDbVertex
100
AcDb2dVertex
 10
60.85618203231199
 20
241.1317070252205
 30
0.0
  0
VERTEX
  5
64
330
3F
100
AcDbEntity
  8
0
 62
     7
370
    25
100
AcDbVertex
100
AcDb2dVertex
 10
58.87947237026277
 20
241.6622172789941
 30
0.0
  0
VERTEX
  5
65
330
3F
100
AcDbEntity
  8
0
 62
     7
370
    25
100
AcDbVertex
100
AcDb2dVertex
 10
57.10319836354537
 20
242.2414067319744
 30
0.0
  0
VERTEX
  5
66
330
3F
100
AcDbEntity
  8
0
 62
     7
370
    25
100
AcDbVertex
100
AcDb2dVertex
 10
56.33027396595215
 20
242.5522232466536
 30
0.0
  0
VERTEX
  5
67
330
3F
100
AcDbEntity
  8
0
 62
     7
370
    25
100
AcDbVertex
100
AcDb2dVertex
 10
55.6538639183782
 20
242.8808853559464
 30
0.0
  0
VERTEX
  5
68
330
3F
100
AcDbEntity
  8
0
 62
     7
370
    25
100
AcDbVertex
100
AcDb2dVertex
 10
55.08683565246093
 20
243.2304936457896
 30
0.0
  0
VERTEX
  5
69
330
3F
100
AcDbEntity
  8
0
 62
     7
370
    25
100
AcDbVertex
100
AcDb2dVertex
 10
54.63993786611432
 20
243.6038730944809
 30
0.0
  0
VERTEX
  5
6A
330
3F
100
AcDbEntity
  8
0
 62
     7
370
    25
100
AcDbVertex
100
AcDb2dVertex
 10
54.32126653372871
 20
244.0028840535826
 30
0.0
  0
VERTEX
  5
6B
330
3F
100
AcDbEntity
  8
0
 62
     7
370
    25
100
AcDbVertex
100
AcDb2dVertex
 10
54.13576536732543
 20
244.4281466402818
 30
0.0
  0
VERTEX
  5
6C
330
3F
100
AcDbEntity
  8
0
 62
     7
370
    25
100
AcDbVertex
100
AcDb2dVertex
 10
54.08467460127918
 20
244.8782139144749
 30
0.0
  0
VERTEX
  5
6D
330
3F
100
AcDbEntity
  8
0
 62
     7
370
    25
100
AcDbVertex
100
AcDb2dVertex
 10
54.16496255156292
 20
245.3491240163537
 30
0.0
  0
VERTEX
  5
6E
330
3F
100
AcDbEntity
  8
0
 62
     7
370
    25
100
AcDbVertex
100
AcDb2dVertex
 10
54.36953232147706
 20
245.8345035192705
 30
0.0
  0
VERTEX
  5
6F
330
3F
100
AcDbEntity
  8
0
 62
     7
370
    25
100
AcDbVertex
100
AcDb2dVertex
 10
54.68772134049473
 20
246.3259119392866
 30
0.0
  0
VERTEX
  5
70
330
3F
100
AcDbEntity
  8
0
 62
     7
370
    25
100
AcDbVertex
100
AcDb2dVertex
 10
55.1061109617009
 20
246.8133584994946
 30
0.0
  0
VERTEX
  5
71
330
3F
100
AcDbEntity
  8
0
 62
     7
370
    25
100
AcDbVertex
100
AcDb2dVertex
 10
55.60959444139274
 20
247.2862667567548
 30
0.0
  0
VERTEX
  5
72
330
3F
100
AcDbEntity
  8
0
 62
     7
370
    25
100
AcDbVertex
100
AcDb2dVertex
 10
56.18204873269927
 20
247.7338535621985
 30
0.0
  0
VERTEX
  5
73
330
3F
100
AcDbEntity
  8
0
 62
     7
370
    25
100
AcDbVertex
100
AcDb2dVertex
 10
56.8073163377947
 20
248.1460247860537
 30
0.0
  0
VERTEX
  5
74
330
3F
100
AcDbEntity
  8
0
 62
     7
370
    25
100
AcDbVertex
100
AcDb2dVertex
 10
57.46994600342765
 20
248.5138920819687
 30
0.0
  0
VERTEX
  5
75
330
3F
100
AcDbEntity
  8
0
 62
     7
370
    25
100
AcDbVertex
100
AcDb2dVertex
 10
58.15614012217971
 20
248.8303585532438
 30
0.0
  0
SEQEND
  5
76
330
3F
100
AcDbEntity
  8
0
370
    25
  0
ENDBLK
  5
3E
330
3B
100
AcDbEntity
  8
0
100
AcDbBlockEnd
  0
BLOCK
  5
79
330
77
100
AcDbEntity
  8
0
100
AcDbBlockBegin
  2
block 3
 70
     0
 71
     0
 10
0.0
 20
0.0
 30
0.0
  3
block 3
  1

  0
POLYLINE
  5
7B
330
77
100
AcDbEntity
  8
0
 62
     7
370
    25
100
AcDb2dPolyline
 66
     1
 10
0.0
 20
0.0
 30
0.0
  0
VERTEX
  5
7C
330
7B
100
AcDbEntity
  8
0
 62
     7
370
    25
100
AcDbVertex
100
AcDb2dVertex
 10
92.14913843182381
 20
246.3877858542016
 30
0.0
  0
VERTEX
  5
7D
330
7B
100
AcDbEntity
  8
0
 62
     7
370
    25
100
AcDbVertex
100
AcDb2dVertex
 10
92.51369843607296
 20
247.0969932107952
 30
0.0
  0
VERTEX
  5
7E
330
7B
100
AcDbEntity
  8
0
 62
     7
370
    25
100
AcDbVertex
100
AcDb2dVertex
 10
92.95177677797733
 20
247.7714051029877
 30
0.0
  0
VERTEX
  5
7F
330
7B
100
AcDbEntity
  8
0
 62
     7
370
    25
100
AcDbVertex
100
AcDb2dVertex
 10
93.46626733774454
 20
248.3947606800888
 30
0.0
  0
VERTEX
  5
80
330
7B
100
AcDbEntity
  8
0
 62
     7
370
    25
100
AcDbVertex
100
AcDb2dVertex
 10
94.06140758282145
 20
248.9513158557309
 30
0.0
  0
VERTEX
  5
81
330
7B
100
AcDbEntity
  8
0
 62
     7
370
    25
100
AcDbVertex
100
AcDb2dVertex
 10
94.74150388256461
 20
249.4263256212371
 30
0.0
  0
VERTEX
  5
82
330
7B
100
AcDbEntity
  8
0
 62
     7
370
    25
100
AcDbVertex
100
AcDb2dVertex
 10
95.51017358723357
 20
249.8064919080345
 30
0.0
  0
VERTEX
  5
83
330
7B
100
AcDbEntity
  8
0
 62
     7
370
    25
100
AcDbVertex
100
AcDb2dVertex
 10
96.3692081464806
 20
250.0805837048409
 30
0.0
  0
VERTEX
  5
84
330
7B
100
AcDbEntity
  8
0
 62
     7
370
    25
100
AcDbVertex
100
AcDb2dVertex
 10
97.31767738452474
 20
250.239971047466
 30
0.0
  0
VERTEX
  5
85
330
7B
100
AcDbEntity
  8
0
 62
     7
370
    25
100
AcDbVertex
100
AcDb2dVertex
 10
98.35082706959632
 20
250.2791934595656
 30
0.0
  0
VERTEX
  5
86
330
7B
100
AcDbEntity
  8
0
 62
     7
370
    25
100
AcDbVertex
100
AcDb2dVertex
 10
99.45897648338178
 20
250.1965456188745
 30
0.0
  0
VERTEX
  5
87
330
7B
100
AcDbEntity
  8
0
 62
     7
370
    25
100
AcDbVertex
100
AcDb2dVertex
 10
100.626967205746
 20
249.9944563177097
 30
0.0
  0
VERTEX
  5
88
330
7B
100
AcDbEntity
  8
0
 62
     7
370
    25
100
AcDbVertex
100
AcDb2dVertex
 10
101.8340597618679
 20
249.679540139403
 30
0.0
  0
VERTEX
  5
89
330
7B
100
AcDbEntity
  8
0
 62
     7
370
    25
100
AcDbVertex
100
AcDb2dVertex
 10
103.0548982489758
 20
249.2619601156359
 30
0.0
  0
VERTEX
  5
8A
330
7B
100
AcDbEntity
  8
0
 62
     7
370
    25
100
AcDbVertex
100
AcDb2dVertex
 10
104.2610606293167
 20
248.7547042563877
 30
0.0
  0
VERTEX
  5
8B
330
7B
100
AcDbEntity
  8
0
 62
     7
370
    25
100
AcDbVertex
100
AcDb2dVertex
 10
105.4220922588007
 20
248.172827628929
 30
0.0
  0
VERTEX
  5
8C
330
7B
100
AcDbEntity
  8
0
 62
     7
370
    25
100
AcDbVertex
100
AcDb2dVertex
 10
106.5067805723316
 20
247.5331078482729
 30
0.0
  0
VERTEX
  5
8D
330
7B
100
AcDbEntity
  8
0
 62
     7
370
    25
100
AcDbVertex
100
AcDb2dVertex
 10
107.4842919653164
 20
246.8529081956652
 30
0.0
  0
VERTEX
  5
8E
330
7B
100
AcDbEntity
  8
0
 62
     7
370
    25
100
AcDbVertex
100
AcDb2dVertex
 10
108.3255153809047
 20
246.1499364619
 30
0.0
  0
VERTEX
  5
8F
330
7B
100
AcDbEntity
  8
0
 62
     7
370
    25
100
AcDbVertex
100
AcDb2dVertex
 10
109.0041991914989
 20
245.4412803205841
 30
0.0
  0
VERTEX
  5
90
330
7B
100
AcDbEntity
  8
0
 62
     7
370
    25
100
AcDbVertex
100
AcDb2dVertex
 10
109.4980880802644
 20
244.7430283676337
 30
0.0
  0
VERTEX
  5
91
330
7B
100
AcDbEntity
  8
0
 62
     7
370
    25
100
AcDbVertex
100
AcDb2dVertex
 10
109.6702739526172
 20
244.4023084241425
 30
0.0
  0
VERTEX
  5
92
330
7B
100
AcDbEntity
  8
0
 62
     7
370
    25
100
AcDbVertex
100
AcDb2dVertex
 10
109.7904733340975
 20
244.0693399454931
 30
0.0
  0
VERTEX
  5
93
330
7B
100
AcDbEntity
  8
0
 62
     7
370
    25
100
AcDbVertex
100
AcDb2dVertex
 10
109.857618245105
 20
243.7454665189247
 30
0.0
  0
VERTEX
  5
94
330
7B
100
AcDbEntity
  8
0
 62
     7
370
    25
100
AcDbVertex
100
AcDb2dVertex
 10
109.8711574703621
 20
243.4318939278573
 30
0.0
  0
VERTEX
  5
95
330
7B
100
AcDbEntity
  8
0
 62
     7
370
    25
100
AcDbVertex
100
AcDb2dVertex
 10
109.8310221079589
 20
243.1296212499815
 30
0.0
  0
VERTEX
  5
96
330
7B
100
AcDbEntity
  8
0
 62
     7
370
    25
100
AcDbVertex
100
AcDb2dVertex
 10
109.7376255693538
 20
242.8394408572589
 30
0.0
  0
VERTEX
  5
97
330
7B
100
AcDbEntity
  8
0
 62
     7
370
    25
100
AcDbVertex
100
AcDb2dVertex
 10
109.5918980303277
 20
242.561938415922
 30
0.0
  0
VERTEX
  5
98
330
7B
100
AcDbEntity
  8
0
 62
     7
370
    25
100
AcDbVertex
100
AcDb2dVertex
 10
109.3951830781199
 20
242.2974928864742
 30
0.0
  0
VERTEX
  5
99
330
7B
100
AcDbEntity
  8
0
 62
     7
370
    25
100
AcDbVertex
100
AcDb2dVertex
 10
109.1491688095183
 20
242.0463798765544
 30
0.0
  0
VERTEX
  5
9A
330
7B
100
AcDbEntity
  8
0
 62
     7
370
    25
100
AcDbVertex
100
AcDb2dVertex
 10
108.8559222818138
 20
241.8087716409367
 30
0.0
  0
VERTEX
  5
9B
330
7B
100
AcDbEntity
  8
0
 62
     7
370
    25
100
AcDbVertex
100
AcDb2dVertex
 10
108.1375854221843
 20
241.3740694926078
 30
0.0
  0
VERTEX
  5
9C
330
7B
100
AcDbEntity
  8
0
 62
     7
370
    25
100
AcDbVertex
100
AcDb2dVertex
 10
107.2622900122469
 20
240.9924562657067
 30
0.0
  0
VERTEX
  5
9D
330
7B
100
AcDbEntity
  8
0
 62
     7
370
    25
100
AcDbVertex
100
AcDb2dVertex
 10
106.2554953076375
 20
240.6619682558067
 30
0.0
  0
VERTEX
  5
9E
330
7B
100
AcDbEntity
  8
0
 62
     7
370
    25
100
AcDbVertex
100
AcDb2dVertex
 10
105.1449687779672
 20
240.379987190339
 30
0.0
  0
VERTEX
  5
9F
330
7B
100
AcDbEntity
  8
0
 62
     7
370
    25
100
AcDbVertex
100
AcDb2dVertex
 10
103.9594769705379
 20
240.1439636986445
 30
0.0
  0
VERTEX
  5
A0
330
7B
100
AcDbEntity
  8
0
 62
     7
370
    25
100
AcDbVertex
100
AcDb2dVertex
 10
102.7278208836062
 20
239.9517962724773
 30
0.0
  0
VERTEX
  5
A1
330
7B
100
AcDbEntity
  8
0
 62
     7
370
    25
100
AcDbVertex
100
AcDb2dVertex
 10
101.4775612810542
 20
239.8024169322369
 30
0.0
  0
VERTEX
  5
A2
330
7B
100
AcDbEntity
  8
0
 62
     7
370
    25
100
AcDbVertex
100
AcDb2dVertex
 10
100.2342607713824
 20
239.6961701874718
 30
0.0
  0
VERTEX
  5
A3
330
7B
100
AcDbEntity
  8
0
 62
     7
370
    25
100
AcDbVertex
100
AcDb2dVertex
 10
99.020760337658
 20
239.6349508406989
 30
0.0
  0
VERTEX
  5
A4
330
7B
100
AcDbEntity
  8
0
 62
     7
370
    25
100
AcDbVertex
100
AcDb2dVertex
 10
97.85704153369545
 20
239.6218250269001
 30
0.0
  0
VERTEX
  5
A5
330
7B
100
AcDbEntity
  8
0
 62
     7
370
    25
100
AcDbVertex
100
AcDb2dVertex
 10
96.76057099360499
 20
239.6606857039737
 30
0.0
  0
VERTEX
  5
A6
330
7B
100
AcDbEntity
  8
0
 62
     7
370
    25
100
AcDbVertex
100
AcDb2dVertex
 10
95.74612817701832
 20
239.7557014374569
 30
0.0
  0
VERTEX
  5
A7
330
7B
100
AcDbEntity
  8
0
 62
     7
370
    25
100
AcDbVertex
100
AcDb2dVertex
 10
94.82577091813383
 20
239.9111441457514
 30
0.0
  0
VERTEX
  5
A8
330
7B
100
AcDbEntity
  8
0
 62
     7
370
    25
100
AcDbVertex
100
AcDb2dVertex
 10
94.0090765824005
 20
240.1307000810263
 30
0.0
  0
VERTEX
  5
A9
330
7B
100
AcDbEntity
  8
0
 62
     7
370
    25
100
AcDbVertex
100
AcDb2dVertex
 10
93.30293536078884
 20
240.4174353782637
 30
0.0
  0
VERTEX
  5
AA
330
7B
100
AcDbEntity
  8
0
 62
     7
370
    25
100
AcDbVertex
100
AcDb2dVertex
 10
92.71165362265542
 20
240.773072585206
 30
0.0
  0
VERTEX
  5
AB
330
7B
100
AcDbEntity
  8
0
 62
     7
370
    25
100
AcDbVertex
100
AcDb2dVertex
 10
92.23691946478799
 20
241.1977495056728
 30
0.0
  0
VERTEX
  5
AC
330
7B
100
AcDbEntity
  8
0
 62
     7
370
    25
100
AcDbVertex
100
AcDb2dVertex
 10
91.87787161331525
 20
241.6895024352373
 30
0.0
  0
VERTEX
  5
AD
330
7B
100
AcDbEntity
  8
0
 62
     7
370
    25
100
AcDbVertex
100
AcDb2dVertex
 10
91.63092716893254
 20
242.244059455498
 30
0.0
  0
VERTEX
  5
AE
330
7B
100
AcDbEntity
  8
0
 62
     7
370
    25
100
AcDbVertex
100
AcDb2dVertex
 10
91.49071178268287
 20
242.8548404340779
 30
0.0
  0
VERTEX
  5
AF
330
7B
100
AcDbEntity
  8
0
 62
     7
370
    25
100
AcDbVertex
100
AcDb2dVertex
 10
91.45040416550545
 20
243.5131292793995
 30
0.0
  0
VERTEX
  5
B0
330
7B
100
AcDbEntity
  8
0
 62
     7
370
    25
100
AcDbVertex
100
AcDb2dVertex
 10
91.50266626401668
 20
244.2083495483229
 30
0.0
  0
VERTEX
  5
B1
330
7B
100
AcDbEntity
  8
0
 62
     7
370
    25
100
AcDbVertex
100
AcDb2dVertex
 10
91.64036673056212
 20
244.9283745047401
 30
0.0
  0
VERTEX
  5
B2
330
7B
100
AcDbEntity
  8
0
 62
     7
370
    25
100
AcDbVertex
100
AcDb2dVertex
 10
91.85737329517801
 20
245.6597338253038
 30
0.0
  0
VERTEX
  5
B3
330
7B
100
AcDbEntity
  8
0
 62
     7
370
    25
100
AcDbVertex
100
AcDb2dVertex
 10
92.14913843182381
 20
246.3877858542016
 30
0.0
  0
SEQEND
  5
B4
330
7B
100
AcDbEntity
  8
0
370
    25
  0
ENDBLK
  5
7A
330
77
100
AcDbEntity
  8
0
100
AcDbBlockEnd
  0
BLOCK
  5
B7
330
B5
100
AcDbEntity
  8
0
100
AcDbBlockBegin
  2
block 4
 70
     0
 71
     0
 10
0.0
 20
0.0
 30
0.0
  3
block 4
  1

  0
POLYLINE
  5
B9
330
B5
100
AcDbEntity
  8
0
 62
     7
370
    25
100
AcDb2dPolyline
 66
     1
 10
0.0
 20
0.0
 30
0.0
  0
VERTEX
  5
BA
330
B9
100
AcDbEntity
  8
0
 62
     7
370
    25
100
AcDbVertex
100
AcDb2dVertex
 10
72.2515415943503
 20
224.7140700393076
 30
0.0
  0
VERTEX
  5
BB
330
B9
100
AcDbEntity
  8
0
 62
     7
370
    25
100
AcDbVertex
100
AcDb2dVertex
 10
72.97914576083507
 20
224.9418253018374
 30
0.0
  0
VERTEX
  5
BC
330
B9
100
AcDbEntity
  8
0
 62
     7
370
    25
100
AcDbVertex
100
AcDb2dVertex
 10
73.86195147893034
 20
225.1905611958725
 30
0.0
  0
VERTEX
  5
BD
330
B9
100
AcDbEntity
  8
0
 62
     7
370
    25
100
AcDbVertex
100
AcDb2dVertex
 10
74.7907492217537
 20
225.5065798047345
 30
0.0
  0
VERTEX
  5
BE
330
B9
100
AcDbEntity
  8
0
 62
     7
370
    25
100
AcDbVertex
100
AcDb2dVertex
 10
75.70399235846115
 20
225.8118497156824
 30
0.0
  0
VERTEX
  5
BF
330
B9
100
AcDbEntity
  8
0
 62
     7
370
    25
100
AcDbVertex
100
AcDb2dVertex
 10
76.14561914871533
 20
225.9207147330163
 30
0.0
  0
VERTEX
  5
C0
330
B9
100
AcDbEntity
  8
0
 62
     7
370
    25
100
AcDbVertex
100
AcDb2dVertex
 10
76.57579099648105
 20
225.9792469053107
 30
0.0
  0
VERTEX
  5
C1
330
B9
100
AcDbEntity
  8
0
 62
     7
370
    25
100
AcDbVertex
100
AcDb2dVertex
 10
76.9948868622617
 20
225.9764908289225
 30
0.0
  0
VERTEX
  5
C2
330
B9
100
AcDbEntity
  8
0
 62
     7
370
    25
100
AcDbVertex
100
AcDb2dVertex
 10
77.40394027470283
 20
225.9077611739918
 30
0.0
  0
VERTEX
  5
C3
330
B9
100
AcDbEntity
  8
0
 62
     7
370
    25
100
AcDbVertex
100
AcDb2dVertex
 10
77.80457042868254
 20
225.7751249978097
 30
0.0
  0
VERTEX
  5
C4
330
B9
100
AcDbEntity
  8
0
 62
     7
370
    25
100
AcDbVertex
100
AcDb2dVertex
 10
78.19867212671768
 20
225.587263940999
 30
0.0
  0
VERTEX
  5
C5
330
B9
100
AcDbEntity
  8
0
 62
     7
370
    25
100
AcDbVertex
100
AcDb2dVertex
 10
78.97571341341579
 20
225.1043993577864
 30
0.0
  0
VERTEX
  5
C6
330
B9
100
AcDbEntity
  8
0
 62
     7
370
    25
100
AcDbVertex
100
AcDb2dVertex
 10
79.7528236020236
 20
224.6010020054817
 30
0.0
  0
VERTEX
  5
C7
330
B9
100
AcDbEntity
  8
0
 62
     7
370
    25
100
AcDbVertex
100
AcDb2dVertex
 10
80.1467013688522
 20
224.3894042407776
 30
0.0
  0
VERTEX
  5
C8
330
B9
100
AcDbEntity
  8
0
 62
     7
370
    25
100
AcDbVertex
100
AcDb2dVertex
 10
80.54657360182516
 20
224.2270713415127
 30
0.0
  0
VERTEX
  5
C9
330
B9
100
AcDbEntity
  8
0
 62
     7
370
    25
100
AcDbVertex
100
AcDb2dVertex
 10
80.95381833913655
 20
224.1263367495239
 30
0.0
  0
VERTEX
  5
CA
330
B9
100
AcDbEntity
  8
0
 62
     7
370
    25
100
AcDbVertex
100
AcDb2dVertex
 10
81.36933130561252
 20
224.0939873029175
 30
0.0
  0
VERTEX
  5
CB
330
B9
100
AcDbEntity
  8
0
 62
     7
370
    25
100
AcDbVertex
100
AcDb2dVertex
 10
81.79345701080163
 20
224.1307464717451
 30
0.0
  0
VERTEX
  5
CC
330
B9
100
AcDbEntity
  8
0
 62
     7
370
    25
100
AcDbVertex
100
AcDb2dVertex
 10
82.22616100374901
 20
224.2308264955916
 30
0.0
  0
VERTEX
  5
CD
330
B9
100
AcDbEntity
  8
0
 62
     7
370
    25
100
AcDbVertex
100
AcDb2dVertex
 10
83.11458222748524
 20
224.5739580059225
 30
0.0
  0
VERTEX
  5
CE
330
B9
100
AcDbEntity
  8
0
 62
     7
370
    25
100
AcDbVertex
100
AcDb2dVertex
 10
84.02725692343762
 20
224.9998062588542
 30
0.0
  0
VERTEX
  5
CF
330
B9
100
AcDbEntity
  8
0
 62
     7
370
    25
100
AcDbVertex
100
AcDb2dVertex
 10
84.95522784334452
 20
225.365606497478
 30
0.0
  0
VERTEX
  5
D0
330
B9
100
AcDbEntity
  8
0
 62
     7
370
    25
100
AcDbVertex
100
AcDb2dVertex
 10
85.42265839878321
 20
225.4863226432812
 30
0.0
  0
VERTEX
  5
D1
330
B9
100
AcDbEntity
  8
0
 62
     7
370
    25
100
AcDbVertex
100
AcDb2dVertex
 10
85.89153589432573
 20
225.550608125036
 30
0.0
  0
VERTEX
  5
D2
330
B9
100
AcDbEntity
  8
0
 62
     7
370
    25
100
AcDbVertex
100
AcDb2dVertex
 10
86.36192923188173
 20
225.5535020052436
 30
0.0
  0
VERTEX
  5
D3
330
B9
100
AcDbEntity
  8
0
 62
     7
370
    25
100
AcDbVertex
100
AcDb2dVertex
 10
86.8343207248192
 20
225.4965545768724
 30
0.0
  0
VERTEX
  5
D4
330
B9
100
AcDbEntity
  8
0
 62
     7
370
    25
100
AcDbVertex
100
AcDb2dVertex
 10
87.78750974367811
 20
225.2368288282394
 30
0.0
  0
VERTEX
  5
D5
330
B9
100
AcDbEntity
  8
0
 62
     7
370
    25
100
AcDbVertex
100
AcDb2dVertex
 10
88.75013832416663
 20
224.8728200392679
 30
0.0
  0
VERTEX
  5
D6
330
B9
100
AcDbEntity
  8
0
 62
     7
370
    25
100
AcDbVertex
100
AcDb2dVertex
 10
89.69767738642975
 20
224.5157703431766
 30
0.0
  0
VERTEX
  5
D7
330
B9
100
AcDbEntity
  8
0
 62
     7
370
    25
100
AcDbVertex
100
AcDb2dVertex
 10
90.56318872518905
 20
224.2263134205059
 30
0.0
  0
VERTEX
  5
D8
330
B9
100
AcDbEntity
  8
0
 62
     7
370
    25
100
AcDbVertex
100
AcDb2dVertex
 10
90.92857555235466
 20
224.0983281232289
 30
0.0
  0
VERTEX
  5
D9
330
B9
100
AcDbEntity
  8
0
 62
     7
370
    25
100
AcDbVertex
100
AcDb2dVertex
 10
91.21779131834138
 20
223.9535652109387
 30
0.0
  0
VERTEX
  5
DA
330
B9
100
AcDbEntity
  8
0
 62
     7
370
    25
100
AcDbVertex
100
AcDb2dVertex
 10
91.40585908088117
 20
223.7648773312116
 30
0.0
  0
VERTEX
  5
DB
330
B9
100
AcDbEntity
  8
0
 62
     7
370
    25
100
AcDbVertex
100
AcDb2dVertex
 10
91.47600122496085
 20
223.5151079085309
 30
0.0
  0
VERTEX
  5
DC
330
B9
100
AcDbEntity
  8
0
 62
     7
370
    25
100
AcDbVertex
100
AcDb2dVertex
 10
91.4236702245399
 20
223.2036023747546
 30
0.0
  0
VERTEX
  5
DD
330
B9
100
AcDbEntity
  8
0
 62
     7
370
    25
100
AcDbVertex
100
AcDb2dVertex
 10
91.25716875973778
 20
222.8475173053992
 30
0.0
  0
VERTEX
  5
DE
330
B9
100
AcDbEntity
  8
0
 62
     7
370
    25
100
AcDbVertex
100
AcDb2dVertex
 10
90.99420462134866
 20
222.4756536987213
 30
0.0
  0
VERTEX
  5
DF
330
B9
100
AcDbEntity
  8
0
 62
     7
370
    25
100
AcDbVertex
100
AcDb2dVertex
 10
90.65713647907182
 20
222.1208777656503
 30
0.0
  0
VERTEX
  5
E0
330
B9
100
AcDbEntity
  8
0
 62
     7
370
    25
100
AcDbVertex
100
AcDb2dVertex
 10
90.27014890321371
 20
221.8147810317859
 30
0.0
  0
VERTEX
  5
E1
330
B9
100
AcDbEntity
  8
0
 62
     7
370
    25
100
AcDbVertex
100
AcDb2dVertex
 10
89.85649628829975
 20
221.5835462228159
 30
0.0
  0
VERTEX
  5
E2
330
B9
100
AcDbEntity
  8
0
 62
     7
370
    25
100
AcDbVertex
100
AcDb2dVertex
 10
89.4352300123634
 20
221.4423317588755
 30
0.0
  0
VERTEX
  5
E3
330
B9
100
AcDbEntity
  8
0
 62
     7
370
    25
100
AcDbVertex
100
AcDb2dVertex
 10
89.01885577201611
 20
221.3912754437841
 30
0.0
  0
VERTEX
  5
E4
330
B9
100
AcDbEntity
  8
0
 62
     7
370
    25
100
AcDbVertex
100
AcDb2dVertex
 10
88.6132991314925
 20
221.4172514637429
 30
0.0
  0
VERTEX
  5
E5
330
B9
100
AcDbEntity
  8
0
 62
     7
370
    25
100
AcDbVertex
100
AcDb2dVertex
 10
88.21959361943816
 20
221.4975221885492
 30
0.0
  0
VERTEX
  5
E6
330
B9
100
AcDbEntity
  8
0
 62
     7
370
    25
100
AcDbVertex
100
AcDb2dVertex
 10
87.45450681407387
 20
221.708017522698
 30
0.0
  0
VERTEX
  5
E7
330
B9
100
AcDbEntity
  8
0
 62
     7
370
    25
100
AcDbVertex
100
AcDb2dVertex
 10
87.07223901903055
 20
221.781811467992
 30
0.0
  0
VERTEX
  5
E8
330
B9
100
AcDbEntity
  8
0
 62
     7
370
    25
100
AcDbVertex
100
AcDb2dVertex
 10
86.68218530819055
 20
221.8036533733685
 30
0.0
  0
VERTEX
  5
E9
330
B9
100
AcDbEntity
  8
0
 62
     7
370
    25
100
AcDbVertex
100
AcDb2dVertex
 10
86.28069388033954
 20
221.7633457561911
 30
0.0
  0
VERTEX
  5
EA
330
B9
100
AcDbEntity
  8
0
 62
     7
370
    25
100
AcDbVertex
100
AcDb2dVertex
 10
85.86755802974838
 20
221.6664696711459
 30
0.0
  0
VERTEX
  5
EB
330
B9
100
AcDbEntity
  8
0
 62
     7
370
    25
100
AcDbVertex
100
AcDb2dVertex
 10
85.01748071876298
 20
221.3763926312878
 30
0.0
  0
VERTEX
  5
EC
330
B9
100
AcDbEntity
  8
0
 62
     7
370
    25
100
AcDbVertex
100
AcDb2dVertex
 10
84.15486326021127
 20
221.0885204525404
 30
0.0
  0
VERTEX
  5
ED
330
B9
100
AcDbEntity
  8
0
 62
     7
370
    25
100
AcDbVertex
100
AcDb2dVertex
 10
83.28759492275448
 20
220.8989712989419
 30
0.0
  0
VERTEX
  5
EE
330
B9
100
AcDbEntity
  8
0
 62
     7
370
    25
100
AcDbVertex
100
AcDb2dVertex
 10
82.41412541342424
 20
220.8488796105864
 30
0.0
  0
VERTEX
  5
EF
330
B9
100
AcDbEntity
  8
0
 62
     7
370
    25
100
AcDbVertex
100
AcDb2dVertex
 10
81.53242212588425
 20
220.9391755632548
 30
0.0
  0
VERTEX
  5
F0
330
B9
100
AcDbEntity
  8
0
 62
     7
370
    25
100
AcDbVertex
100
AcDb2dVertex
 10
80.64837617341429
 20
221.1443999013111
 30
0.0
  0
VERTEX
  5
F1
330
B9
100
AcDbEntity
  8
0
 62
     7
370
    25
100
AcDbVertex
100
AcDb2dVertex
 10
79.78131454168661
 20
221.4259331043657
 30
0.0
  0
VERTEX
  5
F2
330
B9
100
AcDbEntity
  8
0
 62
     7
370
    25
100
AcDbVertex
100
AcDb2dVertex
 10
78.95771278950535
 20
221.7401947145302
 30
0.0
  0
VERTEX
  5
F3
330
B9
100
AcDbEntity
  8
0
 62
     7
370
    25
100
AcDbVertex
100
AcDb2dVertex
 10
78.19836206812401
 20
222.0440521363292
 30
0.0
  0
VERTEX
  5
F4
330
B9
100
AcDbEntity
  8
0
 62
     7
370
    25
100
AcDbVertex
100
AcDb2dVertex
 10
77.50532943483373
 20
222.3004361423415
 30
0.0
  0
VERTEX
  5
F5
330
B9
100
AcDbEntity
  8
0
 62
     7
370
    25
100
AcDbVertex
100
AcDb2dVertex
 10
76.84884926464196
 20
222.4836118692923
 30
0.0
  0
VERTEX
  5
F6
330
B9
100
AcDbEntity
  8
0
 62
     7
370
    25
100
AcDbVertex
100
AcDb2dVertex
 10
76.16175942106372
 20
222.5851732841975
 30
0.0
  0
VERTEX
  5
F7
330
B9
100
AcDbEntity
  8
0
 62
     7
370
    25
100
AcDbVertex
100
AcDb2dVertex
 10
75.3670447945263
 20
222.6216568453862
 30
0.0
  0
VERTEX
  5
F8
330
B9
100
AcDbEntity
  8
0
 62
     7
370
    25
100
AcDbVertex
100
AcDb2dVertex
 10
74.42698158946617
 20
222.6433609469433
 30
0.0
  0
VERTEX
  5
F9
330
B9
100
AcDbEntity
  8
0
 62
     7
370
    25
100
AcDbVertex
100
AcDb2dVertex
 10
73.39421086489797
 20
222.7432687160156
 30
0.0
  0
VERTEX
  5
FA
330
B9
100
AcDbEntity
  8
0
 62
     7
370
    25
100
AcDbVertex
100
AcDb2dVertex
 10
72.89704913542157
 20
222.8664308796132
 30
0.0
  0
VERTEX
  5
FB
330
B9
100
AcDbEntity
  8
0
 62
     7
370
    25
100
AcDbVertex
100
AcDb2dVertex
 10
72.46065889030497
 20
223.0630424789564
 30
0.0
  0
VERTEX
  5
FC
330
B9
100
AcDbEntity
  8
0
 62
     7
370
    25
100
AcDbVertex
100
AcDb2dVertex
 10
72.12064519138823
 20
223.3355495318397
 30
0.0
  0
VERTEX
  5
FD
330
B9
100
AcDbEntity
  8
0
 62
     7
370
    25
100
AcDbVertex
100
AcDb2dVertex
 10
71.89950451219005
 20
223.6607665456473
 30
0.0
  0
VERTEX
  5
FE
330
B9
100
AcDbEntity
  8
0
 62
     7
370
    25
100
AcDbVertex
100
AcDb2dVertex
 10
71.80662473790771
 20
223.9973868255111
 30
0.0
  0
VERTEX
  5
FF
330
B9
100
AcDbEntity
  8
0
 62
     7
370
    25
100
AcDbVertex
100
AcDb2dVertex
 10
71.84183361376697
 20
224.3011408944455
 30
0.0
  0
VERTEX
  5
100
330
B9
100
AcDbEntity
  8
0
 62
     7
370
    25
100
AcDbVertex
100
AcDb2dVertex
 10
71.99593273482219
 20
224.541608559316
 30
0.0
  0
VERTEX
  5
101
330
B9
100
AcDbEntity
  8
0
 62
     7
370
    25
100
AcDbVertex
100
AcDb2dVertex
 10
72.2515415943503
 20
224.7140700393076
 30
0.0
  0
SEQEND
  5
102
330
B9
100
AcDbEntity
  8
0
370
    25
  0
ENDBLK
  5
B8
330
B5
100
AcDbEntity
  8
0
100
AcDbBlockEnd
  0
BLOCK
  5
105
330
103
100
AcDbEntity
  8
0
100
AcDbBlockBegin
  2
block 5
 70
     0
 71
     0
 10
0.0
 20
0.0
 30
0.0
  3
block 5
  1

  0
SPLINE
  5
107
330
103
100
AcDbEntity
  8
0
 62
     7
370
    25
100
AcDbSpline
210
0.0
220
0.0
230
1.0
 70
    11
 71
     3
 72
    20
 73
    16
 74
     0
 42
0.0000000001
 43
0.0000000001
 40
0.0
 40
0.0
 40
0.0
 40
0.0
 40
1.0
 40
1.0
 40
1.0
 40
2.0
 40
2.0
 40
2.0
 40
3.0
 40
3.0
 40
3.0
 40
4.0
 40
4.0
 40
4.0
 40
5.0
 40
5.0
 40
5.0
 40
5.0
 10
65.7101148652999
 20
243.6610272285812
 30
0.0
 10
65.7101148652999
 20
244.1053411933139
 30
0.0
 10
65.34993013231703
 20
244.4655259262968
 30
0.0
 10
64.90561616758436
 20
244.4655259262968
 30
0.0
 10
64.46130220285168
 20
244.4655259262968
 30
0.0
 10
64.10110024439139
 20
244.1053411933139
 30
0.0
 10
64.10110024439139
 20
243.6610272285812
 30
0.0
 10
64.10110024439139
 20
243.2167132638486
 30
0.0
 10
64.46130220285168
 20
242.8565285308657
 30
0.0
 10
64.90561616758436
 20
242.8565285308657
 30
0.0
 10
65.34993013231703
 20
242.8565285308657
 30
0.0
 10
65.7101148652999
 20
243.2167132638486
 30
0.0
 10
65.7101148652999
 20
243.6610272285812
 30
0.0
 10
65.7101148652999
 20
243.6610272285812
 30
0.0
 10
65.7101148652999
 20
243.6610272285812
 30
0.0
 10
65.7101148652999
 20
243.6610272285812
 30
0.0
  0
ENDBLK
  5
106
330
103
100
AcDbEntity
  8
0
100
AcDbBlockEnd
  0
BLOCK
  5
10A
330
108
100
AcDbEntity
  8
0
100
AcDbBlockBegin
  2
block 6
 70
     0
 71
     0
 10
0.0
 20
0.0
 30
0.0
  3
block 6
  1

  0
SPLINE
  5
10C
330
108
100
AcDbEntity
  8
0
 62
     7
370
    25
100
AcDbSpline
210
0.0
220
0.0
230
1.0
 70
    11
 71
     3
 72
    20
 73
    16
 74
     0
 42
0.0000000001
 43
0.0000000001
 40
0.0
 40
0.0
 40
0.0
 40
0.0
 40
1.0
 40
1.0
 40
1.0
 40
2.0
 40
2.0
 40
2.0
 40
3.0
 40
3.0
 40
3.0
 40
4.0
 40
4.0
 40
4.0
 40
5.0
 40
5.0
 40
5.0
 40
5.0
 10
98.88326657684168
 20
243.177370273407
 30
0.0
 10
98.88326657684168
 20
243.636084737268
 30
0.0
 10
98.51140297016381
 20
244.0079138929911
 30
0.0
 10
98.05272295725764
 20
244.0079138929911
 30
0.0
 10
97.59404294435149
 20
244.0079138929911
 30
0.0
 10
97.22217933767361
 20
243.636084737268
 30
0.0
 10
97.22217933767361
 20
243.177370273407
 30
0.0
 10
97.22217933767361
 20
242.7186902605009
 30
0.0
 10
97.59404294435149
 20
242.3468611047778
 30
0.0
 10
98.05272295725764
 20
242.3468611047778
 30
0.0
 10
98.51140297016381
 20
242.3468611047778
 30
0.0
 10
98.88326657684168
 20
242.7186902605009
 30
0.0
 10
98.88326657684168
 20
243.177370273407
 30
0.0
 10
98.88326657684168
 20
243.177370273407
 30
0.0
 10
98.88326657684168
 20
243.177370273407
 30
0.0
 10
98.88326657684168
 20
243.177370273407
 30
0.0
  0
ENDBLK
  5
10B
330
108
100
AcDbEntity
  8
0
100
AcDbBlockEnd
  0
BLOCK
  5
10F
330
10D
100
AcDbEntity
  8
0
100
AcDbBlockBegin
  2
block 7
 70
     0
 71
     0
 10
0.0
 20
0.0
 30
0.0
  3
block 7
  1

  0
POLYLINE
  5
111
330
10D
100
AcDbEntity
  8
0
 62
     7
370
    25
100
AcDb2dPolyline
 66
     1
 10
0.0
 20
0.0
 30
0.0
  0
VERTEX
  5
112
330
111
100
AcDbEntity
  8
0
 62
     7
370
    25
100
AcDbVertex
100
AcDb2dVertex
 10
60.38818303611823
 20
215.3503005103985
 30
0.0
  0
VERTEX
  5
113
330
111
100
AcDbEntity
  8
0
 62
     7
370
    25
100
AcDbVertex
100
AcDb2dVertex
 10
60.45560355476456
 20
215.9102318796162
 30
0.0
  0
VERTEX
  5
114
330
111
100
AcDbEntity
  8
0
 62
     7
370
    25
100
AcDbVertex
100
AcDb2dVertex
 10
60.62971868058909
 20
216.5005145400589
 30
0.0
  0
VERTEX
  5
115
330
111
100
AcDbEntity
  8
0
 62
     7
370
    25
100
AcDbVertex
100
AcDb2dVertex
 10
60.89981416663268
 20
217.0968605685556
 30
0.0
  0
VERTEX
  5
116
330
111
100
AcDbEntity
  8
0
 62
     7
370
    25
100
AcDbVertex
100
AcDb2dVertex
 10
61.25074881823765
 20
217.6717436521793
 30
0.0
  0
VERTEX
  5
117
330
111
100
AcDbEntity
  8
0
 62
     7
370
    25
100
AcDbVertex
100
AcDb2dVertex
 10
61.66403969812566
 20
218.1963627926731
 30
0.0
  0
VERTEX
  5
118
330
111
100
AcDbEntity
  8
0
 62
     7
370
    25
100
AcDbVertex
100
AcDb2dVertex
 10
62.11924016459172
 20
218.6429849713809
 30
0.0
  0
VERTEX
  5
119
330
111
100
AcDbEntity
  8
0
 62
     7
370
    25
100
AcDbVertex
100
AcDb2dVertex
 10
62.59504230205957
 20
218.9866332460346
 30
0.0
  0
VERTEX
  5
11A
330
111
100
AcDbEntity
  8
0
 62
     7
370
    25
100
AcDbVertex
100
AcDb2dVertex
 10
63.0705688318886
 20
219.2073605137745
 30
0.0
  0
VERTEX
  5
11B
330
111
100
AcDbEntity
  8
0
 62
     7
370
    25
100
AcDbVertex
100
AcDb2dVertex
 10
63.52666502318083
 20
219.2923854703505
 30
0.0
  0
VERTEX
  5
11C
330
111
100
AcDbEntity
  8
0
 62
     7
370
    25
100
AcDbVertex
100
AcDb2dVertex
 10
63.94708725072329
 20
219.238090765503
 30
0.0
  0
VERTEX
  5
11D
330
111
100
AcDbEntity
  8
0
 62
     7
370
    25
100
AcDbVertex
100
AcDb2dVertex
 10
64.31958820006594
 20
219.0516421978412
 30
0.0
  0
VERTEX
  5
11E
330
111
100
AcDbEntity
  8
0
 62
     7
370
    25
100
AcDbVertex
100
AcDb2dVertex
 10
64.63670923948318
 20
218.7508853619789
 30
0.0
  0
VERTEX
  5
11F
330
111
100
AcDbEntity
  8
0
 62
     7
370
    25
100
AcDbVertex
100
AcDb2dVertex
 10
65.09964394531363
 20
217.9155875106252
 30
0.0
  0
VERTEX
  5
120
330
111
100
AcDbEntity
  8
0
 62
     7
370
    25
100
AcDbVertex
100
AcDb2dVertex
 10
65.37487262363024
 20
216.982793457039
 30
0.0
  0
VERTEX
  5
121
330
111
100
AcDbEntity
  8
0
 62
     7
370
    25
100
AcDbVertex
100
AcDb2dVertex
 10
65.5816989310872
 20
216.1882855362307
 30
0.0
  0
VERTEX
  5
122
330
111
100
AcDbEntity
  8
0
 62
     7
370
    25
100
AcDbVertex
100
AcDb2dVertex
 10
65.71860702567103
 20
215.8895957576595
 30
0.0
  0
VERTEX
  5
123
330
111
100
AcDbEntity
  8
0
 62
     7
370
    25
100
AcDbVertex
100
AcDb2dVertex
 10
65.91704452562144
 20
215.6636663957368
 30
0.0
  0
VERTEX
  5
124
330
111
100
AcDbEntity
  8
0
 62
     7
370
    25
100
AcDbVertex
100
AcDb2dVertex
 10
66.20657035020183
 20
215.5062255320609
 30
0.0
  0
VERTEX
  5
125
330
111
100
AcDbEntity
  8
0
 62
     7
370
    25
100
AcDbVertex
100
AcDb2dVertex
 10
66.61245427479653
 20
215.408109212641
 30
0.0
  0
VERTEX
  5
126
330
111
100
AcDbEntity
  8
0
 62
     7
370
    25
100
AcDbVertex
100
AcDb2dVertex
 10
67.8388565911132
 20
215.3400685768073
 30
0.0
  0
VERTEX
  5
127
330
111
100
AcDbEntity
  8
0
 62
     7
370
    25
100
AcDbVertex
100
AcDb2dVertex
 10
69.60136744136702
 20
215.3638052847007
 30
0.0
  0
VERTEX
  5
128
330
111
100
AcDbEntity
  8
0
 62
     7
370
    25
100
AcDbVertex
100
AcDb2dVertex
 10
71.69868989635484
 20
215.4231298289567
 30
0.0
  0
VERTEX
  5
129
330
111
100
AcDbEntity
  8
0
 62
     7
370
    25
100
AcDbVertex
100
AcDb2dVertex
 10
73.93192136823576
 20
215.491273817655
 30
0.0
  0
VERTEX
  5
12A
330
111
100
AcDbEntity
  8
0
 62
     7
370
    25
100
AcDbVertex
100
AcDb2dVertex
 10
76.20234264587997
 20
215.5514251848274
 30
0.0
  0
VERTEX
  5
12B
330
111
100
AcDbEntity
  8
0
 62
     7
370
    25
100
AcDbVertex
100
AcDb2dVertex
 10
78.48098047625649
 20
215.593799859296
 30
0.0
  0
VERTEX
  5
12C
330
111
100
AcDbEntity
  8
0
 62
     7
370
    25
100
AcDbVertex
100
AcDb2dVertex
 10
80.77391545289679
 20
215.6130579430585
 30
0.0
  0
VERTEX
  5
12D
330
111
100
AcDbEntity
  8
0
 62
     7
370
    25
100
AcDbVertex
100
AcDb2dVertex
 10
83.0878482865197
 20
215.6058576934944
 30
0.0
  0
VERTEX
  5
12E
330
111
100
AcDbEntity
  8
0
 62
     7
370
    25
100
AcDbVertex
100
AcDb2dVertex
 10
85.39533879158519
 20
215.5684095055697
 30
0.0
  0
VERTEX
  5
12F
330
111
100
AcDbEntity
  8
0
 62
     7
370
    25
100
AcDbVertex
100
AcDb2dVertex
 10
87.6005444116936
 20
215.4940987959529
 30
0.0
  0
VERTEX
  5
130
330
111
100
AcDbEntity
  8
0
 62
     7
370
    25
100
AcDbVertex
100
AcDb2dVertex
 10
89.50423527493297
 20
215.37097108331
 30
0.0
  0
VERTEX
  5
131
330
111
100
AcDbEntity
  8
0
 62
     7
370
    25
100
AcDbVertex
100
AcDb2dVertex
 10
90.79838539396707
 20
215.1784246966394
 30
0.0
  0
VERTEX
  5
132
330
111
100
AcDbEntity
  8
0
 62
     7
370
    25
100
AcDbVertex
100
AcDb2dVertex
 10
91.44923283304047
 20
214.8827666020953
 30
0.0
  0
VERTEX
  5
133
330
111
100
AcDbEntity
  8
0
 62
     7
370
    25
100
AcDbVertex
100
AcDb2dVertex
 10
91.92827336026446
 20
214.4849614264135
 30
0.0
  0
VERTEX
  5
134
330
111
100
AcDbEntity
  8
0
 62
     7
370
    25
100
AcDbVertex
100
AcDb2dVertex
 10
92.6790974703198
 20
214.1226062832749
 30
0.0
  0
VERTEX
  5
135
330
111
100
AcDbEntity
  8
0
 62
     7
370
    25
100
AcDbVertex
100
AcDb2dVertex
 10
93.14194604876312
 20
214.0558058818159
 30
0.0
  0
VERTEX
  5
136
330
111
100
AcDbEntity
  8
0
 62
     7
370
    25
100
AcDbVertex
100
AcDb2dVertex
 10
93.61216713154487
 20
214.1111685662639
 30
0.0
  0
VERTEX
  5
137
330
111
100
AcDbEntity
  8
0
 62
     7
370
    25
100
AcDbVertex
100
AcDb2dVertex
 10
94.06075301467925
 20
214.2958601352281
 30
0.0
  0
VERTEX
  5
138
330
111
100
AcDbEntity
  8
0
 62
     7
370
    25
100
AcDbVertex
100
AcDb2dVertex
 10
94.48074460528606
 20
214.5921727979144
 30
0.0
  0
VERTEX
  5
139
330
111
100
AcDbEntity
  8
0
 62
     7
370
    25
100
AcDbVertex
100
AcDb2dVertex
 10
95.27501136941041
 20
215.3680772031024
 30
0.0
  0
VERTEX
  5
13A
330
111
100
AcDbEntity
  8
0
 62
     7
370
    25
100
AcDbVertex
100
AcDb2dVertex
 10
96.10600285140752
 20
216.0823833010141
 30
0.0
  0
VERTEX
  5
13B
330
111
100
AcDbEntity
  8
0
 62
     7
370
    25
100
AcDbVertex
100
AcDb2dVertex
 10
96.5662676082369
 20
216.3108620335959
 30
0.0
  0
VERTEX
  5
13C
330
111
100
AcDbEntity
  8
0
 62
     7
370
    25
100
AcDbVertex
100
AcDb2dVertex
 10
97.05691810724618
 20
216.4192447375618
 30
0.0
  0
VERTEX
  5
13D
330
111
100
AcDbEntity
  8
0
 62
     7
370
    25
100
AcDbVertex
100
AcDb2dVertex
 10
97.56493188750112
 20
216.4002622614381
 30
0.0
  0
VERTEX
  5
13E
330
111
100
AcDbEntity
  8
0
 62
     7
370
    25
100
AcDbVertex
100
AcDb2dVertex
 10
98.06908716081259
 20
216.2594267580011
 30
0.0
  0
VERTEX
  5
13F
330
111
100
AcDbEntity
  8
0
 62
     7
370
    25
100
AcDbVertex
100
AcDb2dVertex
 10
98.54275333907958
 20
216.0118277454762
 30
0.0
  0
VERTEX
  5
140
330
111
100
AcDbEntity
  8
0
 62
     7
370
    25
100
AcDbVertex
100
AcDb2dVertex
 10
98.95671601258721
 20
215.6791348744656
 30
0.0
  0
VERTEX
  5
141
330
111
100
AcDbEntity
  8
0
 62
     7
370
    25
100
AcDbVertex
100
AcDb2dVertex
 10
99.28213973212391
 20
215.286428440102
 30
0.0
  0
VERTEX
  5
142
330
111
100
AcDbEntity
  8
0
 62
     7
370
    25
100
AcDbVertex
100
AcDb2dVertex
 10
99.49322073250516
 20
214.8595811094795
 30
0.0
  0
VERTEX
  5
143
330
111
100
AcDbEntity
  8
0
 62
     7
370
    25
100
AcDbVertex
100
AcDb2dVertex
 10
99.5703564204199
 20
214.4218472771237
 30
0.0
  0
VERTEX
  5
144
330
111
100
AcDbEntity
  8
0
 62
     7
370
    25
100
AcDbVertex
100
AcDb2dVertex
 10
99.50241913745077
 20
213.9914170471966
 30
0.0
  0
VERTEX
  5
145
330
111
100
AcDbEntity
  8
0
 62
     7
370
    25
100
AcDbVertex
100
AcDb2dVertex
 10
99.28713512057752
 20
213.5806927634451
 30
0.0
  0
VERTEX
  5
146
330
111
100
AcDbEntity
  8
0
 62
     7
370
    25
100
AcDbVertex
100
AcDb2dVertex
 10
98.92994762066681
 20
213.1968402244786
 30
0.0
  0
VERTEX
  5
147
330
111
100
AcDbEntity
  8
0
 62
     7
370
    25
100
AcDbVertex
100
AcDb2dVertex
 10
98.44277666809764
 20
212.8425466047755
 30
0.0
  0
VERTEX
  5
148
330
111
100
AcDbEntity
  8
0
 62
     7
370
    25
100
AcDbVertex
100
AcDb2dVertex
 10
97.84257213265741
 20
212.5170884342839
 30
0.0
  0
VERTEX
  5
149
330
111
100
AcDbEntity
  8
0
 62
     7
370
    25
100
AcDbVertex
100
AcDb2dVertex
 10
96.38715709395876
 20
211.936899903613
 30
0.0
  0
VERTEX
  5
14A
330
111
100
AcDbEntity
  8
0
 62
     7
370
    25
100
AcDbVertex
100
AcDb2dVertex
 10
94.7466026238828
 20
211.411385038293
 30
0.0
  0
VERTEX
  5
14B
330
111
100
AcDbEntity
  8
0
 62
     7
370
    25
100
AcDbVertex
100
AcDb2dVertex
 10
93.09602292594474
 20
210.8927603639435
 30
0.0
  0
VERTEX
  5
14C
330
111
100
AcDbEntity
  8
0
 62
     7
370
    25
100
AcDbVertex
100
AcDb2dVertex
 10
91.56054386816888
 20
210.3563589968901
 30
0.0
  0
VERTEX
  5
14D
330
111
100
AcDbEntity
  8
0
 62
     7
370
    25
100
AcDbVertex
100
AcDb2dVertex
 10
90.19352997962174
 20
209.8127918312273
 30
0.0
  0
VERTEX
  5
14E
330
111
100
AcDbEntity
  8
0
 62
     7
370
    25
100
AcDbVertex
100
AcDb2dVertex
 10
88.98843557888135
 20
209.2986457810086
 30
0.0
  0
VERTEX
  5
14F
330
111
100
AcDbEntity
  8
0
 62
     7
370
    25
100
AcDbVertex
100
AcDb2dVertex
 10
87.89844181830316
 20
208.8619799282532
 30
0.0
  0
VERTEX
  5
150
330
111
100
AcDbEntity
  8
0
 62
     7
370
    25
100
AcDbVertex
100
AcDb2dVertex
 10
86.8563693359248
 20
208.5475460633145
 30
0.0
  0
VERTEX
  5
151
330
111
100
AcDbEntity
  8
0
 62
     7
370
    25
100
AcDbVertex
100
AcDb2dVertex
 10
85.79434975068682
 20
208.3822848328871
 30
0.0
  0
VERTEX
  5
152
330
111
100
AcDbEntity
  8
0
 62
     7
370
    25
100
AcDbVertex
100
AcDb2dVertex
 10
84.66239472709829
 20
208.3620621223886
 30
0.0
  0
VERTEX
  5
153
330
111
100
AcDbEntity
  8
0
 62
     7
370
    25
100
AcDbVertex
100
AcDb2dVertex
 10
83.43625079294301
 20
208.4513589973663
 30
0.0
  0
VERTEX
  5
154
330
111
100
AcDbEntity
  8
0
 62
     7
370
    25
100
AcDbVertex
100
AcDb2dVertex
 10
82.1141954004784
 20
208.5963286153856
 30
0.0
  0
VERTEX
  5
155
330
111
100
AcDbEntity
  8
0
 62
     7
370
    25
100
AcDbVertex
100
AcDb2dVertex
 10
80.71217934180112
 20
208.739644587572
 30
0.0
  0
VERTEX
  5
156
330
111
100
AcDbEntity
  8
0
 62
     7
370
    25
100
AcDbVertex
100
AcDb2dVertex
 10
79.25869355657422
 20
208.8356938497008
 30
0.0
  0
VERTEX
  5
157
330
111
100
AcDbEntity
  8
0
 62
     7
370
    25
100
AcDbVertex
100
AcDb2dVertex
 10
77.7900493512122
 20
208.865528376603
 30
0.0
  0
VERTEX
  5
158
330
111
100
AcDbEntity
  8
0
 62
     7
370
    25
100
AcDbVertex
100
AcDb2dVertex
 10
76.34543468685982
 20
208.8472693705312
 30
0.0
  0
VERTEX
  5
159
330
111
100
AcDbEntity
  8
0
 62
     7
370
    25
100
AcDbVertex
100
AcDb2dVertex
 10
74.96269393742251
 20
208.8293548740079
 30
0.0
  0
VERTEX
  5
15A
330
111
100
AcDbEntity
  8
0
 62
     7
370
    25
100
AcDbVertex
100
AcDb2dVertex
 10
73.67409042211966
 20
208.8740033114968
 30
0.0
  0
VERTEX
  5
15B
330
111
100
AcDbEntity
  8
0
 62
     7
370
    25
100
AcDbVertex
100
AcDb2dVertex
 10
72.50236177115391
 20
209.0394367966985
 30
0.0
  0
VERTEX
  5
15C
330
111
100
AcDbEntity
  8
0
 62
     7
370
    25
100
AcDbVertex
100
AcDb2dVertex
 10
71.45655136017405
 20
209.3626556551246
 30
0.0
  0
VERTEX
  5
15D
330
111
100
AcDbEntity
  8
0
 62
     7
370
    25
100
AcDbVertex
100
AcDb2dVertex
 10
70.52804645046695
 20
209.8426952600393
 30
0.0
  0
VERTEX
  5
15E
330
111
100
AcDbEntity
  8
0
 62
     7
370
    25
100
AcDbVertex
100
AcDb2dVertex
 10
69.68971691508625
 20
210.433908096263
 30
0.0
  0
VERTEX
  5
15F
330
111
100
AcDbEntity
  8
0
 62
     7
370
    25
100
AcDbVertex
100
AcDb2dVertex
 10
68.90115178398999
 20
211.0619145522692
 30
0.0
  0
VERTEX
  5
160
330
111
100
AcDbEntity
  8
0
 62
     7
370
    25
100
AcDbVertex
100
AcDb2dVertex
 10
68.11620400315324
 20
211.6462027465676
 30
0.0
  0
VERTEX
  5
161
330
111
100
AcDbEntity
  8
0
 62
     7
370
    25
100
AcDbVertex
100
AcDb2dVertex
 10
67.29029403699687
 20
212.1233140203198
 30
0.0
  0
VERTEX
  5
162
330
111
100
AcDbEntity
  8
0
 62
     7
370
    25
100
AcDbVertex
100
AcDb2dVertex
 10
66.38807520584221
 20
212.466617785425
 30
0.0
  0
VERTEX
  5
163
330
111
100
AcDbEntity
  8
0
 62
     7
370
    25
100
AcDbVertex
100
AcDb2dVertex
 10
65.39170191507569
 20
212.6909968543793
 30
0.0
  0
VERTEX
  5
164
330
111
100
AcDbEntity
  8
0
 62
     7
370
    25
100
AcDbVertex
100
AcDb2dVertex
 10
64.30942516838445
 20
212.8454060340282
 30
0.0
  0
VERTEX
  5
165
330
111
100
AcDbEntity
  8
0
 62
     7
370
    25
100
AcDbVertex
100
AcDb2dVertex
 10
63.18460149245038
 20
213.0039837792143
 30
0.0
  0
VERTEX
  5
166
330
111
100
AcDbEntity
  8
0
 62
     7
370
    25
100
AcDbVertex
100
AcDb2dVertex
 10
62.10382336229522
 20
213.2571293954704
 30
0.0
  0
VERTEX
  5
167
330
111
100
AcDbEntity
  8
0
 62
     7
370
    25
100
AcDbVertex
100
AcDb2dVertex
 10
61.19304346885972
 20
213.697033637982
 30
0.0
  0
VERTEX
  5
168
330
111
100
AcDbEntity
  8
0
 62
     7
370
    25
100
AcDbVertex
100
AcDb2dVertex
 10
60.8441758745459
 20
214.0098483080426
 30
0.0
  0
VERTEX
  5
169
330
111
100
AcDbEntity
  8
0
 62
     7
370
    25
100
AcDbVertex
100
AcDb2dVertex
 10
60.58675833988803
 20
214.390944770621
 30
0.0
  0
VERTEX
  5
16A
330
111
100
AcDbEntity
  8
0
 62
     7
370
    25
100
AcDbVertex
100
AcDb2dVertex
 10
60.43236638571656
 20
214.8397718104393
 30
0.0
  0
VERTEX
  5
16B
330
111
100
AcDbEntity
  8
0
 62
     7
370
    25
100
AcDbVertex
100
AcDb2dVertex
 10
60.38818303611823
 20
215.3503005103985
 30
0.0
  0
SEQEND
  5
16C
330
111
100
AcDbEntity
  8
0
370
    25
  0
ENDBLK
  5
110
330
10D
100
AcDbEntity
  8
0
100
AcDbBlockEnd
  0
BLOCK
  5
16F
330
16D
100
AcDbEntity
  8
0
100
AcDbBlockBegin
  2
block 8
 70
     0
 71
     0
 10
0.0
 20
0.0
 30
0.0
  3
block 8
  1

  0
POLYLINE
  5
171
330
16D
100
AcDbEntity
  8
0
 62
     7
370
    25
100
AcDb2dPolyline
 66
     1
 10
0.0
 20
0.0
 30
0.0
  0
VERTEX
  5
172
330
171
100
AcDbEntity
  8
0
 62
     7
370
    25
100
AcDbVertex
100
AcDb2dVertex
 10
74.46928736202503
 20
203.0514818828309
 30
0.0
  0
VERTEX
  5
173
330
171
100
AcDbEntity
  8
0
 62
     7
370
    25
100
AcDbVertex
100
AcDb2dVertex
 10
74.47652206254406
 20
203.1253791809895
 30
0.0
  0
VERTEX
  5
174
330
171
100
AcDbEntity
  8
0
 62
     7
370
    25
100
AcDbVertex
100
AcDb2dVertex
 10
74.51018064543494
 20
203.17898486674
 30
0.0
  0
VERTEX
  5
175
330
171
100
AcDbEntity
  8
0
 62
     7
370
    25
100
AcDbVertex
100
AcDb2dVertex
 10
74.57108993361416
 20
203.2119888814887
 30
0.0
  0
VERTEX
  5
176
330
171
100
AcDbEntity
  8
0
 62
     7
370
    25
100
AcDbVertex
100
AcDb2dVertex
 10
74.65988726974648
 20
203.2245979309647
 30
0.0
  0
VERTEX
  5
177
330
171
100
AcDbEntity
  8
0
 62
     7
370
    25
100
AcDbVertex
100
AcDb2dVertex
 10
74.92214516356113
 20
203.1913872104869
 30
0.0
  0
VERTEX
  5
178
330
171
100
AcDbEntity
  8
0
 62
     7
370
    25
100
AcDbVertex
100
AcDb2dVertex
 10
75.29679929758204
 20
203.0877587382905
 30
0.0
  0
VERTEX
  5
179
330
171
100
AcDbEntity
  8
0
 62
     7
370
    25
100
AcDbVertex
100
AcDb2dVertex
 10
76.36453774132552
 20
202.7238533021836
 30
0.0
  0
VERTEX
  5
17A
330
171
100
AcDbEntity
  8
0
 62
     7
370
    25
100
AcDbVertex
100
AcDb2dVertex
 10
77.79270207473584
 20
202.266447974607
 30
0.0
  0
VERTEX
  5
17B
330
171
100
AcDbEntity
  8
0
 62
     7
370
    25
100
AcDbVertex
100
AcDb2dVertex
 10
78.60657143217126
 20
202.0492691552168
 30
0.0
  0
VERTEX
  5
17C
330
171
100
AcDbEntity
  8
0
 62
     7
370
    25
100
AcDbVertex
100
AcDb2dVertex
 10
79.46281546407526
 20
201.8630272932842
 30
0.0
  0
VERTEX
  5
17D
330
171
100
AcDbEntity
  8
0
 62
     7
370
    25
100
AcDbVertex
100
AcDb2dVertex
 10
80.34004012748443
 20
201.7223984955763
 30
0.0
  0
VERTEX
  5
17E
330
171
100
AcDbEntity
  8
0
 62
     7
370
    25
100
AcDbVertex
100
AcDb2dVertex
 10
81.21485322405393
 20
201.6379592052328
 30
0.0
  0
VERTEX
  5
17F
330
171
100
AcDbEntity
  8
0
 62
     7
370
    25
100
AcDbVertex
100
AcDb2dVertex
 10
82.06382810448403
 20
201.613877987791
 30
0.0
  0
VERTEX
  5
180
330
171
100
AcDbEntity
  8
0
 62
     7
370
    25
100
AcDbVertex
100
AcDb2dVertex
 10
82.8657774315405
 20
201.6461929834426
 30
0.0
  0
VERTEX
  5
181
330
171
100
AcDbEntity
  8
0
 62
     7
370
    25
100
AcDbVertex
100
AcDb2dVertex
 10
83.60216659151264
 20
201.7240865923641
 30
0.0
  0
VERTEX
  5
182
330
171
100
AcDbEntity
  8
0
 62
     7
370
    25
100
AcDbVertex
100
AcDb2dVertex
 10
84.25711369421349
 20
201.8319525320073
 30
0.0
  0
VERTEX
  5
183
330
171
100
AcDbEntity
  8
0
 62
     7
370
    25
100
AcDbVertex
100
AcDb2dVertex
 10
85.27231443180692
 20
202.0619815575574
 30
0.0
  0
VERTEX
  5
184
330
171
100
AcDbEntity
  8
0
 62
     7
370
    25
100
AcDbVertex
100
AcDb2dVertex
 10
85.83731009138789
 20
202.1832144676833
 30
0.0
  0
VERTEX
  5
185
330
171
100
AcDbEntity
  8
0
 62
     7
370
    25
100
AcDbVertex
100
AcDb2dVertex
 10
85.93969832920952
 20
202.1639908348756
 30
0.0
  0
VERTEX
  5
186
330
171
100
AcDbEntity
  8
0
 62
     7
370
    25
100
AcDbVertex
100
AcDb2dVertex
 10
85.9455894424893
 20
202.130504506759
 30
0.0
  0
VERTEX
  5
187
330
171
100
AcDbEntity
  8
0
 62
     7
370
    25
100
AcDbVertex
100
AcDb2dVertex
 10
85.9215771269571
 20
202.080757327952
 30
0.0
  0
VERTEX
  5
188
330
171
100
AcDbEntity
  8
0
 62
     7
370
    25
100
AcDbVertex
100
AcDb2dVertex
 10
85.78608152152222
 20
201.9344785736483
 30
0.0
  0
VERTEX
  5
189
330
171
100
AcDbEntity
  8
0
 62
     7
370
    25
100
AcDbVertex
100
AcDb2dVertex
 10
85.53920597904921
 20
201.7340429183165
 30
0.0
  0
VERTEX
  5
18A
330
171
100
AcDbEntity
  8
0
 62
     7
370
    25
100
AcDbVertex
100
AcDb2dVertex
 10
85.18949433634151
 20
201.494746585911
 30
0.0
  0
VERTEX
  5
18B
330
171
100
AcDbEntity
  8
0
 62
     7
370
    25
100
AcDbVertex
100
AcDb2dVertex
 10
84.74776419322278
 20
201.2358132092396
 30
0.0
  0
VERTEX
  5
18C
330
171
100
AcDbEntity
  8
0
 62
     7
370
    25
100
AcDbVertex
100
AcDb2dVertex
 10
84.22700355967241
 20
200.9777755573944
 30
0.0
  0
VERTEX
  5
18D
330
171
100
AcDbEntity
  8
0
 62
     7
370
    25
100
AcDbVertex
100
AcDb2dVertex
 10
83.6422330520061
 20
200.7400639689122
 30
0.0
  0
VERTEX
  5
18E
330
171
100
AcDbEntity
  8
0
 62
     7
370
    25
100
AcDbVertex
100
AcDb2dVertex
 10
83.00998912855306
 20
200.5396283135804
 30
0.0
  0
VERTEX
  5
18F
330
171
100
AcDbEntity
  8
0
 62
     7
370
    25
100
AcDbVertex
100
AcDb2dVertex
 10
82.34780732533318
 20
200.3889398370555
 30
0.0
  0
VERTEX
  5
190
330
171
100
AcDbEntity
  8
0
 62
     7
370
    25
100
AcDbVertex
100
AcDb2dVertex
 10
81.67501462801874
 20
200.2915125367327
 30
0.0
  0
VERTEX
  5
191
330
171
100
AcDbEntity
  8
0
 62
     7
370
    25
100
AcDbVertex
100
AcDb2dVertex
 10
81.01266057002461
 20
200.2394226929957
 30
0.0
  0
VERTEX
  5
192
330
171
100
AcDbEntity
  8
0
 62
     7
370
    25
100
AcDbVertex
100
AcDb2dVertex
 10
79.79602509940862
 20
200.2032147394457
 30
0.0
  0
VERTEX
  5
193
330
171
100
AcDbEntity
  8
0
 62
     7
370
    25
100
AcDbVertex
100
AcDb2dVertex
 10
78.79200369666484
 20
200.1694183527354
 30
0.0
  0
VERTEX
  5
194
330
171
100
AcDbEntity
  8
0
 62
     7
370
    25
100
AcDbVertex
100
AcDb2dVertex
 10
77.97735919274524
 20
200.1606678102029
 30
0.0
  0
VERTEX
  5
195
330
171
100
AcDbEntity
  8
0
 62
     7
370
    25
100
AcDbVertex
100
AcDb2dVertex
 10
77.61431503050962
 20
200.1963589994301
 30
0.0
  0
VERTEX
  5
196
330
171
100
AcDbEntity
  8
0
 62
     7
370
    25
100
AcDbVertex
100
AcDb2dVertex
 10
77.26415552538882
 20
200.2774565471528
 30
0.0
  0
VERTEX
  5
197
330
171
100
AcDbEntity
  8
0
 62
     7
370
    25
100
AcDbVertex
100
AcDb2dVertex
 10
76.91626978328829
 20
200.4153292684725
 30
0.0
  0
VERTEX
  5
198
330
171
100
AcDbEntity
  8
0
 62
     7
370
    25
100
AcDbVertex
100
AcDb2dVertex
 10
76.56423270112803
 20
200.6156960218947
 30
0.0
  0
VERTEX
  5
199
330
171
100
AcDbEntity
  8
0
 62
     7
370
    25
100
AcDbVertex
100
AcDb2dVertex
 10
76.20723468146902
 20
200.8766275539475
 30
0.0
  0
VERTEX
  5
19A
330
171
100
AcDbEntity
  8
0
 62
     7
370
    25
100
AcDbVertex
100
AcDb2dVertex
 10
75.8505639458811
 20
201.1884086953626
 30
0.0
  0
VERTEX
  5
19B
330
171
100
AcDbEntity
  8
0
 62
     7
370
    25
100
AcDbVertex
100
AcDb2dVertex
 10
75.5045385553426
 20
201.534916399269
 30
0.0
  0
VERTEX
  5
19C
330
171
100
AcDbEntity
  8
0
 62
     7
370
    25
100
AcDbVertex
100
AcDb2dVertex
 10
75.18299056822681
 20
201.8960313080329
 30
0.0
  0
VERTEX
  5
19D
330
171
100
AcDbEntity
  8
0
 62
     7
370
    25
100
AcDbVertex
100
AcDb2dVertex
 10
74.90199135497241
 20
202.2495325557744
 30
0.0
  0
VERTEX
  5
19E
330
171
100
AcDbEntity
  8
0
 62
     7
370
    25
100
AcDbVertex
100
AcDb2dVertex
 10
74.67857691275397
 20
202.5729925708845
 30
0.0
  0
VERTEX
  5
19F
330
171
100
AcDbEntity
  8
0
 62
     7
370
    25
100
AcDbVertex
100
AcDb2dVertex
 10
74.5293698272878
 20
202.845913035226
 30
0.0
  0
VERTEX
  5
1A0
330
171
100
AcDbEntity
  8
0
 62
     7
370
    25
100
AcDbVertex
100
AcDb2dVertex
 10
74.46928736202503
 20
203.0514818828309
 30
0.0
  0
SEQEND
  5
1A1
330
171
100
AcDbEntity
  8
0
370
    25
  0
ENDBLK
  5
170
330
16D
100
AcDbEntity
  8
0
100
AcDbBlockEnd
  0
BLOCK
  5
1A4
330
1A2
100
AcDbEntity
  8
0
100
AcDbBlockBegin
  2
block 9
 70
     0
 71
     0
 10
0.0
 20
0.0
 30
0.0
  3
block 9
  1

  0
POLYLINE
  5
1A6
330
1A2
100
AcDbEntity
  8
0
 62
     7
370
    25
100
AcDb2dPolyline
 66
     1
 10
0.0
 20
0.0
 30
0.0
  0
VERTEX
  5
1A7
330
1A6
100
AcDbEntity
  8
0
 62
     7
370
    25
100
AcDbVertex
100
AcDb2dVertex
 10
80.02977482808282
 20
193.1961316791315
 30
0.0
  0
VERTEX
  5
1A8
330
1A6
100
AcDbEntity
  8
0
 62
     7
370
    25
100
AcDbVertex
100
AcDb2dVertex
 10
82.99155786770696
 20
193.165194721674
 30
0.0
  0
VERTEX
  5
1A9
330
1A6
100
AcDbEntity
  8
0
 62
     7
370
    25
100
AcDbVertex
100
AcDb2dVertex
 10
85.82745711830007
 20
193.364872455999
 30
0.0
  0
VERTEX
  5
1AA
330
1A6
100
AcDbEntity
  8
0
 62
     7
370
    25
100
AcDbVertex
100
AcDb2dVertex
 10
91.05528616430215
 20
194.3717016115633
 30
0.0
  0
VERTEX
  5
1AB
330
1A6
100
AcDbEntity
  8
0
 62
     7
370
    25
100
AcDbVertex
100
AcDb2dVertex
 10
95.65400632374273
 20
195.979148714026
 30
0.0
  0
VERTEX
  5
1AC
330
1A6
100
AcDbEntity
  8
0
 62
     7
370
    25
100
AcDbVertex
100
AcDb2dVertex
 10
99.65427894644058
 20
197.8952419210123
 30
0.0
  0
VERTEX
  5
1AD
330
1A6
100
AcDbEntity
  8
0
 62
     7
370
    25
100
AcDbVertex
100
AcDb2dVertex
 10
103.137787246351
 20
199.8519872547245
 30
0.0
  0
VERTEX
  5
1AE
330
1A6
100
AcDbEntity
  8
0
 62
     7
370
    25
100
AcDbVertex
100
AcDb2dVertex
 10
106.1981344678081
 20
201.6838823280512
 30
0.0
  0
VERTEX
  5
1AF
330
1A6
100
AcDbEntity
  8
0
 62
     7
370
    25
100
AcDbVertex
100
AcDb2dVertex
 10
108.9020865613161
 20
203.4066367764053
 30
0.0
  0
VERTEX
  5
1B0
330
1A6
100
AcDbEntity
  8
0
 62
     7
370
    25
100
AcDbVertex
100
AcDb2dVertex
 10
111.2565681688004
 20
205.278012643993
 30
0.0
  0
VERTEX
  5
1B1
330
1A6
100
AcDbEntity
  8
0
 62
     7
370
    25
100
AcDbVertex
100
AcDb2dVertex
 10
113.2229942208262
 20
207.7247194576174
 30
0.0
  0
VERTEX
  5
1B2
330
1A6
100
AcDbEntity
  8
0
 62
     7
370
    25
100
AcDbVertex
100
AcDb2dVertex
 10
114.7810042030756
 20
211.1273024645793
 30
0.0
  0
VERTEX
  5
1B3
330
1A6
100
AcDbEntity
  8
0
 62
     7
370
    25
100
AcDbVertex
100
AcDb2dVertex
 10
115.999637829073
 20
215.5832578671111
 30
0.0
  0
VERTEX
  5
1B4
330
1A6
100
AcDbEntity
  8
0
 62
     7
370
    25
100
AcDbVertex
100
AcDb2dVertex
 10
117.1089930262783
 20
220.6700791549019
 30
0.0
  0
VERTEX
  5
1B5
330
1A6
100
AcDbEntity
  8
0
 62
     7
370
    25
100
AcDbVertex
100
AcDb2dVertex
 10
118.5241693497092
 20
225.3186842969689
 30
0.0
  0
VERTEX
  5
1B6
330
1A6
100
AcDbEntity
  8
0
 62
     7
370
    25
100
AcDbVertex
100
AcDb2dVertex
 10
119.4319520100726
 20
227.178760251365
 30
0.0
  0
VERTEX
  5
1B7
330
1A6
100
AcDbEntity
  8
0
 62
     7
370
    25
100
AcDbVertex
100
AcDb2dVertex
 10
120.4581770532188
 20
228.6888834063694
 30
0.0
  0
VERTEX
  5
1B8
330
1A6
100
AcDbEntity
  8
0
 62
     7
370
    25
100
AcDbVertex
100
AcDb2dVertex
 10
122.6782654858235
 20
230.8631865199752
 30
0.0
  0
VERTEX
  5
1B9
330
1A6
100
AcDbEntity
  8
0
 62
     7
370
    25
100
AcDbVertex
100
AcDb2dVertex
 10
124.7517651055308
 20
232.4748366389299
 30
0.0
  0
VERTEX
  5
1BA
330
1A6
100
AcDbEntity
  8
0
 62
     7
370
    25
100
AcDbVertex
100
AcDb2dVertex
 10
126.3350965395968
 20
234.2396557031588
 30
0.0
  0
VERTEX
  5
1BB
330
1A6
100
AcDbEntity
  8
0
 62
     7
370
    25
100
AcDbVertex
100
AcDb2dVertex
 10
127.4452441087637
 20
236.5033245936519
 30
0.0
  0
VERTEX
  5
1BC
330
1A6
100
AcDbEntity
  8
0
 62
     7
370
    25
100
AcDbVertex
100
AcDb2dVertex
 10
128.4486970707524
 20
239.0388115179313
 30
0.0
  0
VERTEX
  5
1BD
330
1A6
100
AcDbEntity
  8
0
 62
     7
370
    25
100
AcDbVertex
100
AcDb2dVertex
 10
129.5175379450512
 20
241.3151583598101
 30
0.0
  0
VERTEX
  5
1BE
330
1A6
100
AcDbEntity
  8
0
 62
     7
370
    25
100
AcDbVertex
100
AcDb2dVertex
 10
129.9046288737738
 20
242.2066112675733
 30
0.0
  0
VERTEX
  5
1BF
330
1A6
100
AcDbEntity
  8
0
 62
     7
370
    25
100
AcDbVertex
100
AcDb2dVertex
 10
129.9452120985901
 20
242.8997989301604
 30
0.0
  0
VERTEX
  5
1C0
330
1A6
100
AcDbEntity
  8
0
 62
     7
370
    25
100
AcDbVertex
100
AcDb2dVertex
 10
129.4817778539143
 20
243.3883479209237
 30
0.0
  0
VERTEX
  5
1C1
330
1A6
100
AcDbEntity
  8
0
 62
     7
370
    25
100
AcDbVertex
100
AcDb2dVertex
 10
128.5208029192587
 20
243.6607171699876
 30
0.0
  0
VERTEX
  5
1C2
330
1A6
100
AcDbEntity
  8
0
 62
     7
370
    25
100
AcDbVertex
100
AcDb2dVertex
 10
125.7423334104047
 20
243.5197438627312
 30
0.0
  0
VERTEX
  5
1C3
330
1A6
100
AcDbEntity
  8
0
 62
     7
370
    25
100
AcDbVertex
100
AcDb2dVertex
 10
123.0902989058594
 20
242.5895680817137
 30
0.0
  0
VERTEX
  5
1C4
330
1A6
100
AcDbEntity
  8
0
 62
     7
370
    25
100
AcDbVertex
100
AcDb2dVertex
 10
121.3827717795501
 20
241.413033522546
 30
0.0
  0
VERTEX
  5
1C5
330
1A6
100
AcDbEntity
  8
0
 62
     7
370
    25
100
AcDbVertex
100
AcDb2dVertex
 10
120.5183284203912
 20
240.7967403911897
 30
0.0
  0
VERTEX
  5
1C6
330
1A6
100
AcDbEntity
  8
0
 62
     7
370
    25
100
AcDbVertex
100
AcDb2dVertex
 10
120.265665117503
 20
240.9210738872524
 30
0.0
  0
VERTEX
  5
1C7
330
1A6
100
AcDbEntity
  8
0
 62
     7
370
    25
100
AcDbVertex
100
AcDb2dVertex
 10
120.0739800047037
 20
241.3992186896502
 30
0.0
  0
VERTEX
  5
1C8
330
1A6
100
AcDbEntity
  8
0
 62
     7
370
    25
100
AcDbVertex
100
AcDb2dVertex
 10
119.7984412677934
 20
243.4349256118843
 30
0.0
  0
VERTEX
  5
1C9
330
1A6
100
AcDbEntity
  8
0
 62
     7
370
    25
100
AcDbVertex
100
AcDb2dVertex
 10
119.655607608975
 20
246.7382209669613
 30
0.0
  0
VERTEX
  5
1CA
330
1A6
100
AcDbEntity
  8
0
 62
     7
370
    25
100
AcDbVertex
100
AcDb2dVertex
 10
119.682927216173
 20
250.974172571805
 30
0.0
  0
VERTEX
  5
1CB
330
1A6
100
AcDbEntity
  8
0
 62
     7
370
    25
100
AcDbVertex
100
AcDb2dVertex
 10
119.8689279214216
 20
255.8203711654286
 30
0.0
  0
VERTEX
  5
1CC
330
1A6
100
AcDbEntity
  8
0
 62
     7
370
    25
100
AcDbVertex
100
AcDb2dVertex
 10
120.1246918102466
 20
261.0235850041885
 30
0.0
  0
VERTEX
  5
1CD
330
1A6
100
AcDbEntity
  8
0
 62
     7
370
    25
100
AcDbVertex
100
AcDb2dVertex
 10
120.3052492646285
 20
266.3906820351818
 30
0.0
  0
VERTEX
  5
1CE
330
1A6
100
AcDbEntity
  8
0
 62
     7
370
    25
100
AcDbVertex
100
AcDb2dVertex
 10
120.2336946313999
 20
271.7755213079242
 30
0.0
  0
VERTEX
  5
1CF
330
1A6
100
AcDbEntity
  8
0
 62
     7
370
    25
100
AcDbVertex
100
AcDb2dVertex
 10
119.725439694461
 20
277.0659132879384
 30
0.0
  0
VERTEX
  5
1D0
330
1A6
100
AcDbEntity
  8
0
 62
     7
370
    25
100
AcDbVertex
100
AcDb2dVertex
 10
118.6123982450865
 20
282.1705629448653
 30
0.0
  0
VERTEX
  5
1D1
330
1A6
100
AcDbEntity
  8
0
 62
     7
370
    25
100
AcDbVertex
100
AcDb2dVertex
 10
116.7672395541415
 20
287.0060300660523
 30
0.0
  0
VERTEX
  5
1D2
330
1A6
100
AcDbEntity
  8
0
 62
     7
370
    25
100
AcDbVertex
100
AcDb2dVertex
 10
114.1257814927359
 20
291.4849125790385
 30
0.0
  0
VERTEX
  5
1D3
330
1A6
100
AcDbEntity
  8
0
 62
     7
370
    25
100
AcDbVertex
100
AcDb2dVertex
 10
110.6931572531427
 20
295.5138828471285
 30
0.0
  0
VERTEX
  5
1D4
330
1A6
100
AcDbEntity
  8
0
 62
     7
370
    25
100
AcDbVertex
100
AcDb2dVertex
 10
106.5321364751031
 20
299.0031100055443
 30
0.0
  0
VERTEX
  5
1D5
330
1A6
100
AcDbEntity
  8
0
 62
     7
370
    25
100
AcDbVertex
100
AcDb2dVertex
 10
101.7481735314206
 20
301.8773876198431
 30
0.0
  0
VERTEX
  5
1D6
330
1A6
100
AcDbEntity
  8
0
 62
     7
370
    25
100
AcDbVertex
100
AcDb2dVertex
 10
96.47466251928411
 20
304.0874508245857
 30
0.0
  0
VERTEX
  5
1D7
330
1A6
100
AcDbEntity
  8
0
 62
     7
370
    25
100
AcDbVertex
100
AcDb2dVertex
 10
90.8580544477716
 20
305.621207334619
 30
0.0
  0
VERTEX
  5
1D8
330
1A6
100
AcDbEntity
  8
0
 62
     7
370
    25
100
AcDbVertex
100
AcDb2dVertex
 10
85.04314668012809
 20
306.5151062601768
 30
0.0
  0
VERTEX
  5
1D9
330
1A6
100
AcDbEntity
  8
0
 62
     7
370
    25
100
AcDbVertex
100
AcDb2dVertex
 10
79.15907862061822
 20
306.8620273755414
 30
0.0
  0
VERTEX
  5
1DA
330
1A6
100
AcDbEntity
  8
0
 62
     7
370
    25
100
AcDbVertex
100
AcDb2dVertex
 10
73.3263769347934
 20
306.7442395609007
 30
0.0
  0
VERTEX
  5
1DB
330
1A6
100
AcDbEntity
  8
0
 62
     7
370
    25
100
AcDbVertex
100
AcDb2dVertex
 10
67.68024439497229
 20
306.1272574104473
 30
0.0
  0
VERTEX
  5
1DC
330
1A6
100
AcDbEntity
  8
0
 62
     7
370
    25
100
AcDbVertex
100
AcDb2dVertex
 10
62.36382471856702
 20
304.8827855683105
 30
0.0
  0
VERTEX
  5
1DD
330
1A6
100
AcDbEntity
  8
0
 62
     7
370
    25
100
AcDbVertex
100
AcDb2dVertex
 10
59.87293455534427
 20
303.9716956162814
 30
0.0
  0
VERTEX
  5
1DE
330
1A6
100
AcDbEntity
  8
0
 62
     7
370
    25
100
AcDbVertex
100
AcDb2dVertex
 10
57.51511120523927
 20
302.8380869468599
 30
0.0
  0
VERTEX
  5
1DF
330
1A6
100
AcDbEntity
  8
0
 62
     7
370
    25
100
AcDbVertex
100
AcDb2dVertex
 10
55.30460013808356
 20
301.4615990457283
 30
0.0
  0
VERTEX
  5
1E0
330
1A6
100
AcDbEntity
  8
0
 62
     7
370
    25
100
AcDbVertex
100
AcDb2dVertex
 10
53.25371757023692
 20
299.8251786902347
 30
0.0
  0
VERTEX
  5
1E1
330
1A6
100
AcDbEntity
  8
0
 62
     7
370
    25
100
AcDbVertex
100
AcDb2dVertex
 10
51.37240260217425
 20
297.9165957914062
 30
0.0
  0
VERTEX
  5
1E2
330
1A6
100
AcDbEntity
  8
0
 62
     7
370
    25
100
AcDbVertex
100
AcDb2dVertex
 10
49.66778658155006
 20
295.7301659416925
 30
0.0
  0
VERTEX
  5
1E3
330
1A6
100
AcDbEntity
  8
0
 62
     7
370
    25
100
AcDbVertex
100
AcDb2dVertex
 10
48.14379691721752
 20
293.2681629041135
 30
0.0
  0
VERTEX
  5
1E4
330
1A6
100
AcDbEntity
  8
0
 62
     7
370
    25
100
AcDbVertex
100
AcDb2dVertex
 10
46.80069199133802
 20
290.5426100619129
 30
0.0
  0
VERTEX
  5
1E5
330
1A6
100
AcDbEntity
  8
0
 62
     7
370
    25
100
AcDbVertex
100
AcDb2dVertex
 10
45.63478555174234
 20
287.5761589179063
 30
0.0
  0
VERTEX
  5
1E6
330
1A6
100
AcDbEntity
  8
0
 62
     7
370
    25
100
AcDbVertex
100
AcDb2dVertex
 10
44.63834335906611
 20
284.402691986191
 30
0.0
  0
VERTEX
  5
1E7
330
1A6
100
AcDbEntity
  8
0
 62
     7
370
    25
100
AcDbVertex
100
AcDb2dVertex
 10
43.10501748596853
 20
277.6155954980874
 30
0.0
  0
VERTEX
  5
1E8
330
1A6
100
AcDbEntity
  8
0
 62
     7
370
    25
100
AcDbVertex
100
AcDb2dVertex
 10
42.07424491678178
 20
270.6054463027913
 30
0.0
  0
VERTEX
  5
1E9
330
1A6
100
AcDbEntity
  8
0
 62
     7
370
    25
100
AcDbVertex
100
AcDb2dVertex
 10
41.3842956439508
 20
263.8525768383337
 30
0.0
  0
VERTEX
  5
1EA
330
1A6
100
AcDbEntity
  8
0
 62
     7
370
    25
100
AcDbVertex
100
AcDb2dVertex
 10
40.85345810610607
 20
257.8304465772524
 30
0.0
  0
VERTEX
  5
1EB
330
1A6
100
AcDbEntity
  8
0
 62
     7
370
    25
100
AcDbVertex
100
AcDb2dVertex
 10
40.29545599036016
 20
252.9426312301671
 30
0.0
  0
VERTEX
  5
1EC
330
1A6
100
AcDbEntity
  8
0
 62
     7
370
    25
100
AcDbVertex
100
AcDb2dVertex
 10
39.53481335817185
 20
249.4597085964892
 30
0.0
  0
VERTEX
  5
1ED
330
1A6
100
AcDbEntity
  8
0
 62
     7
370
    25
100
AcDbVertex
100
AcDb2dVertex
 10
39.03048583008613
 20
248.2776618845452
 30
0.0
  0
VERTEX
  5
1EE
330
1A6
100
AcDbEntity
  8
0
 62
     7
370
    25
100
AcDbVertex
100
AcDb2dVertex
 10
38.42227144764269
 20
247.4559032584485
 30
0.0
  0
VERTEX
  5
1EF
330
1A6
100
AcDbEntity
  8
0
 62
     7
370
    25
100
AcDbVertex
100
AcDb2dVertex
 10
37.69830185689487
 20
246.9627722906899
 30
0.0
  0
VERTEX
  5
1F0
330
1A6
100
AcDbEntity
  8
0
 62
     7
370
    25
100
AcDbVertex
100
AcDb2dVertex
 10
36.8521175038078
 20
246.7480739400491
 30
0.0
  0
VERTEX
  5
1F1
330
1A6
100
AcDbEntity
  8
0
 62
     7
370
    25
100
AcDbVertex
100
AcDb2dVertex
 10
34.81906330509732
 20
246.8762314921004
 30
0.0
  0
VERTEX
  5
1F2
330
1A6
100
AcDbEntity
  8
0
 62
     7
370
    25
100
AcDbVertex
100
AcDb2dVertex
 10
32.55918401963798
 20
247.173405428658
 30
0.0
  0
VERTEX
  5
1F3
330
1A6
100
AcDbEntity
  8
0
 62
     7
370
    25
100
AcDbVertex
100
AcDb2dVertex
 10
31.5241912084818
 20
247.1450522928144
 30
0.0
  0
VERTEX
  5
1F4
330
1A6
100
AcDbEntity
  8
0
 62
     7
370
    25
100
AcDbVertex
100
AcDb2dVertex
 10
30.69714436081529
 20
246.8712705546016
 30
0.0
  0
VERTEX
  5
1F5
330
1A6
100
AcDbEntity
  8
0
 62
     7
370
    25
100
AcDbVertex
100
AcDb2dVertex
 10
30.19424654735595
 20
246.2719617439876
 30
0.0
  0
VERTEX
  5
1F6
330
1A6
100
AcDbEntity
  8
0
 62
     7
370
    25
100
AcDbVertex
100
AcDb2dVertex
 10
30.1100828646513
 20
245.2934857242669
 30
0.0
  0
VERTEX
  5
1F7
330
1A6
100
AcDbEntity
  8
0
 62
     7
370
    25
100
AcDbVertex
100
AcDb2dVertex
 10
30.49458997176003
 20
243.9207529772142
 30
0.0
  0
VERTEX
  5
1F8
330
1A6
100
AcDbEntity
  8
0
 62
     7
370
    25
100
AcDbVertex
100
AcDb2dVertex
 10
31.33803547393632
 20
242.1845626564677
 30
0.0
  0
VERTEX
  5
1F9
330
1A6
100
AcDbEntity
  8
0
 62
     7
370
    25
100
AcDbVertex
100
AcDb2dVertex
 10
34.09852158435731
 20
237.9370355307935
 30
0.0
  0
VERTEX
  5
1FA
330
1A6
100
AcDbEntity
  8
0
 62
     7
370
    25
100
AcDbVertex
100
AcDb2dVertex
 10
37.45008272718262
 20
233.4089398288005
 30
0.0
  0
VERTEX
  5
1FB
330
1A6
100
AcDbEntity
  8
0
 62
     7
370
    25
100
AcDbVertex
100
AcDb2dVertex
 10
40.25842121389373
 20
229.5509151986886
 30
0.0
  0
VERTEX
  5
1FC
330
1A6
100
AcDbEntity
  8
0
 62
     7
370
    25
100
AcDbVertex
100
AcDb2dVertex
 10
41.67726656401644
 20
227.0238343073933
 30
0.0
  0
VERTEX
  5
1FD
330
1A6
100
AcDbEntity
  8
0
 62
     7
370
    25
100
AcDbVertex
100
AcDb2dVertex
 10
41.79865450343922
 20
226.2923371830102
 30
0.0
  0
VERTEX
  5
1FE
330
1A6
100
AcDbEntity
  8
0
 62
     7
370
    25
100
AcDbVertex
100
AcDb2dVertex
 10
41.62951754059088
 20
225.8162249869487
 30
0.0
  0
VERTEX
  5
1FF
330
1A6
100
AcDbEntity
  8
0
 62
     7
370
    25
100
AcDbVertex
100
AcDb2dVertex
 10
41.21949950141387
 20
224.9180885939441
 30
0.0
  0
VERTEX
  5
200
330
1A6
100
AcDbEntity
  8
0
 62
     7
370
    25
100
AcDbVertex
100
AcDb2dVertex
 10
41.44701360725977
 20
224.0812749005769
 30
0.0
  0
VERTEX
  5
201
330
1A6
100
AcDbEntity
  8
0
 62
     7
370
    25
100
AcDbVertex
100
AcDb2dVertex
 10
42.11916896190944
 20
222.8350805106975
 30
0.0
  0
VERTEX
  5
202
330
1A6
100
AcDbEntity
  8
0
 62
     7
370
    25
100
AcDbVertex
100
AcDb2dVertex
 10
44.32070555532607
 20
219.4446242398437
 30
0.0
  0
VERTEX
  5
203
330
1A6
100
AcDbEntity
  8
0
 62
     7
370
    25
100
AcDbVertex
100
AcDb2dVertex
 10
46.2739196661659
 20
215.9664213869806
 30
0.0
  0
VERTEX
  5
204
330
1A6
100
AcDbEntity
  8
0
 62
     7
370
    25
100
AcDbVertex
100
AcDb2dVertex
 10
47.35070148555815
 20
213.0208991980468
 30
0.0
  0
VERTEX
  5
205
330
1A6
100
AcDbEntity
  8
0
 62
     7
370
    25
100
AcDbVertex
100
AcDb2dVertex
 10
47.83835475149527
 20
210.5907632937065
 30
0.0
  0
VERTEX
  5
206
330
1A6
100
AcDbEntity
  8
0
 62
     7
370
    25
100
AcDbVertex
100
AcDb2dVertex
 10
48.46506929669449
 20
208.3480750347185
 30
0.0
  0
VERTEX
  5
207
330
1A6
100
AcDbEntity
  8
0
 62
     7
370
    25
100
AcDbVertex
100
AcDb2dVertex
 10
49.93652125487698
 20
205.9740941867877
 30
0.0
  0
VERTEX
  5
208
330
1A6
100
AcDbEntity
  8
0
 62
     7
370
    25
100
AcDbVertex
100
AcDb2dVertex
 10
52.63737276244829
 20
203.3608514574063
 30
0.0
  0
VERTEX
  5
209
330
1A6
100
AcDbEntity
  8
0
 62
     7
370
    25
100
AcDbVertex
100
AcDb2dVertex
 10
56.63003172412374
 20
200.6017778361343
 30
0.0
  0
VERTEX
  5
20A
330
1A6
100
AcDbEntity
  8
0
 62
     7
370
    25
100
AcDbVertex
100
AcDb2dVertex
 10
61.73519814537349
 20
197.9237328606753
 30
0.0
  0
VERTEX
  5
20B
330
1A6
100
AcDbEntity
  8
0
 62
     7
370
    25
100
AcDbVertex
100
AcDb2dVertex
 10
67.61389185592638
 20
195.6179649033524
 30
0.0
  0
VERTEX
  5
20C
330
1A6
100
AcDbEntity
  8
0
 62
     7
370
    25
100
AcDbVertex
100
AcDb2dVertex
 10
73.84954913518344
 20
193.9710714575836
 30
0.0
  0
VERTEX
  5
20D
330
1A6
100
AcDbEntity
  8
0
 62
     7
370
    25
100
AcDbVertex
100
AcDb2dVertex
 10
80.02977482808282
 20
193.1961316791315
 30
0.0
  0
SEQEND
  5
20E
330
1A6
100
AcDbEntity
  8
0
370
    25
  0
ENDBLK
  5
1A5
330
1A2
100
AcDbEntity
  8
0
100
AcDbBlockEnd
  0
ENDSEC
  0
SECTION
  2
ENTITIES
  0
INSERT
  5
3C
330
1F
100
AcDbEntity
  8
0
100
AcDbBlockReference
  2
block 2
 10
0.0
 20
0.0
 30
0.0
  0
INSERT
  5
78
330
1F
100
AcDbEntity
  8
0
100
AcDbBlockReference
  2
block 3
 10
0.0
 20
0.0
 30
0.0
  0
INSERT
  5
B6
330
1F
100
AcDbEntity
  8
0
100
AcDbBlockReference
  2
block 4
 10
0.0
 20
0.0
 30
0.0
  0
INSERT
  5
104
330
1F
100
AcDbEntity
  8
0
100
AcDbBlockReference
  2
block 5
 10
0.0
 20
0.0
 30
0.0
  0
INSERT
  5
109
330
1F
100
AcDbEntity
  8
0
100
AcDbBlockReference
  2
block 6
 10
0.0
 20
0.0
 30
0.0
  0
INSERT
  5
10E
330
1F
100
AcDbEntity
  8
0
100
AcDbBlockReference
  2
block 7
 10
0.0
 20
0.0
 30
0.0
  0
INSERT
  5
16E
330
1F
100
AcDbEntity
  8
0
100
AcDbBlockReference
  2
block 8
 10
0.0
 20
0.0
 30
0.0
  0
INSERT
  5
1A3
330
1F
100
AcDbEntity
  8
0
100
AcDbBlockReference
  2
block 9
 10
0.0
 20
0.0
 30
0.0
  0
ENDSEC
  0
SECTION
  2
OBJECTS
  0
DICTIONARY
  5
C
330
0
100
AcDbDictionary
281
     1
  3
ACAD_GROUP
350
D
  3
ACAD_LAYOUT
350
1A
  3
ACAD_MLINESTYLE
350
17
  3
ACAD_PLOTSETTINGS
350
19
  3
ACAD_PLOTSTYLENAME
350
E
  3
ACAD_TABLESTYLE
350
20F
  3
ACAD_VISUALSTYLE
350
2A
  0
DICTIONARY
  5
D
102
{ACAD_REACTORS
330
C
102
}
330
C
100
AcDbDictionary
281
     1
  0
DICTIONARY
  5
1A
102
{ACAD_REACTORS
330
C
102
}
330
C
100
AcDbDictionary
281
     1
  3
Layout1
350
1E
  3
Layout2
350
26
  3
Model
350
22
  0
DICTIONARY
  5
17
102
{ACAD_REACTORS
330
C
102
}
330
C
100
AcDbDictionary
281
     1
  3
Standard
350
18
  0
DICTIONARY
  5
19
102
{ACAD_REACTORS
330
C
102
}
330
C
100
AcDbDictionary
281
     1
  0
ACDBDICTIONARYWDFLT
  5
E
102
{ACAD_REACTORS
330
C
102
}
330
C
100
AcDbDictionary
281
     1
  3
Normal
350
F
100
AcDbDictionaryWithDefault
340
F
  0
DICTIONARY
  5
20F
102
{ACAD_REACTORS
330
C
102
}
330
C
100
AcDbDictionary
281
     1
  0
DICTIONARY
  5
2A
102
{ACAD_REACTORS
330
C
102
}
330
C
100
AcDbDictionary
281
     1
  3
2dWireframe
350
2F
  3
3D Hidden
350
31
  3
3dWireframe
350
30
  3
Basic
350
32
  3
Brighten
350
36
  3
ColorChange
350
3A
  3
Conceptual
350
34
  3
Dim
350
35
  3
Facepattern
350
39
  3
Flat
350
2B
  3
FlatWithEdges
350
2C
  3
Gouraud
350
2D
  3
GouraudWithEdges
350
2E
  3
Linepattern
350
38
  3
Realistic
350
33
  3
Thicken
350
37
  0
LAYOUT
  5
1E
102
{ACAD_REACTORS
330
1A
102
}
330
1A
100
AcDbPlotSettings
  1

  2
none_device
  4

  6

 40
0.0
 41
0.0
 42
0.0
 43
0.0
 44
0.0
 45
0.0
 46
0.0
 47
0.0
 48
0.0
 49
0.0
140
0.0
141
0.0
142
1.0
143
1.0
 70
   688
 72
     0
 73
     0
 74
     5
  7

 75
    16
147
1.0
148
0.0
149
0.0
100
AcDbLayout
  1
Layout1
 70
     1
 71
     1
 10
0.0
 20
0.0
 11
12.0
 21
9.0
 12
0.0
 22
0.0
 32
0.0
 14
1.000000000000000E+20
 24
1.000000000000000E+20
 34
1.000000000000000E+20
 15
-1.000000000000000E+20
 25
-1.000000000000000E+20
 35
-1.000000000000000E+20
146
0.0
 13
0.0
 23
0.0
 33
0.0
 16
1.0
 26
0.0
 36
0.0
 17
0.0
 27
1.0
 37
0.0
 76
     0
330
1B
  0
LAYOUT
  5
26
102
{ACAD_REACTORS
330
1A
102
}
330
1A
100
AcDbPlotSettings
  1

  2
none_device
  4

  6

 40
0.0
 41
0.0
 42
0.0
 43
0.0
 44
0.0
 45
0.0
 46
0.0
 47
0.0
 48
0.0
 49
0.0
140
0.0
141
0.0
142
1.0
143
1.0
 70
   688
 72
     0
 73
     0
 74
     5
  7

 75
    16
147
1.0
148
0.0
149
0.0
100
AcDbLayout
  1
Layout2
 70
     1
 71
     2
 10
0.0
 20
0.0
 11
0.0
 21
0.0
 12
0.0
 22
0.0
 32
0.0
 14
0.0
 24
0.0
 34
0.0
 15
0.0
 25
0.0
 35
0.0
146
0.0
 13
0.0
 23
0.0
 33
0.0
 16
1.0
 26
0.0
 36
0.0
 17
0.0
 27
1.0
 37
0.0
 76
     0
330
23
  0
LAYOUT
  5
22
102
{ACAD_REACTORS
330
1A
102
}
330
1A
100
AcDbPlotSettings
  1

  2
none_device
  4

  6

 40
0.0
 41
0.0
 42
0.0
 43
0.0
 44
0.0
 45
0.0
 46
0.0
 47
0.0
 48
0.0
 49
0.0
140
0.0
141
0.0
142
1.0
143
1.0
 70
  1712
 72
     0
 73
     0
 74
     0
  7

 75
     0
147
1.0
148
0.0
149
0.0
100
AcDbLayout
  1
Model
 70
     1
 71
     0
 10
0.0
 20
0.0
 11
12.0
 21
9.0
 12
0.0
 22
0.0
 32
0.0
 14
1.000000000000000E+20
 24
1.000000000000000E+20
 34
1.000000000000000E+20
 15
-1.000000000000000E+20
 25
-1.000000000000000E+20
 35
-1.000000000000000E+20
146
0.0
 13
0.0
 23
0.0
 33
0.0
 16
1.0
 26
0.0
 36
0.0
 17
0.0
 27
1.0
 37
0.0
 76
     0
330
1F
331
29
  0
MLINESTYLE
  5
18
102
{ACAD_REACTORS
330
17
102
}
330
17
100
AcDbMlineStyle
  2
Standard
 70
     0
  3

 62
   256
 51
90.0
 52
90.0
 71
     2
 49
0.5
 62
   256
  6
BYLAYER
 49
-0.5
 62
   256
  6
BYLAYER
  0
ACDBPLACEHOLDER
  5
F
102
{ACAD_REACTORS
330
E
102
}
330
E
  0
VISUALSTYLE
  5
2F
102
{ACAD_REACTORS
330
2A
102
}
330
2A
100
AcDbVisualStyle
  2
2dWireframe
 70
     4
 71
     0
 72
     2
 73
     0
 90
        0
 40
-0.6
 41
-30.0
 62
     5
 63
     7
 74
     1
 91
        4
 64
     7
 65
   257
 75
     1
175
     1
 42
1.0
 92
        0
 66
   257
 43
1.0
 76
     1
 77
     6
 78
     2
 67
     7
 79
     5
170
     0
171
     0
290
     0
174
     0
 93
        1
 44
0.0
173
     0
291
     0
 45
0.0
1001
ACAD
1000
AcDbSavedByObjectVersion
1070
     0
  0
VISUALSTYLE
  5
31
102
{ACAD_REACTORS
330
2A
102
}
330
2A
100
AcDbVisualStyle
  2
3D Hidden
 70
     6
 71
     1
 72
     2
 73
     2
 90
        0
 40
-0.6
 41
-30.0
 62
     5
 63
     7
 74
     2
 91
        2
 64
     7
 65
   257
 75
     2
175
     1
 42
40.0
 92
        0
 66
   257
 43
1.0
 76
     1
 77
     6
 78
     2
 67
     7
 79
     3
170
     0
171
     0
290
     0
174
     0
 93
        1
 44
0.0
173
     0
291
     0
 45
0.0
1001
ACAD
1000
AcDbSavedByObjectVersion
1070
     0
  0
VISUALSTYLE
  5
30
102
{ACAD_REACTORS
330
2A
102
}
330
2A
100
AcDbVisualStyle
  2
3dWireframe
 70
     5
 71
     0
 72
     2
 73
     0
 90
        0
 40
-0.6
 41
-30.0
 62
     5
 63
     7
 74
     1
 91
        4
 64
     7
 65
   257
 75
     1
175
     1
 42
1.0
 92
        0
 66
   257
 43
1.0
 76
     1
 77
     6
 78
     2
 67
     7
 79
     5
170
     0
171
     0
290
     0
174
     0
 93
        1
 44
0.0
173
     0
291
     0
 45
0.0
1001
ACAD
1000
AcDbSavedByObjectVersion
1070
     0
  0
VISUALSTYLE
  5
32
102
{ACAD_REACTORS
330
2A
102
}
330
2A
100
AcDbVisualStyle
  2
Basic
 70
     7
 71
     1
 72
     0
 73
     1
 90
        0
 40
-0.6
 41
-30.0
 62
     5
 63
     7
 74
     0
 91
        4
 64
     7
 65
   257
 75
     1
175
     1
 42
1.0
 92
        8
 66
     7
 43
1.0
 76
     1
 77
     6
 78
     2
 67
     7
 79
     5
170
     0
171
     0
290
     0
174
     0
 93
        1
 44
0.0
173
     0
291
     1
 45
0.0
1001
ACAD
1000
AcDbSavedByObjectVersion
1070
     0
  0
VISUALSTYLE
  5
36
102
{ACAD_REACTORS
330
2A
102
}
330
2A
100
AcDbVisualStyle
  2
Brighten
 70
    12
 71
     2
 72
     2
 73
     0
 90
        0
 40
-0.6
 41
-30.0
 62
     5
 63
     7
 74
     1
 91
        4
 64
     7
 65
   257
 75
     1
175
     1
 42
1.0
 92
        8
 66
     7
 43
1.0
 76
     1
 77
     6
 78
     2
 67
     7
 79
     5
170
     0
171
     0
290
     0
174
     0
 93
        1
 44
50.0
173
     0
291
     1
 45
0.0
1001
ACAD
1000
AcDbSavedByObjectVersion
1070
     0
  0
VISUALSTYLE
  5
3A
102
{ACAD_REACTORS
330
2A
102
}
330
2A
100
AcDbVisualStyle
  2
ColorChange
 70
    16
 71
     2
 72
     2
 73
     3
 90
        0
 40
-0.6
 41
-30.0
 62
     5
 63
     8
 74
     1
 91
        4
 64
     7
 65
   257
 75
     1
175
     1
 42
1.0
 92
        8
 66
     8
 43
1.0
 76
     1
 77
     6
 78
     2
 67
     7
 79
     5
170
     0
171
     0
290
     0
174
     0
 93
        1
 44
0.0
173
     0
291
     1
 45
0.0
1001
ACAD
1000
AcDbSavedByObjectVersion
1070
     0
  0
VISUALSTYLE
  5
34
102
{ACAD_REACTORS
330
2A
102
}
330
2A
100
AcDbVisualStyle
  2
Conceptual
 70
     9
 71
     3
 72
     2
 73
     0
 90
        0
 40
-0.6
 41
-30.0
 62
     5
 63
     7
 74
     2
 91
        2
 64
     7
 65
   257
 75
     1
175
     1
 42
40.0
 92
        8
 66
     7
 43
1.0
 76
     1
 77
     6
 78
     2
 67
     7
 79
     3
170
     0
171
     0
290
     0
174
     0
 93
        1
 44
0.0
173
     0
291
     0
 45
0.0
1001
ACAD
1000
AcDbSavedByObjectVersion
1070
     0
  0
VISUALSTYLE
  5
35
102
{ACAD_REACTORS
330
2A
102
}
330
2A
100
AcDbVisualStyle
  2
Dim
 70
    11
 71
     2
 72
     2
 73
     0
 90
        0
 40
-0.6
 41
-30.0
 62
     5
 63
     7
 74
     1
 91
        4
 64
     7
 65
   257
 75
     1
175
     1
 42
1.0
 92
        8
 66
     7
 43
1.0
 76
     1
 77
     6
 78
     2
 67
     7
 79
     5
170
     0
171
     0
290
     0
174
     0
 93
        1
 44
-50.0
173
     0
291
     1
 45
0.0
1001
ACAD
1000
AcDbSavedByObjectVersion
1070
     0
  0
VISUALSTYLE
  5
39
102
{ACAD_REACTORS
330
2A
102
}
330
2A
100
AcDbVisualStyle
  2
Facepattern
 70
    15
 71
     2
 72
     2
 73
     0
 90
        0
 40
-0.6
 41
-30.0
 62
     5
 63
     7
 74
     1
 91
        4
 64
     7
 65
   257
 75
     1
175
     1
 42
1.0
 92
        8
 66
     7
 43
1.0
 76
     1
 77
     6
 78
     2
 67
     7
 79
     5
170
     0
171
     0
290
     0
174
     0
 93
        1
 44
0.0
173
     0
291
     1
 45
0.0
1001
ACAD
1000
AcDbSavedByObjectVersion
1070
     0
  0
VISUALSTYLE
  5
2B
102
{ACAD_REACTORS
330
2A
102
}
330
2A
100
AcDbVisualStyle
  2
Flat
 70
     0
 71
     2
 72
     1
 73
     1
 90
        2
 40
-0.6
 41
30.0
 62
     5
 63
     7
 74
     0
 91
        4
 64
     7
 65
   257
 75
     1
175
     1
 42
1.0
 92
        8
 66
     7
 43
1.0
 76
     1
 77
     6
 78
     2
 67
     7
 79
     5
170
     0
171
     0
290
     0
174
     0
 93
       13
 44
0.0
173
     0
291
     1
 45
0.0
1001
ACAD
1000
AcDbSavedByObjectVersion
1070
     0
  0
VISUALSTYLE
  5
2C
102
{ACAD_REACTORS
330
2A
102
}
330
2A
100
AcDbVisualStyle
  2
FlatWithEdges
 70
     1
 71
     2
 72
     1
 73
     1
 90
        2
 40
-0.6
 41
30.0
 62
     5
 63
     7
 74
     1
 91
        4
 64
     7
 65
   257
 75
     1
175
     1
 42
1.0
 92
        0
 66
   257
 43
1.0
 76
     1
 77
     6
 78
     2
 67
     7
 79
     5
170
     0
171
     0
290
     0
174
     0
 93
       13
 44
0.0
173
     0
291
     1
 45
0.0
1001
ACAD
1000
AcDbSavedByObjectVersion
1070
     0
  0
VISUALSTYLE
  5
2D
102
{ACAD_REACTORS
330
2A
102
}
330
2A
100
AcDbVisualStyle
  2
Gouraud
 70
     2
 71
     2
 72
     2
 73
     1
 90
        2
 40
-0.6
 41
30.0
 62
     5
 63
     7
 74
     0
 91
        4
 64
     7
 65
   257
 75
     1
175
     1
 42
1.0
 92
        0
 66
     7
 43
1.0
 76
     1
 77
     6
 78
     2
 67
     7
 79
     5
170
     0
171
     0
290
     0
174
     0
 93
       13
 44
0.0
173
     0
291
     1
 45
0.0
1001
ACAD
1000
AcDbSavedByObjectVersion
1070
     0
  0
VISUALSTYLE
  5
2E
102
{ACAD_REACTORS
330
2A
102
}
330
2A
100
AcDbVisualStyle
  2
GouraudWithEdges
 70
     3
 71
     2
 72
     2
 73
     1
 90
        2
 40
-0.6
 41
30.0
 62
     5
 63
     7
 74
     1
 91
        4
 64
     7
 65
   257
 75
     1
175
     1
 42
1.0
 92
        0
 66
   257
 43
1.0
 76
     1
 77
     6
 78
     2
 67
     7
 79
     5
170
     0
171
     0
290
     0
174
     0
 93
       13
 44
0.0
173
     0
291
     1
 45
0.0
1001
ACAD
1000
AcDbSavedByObjectVersion
1070
     0
  0
VISUALSTYLE
  5
38
102
{ACAD_REACTORS
330
2A
102
}
330
2A
100
AcDbVisualStyle
  2
Linepattern
 70
    14
 71
     2
 72
     2
 73
     0
 90
        0
 40
-0.6
 41
-30.0
 62
     5
 63
     7
 74
     1
 91
        4
 64
     7
 65
   257
 75
     7
175
     7
 42
1.0
 92
        8
 66
     7
 43
1.0
 76
     1
 77
     6
 78
     2
 67
     7
 79
     5
170
     0
171
     0
290
     0
174
     0
 93
        1
 44
0.0
173
     0
291
     1
 45
0.0
1001
ACAD
1000
AcDbSavedByObjectVersion
1070
     0
  0
VISUALSTYLE
  5
33
102
{ACAD_REACTORS
330
2A
102
}
330
2A
100
AcDbVisualStyle
  2
Realistic
 70
     8
 71
     2
 72
     2
 73
     0
 90
        0
 40
-0.6
 41
-30.0
 62
     5
 63
     7
 74
     1
 91
        0
 64
     7
 65
   257
 75
     1
175
     1
 42
1.0
 92
        8
 66
     8
 43
1.0
 76
     1
 77
     6
 78
     2
 67
     7
 79
     5
170
     0
171
     0
290
     0
174
     0
 93
       13
 44
0.0
173
     0
291
     0
 45
0.0
1001
ACAD
1000
AcDbSavedByObjectVersion
1070
     0
  0
VISUALSTYLE
  5
37
102
{ACAD_REACTORS
330
2A
102
}
330
2A
100
AcDbVisualStyle
  2
Thicken
 70
    13
 71
     2
 72
     2
 73
     0
 90
        0
 40
-0.6
 41
-30.0
 62
     5
 63
     7
 74
     1
 91
        4
 64
     7
 65
   257
 75
     1
175
     1
 42
1.0
 92
       12
 66
     7
 43
1.0
 76
     1
 77
     6
 78
     2
 67
     7
 79
     5
170
     0
171
     0
290
     0
174
     0
 93
        1
 44
0.0
173
     0
291
     1
 45
0.0
1001
ACAD
1000
AcDbSavedByObjectVersion
1070
     0
  0
ENDSEC
  0
EOF
