  0
SECTION
  2
HEADER
  9
$ACADVER
  1
AC1021
  9
$ACADMAINTVER
 70
    25
  9
$DWGCODEPAGE
  3
ANSI_1252
  9
$INSBASE
 10
0.0
 20
0.0
 30
0.0
  9
$EXTMIN
 10
-135.3297
 20
-148.5186
 30
0.0
  9
$EXTMAX
 10
120.2104
 20
140.5904
 30
0.0
  9
$LIMMIN
 10
0.0
 20
0.0
  9
$LIMMAX
 10
12.0
 20
9.0
  9
$ORTHOMODE
 70
     0
  9
$REGENMODE
 70
     1
  9
$FILLMODE
 70
     1
  9
$QTEXTMODE
 70
     0
  9
$MIRRTEXT
 70
     1
  9
$LTSCALE
 40
1.0
  9
$ATTMODE
 70
     1
  9
$TEXTSIZE
 40
0.2
  9
$TRACEWID
 40
0.05
  9
$TEXTSTYLE
  7
Standard
  9
$CLAYER
  8
0
  9
$CELTYPE
  6
ByLayer
  9
$CECOLOR
 62
   256
  9
$CELTSCALE
 40
1.0
  9
$DISPSILH
 70
     0
  9
$DIMSCALE
 40
1.0
  9
$DIMASZ
 40
0.18
  9
$DIMEXO
 40
0.0625
  9
$DIMDLI
 40
0.38
  9
$DIMRND
 40
0.0
  9
$DIMDLE
 40
0.0
  9
$DIMEXE
 40
0.18
  9
$DIMTP
 40
0.0
  9
$DIMTM
 40
0.0
  9
$DIMTXT
 40
0.18
  9
$DIMCEN
 40
0.09
  9
$DIMTSZ
 40
0.0
  9
$DIMTOL
 70
     0
  9
$DIMLIM
 70
     0
  9
$DIMTIH
 70
     1
  9
$DIMTOH
 70
     1
  9
$DIMSE1
 70
     0
  9
$DIMSE2
 70
     0
  9
$DIMTAD
 70
     0
  9
$DIMZIN
 70
     0
  9
$DIMBLK
  1

  9
$DIMASO
 70
     1
  9
$DIMSHO
 70
     1
  9
$DIMPOST
  1

  9
$DIMAPOST
  1

  9
$DIMALT
 70
     0
  9
$DIMALTD
 70
     2
  9
$DIMALTF
 40
25.4
  9
$DIMLFAC
 40
1.0
  9
$DIMTOFL
 70
     0
  9
$DIMTVP
 40
0.0
  9
$DIMTIX
 70
     0
  9
$DIMSOXD
 70
     0
  9
$DIMSAH
 70
     0
  9
$DIMBLK1
  1

  9
$DIMBLK2
  1

  9
$DIMSTYLE
  2
Standard
  9
$DIMCLRD
 70
     0
  9
$DIMCLRE
 70
     0
  9
$DIMCLRT
 70
     0
  9
$DIMTFAC
 40
1.0
  9
$DIMGAP
 40
0.09
  9
$DIMJUST
 70
     0
  9
$DIMSD1
 70
     0
  9
$DIMSD2
 70
     0
  9
$DIMTOLJ
 70
     1
  9
$DIMTZIN
 70
     0
  9
$DIMALTZ
 70
     0
  9
$DIMALTTZ
 70
     0
  9
$DIMUPT
 70
     0
  9
$DIMDEC
 70
     4
  9
$DIMTDEC
 70
     4
  9
$DIMALTU
 70
     2
  9
$DIMALTTD
 70
     2
  9
$DIMTXSTY
  7
Standard
  9
$DIMAUNIT
 70
     0
  9
$DIMADEC
 70
     0
  9
$DIMALTRND
 40
0.0
  9
$DIMAZIN
 70
     0
  9
$DIMDSEP
 70
    46
  9
$DIMATFIT
 70
     3
  9
$DIMFRAC
 70
     0
  9
$DIMLDRBLK
  1

  9
$DIMLUNIT
 70
     2
  9
$DIMLWD
 70
    -2
  9
$DIMLWE
 70
    -2
  9
$DIMTMOVE
 70
     0
  9
$DIMFXL
 40
1.0
  9
$DIMFXLON
 70
     0
  9
$DIMJOGANG
 40
0.7853981633974483
  9
$DIMTFILL
 70
     0
  9
$DIMTFILLCLR
 70
     0
  9
$DIMARCSYM
 70
     0
  9
$DIMLTYPE
  6

  9
$DIMLTEX1
  6

  9
$DIMLTEX2
  6

  9
$LUNITS
 70
     2
  9
$LUPREC
 70
     4
  9
$SKETCHINC
 40
0.1
  9
$FILLETRAD
 40
0.5
  9
$AUNITS
 70
     0
  9
$AUPREC
 70
     0
  9
$MENU
  1
.
  9
$ELEVATION
 40
0.0
  9
$PELEVATION
 40
0.0
  9
$THICKNESS
 40
0.0
  9
$LIMCHECK
 70
     0
  9
$CHAMFERA
 40
0.5
  9
$CHAMFERB
 40
0.5
  9
$CHAMFERC
 40
1.0
  9
$CHAMFERD
 40
0.0
  9
$SKPOLY
 70
     0
  9
$TDCREATE
 40
2457067.03790728
  9
$TDUCREATE
 40
2457066.996240614
  9
$TDUPDATE
 40
2457067.037907292
  9
$TDUUPDATE
 40
2457066.996240625
  9
$TDINDWG
 40
0.0000000116
  9
$TDUSRTIMER
 40
0.0000000116
  9
$USRTIMER
 70
     1
  9
$ANGBASE
 50
0.0
  9
$ANGDIR
 70
     0
  9
$PDMODE
 70
     0
  9
$PDSIZE
 40
0.0
  9
$PLINEWID
 40
0.0
  9
$SPLFRAME
 70
     0
  9
$SPLINETYPE
 70
     6
  9
$SPLINESEGS
 70
     8
  9
$HANDSEED
  5
77
  9
$SURFTAB1
 70
     6
  9
$SURFTAB2
 70
     6
  9
$SURFTYPE
 70
     6
  9
$SURFU
 70
     6
  9
$SURFV
 70
     6
  9
$UCSBASE
  2

  9
$UCSNAME
  2

  9
$UCSORG
 10
0.0
 20
0.0
 30
0.0
  9
$UCSXDIR
 10
1.0
 20
0.0
 30
0.0
  9
$UCSYDIR
 10
0.0
 20
1.0
 30
0.0
  9
$UCSORTHOREF
  2

  9
$UCSORTHOVIEW
 70
     0
  9
$UCSORGTOP
 10
0.0
 20
0.0
 30
0.0
  9
$UCSORGBOTTOM
 10
0.0
 20
0.0
 30
0.0
  9
$UCSORGLEFT
 10
0.0
 20
0.0
 30
0.0
  9
$UCSORGRIGHT
 10
0.0
 20
0.0
 30
0.0
  9
$UCSORGFRONT
 10
0.0
 20
0.0
 30
0.0
  9
$UCSORGBACK
 10
0.0
 20
0.0
 30
0.0
  9
$PUCSBASE
  2

  9
$PUCSNAME
  2

  9
$PUCSORG
 10
0.0
 20
0.0
 30
0.0
  9
$PUCSXDIR
 10
1.0
 20
0.0
 30
0.0
  9
$PUCSYDIR
 10
0.0
 20
1.0
 30
0.0
  9
$PUCSORTHOREF
  2

  9
$PUCSORTHOVIEW
 70
     0
  9
$PUCSORGTOP
 10
0.0
 20
0.0
 30
0.0
  9
$PUCSORGBOTTOM
 10
0.0
 20
0.0
 30
0.0
  9
$PUCSORGLEFT
 10
0.0
 20
0.0
 30
0.0
  9
$PUCSORGRIGHT
 10
0.0
 20
0.0
 30
0.0
  9
$PUCSORGFRONT
 10
0.0
 20
0.0
 30
0.0
  9
$PUCSORGBACK
 10
0.0
 20
0.0
 30
0.0
  9
$USERI1
 70
     0
  9
$USERI2
 70
     0
  9
$USERI3
 70
     0
  9
$USERI4
 70
     0
  9
$USERI5
 70
     0
  9
$USERR1
 40
0.0
  9
$USERR2
 40
0.0
  9
$USERR3
 40
0.0
  9
$USERR4
 40
0.0
  9
$USERR5
 40
0.0
  9
$WORLDVIEW
 70
     1
  9
$SHADEDGE
 70
     3
  9
$SHADEDIF
 70
    70
  9
$TILEMODE
 70
     1
  9
$MAXACTVP
 70
    64
  9
$PINSBASE
 10
0.0
 20
0.0
 30
0.0
  9
$PLIMCHECK
 70
     0
  9
$PEXTMIN
 10
1.000000000000000E+20
 20
1.000000000000000E+20
 30
1.000000000000000E+20
  9
$PEXTMAX
 10
-1.000000000000000E+20
 20
-1.000000000000000E+20
 30
-1.000000000000000E+20
  9
$PLIMMIN
 10
0.0
 20
0.0
  9
$PLIMMAX
 10
12.0
 20
9.0
  9
$UNITMODE
 70
     0
  9
$VISRETAIN
 70
     1
  9
$PLINEGEN
 70
     0
  9
$PSLTSCALE
 70
     1
  9
$TREEDEPTH
 70
  3020
  9
$CMLSTYLE
  2
Standard
  9
$CMLJUST
 70
     0
  9
$CMLSCALE
 40
1.0
  9
$PROXYGRAPHICS
 70
     1
  9
$MEASUREMENT
 70
     0
  9
$CELWEIGHT
370
    -1
  9
$ENDCAPS
280
     0
  9
$JOINSTYLE
280
     0
  9
$LWDISPLAY
290
     0
  9
$INSUNITS
 70
     4
  9
$HYPERLINKBASE
  1

  9
$STYLESHEET
  1

  9
$XEDIT
290
     1
  9
$CEPSNTYPE
380
     0
  9
$PSTYLEMODE
290
     1
  9
$FINGERPRINTGUID
  2
{F854CC98-D223-495A-AED3-6938D559A606}
  9
$VERSIONGUID
  2
{FAEB1C32-E019-11D5-929B-00C0DF256EC4}
  9
$EXTNAMES
290
     1
  9
$PSVPSCALE
 40
0.0
  9
$OLESTARTUP
290
     0
  9
$SORTENTS
280
   127
  9
$INDEXCTL
280
     0
  9
$HIDETEXT
280
     1
  9
$XCLIPFRAME
290
     0
  9
$HALOGAP
280
     0
  9
$OBSCOLOR
 70
   257
  9
$OBSLTYPE
280
     0
  9
$INTERSECTIONDISPLAY
280
     0
  9
$INTERSECTIONCOLOR
 70
   257
  9
$DIMASSOC
280
     2
  9
$PROJECTNAME
  1

  9
$CAMERADISPLAY
290
     0
  9
$LENSLENGTH
 40
50.0
  9
$CAMERAHEIGHT
 40
0.0
  9
$STEPSPERSEC
 40
2.0
  9
$STEPSIZE
 40
6.0
  9
$3DDWFPREC
 40
2.0
  9
$PSOLWIDTH
 40
0.25
  9
$PSOLHEIGHT
 40
4.0
  9
$LOFTANG1
 40
1.570796326794897
  9
$LOFTANG2
 40
1.570796326794897
  9
$LOFTMAG1
 40
0.0
  9
$LOFTMAG2
 40
0.0
  9
$LOFTPARAM
 70
     7
  9
$LOFTNORMALS
280
     1
  9
$LATITUDE
 40
37.795
  9
$LONGITUDE
 40
-122.394
  9
$NORTHDIRECTION
 40
0.0
  9
$TIMEZONE
 70
 -8000
  9
$LIGHTGLYPHDISPLAY
280
     1
  9
$TILEMODELIGHTSYNCH
280
     1
  9
$SOLIDHIST
280
     1
  9
$SHOWHIST
280
     1
  9
$DWFFRAME
280
     2
  9
$DGNFRAME
280
     2
  9
$REALWORLDSCALE
290
     1
  9
$INTERFERECOLOR
 62
   256
  9
$CSHADOW
280
     0
  9
$SHADOWPLANELOCATION
 40
0.0
  0
ENDSEC
  0
SECTION
  2
CLASSES
  0
CLASS
  1
ACDBDICTIONARYWDFLT
  2
AcDbDictionaryWithDefault
  3
ObjectDBX Classes
 90
        0
 91
        4
280
     0
281
     0
  0
CLASS
  1
VISUALSTYLE
  2
AcDbVisualStyle
  3
ObjectDBX Classes
 90
     4095
 91
        4
280
     0
281
     0
  0
CLASS
  1
MATERIAL
  2
AcDbMaterial
  3
ObjectDBX Classes
 90
     1153
 91
        4
280
     0
281
     0
  0
ENDSEC
  0
SECTION
  2
TABLES
  0
TABLE
  2
VPORT
  5
8
330
0
100
AcDbSymbolTable
 70
     1
  0
VPORT
  5
29
330
8
100
AcDbSymbolTableRecord
100
AcDbViewportTableRecord
  2
*Active
 70
     0
 10
0.0
 20
0.0
 11
1.0
 21
1.0
 12
10.42990654205607
 22
4.5
 13
0.0
 23
0.0
 14
0.5
 24
0.5
 15
0.5
 25
0.5
 16
0.0
 26
0.0
 36
1.0
 17
0.0
 27
0.0
 37
0.0
 40
9.0
 41
1.972972972850329
 42
50.0
 43
0.0
 44
0.0
 50
0.0
 51
0.0
 71
     0
 72
   100
 73
     1
 74
     3
 75
     0
 76
     0
 77
     0
 78
     0
281
     0
 65
     1
110
0.0
120
0.0
130
0.0
111
1.0
121
0.0
131
0.0
112
0.0
122
1.0
132
0.0
 79
     0
146
0.0
 60
     3
 61
     5
292
     1
282
     1
141
0.0
142
0.0
 63
   250
  0
ENDTAB
  0
TABLE
  2
LTYPE
  5
5
330
0
100
AcDbSymbolTable
 70
     1
  0
LTYPE
  5
14
330
5
100
AcDbSymbolTableRecord
100
AcDbLinetypeTableRecord
  2
ByBlock
 70
     0
  3

 72
    65
 73
     0
 40
0.0
  0
LTYPE
  5
15
330
5
100
AcDbSymbolTableRecord
100
AcDbLinetypeTableRecord
  2
ByLayer
 70
     0
  3

 72
    65
 73
     0
 40
0.0
  0
LTYPE
  5
16
330
5
100
AcDbSymbolTableRecord
100
AcDbLinetypeTableRecord
  2
Continuous
 70
     0
  3
Solid line
 72
    65
 73
     0
 40
0.0
  0
ENDTAB
  0
TABLE
  2
LAYER
  5
2
330
0
100
AcDbSymbolTable
 70
     2
  0
LAYER
  5
10
330
2
100
AcDbSymbolTableRecord
100
AcDbLayerTableRecord
  2
0
 70
     0
 62
     7
  6
Continuous
370
    -3
390
F
347
3E
  0
LAYER
  5
40
330
2
100
AcDbSymbolTableRecord
100
AcDbLayerTableRecord
  2
Capa 1
 70
     0
 62
     7
  6
Continuous
370
    -3
390
F
347
3E
  0
ENDTAB
  0
TABLE
  2
STYLE
  5
3
330
0
100
AcDbSymbolTable
 70
     1
  0
STYLE
  5
11
330
3
100
AcDbSymbolTableRecord
100
AcDbTextStyleTableRecord
  2
Standard
 70
     0
 40
0.0
 41
1.0
 50
0.0
 71
     0
 42
0.2
  3
txt
  4

  0
ENDTAB
  0
TABLE
  2
VIEW
  5
6
330
0
100
AcDbSymbolTable
 70
     0
  0
ENDTAB
  0
TABLE
  2
UCS
  5
7
330
0
100
AcDbSymbolTable
 70
     0
  0
ENDTAB
  0
TABLE
  2
APPID
  5
9
330
0
100
AcDbSymbolTable
 70
     2
  0
APPID
  5
12
330
9
100
AcDbSymbolTableRecord
100
AcDbRegAppTableRecord
  2
ACAD
 70
     0
  0
APPID
  5
3F
330
9
100
AcDbSymbolTableRecord
100
AcDbRegAppTableRecord
  2
ODA
 70
     0
  0
ENDTAB
  0
TABLE
  2
DIMSTYLE
  5
A
330
0
100
AcDbSymbolTable
 70
     1
100
AcDbDimStyleTable
  0
DIMSTYLE
105
27
330
A
100
AcDbSymbolTableRecord
100
AcDbDimStyleTableRecord
  2
Standard
 70
     0
340
11
  0
ENDTAB
  0
TABLE
  2
BLOCK_RECORD
  5
1
330
0
100
AcDbSymbolTable
 70
     1
  0
BLOCK_RECORD
  5
1F
330
1
100
AcDbSymbolTableRecord
100
AcDbBlockTableRecord
  2
*Model_Space
340
22
 70
     0
280
     1
281
     0
  0
BLOCK_RECORD
  5
1B
330
1
100
AcDbSymbolTableRecord
100
AcDbBlockTableRecord
  2
*Paper_Space
340
1E
 70
     0
280
     1
281
     0
  0
BLOCK_RECORD
  5
23
330
1
100
AcDbSymbolTableRecord
100
AcDbBlockTableRecord
  2
*Paper_Space0
340
26
 70
     0
280
     1
281
     0
  0
ENDTAB
  0
ENDSEC
  0
SECTION
  2
BLOCKS
  0
BLOCK
  5
20
330
1F
100
AcDbEntity
  8
0
100
AcDbBlockBegin
  2
*Model_Space
 70
     0
 10
0.0
 20
0.0
 30
0.0
  3
*Model_Space
  1

  0
ENDBLK
  5
21
330
1F
100
AcDbEntity
  8
0
100
AcDbBlockEnd
  0
BLOCK
  5
1C
330
1B
100
AcDbEntity
 67
     1
  8
0
100
AcDbBlockBegin
  2
*Paper_Space
 70
     0
 10
0.0
 20
0.0
 30
0.0
  3
*Paper_Space
  1

  0
ENDBLK
  5
1D
330
1B
100
AcDbEntity
 67
     1
  8
0
100
AcDbBlockEnd
  0
BLOCK
  5
24
330
23
100
AcDbEntity
  8
0
100
AcDbBlockBegin
  2
*Paper_Space0
 70
     0
 10
0.0
 20
0.0
 30
0.0
  3
*Paper_Space0
  1

  0
ENDBLK
  5
25
330
23
100
AcDbEntity
  8
0
100
AcDbBlockEnd
  0
ENDSEC
  0
SECTION
  2
ENTITIES
  0
SPLINE
  5
41
330
1F
100
AcDbEntity
  8
Capa 1
 62
   250
370
    20
100
AcDbSpline
210
0.0
220
0.0
230
1.0
 70
    11
 71
     3
 72
    72
 73
    68
 74
     0
 42
0.0000000001
 43
0.0000000001
 40
0.0
 40
0.0
 40
0.0
 40
0.0
 40
0.0555555555555556
 40
0.0555555555555556
 40
0.0555555555555556
 40
0.0555555555555556
 40
0.1111111111111111
 40
0.1111111111111111
 40
0.1111111111111111
 40
0.1111111111111111
 40
0.1666666666666667
 40
0.1666666666666667
 40
0.1666666666666667
 40
0.1666666666666667
 40
0.2222222222222222
 40
0.2222222222222222
 40
0.2222222222222222
 40
0.2222222222222222
 40
0.2777777777777778
 40
0.2777777777777778
 40
0.2777777777777778
 40
0.2777777777777778
 40
0.3333333333333333
 40
0.3333333333333333
 40
0.3333333333333333
 40
0.3333333333333333
 40
0.3888888888888889
 40
0.3888888888888889
 40
0.3888888888888889
 40
0.3888888888888889
 40
0.4444444444444444
 40
0.4444444444444444
 40
0.4444444444444444
 40
0.4444444444444444
 40
0.5
 40
0.5
 40
0.5
 40
0.5
 40
0.5555555555555556
 40
0.5555555555555556
 40
0.5555555555555556
 40
0.5555555555555556
 40
0.6111111111111112
 40
0.6111111111111112
 40
0.6111111111111112
 40
0.6111111111111112
 40
0.6666666666666666
 40
0.6666666666666666
 40
0.6666666666666666
 40
0.6666666666666666
 40
0.7222222222222222
 40
0.7222222222222222
 40
0.7222222222222222
 40
0.7222222222222222
 40
0.7777777777777778
 40
0.7777777777777778
 40
0.7777777777777778
 40
0.7777777777777778
 40
0.8333333333333334
 40
0.8333333333333334
 40
0.8333333333333334
 40
0.8333333333333334
 40
0.8888888888888888
 40
0.8888888888888888
 40
0.8888888888888888
 40
0.8888888888888888
 40
1.0
 40
1.0
 40
1.0
 40
1.0
 10
-117.6582
 20
140.4904
 30
0.0
 10
-117.6582
 20
140.4904
 30
0.0
 10
-69.6848
 20
140.4904
 30
0.0
 10
-69.6848
 20
140.4904
 30
0.0
 10
-69.6848
 20
140.4904
 30
0.0
 10
-69.6978
 20
140.3332
 30
0.0
 10
-69.705
 20
140.1742
 30
0.0
 10
-69.705
 20
140.0138
 30
0.0
 10
-69.705
 20
140.0138
 30
0.0
 10
-69.705
 20
140.0138
 30
0.0
 10
-69.705
 20
74.2213
 30
0.0
 10
-69.705
 20
74.2213
 30
0.0
 10
-69.705
 20
74.2213
 30
0.0
 10
-69.705
 20
71.0747
 30
0.0
 10
-67.1306
 20
68.5003
 30
0.0
 10
-63.984
 20
68.5003
 30
0.0
 10
-63.984
 20
68.5003
 30
0.0
 10
-63.984
 20
68.5003
 30
0.0
 10
44.7159
 20
68.5003
 30
0.0
 10
44.7159
 20
68.5003
 30
0.0
 10
44.7159
 20
68.5003
 30
0.0
 10
47.8625
 20
68.5003
 30
0.0
 10
50.4369
 20
71.0747
 30
0.0
 10
50.4369
 20
74.2213
 30
0.0
 10
50.4369
 20
74.2213
 30
0.0
 10
50.4369
 20
74.2213
 30
0.0
 10
50.4369
 20
140.0138
 30
0.0
 10
50.4369
 20
140.0138
 30
0.0
 10
50.4369
 20
140.0138
 30
0.0
 10
50.4369
 20
140.1742
 30
0.0
 10
50.4297
 20
140.3332
 30
0.0
 10
50.4167
 20
140.4904
 30
0.0
 10
50.4167
 20
140.4904
 30
0.0
 10
50.4167
 20
140.4904
 30
0.0
 10
78.6449
 20
140.4904
 30
0.0
 10
78.6449
 20
140.4904
 30
0.0
 10
78.6449
 20
140.4904
 30
0.0
 10
78.6449
 20
140.4904
 30
0.0
 10
102.7359
 20
116.3566
 30
0.0
 10
102.7359
 20
116.3566
 30
0.0
 10
102.7359
 20
116.3566
 30
0.0
 10
102.7359
 20
116.3566
 30
0.0
 10
108.6011
 20
110.481
 30
0.0
 10
108.6011
 20
110.481
 30
0.0
 10
108.6011
 20
110.481
 30
0.0
 10
108.6011
 20
110.481
 30
0.0
 10
108.6011
 20
-88.5379
 30
0.0
 10
108.6011
 20
-88.5379
 30
0.0
 10
108.6011
 20
-88.5379
 30
0.0
 10
108.0033
 20
-89.1817
 30
0.0
 10
107.3681
 20
-89.7569
 30
0.0
 10
106.7091
 20
-90.2588
 30
0.0
 10
106.7091
 20
-90.2588
 30
0.0
 10
106.7091
 20
-90.2588
 30
0.0
 10
-116.8883
 20
-90.2588
 30
0.0
 10
-116.8883
 20
-90.2588
 30
0.0
 10
-116.8883
 20
-90.2588
 30
0.0
 10
-117.3879
 20
-89.8506
 30
0.0
 10
-117.8722
 20
-89.3997
 30
0.0
 10
-118.3344
 20
-88.9078
 30
0.0
 10
-118.3344
 20
-88.9078
 30
0.0
 10
-118.3344
 20
-88.9078
 30
0.0
 10
-118.3344
 20
139.8219
 30
0.0
 10
-118.3344
 20
139.8219
 30
0.0
 10
-118.3344
 20
139.8219
 30
0.0
 10
-118.1136
 20
140.0539
 30
0.0
 10
-117.8879
 20
140.2769
 30
0.0
 10
-117.6582
 20
140.4904
 30
0.0
  0
SPLINE
  5
42
330
1F
100
AcDbEntity
  8
Capa 1
 62
   250
370
    20
100
AcDbSpline
210
0.0
220
0.0
230
1.0
 70
    11
 71
     3
 72
    36
 73
    32
 74
     0
 42
0.0000000001
 43
0.0000000001
 40
0.0
 40
0.0
 40
0.0
 40
0.0
 40
0.1111111111111111
 40
0.1111111111111111
 40
0.1111111111111111
 40
0.1111111111111111
 40
0.2222222222222222
 40
0.2222222222222222
 40
0.2222222222222222
 40
0.2222222222222222
 40
0.3333333333333333
 40
0.3333333333333333
 40
0.3333333333333333
 40
0.3333333333333333
 40
0.4444444444444444
 40
0.4444444444444444
 40
0.4444444444444444
 40
0.4444444444444444
 40
0.5555555555555556
 40
0.5555555555555556
 40
0.5555555555555556
 40
0.5555555555555556
 40
0.6666666666666666
 40
0.6666666666666666
 40
0.6666666666666666
 40
0.6666666666666666
 40
0.7777777777777778
 40
0.7777777777777778
 40
0.7777777777777778
 40
0.7777777777777778
 40
1.0
 40
1.0
 40
1.0
 40
1.0
 10
71.8931
 20
-67.1768
 30
0.0
 10
71.8931
 20
-67.1768
 30
0.0
 10
97.6973
 20
-67.1768
 30
0.0
 10
97.6973
 20
-67.1768
 30
0.0
 10
97.6973
 20
-67.1768
 30
0.0
 10
98.3365
 20
-67.1768
 30
0.0
 10
98.8591
 20
-67.6994
 30
0.0
 10
98.8591
 20
-68.3386
 30
0.0
 10
98.8591
 20
-68.3386
 30
0.0
 10
98.8591
 20
-68.3386
 30
0.0
 10
98.8591
 20
-81.6997
 30
0.0
 10
98.8591
 20
-81.6997
 30
0.0
 10
98.8591
 20
-81.6997
 30
0.0
 10
98.8591
 20
-82.3389
 30
0.0
 10
98.3365
 20
-82.8615
 30
0.0
 10
97.6973
 20
-82.8615
 30
0.0
 10
97.6973
 20
-82.8615
 30
0.0
 10
97.6973
 20
-82.8615
 30
0.0
 10
71.8931
 20
-82.8615
 30
0.0
 10
71.8931
 20
-82.8615
 30
0.0
 10
71.8931
 20
-82.8615
 30
0.0
 10
71.2539
 20
-82.8615
 30
0.0
 10
70.7313
 20
-82.3389
 30
0.0
 10
70.7313
 20
-81.6997
 30
0.0
 10
70.7313
 20
-81.6997
 30
0.0
 10
70.7313
 20
-81.6997
 30
0.0
 10
70.7313
 20
-68.3386
 30
0.0
 10
70.7313
 20
-68.3386
 30
0.0
 10
70.7313
 20
-68.3386
 30
0.0
 10
70.7313
 20
-67.6994
 30
0.0
 10
71.2539
 20
-67.1768
 30
0.0
 10
71.8931
 20
-67.1768
 30
0.0
  0
SPLINE
  5
43
330
1F
100
AcDbEntity
  8
Capa 1
 62
   250
370
    20
100
AcDbSpline
210
0.0
220
0.0
230
1.0
 70
    11
 71
     3
 72
    36
 73
    32
 74
     0
 42
0.0000000001
 43
0.0000000001
 40
0.0
 40
0.0
 40
0.0
 40
0.0
 40
0.1111111111111111
 40
0.1111111111111111
 40
0.1111111111111111
 40
0.1111111111111111
 40
0.2222222222222222
 40
0.2222222222222222
 40
0.2222222222222222
 40
0.2222222222222222
 40
0.3333333333333333
 40
0.3333333333333333
 40
0.3333333333333333
 40
0.3333333333333333
 40
0.4444444444444444
 40
0.4444444444444444
 40
0.4444444444444444
 40
0.4444444444444444
 40
0.5555555555555556
 40
0.5555555555555556
 40
0.5555555555555556
 40
0.5555555555555556
 40
0.6666666666666666
 40
0.6666666666666666
 40
0.6666666666666666
 40
0.6666666666666666
 40
0.7777777777777778
 40
0.7777777777777778
 40
0.7777777777777778
 40
0.7777777777777778
 40
1.0
 40
1.0
 40
1.0
 40
1.0
 10
-85.4978
 20
26.3078
 30
0.0
 10
-85.4978
 20
26.3078
 30
0.0
 10
58.1306
 20
26.3078
 30
0.0
 10
58.1306
 20
26.3078
 30
0.0
 10
58.1306
 20
26.3078
 30
0.0
 10
61.3741
 20
26.3078
 30
0.0
 10
64.0274
 20
23.6545
 30
0.0
 10
64.0274
 20
20.411
 30
0.0
 10
64.0274
 20
20.411
 30
0.0
 10
64.0274
 20
20.411
 30
0.0
 10
64.0274
 20
-47.414
 30
0.0
 10
64.0274
 20
-47.414
 30
0.0
 10
64.0274
 20
-47.414
 30
0.0
 10
64.0274
 20
-50.6574
 30
0.0
 10
61.3741
 20
-53.3107
 30
0.0
 10
58.1306
 20
-53.3107
 30
0.0
 10
58.1306
 20
-53.3107
 30
0.0
 10
58.1306
 20
-53.3107
 30
0.0
 10
-85.4978
 20
-53.3107
 30
0.0
 10
-85.4978
 20
-53.3107
 30
0.0
 10
-85.4978
 20
-53.3107
 30
0.0
 10
-88.7412
 20
-53.3107
 30
0.0
 10
-91.3945
 20
-50.6574
 30
0.0
 10
-91.3945
 20
-47.414
 30
0.0
 10
-91.3945
 20
-47.414
 30
0.0
 10
-91.3945
 20
-47.414
 30
0.0
 10
-91.3945
 20
20.411
 30
0.0
 10
-91.3945
 20
20.411
 30
0.0
 10
-91.3945
 20
20.411
 30
0.0
 10
-91.3945
 20
23.6545
 30
0.0
 10
-88.7412
 20
26.3078
 30
0.0
 10
-85.4978
 20
26.3078
 30
0.0
  0
SPLINE
  5
44
330
1F
100
AcDbEntity
  8
Capa 1
 62
   250
370
    20
100
AcDbSpline
210
0.0
220
0.0
230
1.0
 70
    11
 71
     3
 72
    36
 73
    32
 74
     0
 42
0.0000000001
 43
0.0000000001
 40
0.0
 40
0.0
 40
0.0
 40
0.0
 40
0.1111111111111111
 40
0.1111111111111111
 40
0.1111111111111111
 40
0.1111111111111111
 40
0.2222222222222222
 40
0.2222222222222222
 40
0.2222222222222222
 40
0.2222222222222222
 40
0.3333333333333333
 40
0.3333333333333333
 40
0.3333333333333333
 40
0.3333333333333333
 40
0.4444444444444444
 40
0.4444444444444444
 40
0.4444444444444444
 40
0.4444444444444444
 40
0.5555555555555556
 40
0.5555555555555556
 40
0.5555555555555556
 40
0.5555555555555556
 40
0.6666666666666666
 40
0.6666666666666666
 40
0.6666666666666666
 40
0.6666666666666666
 40
0.7777777777777778
 40
0.7777777777777778
 40
0.7777777777777778
 40
0.7777777777777778
 40
1.0
 40
1.0
 40
1.0
 40
1.0
 10
9.1972
 20
134.0544
 30
0.0
 10
9.1972
 20
134.0544
 30
0.0
 10
27.7906
 20
134.0544
 30
0.0
 10
27.7906
 20
134.0544
 30
0.0
 10
27.7906
 20
134.0544
 30
0.0
 10
28.4461
 20
134.0544
 30
0.0
 10
28.9826
 20
133.5179
 30
0.0
 10
28.9826
 20
132.8625
 30
0.0
 10
28.9826
 20
132.8625
 30
0.0
 10
28.9826
 20
132.8625
 30
0.0
 10
28.9826
 20
81.8497
 30
0.0
 10
28.9826
 20
81.8497
 30
0.0
 10
28.9826
 20
81.8497
 30
0.0
 10
28.9826
 20
81.1942
 30
0.0
 10
28.4461
 20
80.6577
 30
0.0
 10
27.7906
 20
80.6577
 30
0.0
 10
27.7906
 20
80.6577
 30
0.0
 10
27.7906
 20
80.6577
 30
0.0
 10
9.1972
 20
80.6577
 30
0.0
 10
9.1972
 20
80.6577
 30
0.0
 10
9.1972
 20
80.6577
 30
0.0
 10
8.5418
 20
80.6577
 30
0.0
 10
8.0053
 20
81.1942
 30
0.0
 10
8.0053
 20
81.8497
 30
0.0
 10
8.0053
 20
81.8497
 30
0.0
 10
8.0053
 20
81.8497
 30
0.0
 10
8.0053
 20
132.8625
 30
0.0
 10
8.0053
 20
132.8625
 30
0.0
 10
8.0053
 20
132.8625
 30
0.0
 10
8.0053
 20
133.5179
 30
0.0
 10
8.5418
 20
134.0544
 30
0.0
 10
9.1972
 20
134.0544
 30
0.0
  0
LWPOLYLINE
  5
45
330
1F
100
AcDbEntity
  8
Capa 1
 62
   250
370
    20
100
AcDbPolyline
 90
        5
 70
     1
 43
0.0
 10
-83.5274
 20
4.4363
 10
55.2084
 20
4.4363
 10
55.2084
 20
9.0847
 10
-83.5274
 20
9.0847
 10
-83.5274
 20
4.4363
  0
LWPOLYLINE
  5
46
330
1F
100
AcDbEntity
  8
Capa 1
 62
   250
370
    20
100
AcDbPolyline
 90
        5
 70
     1
 43
0.0
 10
-83.5274
 20
-13.5827
 10
55.2084
 20
-13.5827
 10
55.2084
 20
-8.9343
 10
-83.5274
 20
-8.9343
 10
-83.5274
 20
-13.5827
  0
LWPOLYLINE
  5
47
330
1F
100
AcDbEntity
  8
Capa 1
 62
   250
370
    20
100
AcDbPolyline
 90
        5
 70
     1
 43
0.0
 10
-83.5274
 20
-31.6018
 10
55.2084
 20
-31.6018
 10
55.2084
 20
-26.9534
 10
-83.5274
 20
-26.9534
 10
-83.5274
 20
-31.6018
  0
SPLINE
  5
48
330
1F
100
AcDbEntity
  8
Capa 1
 62
   250
100
AcDbSpline
210
0.0
220
0.0
230
1.0
 70
    11
 71
     3
 72
    48
 73
    44
 74
     0
 42
0.0000000001
 43
0.0000000001
 40
0.0
 40
0.0
 40
0.0
 40
0.0
 40
0.0833333333333333
 40
0.0833333333333333
 40
0.0833333333333333
 40
0.0833333333333333
 40
0.1666666666666667
 40
0.1666666666666667
 40
0.1666666666666667
 40
0.1666666666666667
 40
0.25
 40
0.25
 40
0.25
 40
0.25
 40
0.3333333333333333
 40
0.3333333333333333
 40
0.3333333333333333
 40
0.3333333333333333
 40
0.4166666666666667
 40
0.4166666666666667
 40
0.4166666666666667
 40
0.4166666666666667
 40
0.5
 40
0.5
 40
0.5
 40
0.5
 40
0.5833333333333334
 40
0.5833333333333334
 40
0.5833333333333334
 40
0.5833333333333334
 40
0.6666666666666666
 40
0.6666666666666666
 40
0.6666666666666666
 40
0.6666666666666666
 40
0.75
 40
0.75
 40
0.75
 40
0.75
 40
0.8333333333333334
 40
0.8333333333333334
 40
0.8333333333333334
 40
0.8333333333333334
 40
1.0
 40
1.0
 40
1.0
 40
1.0
 10
-100.1628
 20
-145.7989
 30
0.0
 10
-100.1628
 20
-146.2205
 30
0.0
 10
-100.5844
 20
-146.7792
 30
0.0
 10
-101.4278
 20
-147.475
 30
0.0
 10
-101.4278
 20
-147.475
 30
0.0
 10
-102.2711
 20
-148.1707
 30
0.0
 10
-102.8825
 20
-148.5186
 30
0.0
 10
-103.262
 20
-148.5186
 30
0.0
 10
-103.262
 20
-148.5186
 30
0.0
 10
-103.262
 20
-148.5186
 30
0.0
 10
-129.6372
 20
-148.5186
 30
0.0
 10
-129.6372
 20
-148.5186
 30
0.0
 10
-129.6372
 20
-148.5186
 30
0.0
 10
-130.0589
 20
-148.5186
 30
0.0
 10
-130.6281
 20
-148.1602
 30
0.0
 10
-131.345
 20
-147.4434
 30
0.0
 10
-131.345
 20
-147.4434
 30
0.0
 10
-132.0618
 20
-146.7265
 30
0.0
 10
-132.4202
 20
-146.1573
 30
0.0
 10
-132.4202
 20
-145.7356
 30
0.0
 10
-132.4202
 20
-145.7356
 30
0.0
 10
-132.4202
 20
-145.7356
 30
0.0
 10
-132.4202
 20
-109.9362
 30
0.0
 10
-132.4202
 20
-109.9362
 30
0.0
 10
-132.4202
 20
-109.9362
 30
0.0
 10
-130.9865
 20
-108.376
 30
0.0
 10
-129.6372
 20
-107.5959
 30
0.0
 10
-128.3722
 20
-107.5959
 30
0.0
 10
-128.3722
 20
-107.5959
 30
0.0
 10
-128.3722
 20
-107.5959
 30
0.0
 10
-103.6415
 20
-107.5959
 30
0.0
 10
-103.6415
 20
-107.5959
 30
0.0
 10
-103.6415
 20
-107.5959
 30
0.0
 10
-103.1355
 20
-107.5959
 30
0.0
 10
-102.4292
 20
-107.8911
 30
0.0
 10
-101.5226
 20
-108.4814
 30
0.0
 10
-101.5226
 20
-108.4814
 30
0.0
 10
-100.616
 20
-109.0717
 30
0.0
 10
-100.1628
 20
-109.5567
 30
0.0
 10
-100.1628
 20
-109.9362
 30
0.0
 10
-100.1628
 20
-109.9362
 30
0.0
 10
-100.1628
 20
-109.9362
 30
0.0
 10
-100.1628
 20
-145.7989
 30
0.0
 10
-100.1628
 20
-145.7989
 30
0.0
  0
SPLINE
  5
49
330
1F
100
AcDbEntity
  8
Capa 1
 62
   250
100
AcDbSpline
210
0.0
220
0.0
230
1.0
 70
    11
 71
     3
 72
    80
 73
    76
 74
     0
 42
0.0000000001
 43
0.0000000001
 40
0.0
 40
0.0
 40
0.0
 40
0.0
 40
0.05
 40
0.05
 40
0.05
 40
0.05
 40
0.1
 40
0.1
 40
0.1
 40
0.1
 40
0.15
 40
0.15
 40
0.15
 40
0.15
 40
0.2
 40
0.2
 40
0.2
 40
0.2
 40
0.25
 40
0.25
 40
0.25
 40
0.25
 40
0.3
 40
0.3
 40
0.3
 40
0.3
 40
0.35
 40
0.35
 40
0.35
 40
0.35
 40
0.4
 40
0.4
 40
0.4
 40
0.4
 40
0.45
 40
0.45
 40
0.45
 40
0.45
 40
0.5
 40
0.5
 40
0.5
 40
0.5
 40
0.55
 40
0.55
 40
0.55
 40
0.55
 40
0.6
 40
0.6
 40
0.6
 40
0.6
 40
0.65
 40
0.65
 40
0.65
 40
0.65
 40
0.7
 40
0.7
 40
0.7
 40
0.7
 40
0.75
 40
0.75
 40
0.75
 40
0.75
 40
0.8
 40
0.8
 40
0.8
 40
0.8
 40
0.85
 40
0.85
 40
0.85
 40
0.85
 40
0.9
 40
0.9
 40
0.9
 40
0.9
 40
1.0
 40
1.0
 40
1.0
 40
1.0
 10
-105.3492
 20
-131.7995
 30
0.0
 10
-105.3492
 20
-131.7995
 30
0.0
 10
-105.3071
 20
-131.1987
 30
0.0
 10
-105.2227
 20
-129.9864
 30
0.0
 10
-105.2227
 20
-129.9864
 30
0.0
 10
-105.1384
 20
-128.7846
 30
0.0
 10
-105.0962
 20
-127.6778
 30
0.0
 10
-105.0962
 20
-126.6658
 30
0.0
 10
-105.0962
 20
-126.6658
 30
0.0
 10
-105.0962
 20
-124.2939
 30
0.0
 10
-105.3282
 20
-122.4807
 30
0.0
 10
-105.792
 20
-121.2157
 30
0.0
 10
-105.792
 20
-121.2157
 30
0.0
 10
-105.9607
 20
-120.7941
 30
0.0
 10
-106.5088
 20
-120.3935
 30
0.0
 10
-107.4365
 20
-120.0034
 30
0.0
 10
-107.4365
 20
-120.0034
 30
0.0
 10
-108.5328
 20
-119.5396
 30
0.0
 10
-109.2075
 20
-119.2023
 30
0.0
 10
-109.4605
 20
-118.9914
 30
0.0
 10
-109.4605
 20
-118.9914
 30
0.0
 10
-109.587
 20
-117.8108
 30
0.0
 10
-109.7135
 20
-116.6301
 30
0.0
 10
-109.84
 20
-115.4494
 30
0.0
 10
-109.84
 20
-115.4494
 30
0.0
 10
-110.1352
 20
-113.9631
 30
0.0
 10
-110.599
 20
-113.0987
 30
0.0
 10
-111.2315
 20
-112.8457
 30
0.0
 10
-111.2315
 20
-112.8457
 30
0.0
 10
-112.0327
 20
-112.5505
 30
0.0
 10
-113.0447
 20
-112.3818
 30
0.0
 10
-114.2675
 20
-112.3397
 30
0.0
 10
-114.2675
 20
-112.3397
 30
0.0
 10
-115.1108
 20
-112.2553
 30
0.0
 10
-116.0806
 20
-112.2553
 30
0.0
 10
-117.177
 20
-112.3397
 30
0.0
 10
-117.177
 20
-112.3397
 30
0.0
 10
-118.5263
 20
-112.3818
 30
0.0
 10
-119.0956
 20
-112.4029
 30
0.0
 10
-118.8847
 20
-112.4029
 30
0.0
 10
-118.8847
 20
-112.4029
 30
0.0
 10
-121.4147
 20
-112.4029
 30
0.0
 10
-122.9116
 20
-112.424
 30
0.0
 10
-123.3755
 20
-112.4662
 30
0.0
 10
-123.3755
 20
-112.4662
 30
0.0
 10
-125.9898
 20
-112.7192
 30
0.0
 10
-127.297
 20
-113.4149
 30
0.0
 10
-127.297
 20
-114.5534
 30
0.0
 10
-127.297
 20
-114.5534
 30
0.0
 10
-127.297
 20
-114.5534
 30
0.0
 10
-127.297
 20
-141.2449
 30
0.0
 10
-127.297
 20
-141.2449
 30
0.0
 10
-127.297
 20
-141.2449
 30
0.0
 10
-127.297
 20
-142.9315
 30
0.0
 10
-124.8724
 20
-143.7749
 30
0.0
 10
-120.0232
 20
-143.7749
 30
0.0
 10
-120.0232
 20
-143.7749
 30
0.0
 10
-119.3486
 20
-143.7749
 30
0.0
 10
-118.6106
 20
-143.7749
 30
0.0
 10
-117.8095
 20
-143.7749
 30
0.0
 10
-117.8095
 20
-143.7749
 30
0.0
 10
-116.9661
 20
-143.7749
 30
0.0
 10
-116.5234
 20
-143.7749
 30
0.0
 10
-116.4812
 20
-143.7749
 30
0.0
 10
-116.4812
 20
-143.7749
 30
0.0
 10
-111.5056
 20
-143.7749
 30
0.0
 10
-108.8069
 20
-143.7327
 30
0.0
 10
-108.3852
 20
-143.6484
 30
0.0
 10
-108.3852
 20
-143.6484
 30
0.0
 10
-106.8672
 20
-143.3954
 30
0.0
 10
-105.9607
 20
-142.4677
 30
0.0
 10
-105.6655
 20
-140.8548
 30
0.0
 10
-105.6655
 20
-140.8548
 30
0.0
 10
-105.4547
 20
-139.885
 30
0.0
 10
-105.3492
 20
-136.8701
 30
0.0
 10
-105.3492
 20
-131.7995
 30
0.0
  0
SPLINE
  5
4A
330
1F
100
AcDbEntity
  8
Capa 1
 62
   250
100
AcDbSpline
210
0.0
220
0.0
230
1.0
 70
    11
 71
     3
 72
    48
 73
    44
 74
     0
 42
0.0000000001
 43
0.0000000001
 40
0.0
 40
0.0
 40
0.0
 40
0.0
 40
0.0833333333333333
 40
0.0833333333333333
 40
0.0833333333333333
 40
0.0833333333333333
 40
0.1666666666666667
 40
0.1666666666666667
 40
0.1666666666666667
 40
0.1666666666666667
 40
0.25
 40
0.25
 40
0.25
 40
0.25
 40
0.3333333333333333
 40
0.3333333333333333
 40
0.3333333333333333
 40
0.3333333333333333
 40
0.4166666666666667
 40
0.4166666666666667
 40
0.4166666666666667
 40
0.4166666666666667
 40
0.5
 40
0.5
 40
0.5
 40
0.5
 40
0.5833333333333334
 40
0.5833333333333334
 40
0.5833333333333334
 40
0.5833333333333334
 40
0.6666666666666666
 40
0.6666666666666666
 40
0.6666666666666666
 40
0.6666666666666666
 40
0.75
 40
0.75
 40
0.75
 40
0.75
 40
0.8333333333333334
 40
0.8333333333333334
 40
0.8333333333333334
 40
0.8333333333333334
 40
1.0
 40
1.0
 40
1.0
 40
1.0
 10
-86.3005
 20
-146.4946
 30
0.0
 10
-86.3005
 20
-147.0849
 30
0.0
 10
-86.9119
 20
-147.5909
 30
0.0
 10
-88.1348
 20
-148.0126
 30
0.0
 10
-88.1348
 20
-148.0126
 30
0.0
 10
-89.1468
 20
-148.3499
 30
0.0
 10
-90.0323
 20
-148.5186
 30
0.0
 10
-90.7913
 20
-148.5186
 30
0.0
 10
-90.7913
 20
-148.5186
 30
0.0
 10
-91.6768
 20
-148.5186
 30
0.0
 10
-92.5412
 20
-148.371
 30
0.0
 10
-93.3845
 20
-148.0759
 30
0.0
 10
-93.3845
 20
-148.0759
 30
0.0
 10
-94.4387
 20
-147.6542
 30
0.0
 10
-94.9658
 20
-147.0849
 30
0.0
 10
-94.9658
 20
-146.3681
 30
0.0
 10
-94.9658
 20
-146.3681
 30
0.0
 10
-94.9658
 20
-146.3681
 30
0.0
 10
-94.9658
 20
-109.0507
 30
0.0
 10
-94.9658
 20
-109.0507
 30
0.0
 10
-94.9658
 20
-109.0507
 30
0.0
 10
-94.9658
 20
-108.629
 30
0.0
 10
-94.639
 20
-108.2284
 30
0.0
 10
-93.9854
 20
-107.8489
 30
0.0
 10
-93.9854
 20
-107.8489
 30
0.0
 10
-93.3318
 20
-107.4694
 30
0.0
 10
-92.8574
 20
-107.2797
 30
0.0
 10
-92.5623
 20
-107.2797
 30
0.0
 10
-92.5623
 20
-107.2797
 30
0.0
 10
-91.6346
 20
-107.2797
 30
0.0
 10
-90.9389
 20
-107.7435
 30
0.0
 10
-90.475
 20
-108.6712
 30
0.0
 10
-90.475
 20
-108.6712
 30
0.0
 10
-90.475
 20
-108.6712
 30
0.0
 10
-90.475
 20
-117.9689
 30
0.0
 10
-90.475
 20
-117.9689
 30
0.0
 10
-90.475
 20
-117.9689
 30
0.0
 10
-89.5052
 20
-118.5171
 30
0.0
 10
-88.1137
 20
-119.3815
 30
0.0
 10
-86.3005
 20
-120.5621
 30
0.0
 10
-86.3005
 20
-120.5621
 30
0.0
 10
-86.3005
 20
-120.5621
 30
0.0
 10
-86.3005
 20
-146.4946
 30
0.0
 10
-86.3005
 20
-146.4946
 30
0.0
  0
SPLINE
  5
4B
330
1F
100
AcDbEntity
  8
Capa 1
 62
   250
100
AcDbSpline
210
0.0
220
0.0
230
1.0
 70
    11
 71
     3
 72
    68
 73
    64
 74
     0
 42
0.0000000001
 43
0.0000000001
 40
0.0
 40
0.0
 40
0.0
 40
0.0
 40
0.0588235294117647
 40
0.0588235294117647
 40
0.0588235294117647
 40
0.0588235294117647
 40
0.1176470588235294
 40
0.1176470588235294
 40
0.1176470588235294
 40
0.1176470588235294
 40
0.1764705882352941
 40
0.1764705882352941
 40
0.1764705882352941
 40
0.1764705882352941
 40
0.2352941176470588
 40
0.2352941176470588
 40
0.2352941176470588
 40
0.2352941176470588
 40
0.2941176470588235
 40
0.2941176470588235
 40
0.2941176470588235
 40
0.2941176470588235
 40
0.3529411764705883
 40
0.3529411764705883
 40
0.3529411764705883
 40
0.3529411764705883
 40
0.4117647058823529
 40
0.4117647058823529
 40
0.4117647058823529
 40
0.4117647058823529
 40
0.4705882352941176
 40
0.4705882352941176
 40
0.4705882352941176
 40
0.4705882352941176
 40
0.5294117647058824
 40
0.5294117647058824
 40
0.5294117647058824
 40
0.5294117647058824
 40
0.5882352941176471
 40
0.5882352941176471
 40
0.5882352941176471
 40
0.5882352941176471
 40
0.6470588235294118
 40
0.6470588235294118
 40
0.6470588235294118
 40
0.6470588235294118
 40
0.7058823529411765
 40
0.7058823529411765
 40
0.7058823529411765
 40
0.7058823529411765
 40
0.7647058823529411
 40
0.7647058823529411
 40
0.7647058823529411
 40
0.7647058823529411
 40
0.8235294117647058
 40
0.8235294117647058
 40
0.8235294117647058
 40
0.8235294117647058
 40
0.8823529411764706
 40
0.8823529411764706
 40
0.8823529411764706
 40
0.8823529411764706
 40
1.0
 40
1.0
 40
1.0
 40
1.0
 10
-58.2175
 20
-146.1784
 30
0.0
 10
-59.0187
 20
-147.359
 30
0.0
 10
-59.8199
 20
-148.0126
 30
0.0
 10
-60.621
 20
-148.1391
 30
0.0
 10
-60.621
 20
-148.1391
 30
0.0
 10
-61.4222
 20
-148.2656
 30
0.0
 10
-62.5607
 20
-148.3289
 30
0.0
 10
-64.0365
 20
-148.3289
 30
0.0
 10
-64.0365
 20
-148.3289
 30
0.0
 10
-65.0907
 20
-148.3289
 30
0.0
 10
-66.3241
 20
-148.3289
 30
0.0
 10
-67.7367
 20
-148.3289
 30
0.0
 10
-67.7367
 20
-148.3289
 30
0.0
 10
-69.1492
 20
-148.3289
 30
0.0
 10
-69.8344
 20
-148.3289
 30
0.0
 10
-69.7923
 20
-148.3289
 30
0.0
 10
-69.7923
 20
-148.3289
 30
0.0
 10
-69.7923
 20
-148.3289
 30
0.0
 10
-70.2139
 20
-148.3289
 30
0.0
 10
-71.0573
 20
-148.3289
 30
0.0
 10
-71.0573
 20
-148.3289
 30
0.0
 10
-71.9006
 20
-148.3289
 30
0.0
 10
-72.6807
 20
-148.3289
 30
0.0
 10
-73.3975
 20
-148.3289
 30
0.0
 10
-73.3975
 20
-148.3289
 30
0.0
 10
-78.4997
 20
-148.3289
 30
0.0
 10
-81.0508
 20
-147.4644
 30
0.0
 10
-81.0508
 20
-145.7356
 30
0.0
 10
-81.0508
 20
-145.7356
 30
0.0
 10
-81.0508
 20
-145.7356
 30
0.0
 10
-81.0508
 20
-121.9536
 30
0.0
 10
-81.0508
 20
-121.9536
 30
0.0
 10
-81.0508
 20
-121.9536
 30
0.0
 10
-81.0508
 20
-121.5741
 30
0.0
 10
-80.7872
 20
-121.0681
 30
0.0
 10
-80.2601
 20
-120.4356
 30
0.0
 10
-80.2601
 20
-120.4356
 30
0.0
 10
-79.7331
 20
-119.8031
 30
0.0
 10
-79.3008
 20
-119.4869
 30
0.0
 10
-78.9635
 20
-119.4869
 30
0.0
 10
-78.9635
 20
-119.4869
 30
0.0
 10
-78.9635
 20
-119.4869
 30
0.0
 10
-64.163
 20
-119.4869
 30
0.0
 10
-64.163
 20
-119.4869
 30
0.0
 10
-64.163
 20
-119.4869
 30
0.0
 10
-63.1932
 20
-119.4869
 30
0.0
 10
-62.7083
 20
-119.002
 30
0.0
 10
-62.7083
 20
-118.0321
 30
0.0
 10
-62.7083
 20
-118.0321
 30
0.0
 10
-62.7083
 20
-118.0321
 30
0.0
 10
-62.7083
 20
-108.6712
 30
0.0
 10
-62.7083
 20
-108.6712
 30
0.0
 10
-62.7083
 20
-108.6712
 30
0.0
 10
-62.0336
 20
-107.7435
 30
0.0
 10
-61.2746
 20
-107.2797
 30
0.0
 10
-60.4313
 20
-107.2797
 30
0.0
 10
-60.4313
 20
-107.2797
 30
0.0
 10
-59.6301
 20
-107.2797
 30
0.0
 10
-58.8922
 20
-107.617
 30
0.0
 10
-58.2175
 20
-108.2917
 30
0.0
 10
-58.2175
 20
-108.2917
 30
0.0
 10
-58.2175
 20
-108.2917
 30
0.0
 10
-58.2175
 20
-146.1784
 30
0.0
 10
-58.2175
 20
-146.1784
 30
0.0
  0
SPLINE
  5
4C
330
1F
100
AcDbEntity
  8
Capa 1
 62
   250
100
AcDbSpline
210
0.0
220
0.0
230
1.0
 70
    11
 71
     3
 72
    48
 73
    44
 74
     0
 42
0.0000000001
 43
0.0000000001
 40
0.0
 40
0.0
 40
0.0
 40
0.0
 40
0.0833333333333333
 40
0.0833333333333333
 40
0.0833333333333333
 40
0.0833333333333333
 40
0.1666666666666667
 40
0.1666666666666667
 40
0.1666666666666667
 40
0.1666666666666667
 40
0.25
 40
0.25
 40
0.25
 40
0.25
 40
0.3333333333333333
 40
0.3333333333333333
 40
0.3333333333333333
 40
0.3333333333333333
 40
0.4166666666666667
 40
0.4166666666666667
 40
0.4166666666666667
 40
0.4166666666666667
 40
0.5
 40
0.5
 40
0.5
 40
0.5
 40
0.5833333333333334
 40
0.5833333333333334
 40
0.5833333333333334
 40
0.5833333333333334
 40
0.6666666666666666
 40
0.6666666666666666
 40
0.6666666666666666
 40
0.6666666666666666
 40
0.75
 40
0.75
 40
0.75
 40
0.75
 40
0.8333333333333334
 40
0.8333333333333334
 40
0.8333333333333334
 40
0.8333333333333334
 40
1.0
 40
1.0
 40
1.0
 40
1.0
 10
-62.7083
 20
-142.6364
 30
0.0
 10
-62.7083
 20
-142.6364
 30
0.0
 10
-62.7083
 20
-125.4324
 30
0.0
 10
-62.7083
 20
-125.4324
 30
0.0
 10
-62.7083
 20
-125.4324
 30
0.0
 10
-63.4251
 20
-124.5047
 30
0.0
 10
-65.7865
 20
-124.0409
 30
0.0
 10
-69.7923
 20
-124.0409
 30
0.0
 10
-69.7923
 20
-124.0409
 30
0.0
 10
-70.4248
 20
-124.0409
 30
0.0
 10
-71.2049
 20
-123.9987
 30
0.0
 10
-72.1325
 20
-123.9144
 30
0.0
 10
-72.1325
 20
-123.9144
 30
0.0
 10
-73.0602
 20
-123.8301
 30
0.0
 10
-73.6716
 20
-123.7879
 30
0.0
 10
-73.9668
 20
-123.7879
 30
0.0
 10
-73.9668
 20
-123.7879
 30
0.0
 10
-74.8944
 20
-123.7879
 30
0.0
 10
-75.548
 20
-124.0409
 30
0.0
 10
-75.9275
 20
-124.5469
 30
0.0
 10
-75.9275
 20
-124.5469
 30
0.0
 10
-76.3492
 20
-125.1794
 30
0.0
 10
-76.56
 20
-126.339
 30
0.0
 10
-76.56
 20
-128.0256
 30
0.0
 10
-76.56
 20
-128.0256
 30
0.0
 10
-76.56
 20
-129.0376
 30
0.0
 10
-76.5179
 20
-129.8177
 30
0.0
 10
-76.4335
 20
-130.3659
 30
0.0
 10
-76.4335
 20
-130.3659
 30
0.0
 10
-75.3794
 20
-130.9984
 30
0.0
 10
-74.0089
 20
-131.9682
 30
0.0
 10
-72.3223
 20
-133.2754
 30
0.0
 10
-72.3223
 20
-133.2754
 30
0.0
 10
-72.3223
 20
-133.2754
 30
0.0
 10
-72.3223
 20
-142.6364
 30
0.0
 10
-72.3223
 20
-142.6364
 30
0.0
 10
-72.3223
 20
-142.6364
 30
0.0
 10
-71.3103
 20
-143.3532
 30
0.0
 10
-69.7079
 20
-143.7116
 30
0.0
 10
-67.5153
 20
-143.7116
 30
0.0
 10
-67.5153
 20
-143.7116
 30
0.0
 10
-65.154
 20
-143.7116
 30
0.0
 10
-63.5516
 20
-143.3532
 30
0.0
 10
-62.7083
 20
-142.6364
 30
0.0
  0
SPLINE
  5
4D
330
1F
100
AcDbEntity
  8
Capa 1
 62
   250
100
AcDbSpline
210
0.0
220
0.0
230
1.0
 70
    11
 71
     3
 72
   152
 73
   148
 74
     0
 42
0.0000000001
 43
0.0000000001
 40
0.0
 40
0.0
 40
0.0
 40
0.0
 40
0.0263157894736842
 40
0.0263157894736842
 40
0.0263157894736842
 40
0.0263157894736842
 40
0.0526315789473684
 40
0.0526315789473684
 40
0.0526315789473684
 40
0.0526315789473684
 40
0.0789473684210526
 40
0.0789473684210526
 40
0.0789473684210526
 40
0.0789473684210526
 40
0.1052631578947368
 40
0.1052631578947368
 40
0.1052631578947368
 40
0.1052631578947368
 40
0.131578947368421
 40
0.131578947368421
 40
0.131578947368421
 40
0.131578947368421
 40
0.1578947368421053
 40
0.1578947368421053
 40
0.1578947368421053
 40
0.1578947368421053
 40
0.1842105263157895
 40
0.1842105263157895
 40
0.1842105263157895
 40
0.1842105263157895
 40
0.2105263157894737
 40
0.2105263157894737
 40
0.2105263157894737
 40
0.2105263157894737
 40
0.2368421052631579
 40
0.2368421052631579
 40
0.2368421052631579
 40
0.2368421052631579
 40
0.2631578947368421
 40
0.2631578947368421
 40
0.2631578947368421
 40
0.2631578947368421
 40
0.2894736842105263
 40
0.2894736842105263
 40
0.2894736842105263
 40
0.2894736842105263
 40
0.3157894736842105
 40
0.3157894736842105
 40
0.3157894736842105
 40
0.3157894736842105
 40
0.3421052631578947
 40
0.3421052631578947
 40
0.3421052631578947
 40
0.3421052631578947
 40
0.3684210526315789
 40
0.3684210526315789
 40
0.3684210526315789
 40
0.3684210526315789
 40
0.3947368421052632
 40
0.3947368421052632
 40
0.3947368421052632
 40
0.3947368421052632
 40
0.4210526315789473
 40
0.4210526315789473
 40
0.4210526315789473
 40
0.4210526315789473
 40
0.4473684210526316
 40
0.4473684210526316
 40
0.4473684210526316
 40
0.4473684210526316
 40
0.4736842105263158
 40
0.4736842105263158
 40
0.4736842105263158
 40
0.4736842105263158
 40
0.5
 40
0.5
 40
0.5
 40
0.5
 40
0.5263157894736842
 40
0.5263157894736842
 40
0.5263157894736842
 40
0.5263157894736842
 40
0.5526315789473685
 40
0.5526315789473685
 40
0.5526315789473685
 40
0.5526315789473685
 40
0.5789473684210527
 40
0.5789473684210527
 40
0.5789473684210527
 40
0.5789473684210527
 40
0.6052631578947368
 40
0.6052631578947368
 40
0.6052631578947368
 40
0.6052631578947368
 40
0.631578947368421
 40
0.631578947368421
 40
0.631578947368421
 40
0.631578947368421
 40
0.6578947368421053
 40
0.6578947368421053
 40
0.6578947368421053
 40
0.6578947368421053
 40
0.6842105263157895
 40
0.6842105263157895
 40
0.6842105263157895
 40
0.6842105263157895
 40
0.7105263157894737
 40
0.7105263157894737
 40
0.7105263157894737
 40
0.7105263157894737
 40
0.7368421052631579
 40
0.7368421052631579
 40
0.7368421052631579
 40
0.7368421052631579
 40
0.7631578947368421
 40
0.7631578947368421
 40
0.7631578947368421
 40
0.7631578947368421
 40
0.7894736842105263
 40
0.7894736842105263
 40
0.7894736842105263
 40
0.7894736842105263
 40
0.8157894736842105
 40
0.8157894736842105
 40
0.8157894736842105
 40
0.8157894736842105
 40
0.8421052631578947
 40
0.8421052631578947
 40
0.8421052631578947
 40
0.8421052631578947
 40
0.868421052631579
 40
0.868421052631579
 40
0.868421052631579
 40
0.868421052631579
 40
0.8947368421052632
 40
0.8947368421052632
 40
0.8947368421052632
 40
0.8947368421052632
 40
0.9210526315789473
 40
0.9210526315789473
 40
0.9210526315789473
 40
0.9210526315789473
 40
0.9473684210526315
 40
0.9473684210526315
 40
0.9473684210526315
 40
0.9473684210526315
 40
1.0
 40
1.0
 40
1.0
 40
1.0
 10
-6.2262
 20
-136.1216
 30
0.0
 10
-6.2262
 20
-136.1638
 30
0.0
 10
-6.2262
 20
-136.5644
 30
0.0
 10
-6.2262
 20
-137.3234
 30
0.0
 10
-6.2262
 20
-137.3234
 30
0.0
 10
-6.2262
 20
-138.0824
 30
0.0
 10
-6.2262
 20
-138.757
 30
0.0
 10
-6.2262
 20
-139.3474
 30
0.0
 10
-6.2262
 20
-139.3474
 30
0.0
 10
-6.2262
 20
-145.2507
 30
0.0
 10
-7.3014
 20
-148.2024
 30
0.0
 10
-9.4519
 20
-148.2024
 30
0.0
 10
-9.4519
 20
-148.2024
 30
0.0
 10
-9.4519
 20
-148.2024
 30
0.0
 10
-35.7639
 20
-148.2024
 30
0.0
 10
-35.7639
 20
-148.2024
 30
0.0
 10
-35.7639
 20
-148.2024
 30
0.0
 10
-37.6192
 20
-148.2024
 30
0.0
 10
-38.5469
 20
-145.5037
 30
0.0
 10
-38.5469
 20
-140.1064
 30
0.0
 10
-38.5469
 20
-140.1064
 30
0.0
 10
-38.5469
 20
-137.7029
 30
0.0
 10
-38.5258
 20
-136.3325
 30
0.0
 10
-38.4836
 20
-135.9951
 30
0.0
 10
-38.4836
 20
-135.9951
 30
0.0
 10
-38.1779
 20
-134.2241
 30
0.0
 10
-37.3346
 20
-133.3386
 30
0.0
 10
-35.9536
 20
-133.3386
 30
0.0
 10
-35.9536
 20
-133.3386
 30
0.0
 10
-34.267
 20
-133.3386
 30
0.0
 10
-33.4236
 20
-134.5615
 30
0.0
 10
-33.4236
 20
-137.0071
 30
0.0
 10
-33.4236
 20
-137.0071
 30
0.0
 10
-33.4236
 20
-137.3445
 30
0.0
 10
-33.4236
 20
-137.8294
 30
0.0
 10
-33.4236
 20
-138.4619
 30
0.0
 10
-33.4236
 20
-138.4619
 30
0.0
 10
-33.5501
 20
-139.0944
 30
0.0
 10
-33.6134
 20
-139.5582
 30
0.0
 10
-33.6134
 20
-139.8534
 30
0.0
 10
-33.6134
 20
-139.8534
 30
0.0
 10
-33.6134
 20
-142.1725
 30
0.0
 10
-32.8333
 20
-143.3321
 30
0.0
 10
-31.2731
 20
-143.3321
 30
0.0
 10
-31.2731
 20
-143.3321
 30
0.0
 10
-31.2731
 20
-143.3321
 30
0.0
 10
-17.8009
 20
-143.3321
 30
0.0
 10
-17.8009
 20
-143.3321
 30
0.0
 10
-17.8009
 20
-143.3321
 30
0.0
 10
-16.8311
 20
-142.8683
 30
0.0
 10
-16.2407
 20
-141.6244
 30
0.0
 10
-16.0299
 20
-139.6004
 30
0.0
 10
-16.0299
 20
-139.6004
 30
0.0
 10
-16.0299
 20
-139.263
 30
0.0
 10
-16.0299
 20
-137.9348
 30
0.0
 10
-16.0299
 20
-135.6156
 30
0.0
 10
-16.0299
 20
-135.6156
 30
0.0
 10
-16.0299
 20
-133.1278
 30
0.0
 10
-16.0299
 20
-131.8206
 30
0.0
 10
-16.0299
 20
-131.6941
 30
0.0
 10
-16.0299
 20
-131.6941
 30
0.0
 10
-16.2829
 20
-129.375
 30
0.0
 10
-16.9681
 20
-128.2154
 30
0.0
 10
-18.1066
 20
-128.2154
 30
0.0
 10
-18.1066
 20
-128.2154
 30
0.0
 10
-18.1066
 20
-128.2154
 30
0.0
 10
-35.6584
 20
-128.2154
 30
0.0
 10
-35.6584
 20
-128.2154
 30
0.0
 10
-35.6584
 20
-128.2154
 30
0.0
 10
-37.5876
 20
-128.2154
 30
0.0
 10
-38.5469
 20
-125.833
 30
0.0
 10
-38.5469
 20
-121.0681
 30
0.0
 10
-38.5469
 20
-121.0681
 30
0.0
 10
-38.5469
 20
-120.3935
 30
0.0
 10
-38.5469
 20
-119.6872
 30
0.0
 10
-38.5469
 20
-118.9493
 30
0.0
 10
-38.5469
 20
-118.9493
 30
0.0
 10
-38.5469
 20
-118.2114
 30
0.0
 10
-38.5469
 20
-117.8635
 30
0.0
 10
-38.5469
 20
-117.9056
 30
0.0
 10
-38.5469
 20
-117.9056
 30
0.0
 10
-38.5469
 20
-117.6105
 30
0.0
 10
-38.5469
 20
-117.0518
 30
0.0
 10
-38.5469
 20
-116.2295
 30
0.0
 10
-38.5469
 20
-116.2295
 30
0.0
 10
-38.5469
 20
-115.4073
 30
0.0
 10
-38.5469
 20
-114.7432
 30
0.0
 10
-38.5469
 20
-114.2372
 30
0.0
 10
-38.5469
 20
-114.2372
 30
0.0
 10
-38.5469
 20
-109.8097
 30
0.0
 10
-37.1554
 20
-107.5959
 30
0.0
 10
-34.3724
 20
-107.5959
 30
0.0
 10
-34.3724
 20
-107.5959
 30
0.0
 10
-34.3724
 20
-107.5959
 30
0.0
 10
-9.9579
 20
-107.5959
 30
0.0
 10
-9.9579
 20
-107.5959
 30
0.0
 10
-9.9579
 20
-107.5959
 30
0.0
 10
-7.4701
 20
-107.5959
 30
0.0
 10
-6.2262
 20
-109.9994
 30
0.0
 10
-6.2262
 20
-114.8064
 30
0.0
 10
-6.2262
 20
-114.8064
 30
0.0
 10
-6.2262
 20
-118.3484
 30
0.0
 10
-7.1327
 20
-120.1194
 30
0.0
 10
-8.9564
 20
-120.1194
 30
0.0
 10
-8.9564
 20
-120.1194
 30
0.0
 10
-9.8947
 20
-120.1194
 30
0.0
 10
-10.5693
 20
-119.002
 30
0.0
 10
-10.991
 20
-116.7671
 30
0.0
 10
-10.991
 20
-116.7671
 30
0.0
 10
-11.497
 20
-114.3637
 30
0.0
 10
-12.0346
 20
-113.0565
 30
0.0
 10
-12.5828
 20
-112.8457
 30
0.0
 10
-12.5828
 20
-112.8457
 30
0.0
 10
-13.3418
 20
-112.5505
 30
0.0
 10
-16.6097
 20
-112.4029
 30
0.0
 10
-22.3654
 20
-112.4029
 30
0.0
 10
-22.3654
 20
-112.4029
 30
0.0
 10
-28.722
 20
-112.4029
 30
0.0
 10
-30.8198
 20
-112.3818
 30
0.0
 10
-28.6588
 20
-112.3397
 30
0.0
 10
-28.6588
 20
-112.3397
 30
0.0
 10
-31.368
 20
-112.424
 30
0.0
 10
-32.8122
 20
-112.8457
 30
0.0
 10
-32.9809
 20
-113.6047
 30
0.0
 10
-32.9809
 20
-113.6047
 30
0.0
 10
-33.276
 20
-114.5745
 30
0.0
 10
-33.4236
 20
-116.0082
 30
0.0
 10
-33.4236
 20
-117.9056
 30
0.0
 10
-33.4236
 20
-117.9056
 30
0.0
 10
-33.4236
 20
-121.532
 30
0.0
 10
-32.8122
 20
-123.3451
 30
0.0
 10
-31.5894
 20
-123.3451
 30
0.0
 10
-31.5894
 20
-123.3451
 30
0.0
 10
-31.5894
 20
-123.3451
 30
0.0
 10
-9.1357
 20
-123.3451
 30
0.0
 10
-9.1357
 20
-123.3451
 30
0.0
 10
-9.1357
 20
-123.3451
 30
0.0
 10
-7.196
 20
-123.3451
 30
0.0
 10
-6.2262
 20
-126.3179
 30
0.0
 10
-6.2262
 20
-132.2634
 30
0.0
 10
-6.2262
 20
-132.2634
 30
0.0
 10
-6.2262
 20
-133.1067
 30
0.0
 10
-6.2262
 20
-133.9817
 30
0.0
 10
-6.2262
 20
-134.8882
 30
0.0
 10
-6.2262
 20
-134.8882
 30
0.0
 10
-6.2262
 20
-135.7948
 30
0.0
 10
-6.2262
 20
-136.206
 30
0.0
 10
-6.2262
 20
-136.1216
 30
0.0
  0
SPLINE
  5
4E
330
1F
100
AcDbEntity
  8
Capa 1
 62
   250
100
AcDbSpline
210
0.0
220
0.0
230
1.0
 70
    11
 71
     3
 72
   112
 73
   108
 74
     0
 42
0.0000000001
 43
0.0000000001
 40
0.0
 40
0.0
 40
0.0
 40
0.0
 40
0.0357142857142857
 40
0.0357142857142857
 40
0.0357142857142857
 40
0.0357142857142857
 40
0.0714285714285714
 40
0.0714285714285714
 40
0.0714285714285714
 40
0.0714285714285714
 40
0.1071428571428571
 40
0.1071428571428571
 40
0.1071428571428571
 40
0.1071428571428571
 40
0.1428571428571428
 40
0.1428571428571428
 40
0.1428571428571428
 40
0.1428571428571428
 40
0.1785714285714286
 40
0.1785714285714286
 40
0.1785714285714286
 40
0.1785714285714286
 40
0.2142857142857143
 40
0.2142857142857143
 40
0.2142857142857143
 40
0.2142857142857143
 40
0.25
 40
0.25
 40
0.25
 40
0.25
 40
0.2857142857142857
 40
0.2857142857142857
 40
0.2857142857142857
 40
0.2857142857142857
 40
0.3214285714285715
 40
0.3214285714285715
 40
0.3214285714285715
 40
0.3214285714285715
 40
0.3571428571428572
 40
0.3571428571428572
 40
0.3571428571428572
 40
0.3571428571428572
 40
0.3928571428571428
 40
0.3928571428571428
 40
0.3928571428571428
 40
0.3928571428571428
 40
0.4285714285714285
 40
0.4285714285714285
 40
0.4285714285714285
 40
0.4285714285714285
 40
0.4642857142857143
 40
0.4642857142857143
 40
0.4642857142857143
 40
0.4642857142857143
 40
0.5
 40
0.5
 40
0.5
 40
0.5
 40
0.5357142857142857
 40
0.5357142857142857
 40
0.5357142857142857
 40
0.5357142857142857
 40
0.5714285714285714
 40
0.5714285714285714
 40
0.5714285714285714
 40
0.5714285714285714
 40
0.6071428571428571
 40
0.6071428571428571
 40
0.6071428571428571
 40
0.6071428571428571
 40
0.6428571428571429
 40
0.6428571428571429
 40
0.6428571428571429
 40
0.6428571428571429
 40
0.6785714285714286
 40
0.6785714285714286
 40
0.6785714285714286
 40
0.6785714285714286
 40
0.7142857142857143
 40
0.7142857142857143
 40
0.7142857142857143
 40
0.7142857142857143
 40
0.75
 40
0.75
 40
0.75
 40
0.75
 40
0.7857142857142857
 40
0.7857142857142857
 40
0.7857142857142857
 40
0.7857142857142857
 40
0.8214285714285714
 40
0.8214285714285714
 40
0.8214285714285714
 40
0.8214285714285714
 40
0.8571428571428571
 40
0.8571428571428571
 40
0.8571428571428571
 40
0.8571428571428571
 40
0.8928571428571429
 40
0.8928571428571429
 40
0.8928571428571429
 40
0.8928571428571429
 40
0.9285714285714286
 40
0.9285714285714286
 40
0.9285714285714286
 40
0.9285714285714286
 40
1.0
 40
1.0
 40
1.0
 40
1.0
 10
21.667
 20
-142.0671
 30
0.0
 10
21.667
 20
-145.1874
 30
0.0
 10
21.0767
 20
-147.2325
 30
0.0
 10
19.896
 20
-148.2024
 30
0.0
 10
19.896
 20
-148.2024
 30
0.0
 10
19.896
 20
-148.2024
 30
0.0
 10
0.8578
 20
-148.2024
 30
0.0
 10
0.8578
 20
-148.2024
 30
0.0
 10
0.8578
 20
-148.2024
 30
0.0
 10
0.4783
 20
-148.2024
 30
0.0
 10
0.0355
 20
-147.8966
 30
0.0
 10
-0.4705
 20
-147.2852
 30
0.0
 10
-0.4705
 20
-147.2852
 30
0.0
 10
-0.9765
 20
-146.6738
 30
0.0
 10
-1.2295
 20
-146.1573
 30
0.0
 10
-1.2295
 20
-145.7356
 30
0.0
 10
-1.2295
 20
-145.7356
 30
0.0
 10
-1.2295
 20
-145.7356
 30
0.0
 10
-1.2295
 20
-121.9536
 30
0.0
 10
-1.2295
 20
-121.9536
 30
0.0
 10
-1.2295
 20
-121.9536
 30
0.0
 10
-1.2295
 20
-121.6163
 30
0.0
 10
-0.9975
 20
-121.1525
 30
0.0
 10
-0.5337
 20
-120.5621
 30
0.0
 10
-0.5337
 20
-120.5621
 30
0.0
 10
-0.0699
 20
-119.9718
 30
0.0
 10
0.3729
 20
-119.6556
 30
0.0
 10
0.7945
 20
-119.6134
 30
0.0
 10
0.7945
 20
-119.6134
 30
0.0
 10
1.427
 20
-119.5291
 30
0.0
 10
4.5684
 20
-119.4869
 30
0.0
 10
10.2188
 20
-119.4869
 30
0.0
 10
10.2188
 20
-119.4869
 30
0.0
 10
10.1766
 20
-119.4869
 30
0.0
 10
10.7248
 20
-119.4447
 30
0.0
 10
11.8633
 20
-119.3604
 30
0.0
 10
11.8633
 20
-119.3604
 30
0.0
 10
13.0018
 20
-119.2761
 30
0.0
 10
14.0559
 20
-119.2339
 30
0.0
 10
15.0258
 20
-119.2339
 30
0.0
 10
15.0258
 20
-119.2339
 30
0.0
 10
17.2606
 20
-119.2339
 30
0.0
 10
19.0105
 20
-119.4658
 30
0.0
 10
20.2755
 20
-119.9296
 30
0.0
 10
20.2755
 20
-119.9296
 30
0.0
 10
21.2032
 20
-120.3091
 30
0.0
 10
21.667
 20
-121.9326
 30
0.0
 10
21.667
 20
-124.7999
 30
0.0
 10
21.667
 20
-124.7999
 30
0.0
 10
21.667
 20
-127.7094
 30
0.0
 10
20.9502
 20
-129.1641
 30
0.0
 10
19.5165
 20
-129.1641
 30
0.0
 10
19.5165
 20
-129.1641
 30
0.0
 10
18.7575
 20
-129.1641
 30
0.0
 10
18.1039
 20
-128.4895
 30
0.0
 10
17.5558
 20
-127.1401
 30
0.0
 10
17.5558
 20
-127.1401
 30
0.0
 10
16.8389
 20
-125.4113
 30
0.0
 10
16.2908
 20
-124.3571
 30
0.0
 10
15.9113
 20
-123.9776
 30
0.0
 10
15.9113
 20
-123.9776
 30
0.0
 10
15.9113
 20
-123.9776
 30
0.0
 10
4.463
 20
-123.9776
 30
0.0
 10
4.463
 20
-123.9776
 30
0.0
 10
4.463
 20
-123.9776
 30
0.0
 10
3.6619
 20
-124.4415
 30
0.0
 10
3.2613
 20
-125.8541
 30
0.0
 10
3.2613
 20
-128.2154
 30
0.0
 10
3.2613
 20
-128.2154
 30
0.0
 10
3.2613
 20
-128.4684
 30
0.0
 10
3.2402
 20
-128.7846
 30
0.0
 10
3.198
 20
-129.1641
 30
0.0
 10
3.198
 20
-129.1641
 30
0.0
 10
3.198
 20
-129.5015
 30
0.0
 10
3.198
 20
-129.7334
 30
0.0
 10
3.198
 20
-129.8599
 30
0.0
 10
3.198
 20
-129.8599
 30
0.0
 10
3.198
 20
-130.3659
 30
0.0
 10
3.4089
 20
-130.777
 30
0.0
 10
3.8305
 20
-131.0933
 30
0.0
 10
3.8305
 20
-131.0933
 30
0.0
 10
4.2522
 20
-131.4095
 30
0.0
 10
5.4539
 20
-132.0947
 30
0.0
 10
7.4358
 20
-133.1489
 30
0.0
 10
7.4358
 20
-133.1489
 30
0.0
 10
7.4358
 20
-133.1489
 30
0.0
 10
7.4358
 20
-142.5099
 30
0.0
 10
7.4358
 20
-142.5099
 30
0.0
 10
7.4358
 20
-142.5099
 30
0.0
 10
7.9839
 20
-143.311
 30
0.0
 10
9.6074
 20
-143.7116
 30
0.0
 10
12.306
 20
-143.7116
 30
0.0
 10
12.306
 20
-143.7116
 30
0.0
 10
14.2457
 20
-143.7116
 30
0.0
 10
15.3631
 20
-143.6694
 30
0.0
 10
15.6583
 20
-143.5851
 30
0.0
 10
15.6583
 20
-143.5851
 30
0.0
 10
16.4173
 20
-143.4586
 30
0.0
 10
16.9654
 20
-142.3201
 30
0.0
 10
17.3028
 20
-140.1696
 30
0.0
 10
17.3028
 20
-140.1696
 30
0.0
 10
17.6401
 20
-138.0191
 30
0.0
 10
18.378
 20
-136.9439
 30
0.0
 10
19.5165
 20
-136.9439
 30
0.0
 10
19.5165
 20
-136.9439
 30
0.0
 10
20.9502
 20
-136.9439
 30
0.0
 10
21.667
 20
-138.6516
 30
0.0
 10
21.667
 20
-142.0671
 30
0.0
  0
SPLINE
  5
4F
330
1F
100
AcDbEntity
  8
Capa 1
 62
   250
100
AcDbSpline
210
0.0
220
0.0
230
1.0
 70
    11
 71
     3
 72
   104
 73
   100
 74
     0
 42
0.0000000001
 43
0.0000000001
 40
0.0
 40
0.0
 40
0.0
 40
0.0
 40
0.0384615384615385
 40
0.0384615384615385
 40
0.0384615384615385
 40
0.0384615384615385
 40
0.0769230769230769
 40
0.0769230769230769
 40
0.0769230769230769
 40
0.0769230769230769
 40
0.1153846153846154
 40
0.1153846153846154
 40
0.1153846153846154
 40
0.1153846153846154
 40
0.1538461538461539
 40
0.1538461538461539
 40
0.1538461538461539
 40
0.1538461538461539
 40
0.1923076923076923
 40
0.1923076923076923
 40
0.1923076923076923
 40
0.1923076923076923
 40
0.2307692307692308
 40
0.2307692307692308
 40
0.2307692307692308
 40
0.2307692307692308
 40
0.2692307692307692
 40
0.2692307692307692
 40
0.2692307692307692
 40
0.2692307692307692
 40
0.3076923076923077
 40
0.3076923076923077
 40
0.3076923076923077
 40
0.3076923076923077
 40
0.3461538461538461
 40
0.3461538461538461
 40
0.3461538461538461
 40
0.3461538461538461
 40
0.3846153846153846
 40
0.3846153846153846
 40
0.3846153846153846
 40
0.3846153846153846
 40
0.4230769230769231
 40
0.4230769230769231
 40
0.4230769230769231
 40
0.4230769230769231
 40
0.4615384615384616
 40
0.4615384615384616
 40
0.4615384615384616
 40
0.4615384615384616
 40
0.5
 40
0.5
 40
0.5
 40
0.5
 40
0.5384615384615384
 40
0.5384615384615384
 40
0.5384615384615384
 40
0.5384615384615384
 40
0.5769230769230769
 40
0.5769230769230769
 40
0.5769230769230769
 40
0.5769230769230769
 40
0.6153846153846154
 40
0.6153846153846154
 40
0.6153846153846154
 40
0.6153846153846154
 40
0.6538461538461539
 40
0.6538461538461539
 40
0.6538461538461539
 40
0.6538461538461539
 40
0.6923076923076923
 40
0.6923076923076923
 40
0.6923076923076923
 40
0.6923076923076923
 40
0.7307692307692307
 40
0.7307692307692307
 40
0.7307692307692307
 40
0.7307692307692307
 40
0.7692307692307693
 40
0.7692307692307693
 40
0.7692307692307693
 40
0.7692307692307693
 40
0.8076923076923077
 40
0.8076923076923077
 40
0.8076923076923077
 40
0.8076923076923077
 40
0.8461538461538461
 40
0.8461538461538461
 40
0.8461538461538461
 40
0.8461538461538461
 40
0.8846153846153846
 40
0.8846153846153846
 40
0.8846153846153846
 40
0.8846153846153846
 40
0.9230769230769231
 40
0.9230769230769231
 40
0.9230769230769231
 40
0.9230769230769231
 40
1.0
 40
1.0
 40
1.0
 40
1.0
 10
49.244
 20
-147.1271
 30
0.0
 10
48.4006
 20
-148.0548
 30
0.0
 10
47.5995
 20
-148.5186
 30
0.0
 10
46.8405
 20
-148.5186
 30
0.0
 10
46.8405
 20
-148.5186
 30
0.0
 10
45.955
 20
-148.5186
 30
0.0
 10
45.2592
 20
-148.0548
 30
0.0
 10
44.7532
 20
-147.1271
 30
0.0
 10
44.7532
 20
-147.1271
 30
0.0
 10
44.7532
 20
-147.1271
 30
0.0
 10
44.7532
 20
-125.8119
 30
0.0
 10
44.7532
 20
-125.8119
 30
0.0
 10
44.7532
 20
-125.8119
 30
0.0
 10
44.7532
 20
-125.4746
 30
0.0
 10
44.5845
 20
-125.1583
 30
0.0
 10
44.2472
 20
-124.8631
 30
0.0
 10
44.2472
 20
-124.8631
 30
0.0
 10
43.9099
 20
-124.568
 30
0.0
 10
43.5725
 20
-124.2939
 30
0.0
 10
43.2352
 20
-124.0409
 30
0.0
 10
43.2352
 20
-124.0409
 30
0.0
 10
43.2352
 20
-124.0409
 30
0.0
 10
32.6725
 20
-124.0409
 30
0.0
 10
32.6725
 20
-124.0409
 30
0.0
 10
32.6725
 20
-124.0409
 30
0.0
 10
31.7026
 20
-124.2939
 30
0.0
 10
31.2177
 20
-125.7276
 30
0.0
 10
31.2177
 20
-128.3419
 30
0.0
 10
31.2177
 20
-128.3419
 30
0.0
 10
31.2177
 20
-129.7334
 30
0.0
 10
31.3021
 20
-130.5345
 30
0.0
 10
31.4707
 20
-130.7454
 30
0.0
 10
31.4707
 20
-130.7454
 30
0.0
 10
31.8081
 20
-131.167
 30
0.0
 10
33.1152
 20
-131.8417
 30
0.0
 10
35.3922
 20
-132.7694
 30
0.0
 10
35.3922
 20
-132.7694
 30
0.0
 10
35.3922
 20
-132.7694
 30
0.0
 10
35.3922
 20
-146.4946
 30
0.0
 10
35.3922
 20
-146.4946
 30
0.0
 10
35.3922
 20
-146.4946
 30
0.0
 10
35.3922
 20
-147.0849
 30
0.0
 10
34.7808
 20
-147.5909
 30
0.0
 10
33.558
 20
-148.0126
 30
0.0
 10
33.558
 20
-148.0126
 30
0.0
 10
32.5881
 20
-148.3499
 30
0.0
 10
31.7026
 20
-148.5186
 30
0.0
 10
30.9015
 20
-148.5186
 30
0.0
 10
30.9015
 20
-148.5186
 30
0.0
 10
30.016
 20
-148.5186
 30
0.0
 10
29.1516
 20
-148.371
 30
0.0
 10
28.3082
 20
-148.0759
 30
0.0
 10
28.3082
 20
-148.0759
 30
0.0
 10
27.2541
 20
-147.6542
 30
0.0
 10
26.727
 20
-147.0849
 30
0.0
 10
26.727
 20
-146.3681
 30
0.0
 10
26.727
 20
-146.3681
 30
0.0
 10
26.727
 20
-146.3681
 30
0.0
 10
26.727
 20
-109.0507
 30
0.0
 10
26.727
 20
-109.0507
 30
0.0
 10
26.727
 20
-109.0507
 30
0.0
 10
26.727
 20
-108.629
 30
0.0
 10
27.0643
 20
-108.2284
 30
0.0
 10
27.739
 20
-107.8489
 30
0.0
 10
27.739
 20
-107.8489
 30
0.0
 10
28.4137
 20
-107.4694
 30
0.0
 10
28.9829
 20
-107.2797
 30
0.0
 10
29.4467
 20
-107.2797
 30
0.0
 10
29.4467
 20
-107.2797
 30
0.0
 10
30.2479
 20
-107.2797
 30
0.0
 10
30.8382
 20
-107.6381
 30
0.0
 10
31.2177
 20
-108.3549
 30
0.0
 10
31.2177
 20
-108.3549
 30
0.0
 10
31.2177
 20
-108.3549
 30
0.0
 10
31.2177
 20
-118.2851
 30
0.0
 10
31.2177
 20
-118.2851
 30
0.0
 10
31.2177
 20
-118.2851
 30
0.0
 10
31.3864
 20
-118.5381
 30
0.0
 10
31.5972
 20
-118.8017
 30
0.0
 10
31.8502
 20
-119.0758
 30
0.0
 10
31.8502
 20
-119.0758
 30
0.0
 10
32.1032
 20
-119.3499
 30
0.0
 10
32.3984
 20
-119.4869
 30
0.0
 10
32.7357
 20
-119.4869
 30
0.0
 10
32.7357
 20
-119.4869
 30
0.0
 10
32.7357
 20
-119.4869
 30
0.0
 10
47.1567
 20
-119.4869
 30
0.0
 10
47.1567
 20
-119.4869
 30
0.0
 10
47.1567
 20
-119.4869
 30
0.0
 10
47.5362
 20
-119.4869
 30
0.0
 10
47.9895
 20
-119.7294
 30
0.0
 10
48.5166
 20
-120.2143
 30
0.0
 10
48.5166
 20
-120.2143
 30
0.0
 10
49.0437
 20
-120.6992
 30
0.0
 10
49.2861
 20
-121.1525
 30
0.0
 10
49.244
 20
-121.5741
 30
0.0
 10
49.244
 20
-121.5741
 30
0.0
 10
49.244
 20
-121.5741
 30
0.0
 10
49.244
 20
-147.1271
 30
0.0
 10
49.244
 20
-147.1271
 30
0.0
  0
SPLINE
  5
50
330
1F
100
AcDbEntity
  8
Capa 1
 62
   250
100
AcDbSpline
210
0.0
220
0.0
230
1.0
 70
    11
 71
     3
 72
    52
 73
    48
 74
     0
 42
0.0000000001
 43
0.0000000001
 40
0.0
 40
0.0
 40
0.0
 40
0.0
 40
0.0769230769230769
 40
0.0769230769230769
 40
0.0769230769230769
 40
0.0769230769230769
 40
0.1538461538461539
 40
0.1538461538461539
 40
0.1538461538461539
 40
0.1538461538461539
 40
0.2307692307692308
 40
0.2307692307692308
 40
0.2307692307692308
 40
0.2307692307692308
 40
0.3076923076923077
 40
0.3076923076923077
 40
0.3076923076923077
 40
0.3076923076923077
 40
0.3846153846153846
 40
0.3846153846153846
 40
0.3846153846153846
 40
0.3846153846153846
 40
0.4615384615384616
 40
0.4615384615384616
 40
0.4615384615384616
 40
0.4615384615384616
 40
0.5384615384615384
 40
0.5384615384615384
 40
0.5384615384615384
 40
0.5384615384615384
 40
0.6153846153846154
 40
0.6153846153846154
 40
0.6153846153846154
 40
0.6153846153846154
 40
0.6923076923076923
 40
0.6923076923076923
 40
0.6923076923076923
 40
0.6923076923076923
 40
0.7692307692307693
 40
0.7692307692307693
 40
0.7692307692307693
 40
0.7692307692307693
 40
0.8461538461538461
 40
0.8461538461538461
 40
0.8461538461538461
 40
0.8461538461538461
 40
1.0
 40
1.0
 40
1.0
 40
1.0
 10
77.6432
 20
-146.4314
 30
0.0
 10
77.5167
 20
-146.7687
 30
0.0
 10
77.211
 20
-147.1271
 30
0.0
 10
76.7261
 20
-147.5066
 30
0.0
 10
76.7261
 20
-147.5066
 30
0.0
 10
76.2412
 20
-147.8861
 30
0.0
 10
75.8511
 20
-148.0969
 30
0.0
 10
75.556
 20
-148.1391
 30
0.0
 10
75.556
 20
-148.1391
 30
0.0
 10
74.8391
 20
-148.1813
 30
0.0
 10
71.761
 20
-148.2024
 30
0.0
 10
66.3215
 20
-148.2024
 30
0.0
 10
66.3215
 20
-148.2024
 30
0.0
 10
66.3215
 20
-148.2024
 30
0.0
 10
65.9209
 20
-148.2234
 30
0.0
 10
65.1197
 20
-148.2656
 30
0.0
 10
65.1197
 20
-148.2656
 30
0.0
 10
64.3186
 20
-148.2656
 30
0.0
 10
63.5806
 20
-148.2656
 30
0.0
 10
62.906
 20
-148.2656
 30
0.0
 10
62.906
 20
-148.2656
 30
0.0
 10
57.6773
 20
-148.2656
 30
0.0
 10
55.063
 20
-147.5277
 30
0.0
 10
55.063
 20
-146.0519
 30
0.0
 10
55.063
 20
-146.0519
 30
0.0
 10
55.063
 20
-146.0519
 30
0.0
 10
55.063
 20
-121.6374
 30
0.0
 10
55.063
 20
-121.6374
 30
0.0
 10
55.063
 20
-121.6374
 30
0.0
 10
55.063
 20
-120.1616
 30
0.0
 10
57.8038
 20
-119.4236
 30
0.0
 10
63.2855
 20
-119.4236
 30
0.0
 10
63.2855
 20
-119.4236
 30
0.0
 10
64.0023
 20
-119.4236
 30
0.0
 10
64.7402
 20
-119.4236
 30
0.0
 10
65.4992
 20
-119.4236
 30
0.0
 10
65.4992
 20
-119.4236
 30
0.0
 10
66.2582
 20
-119.4236
 30
0.0
 10
66.5956
 20
-119.4236
 30
0.0
 10
66.5112
 20
-119.4236
 30
0.0
 10
66.5112
 20
-119.4236
 30
0.0
 10
73.2579
 20
-119.4236
 30
0.0
 10
76.9685
 20
-120.014
 30
0.0
 10
77.6432
 20
-121.1946
 30
0.0
 10
77.6432
 20
-121.1946
 30
0.0
 10
77.6432
 20
-121.1946
 30
0.0
 10
77.6432
 20
-146.4314
 30
0.0
 10
77.6432
 20
-146.4314
 30
0.0
  0
SPLINE
  5
51
330
1F
100
AcDbEntity
  8
Capa 1
 62
   250
100
AcDbSpline
210
0.0
220
0.0
230
1.0
 70
    11
 71
     3
 72
    48
 73
    44
 74
     0
 42
0.0000000001
 43
0.0000000001
 40
0.0
 40
0.0
 40
0.0
 40
0.0
 40
0.0833333333333333
 40
0.0833333333333333
 40
0.0833333333333333
 40
0.0833333333333333
 40
0.1666666666666667
 40
0.1666666666666667
 40
0.1666666666666667
 40
0.1666666666666667
 40
0.25
 40
0.25
 40
0.25
 40
0.25
 40
0.3333333333333333
 40
0.3333333333333333
 40
0.3333333333333333
 40
0.3333333333333333
 40
0.4166666666666667
 40
0.4166666666666667
 40
0.4166666666666667
 40
0.4166666666666667
 40
0.5
 40
0.5
 40
0.5
 40
0.5
 40
0.5833333333333334
 40
0.5833333333333334
 40
0.5833333333333334
 40
0.5833333333333334
 40
0.6666666666666666
 40
0.6666666666666666
 40
0.6666666666666666
 40
0.6666666666666666
 40
0.75
 40
0.75
 40
0.75
 40
0.75
 40
0.8333333333333334
 40
0.8333333333333334
 40
0.8333333333333334
 40
0.8333333333333334
 40
1.0
 40
1.0
 40
1.0
 40
1.0
 10
73.0892
 20
-142.9526
 30
0.0
 10
73.0892
 20
-142.9526
 30
0.0
 10
73.0892
 20
-125.7486
 30
0.0
 10
73.0892
 20
-125.7486
 30
0.0
 10
73.0892
 20
-125.7486
 30
0.0
 10
73.0892
 20
-125.4113
 30
0.0
 10
72.9311
 20
-125.0951
 30
0.0
 10
72.6148
 20
-124.7999
 30
0.0
 10
72.6148
 20
-124.7999
 30
0.0
 10
72.2986
 20
-124.5047
 30
0.0
 10
71.9929
 20
-124.2517
 30
0.0
 10
71.6977
 20
-124.0409
 30
0.0
 10
71.6977
 20
-124.0409
 30
0.0
 10
71.6977
 20
-124.0409
 30
0.0
 10
60.9452
 20
-124.0409
 30
0.0
 10
60.9452
 20
-124.0409
 30
0.0
 10
60.9452
 20
-124.0409
 30
0.0
 10
60.2706
 20
-124.7156
 30
0.0
 10
59.8489
 20
-125.8119
 30
0.0
 10
59.6802
 20
-127.3299
 30
0.0
 10
59.6802
 20
-127.3299
 30
0.0
 10
59.6381
 20
-128.4684
 30
0.0
 10
59.5959
 20
-129.6069
 30
0.0
 10
59.5537
 20
-130.7454
 30
0.0
 10
59.5537
 20
-130.7454
 30
0.0
 10
59.6802
 20
-130.8297
 30
0.0
 10
60.5236
 20
-131.2725
 30
0.0
 10
62.0837
 20
-132.0736
 30
0.0
 10
62.0837
 20
-132.0736
 30
0.0
 10
63.1801
 20
-132.6218
 30
0.0
 10
63.7493
 20
-133.1278
 30
0.0
 10
63.7915
 20
-133.5916
 30
0.0
 10
63.7915
 20
-133.5916
 30
0.0
 10
63.7915
 20
-133.5916
 30
0.0
 10
63.7915
 20
-142.9526
 30
0.0
 10
63.7915
 20
-142.9526
 30
0.0
 10
63.7915
 20
-142.9526
 30
0.0
 10
64.8035
 20
-143.6694
 30
0.0
 10
66.5112
 20
-144.0279
 30
0.0
 10
68.9147
 20
-144.0279
 30
0.0
 10
68.9147
 20
-144.0279
 30
0.0
 10
71.2339
 20
-144.0279
 30
0.0
 10
72.6254
 20
-143.6694
 30
0.0
 10
73.0892
 20
-142.9526
 30
0.0
  0
SPLINE
  5
52
330
1F
100
AcDbEntity
  8
Capa 1
 62
   250
100
AcDbSpline
210
0.0
220
0.0
230
1.0
 70
    11
 71
     3
 72
    52
 73
    48
 74
     0
 42
0.0000000001
 43
0.0000000001
 40
0.0
 40
0.0
 40
0.0
 40
0.0
 40
0.0769230769230769
 40
0.0769230769230769
 40
0.0769230769230769
 40
0.0769230769230769
 40
0.1538461538461539
 40
0.1538461538461539
 40
0.1538461538461539
 40
0.1538461538461539
 40
0.2307692307692308
 40
0.2307692307692308
 40
0.2307692307692308
 40
0.2307692307692308
 40
0.3076923076923077
 40
0.3076923076923077
 40
0.3076923076923077
 40
0.3076923076923077
 40
0.3846153846153846
 40
0.3846153846153846
 40
0.3846153846153846
 40
0.3846153846153846
 40
0.4615384615384616
 40
0.4615384615384616
 40
0.4615384615384616
 40
0.4615384615384616
 40
0.5384615384615384
 40
0.5384615384615384
 40
0.5384615384615384
 40
0.5384615384615384
 40
0.6153846153846154
 40
0.6153846153846154
 40
0.6153846153846154
 40
0.6153846153846154
 40
0.6923076923076923
 40
0.6923076923076923
 40
0.6923076923076923
 40
0.6923076923076923
 40
0.7692307692307693
 40
0.7692307692307693
 40
0.7692307692307693
 40
0.7692307692307693
 40
0.8461538461538461
 40
0.8461538461538461
 40
0.8461538461538461
 40
0.8461538461538461
 40
1.0
 40
1.0
 40
1.0
 40
1.0
 10
106.0424
 20
-146.4314
 30
0.0
 10
105.9159
 20
-146.7687
 30
0.0
 10
105.6102
 20
-147.1271
 30
0.0
 10
105.1253
 20
-147.5066
 30
0.0
 10
105.1253
 20
-147.5066
 30
0.0
 10
104.6404
 20
-147.8861
 30
0.0
 10
104.2503
 20
-148.0969
 30
0.0
 10
103.9552
 20
-148.1391
 30
0.0
 10
103.9552
 20
-148.1391
 30
0.0
 10
103.2383
 20
-148.1813
 30
0.0
 10
100.1602
 20
-148.2024
 30
0.0
 10
94.7207
 20
-148.2024
 30
0.0
 10
94.7207
 20
-148.2024
 30
0.0
 10
94.7207
 20
-148.2024
 30
0.0
 10
94.3201
 20
-148.2234
 30
0.0
 10
93.5189
 20
-148.2656
 30
0.0
 10
93.5189
 20
-148.2656
 30
0.0
 10
92.7178
 20
-148.2656
 30
0.0
 10
91.9798
 20
-148.2656
 30
0.0
 10
91.3052
 20
-148.2656
 30
0.0
 10
91.3052
 20
-148.2656
 30
0.0
 10
86.0765
 20
-148.2656
 30
0.0
 10
83.4622
 20
-147.5277
 30
0.0
 10
83.4622
 20
-146.0519
 30
0.0
 10
83.4622
 20
-146.0519
 30
0.0
 10
83.4622
 20
-146.0519
 30
0.0
 10
83.4622
 20
-121.6374
 30
0.0
 10
83.4622
 20
-121.6374
 30
0.0
 10
83.4622
 20
-121.6374
 30
0.0
 10
83.4622
 20
-120.1616
 30
0.0
 10
86.203
 20
-119.4236
 30
0.0
 10
91.6847
 20
-119.4236
 30
0.0
 10
91.6847
 20
-119.4236
 30
0.0
 10
92.4015
 20
-119.4236
 30
0.0
 10
93.1394
 20
-119.4236
 30
0.0
 10
93.8984
 20
-119.4236
 30
0.0
 10
93.8984
 20
-119.4236
 30
0.0
 10
94.6574
 20
-119.4236
 30
0.0
 10
94.9948
 20
-119.4236
 30
0.0
 10
94.9104
 20
-119.4236
 30
0.0
 10
94.9104
 20
-119.4236
 30
0.0
 10
101.6571
 20
-119.4236
 30
0.0
 10
105.3677
 20
-120.014
 30
0.0
 10
106.0424
 20
-121.1946
 30
0.0
 10
106.0424
 20
-121.1946
 30
0.0
 10
106.0424
 20
-121.1946
 30
0.0
 10
106.0424
 20
-146.4314
 30
0.0
 10
106.0424
 20
-146.4314
 30
0.0
  0
SPLINE
  5
53
330
1F
100
AcDbEntity
  8
Capa 1
 62
   250
100
AcDbSpline
210
0.0
220
0.0
230
1.0
 70
    11
 71
     3
 72
    48
 73
    44
 74
     0
 42
0.0000000001
 43
0.0000000001
 40
0.0
 40
0.0
 40
0.0
 40
0.0
 40
0.0833333333333333
 40
0.0833333333333333
 40
0.0833333333333333
 40
0.0833333333333333
 40
0.1666666666666667
 40
0.1666666666666667
 40
0.1666666666666667
 40
0.1666666666666667
 40
0.25
 40
0.25
 40
0.25
 40
0.25
 40
0.3333333333333333
 40
0.3333333333333333
 40
0.3333333333333333
 40
0.3333333333333333
 40
0.4166666666666667
 40
0.4166666666666667
 40
0.4166666666666667
 40
0.4166666666666667
 40
0.5
 40
0.5
 40
0.5
 40
0.5
 40
0.5833333333333334
 40
0.5833333333333334
 40
0.5833333333333334
 40
0.5833333333333334
 40
0.6666666666666666
 40
0.6666666666666666
 40
0.6666666666666666
 40
0.6666666666666666
 40
0.75
 40
0.75
 40
0.75
 40
0.75
 40
0.8333333333333334
 40
0.8333333333333334
 40
0.8333333333333334
 40
0.8333333333333334
 40
1.0
 40
1.0
 40
1.0
 40
1.0
 10
101.4884
 20
-142.9526
 30
0.0
 10
101.4884
 20
-142.9526
 30
0.0
 10
101.4884
 20
-125.7486
 30
0.0
 10
101.4884
 20
-125.7486
 30
0.0
 10
101.4884
 20
-125.7486
 30
0.0
 10
101.4884
 20
-125.4113
 30
0.0
 10
101.3303
 20
-125.0951
 30
0.0
 10
101.014
 20
-124.7999
 30
0.0
 10
101.014
 20
-124.7999
 30
0.0
 10
100.6978
 20
-124.5047
 30
0.0
 10
100.3921
 20
-124.2517
 30
0.0
 10
100.0969
 20
-124.0409
 30
0.0
 10
100.0969
 20
-124.0409
 30
0.0
 10
100.0969
 20
-124.0409
 30
0.0
 10
89.3444
 20
-124.0409
 30
0.0
 10
89.3444
 20
-124.0409
 30
0.0
 10
89.3444
 20
-124.0409
 30
0.0
 10
88.6698
 20
-124.7156
 30
0.0
 10
88.2481
 20
-125.8119
 30
0.0
 10
88.0794
 20
-127.3299
 30
0.0
 10
88.0794
 20
-127.3299
 30
0.0
 10
88.0373
 20
-128.4684
 30
0.0
 10
87.9951
 20
-129.6069
 30
0.0
 10
87.9529
 20
-130.7454
 30
0.0
 10
87.9529
 20
-130.7454
 30
0.0
 10
88.0794
 20
-130.8297
 30
0.0
 10
88.9228
 20
-131.2725
 30
0.0
 10
90.4829
 20
-132.0736
 30
0.0
 10
90.4829
 20
-132.0736
 30
0.0
 10
91.5793
 20
-132.6218
 30
0.0
 10
92.1485
 20
-133.1278
 30
0.0
 10
92.1907
 20
-133.5916
 30
0.0
 10
92.1907
 20
-133.5916
 30
0.0
 10
92.1907
 20
-133.5916
 30
0.0
 10
92.1907
 20
-142.9526
 30
0.0
 10
92.1907
 20
-142.9526
 30
0.0
 10
92.1907
 20
-142.9526
 30
0.0
 10
93.2027
 20
-143.6694
 30
0.0
 10
94.9104
 20
-144.0279
 30
0.0
 10
97.3139
 20
-144.0279
 30
0.0
 10
97.3139
 20
-144.0279
 30
0.0
 10
99.6331
 20
-144.0279
 30
0.0
 10
101.0246
 20
-143.6694
 30
0.0
 10
101.4884
 20
-142.9526
 30
0.0
  0
SPLINE
  5
54
330
1F
100
AcDbEntity
  8
Capa 1
 62
   250
100
AcDbSpline
210
0.0
220
0.0
230
1.0
 70
    11
 71
     3
 72
    48
 73
    44
 74
     0
 42
0.0000000001
 43
0.0000000001
 40
0.0
 40
0.0
 40
0.0
 40
0.0
 40
0.0833333333333333
 40
0.0833333333333333
 40
0.0833333333333333
 40
0.0833333333333333
 40
0.1666666666666667
 40
0.1666666666666667
 40
0.1666666666666667
 40
0.1666666666666667
 40
0.25
 40
0.25
 40
0.25
 40
0.25
 40
0.3333333333333333
 40
0.3333333333333333
 40
0.3333333333333333
 40
0.3333333333333333
 40
0.4166666666666667
 40
0.4166666666666667
 40
0.4166666666666667
 40
0.4166666666666667
 40
0.5
 40
0.5
 40
0.5
 40
0.5
 40
0.5833333333333334
 40
0.5833333333333334
 40
0.5833333333333334
 40
0.5833333333333334
 40
0.6666666666666666
 40
0.6666666666666666
 40
0.6666666666666666
 40
0.6666666666666666
 40
0.75
 40
0.75
 40
0.75
 40
0.75
 40
0.8333333333333334
 40
0.8333333333333334
 40
0.8333333333333334
 40
0.8333333333333334
 40
1.0
 40
1.0
 40
1.0
 40
1.0
 10
120.2104
 20
-146.4946
 30
0.0
 10
120.2104
 20
-147.0849
 30
0.0
 10
119.599
 20
-147.5909
 30
0.0
 10
118.3761
 20
-148.0126
 30
0.0
 10
118.3761
 20
-148.0126
 30
0.0
 10
117.3641
 20
-148.3499
 30
0.0
 10
116.4786
 20
-148.5186
 30
0.0
 10
115.7196
 20
-148.5186
 30
0.0
 10
115.7196
 20
-148.5186
 30
0.0
 10
114.8341
 20
-148.5186
 30
0.0
 10
113.9697
 20
-148.371
 30
0.0
 10
113.1264
 20
-148.0759
 30
0.0
 10
113.1264
 20
-148.0759
 30
0.0
 10
112.0722
 20
-147.6542
 30
0.0
 10
111.5451
 20
-147.0849
 30
0.0
 10
111.5451
 20
-146.3681
 30
0.0
 10
111.5451
 20
-146.3681
 30
0.0
 10
111.5451
 20
-146.3681
 30
0.0
 10
111.5451
 20
-109.0507
 30
0.0
 10
111.5451
 20
-109.0507
 30
0.0
 10
111.5451
 20
-109.0507
 30
0.0
 10
111.5451
 20
-108.629
 30
0.0
 10
111.8719
 20
-108.2284
 30
0.0
 10
112.5255
 20
-107.8489
 30
0.0
 10
112.5255
 20
-107.8489
 30
0.0
 10
113.1791
 20
-107.4694
 30
0.0
 10
113.6535
 20
-107.2797
 30
0.0
 10
113.9486
 20
-107.2797
 30
0.0
 10
113.9486
 20
-107.2797
 30
0.0
 10
114.8763
 20
-107.2797
 30
0.0
 10
115.572
 20
-107.7435
 30
0.0
 10
116.0359
 20
-108.6712
 30
0.0
 10
116.0359
 20
-108.6712
 30
0.0
 10
116.0359
 20
-108.6712
 30
0.0
 10
116.0359
 20
-117.9689
 30
0.0
 10
116.0359
 20
-117.9689
 30
0.0
 10
116.0359
 20
-117.9689
 30
0.0
 10
117.0057
 20
-118.5171
 30
0.0
 10
118.3972
 20
-119.3815
 30
0.0
 10
120.2104
 20
-120.5621
 30
0.0
 10
120.2104
 20
-120.5621
 30
0.0
 10
120.2104
 20
-120.5621
 30
0.0
 10
120.2104
 20
-146.4946
 30
0.0
 10
120.2104
 20
-146.4946
 30
0.0
  0
ENDSEC
  0
SECTION
  2
OBJECTS
  0
DICTIONARY
  5
C
330
0
100
AcDbDictionary
281
     1
  3
ACAD_GROUP
350
D
  3
ACAD_LAYOUT
350
1A
  3
ACAD_MATERIAL
350
3B
  3
ACAD_MLEADERSTYLE
350
76
  3
ACAD_MLINESTYLE
350
17
  3
ACAD_PLOTSETTINGS
350
19
  3
ACAD_PLOTSTYLENAME
350
E
  3
ACAD_TABLESTYLE
350
75
  3
ACAD_VISUALSTYLE
350
2A
  0
DICTIONARY
  5
D
102
{ACAD_REACTORS
330
C
102
}
330
C
100
AcDbDictionary
281
     1
  0
DICTIONARY
  5
1A
102
{ACAD_REACTORS
330
C
102
}
330
C
100
AcDbDictionary
281
     1
  3
Layout1
350
1E
  3
Layout2
350
26
  3
Model
350
22
  0
DICTIONARY
  5
3B
102
{ACAD_REACTORS
330
C
102
}
330
C
100
AcDbDictionary
281
     1
  3
ByBlock
350
3D
  3
ByLayer
350
3C
  3
Global
350
3E
  0
DICTIONARY
  5
76
102
{ACAD_REACTORS
330
C
102
}
330
C
100
AcDbDictionary
281
     1
  0
DICTIONARY
  5
17
102
{ACAD_REACTORS
330
C
102
}
330
C
100
AcDbDictionary
281
     1
  3
Standard
350
18
  0
DICTIONARY
  5
19
102
{ACAD_REACTORS
330
C
102
}
330
C
100
AcDbDictionary
281
     1
  0
ACDBDICTIONARYWDFLT
  5
E
102
{ACAD_REACTORS
330
C
102
}
330
C
100
AcDbDictionary
281
     1
  3
Normal
350
F
100
AcDbDictionaryWithDefault
340
F
  0
DICTIONARY
  5
75
102
{ACAD_REACTORS
330
C
102
}
330
C
100
AcDbDictionary
281
     1
  0
DICTIONARY
  5
2A
102
{ACAD_REACTORS
330
C
102
}
330
C
100
AcDbDictionary
281
     1
  3
2dWireframe
350
2F
  3
3D Hidden
350
31
  3
3dWireframe
350
30
  3
Basic
350
32
  3
Brighten
350
36
  3
ColorChange
350
3A
  3
Conceptual
350
34
  3
Dim
350
35
  3
Facepattern
350
39
  3
Flat
350
2B
  3
FlatWithEdges
350
2C
  3
Gouraud
350
2D
  3
GouraudWithEdges
350
2E
  3
Linepattern
350
38
  3
Realistic
350
33
  3
Thicken
350
37
  0
LAYOUT
  5
1E
102
{ACAD_REACTORS
330
1A
102
}
330
1A
100
AcDbPlotSettings
  1

  2
none_device
  4

  6

 40
0.0
 41
0.0
 42
0.0
 43
0.0
 44
0.0
 45
0.0
 46
0.0
 47
0.0
 48
0.0
 49
0.0
140
0.0
141
0.0
142
1.0
143
1.0
 70
   688
 72
     0
 73
     0
 74
     5
  7

 75
    16
 76
     0
 77
     2
 78
   300
147
1.0
148
0.0
149
0.0
100
AcDbLayout
  1
Layout1
 70
     1
 71
     1
 10
0.0
 20
0.0
 11
12.0
 21
9.0
 12
0.0
 22
0.0
 32
0.0
 14
1.000000000000000E+20
 24
1.000000000000000E+20
 34
1.000000000000000E+20
 15
-1.000000000000000E+20
 25
-1.000000000000000E+20
 35
-1.000000000000000E+20
146
0.0
 13
0.0
 23
0.0
 33
0.0
 16
1.0
 26
0.0
 36
0.0
 17
0.0
 27
1.0
 37
0.0
 76
     0
330
1B
  0
LAYOUT
  5
26
102
{ACAD_REACTORS
330
1A
102
}
330
1A
100
AcDbPlotSettings
  1

  2
none_device
  4

  6

 40
0.0
 41
0.0
 42
0.0
 43
0.0
 44
0.0
 45
0.0
 46
0.0
 47
0.0
 48
0.0
 49
0.0
140
0.0
141
0.0
142
1.0
143
1.0
 70
   688
 72
     0
 73
     0
 74
     5
  7

 75
    16
 76
     0
 77
     2
 78
   300
147
1.0
148
0.0
149
0.0
100
AcDbLayout
  1
Layout2
 70
     1
 71
     2
 10
0.0
 20
0.0
 11
0.0
 21
0.0
 12
0.0
 22
0.0
 32
0.0
 14
0.0
 24
0.0
 34
0.0
 15
0.0
 25
0.0
 35
0.0
146
0.0
 13
0.0
 23
0.0
 33
0.0
 16
1.0
 26
0.0
 36
0.0
 17
0.0
 27
1.0
 37
0.0
 76
     0
330
23
  0
LAYOUT
  5
22
102
{ACAD_REACTORS
330
1A
102
}
330
1A
100
AcDbPlotSettings
  1

  2
none_device
  4

  6

 40
0.0
 41
0.0
 42
0.0
 43
0.0
 44
0.0
 45
0.0
 46
0.0
 47
0.0
 48
0.0
 49
0.0
140
0.0
141
0.0
142
1.0
143
1.0
 70
  1712
 72
     0
 73
     0
 74
     0
  7

 75
     0
 76
     0
 77
     2
 78
   300
147
1.0
148
0.0
149
0.0
100
AcDbLayout
  1
Model
 70
     1
 71
     0
 10
0.0
 20
0.0
 11
12.0
 21
9.0
 12
0.0
 22
0.0
 32
0.0
 14
-135.3297
 24
-148.5186
 34
0.0
 15
120.2104
 25
140.5904
 35
0.0
146
0.0
 13
0.0
 23
0.0
 33
0.0
 16
1.0
 26
0.0
 36
0.0
 17
0.0
 27
1.0
 37
0.0
 76
     0
330
1F
331
29
  0
MATERIAL
  5
3D
102
{ACAD_REACTORS
330
3B
102
}
330
3B
100
AcDbMaterial
  1
ByBlock
 72
     1
 94
      127
  0
MATERIAL
  5
3C
102
{ACAD_REACTORS
330
3B
102
}
330
3B
100
AcDbMaterial
  1
ByLayer
 72
     1
 94
      127
  0
MATERIAL
  5
3E
102
{ACAD_REACTORS
330
3B
102
}
330
3B
100
AcDbMaterial
  1
Global
 72
     1
 94
      127
  0
MLINESTYLE
  5
18
102
{ACAD_REACTORS
330
17
102
}
330
17
100
AcDbMlineStyle
  2
Standard
 70
     0
  3

 62
   256
 51
90.0
 52
90.0
 71
     2
 49
0.5
 62
   256
  6
BYLAYER
 49
-0.5
 62
   256
  6
BYLAYER
  0
ACDBPLACEHOLDER
  5
F
102
{ACAD_REACTORS
330
E
102
}
330
E
  0
VISUALSTYLE
  5
2F
102
{ACAD_REACTORS
330
2A
102
}
102
{ACAD_XDICTIONARY
360
5D
102
}
330
2A
100
AcDbVisualStyle
  2
2dWireframe
 70
     4
 71
     0
 72
     2
 73
     0
 90
        0
 40
-0.6
 41
-30.0
 62
     5
 63
     7
421
 16777215
 74
     1
 91
        4
 64
     7
 65
   257
 75
     1
175
     1
 42
1.0
 92
        0
 66
   257
 43
1.0
 76
     1
 77
     6
 78
     2
 67
     7
 79
     5
170
     0
171
     0
290
     0
174
     0
 93
        1
 44
0.0
173
     0
291
     0
 45
0.0
  0
VISUALSTYLE
  5
31
102
{ACAD_REACTORS
330
2A
102
}
102
{ACAD_XDICTIONARY
360
61
102
}
330
2A
100
AcDbVisualStyle
  2
3D Hidden
 70
     6
 71
     1
 72
     2
 73
     2
 90
        0
 40
-0.6
 41
-30.0
 62
     5
 63
     7
421
 16777215
 74
     2
 91
        2
 64
     7
 65
   257
 75
     2
175
     1
 42
40.0
 92
        0
 66
   257
 43
1.0
 76
     1
 77
     6
 78
     2
 67
     7
 79
     3
170
     0
171
     0
290
     0
174
     0
 93
        1
 44
0.0
173
     0
291
     0
 45
0.0
  0
VISUALSTYLE
  5
30
102
{ACAD_REACTORS
330
2A
102
}
102
{ACAD_XDICTIONARY
360
5F
102
}
330
2A
100
AcDbVisualStyle
  2
3dWireframe
 70
     5
 71
     0
 72
     2
 73
     0
 90
        0
 40
-0.6
 41
-30.0
 62
     5
 63
     7
421
 16777215
 74
     1
 91
        4
 64
     7
 65
   257
 75
     1
175
     1
 42
1.0
 92
        0
 66
   257
 43
1.0
 76
     1
 77
     6
 78
     2
 67
     7
 79
     5
170
     0
171
     0
290
     0
174
     0
 93
        1
 44
0.0
173
     0
291
     0
 45
0.0
  0
VISUALSTYLE
  5
32
102
{ACAD_REACTORS
330
2A
102
}
102
{ACAD_XDICTIONARY
360
63
102
}
330
2A
100
AcDbVisualStyle
  2
Basic
 70
     7
 71
     1
 72
     0
 73
     1
 90
        0
 40
-0.6
 41
-30.0
 62
     5
 63
     7
421
 16777215
 74
     0
 91
        4
 64
     7
 65
   257
 75
     1
175
     1
 42
1.0
 92
        8
 66
     7
 43
1.0
 76
     1
 77
     6
 78
     2
 67
     7
 79
     5
170
     0
171
     0
290
     0
174
     0
 93
        1
 44
0.0
173
     0
291
     1
 45
0.0
  0
VISUALSTYLE
  5
36
102
{ACAD_REACTORS
330
2A
102
}
102
{ACAD_XDICTIONARY
360
6B
102
}
330
2A
100
AcDbVisualStyle
  2
Brighten
 70
    12
 71
     2
 72
     2
 73
     0
 90
        0
 40
-0.6
 41
-30.0
 62
     5
 63
     7
421
 16777215
 74
     1
 91
        4
 64
     7
 65
   257
 75
     1
175
     1
 42
1.0
 92
        8
 66
     7
 43
1.0
 76
     1
 77
     6
 78
     2
 67
     7
 79
     5
170
     0
171
     0
290
     0
174
     0
 93
        1
 44
50.0
173
     0
291
     1
 45
0.0
  0
VISUALSTYLE
  5
3A
102
{ACAD_REACTORS
330
2A
102
}
102
{ACAD_XDICTIONARY
360
73
102
}
330
2A
100
AcDbVisualStyle
  2
ColorChange
 70
    16
 71
     2
 72
     2
 73
     3
 90
        0
 40
-0.6
 41
-30.0
 62
     5
 63
     8
421
  8421504
 74
     1
 91
        4
 64
     7
 65
   257
 75
     1
175
     1
 42
1.0
 92
        8
 66
     8
424
  8421504
 43
1.0
 76
     1
 77
     6
 78
     2
 67
     7
 79
     5
170
     0
171
     0
290
     0
174
     0
 93
        1
 44
0.0
173
     0
291
     1
 45
0.0
  0
VISUALSTYLE
  5
34
102
{ACAD_REACTORS
330
2A
102
}
102
{ACAD_XDICTIONARY
360
67
102
}
330
2A
100
AcDbVisualStyle
  2
Conceptual
 70
     9
 71
     3
 72
     2
 73
     0
 90
        0
 40
-0.6
 41
-30.0
 62
     5
 63
     7
421
 16777215
 74
     2
 91
        2
 64
     7
 65
   257
 75
     1
175
     1
 42
40.0
 92
        8
 66
     7
 43
1.0
 76
     1
 77
     6
 78
     2
 67
     7
 79
     3
170
     0
171
     0
290
     0
174
     0
 93
        1
 44
0.0
173
     0
291
     0
 45
0.0
  0
VISUALSTYLE
  5
35
102
{ACAD_REACTORS
330
2A
102
}
102
{ACAD_XDICTIONARY
360
69
102
}
330
2A
100
AcDbVisualStyle
  2
Dim
 70
    11
 71
     2
 72
     2
 73
     0
 90
        0
 40
-0.6
 41
-30.0
 62
     5
 63
     7
421
 16777215
 74
     1
 91
        4
 64
     7
 65
   257
 75
     1
175
     1
 42
1.0
 92
        8
 66
     7
 43
1.0
 76
     1
 77
     6
 78
     2
 67
     7
 79
     5
170
     0
171
     0
290
     0
174
     0
 93
        1
 44
-50.0
173
     0
291
     1
 45
0.0
  0
VISUALSTYLE
  5
39
102
{ACAD_REACTORS
330
2A
102
}
102
{ACAD_XDICTIONARY
360
71
102
}
330
2A
100
AcDbVisualStyle
  2
Facepattern
 70
    15
 71
     2
 72
     2
 73
     0
 90
        0
 40
-0.6
 41
-30.0
 62
     5
 63
     7
421
 16777215
 74
     1
 91
        4
 64
     7
 65
   257
 75
     1
175
     1
 42
1.0
 92
        8
 66
     7
 43
1.0
 76
     1
 77
     6
 78
     2
 67
     7
 79
     5
170
     0
171
     0
290
     0
174
     0
 93
        1
 44
0.0
173
     0
291
     1
 45
0.0
  0
VISUALSTYLE
  5
2B
102
{ACAD_REACTORS
330
2A
102
}
102
{ACAD_XDICTIONARY
360
55
102
}
330
2A
100
AcDbVisualStyle
  2
Flat
 70
     0
 71
     2
 72
     1
 73
     1
 90
        2
 40
-0.6
 41
30.0
 62
     5
 63
     7
421
 16777215
 74
     0
 91
        4
 64
     7
 65
   257
 75
     1
175
     1
 42
1.0
 92
        8
 66
     7
 43
1.0
 76
     1
 77
     6
 78
     2
 67
     7
 79
     5
170
     0
171
     0
290
     0
174
     0
 93
       13
 44
0.0
173
     0
291
     1
 45
0.0
  0
VISUALSTYLE
  5
2C
102
{ACAD_REACTORS
330
2A
102
}
102
{ACAD_XDICTIONARY
360
57
102
}
330
2A
100
AcDbVisualStyle
  2
FlatWithEdges
 70
     1
 71
     2
 72
     1
 73
     1
 90
        2
 40
-0.6
 41
30.0
 62
     5
 63
     7
421
 16777215
 74
     1
 91
        4
 64
     7
 65
   257
 75
     1
175
     1
 42
1.0
 92
        0
 66
   257
 43
1.0
 76
     1
 77
     6
 78
     2
 67
     7
 79
     5
170
     0
171
     0
290
     0
174
     0
 93
       13
 44
0.0
173
     0
291
     1
 45
0.0
  0
VISUALSTYLE
  5
2D
102
{ACAD_REACTORS
330
2A
102
}
102
{ACAD_XDICTIONARY
360
59
102
}
330
2A
100
AcDbVisualStyle
  2
Gouraud
 70
     2
 71
     2
 72
     2
 73
     1
 90
        2
 40
-0.6
 41
30.0
 62
     5
 63
     7
421
 16777215
 74
     0
 91
        4
 64
     7
 65
   257
 75
     1
175
     1
 42
1.0
 92
        0
 66
     7
 43
1.0
 76
     1
 77
     6
 78
     2
 67
     7
 79
     5
170
     0
171
     0
290
     0
174
     0
 93
       13
 44
0.0
173
     0
291
     1
 45
0.0
  0
VISUALSTYLE
  5
2E
102
{ACAD_REACTORS
330
2A
102
}
102
{ACAD_XDICTIONARY
360
5B
102
}
330
2A
100
AcDbVisualStyle
  2
GouraudWithEdges
 70
     3
 71
     2
 72
     2
 73
     1
 90
        2
 40
-0.6
 41
30.0
 62
     5
 63
     7
421
 16777215
 74
     1
 91
        4
 64
     7
 65
   257
 75
     1
175
     1
 42
1.0
 92
        0
 66
   257
 43
1.0
 76
     1
 77
     6
 78
     2
 67
     7
 79
     5
170
     0
171
     0
290
     0
174
     0
 93
       13
 44
0.0
173
     0
291
     1
 45
0.0
  0
VISUALSTYLE
  5
38
102
{ACAD_REACTORS
330
2A
102
}
102
{ACAD_XDICTIONARY
360
6F
102
}
330
2A
100
AcDbVisualStyle
  2
Linepattern
 70
    14
 71
     2
 72
     2
 73
     0
 90
        0
 40
-0.6
 41
-30.0
 62
     5
 63
     7
421
 16777215
 74
     1
 91
        4
 64
     7
 65
   257
 75
     7
175
     7
 42
1.0
 92
        8
 66
     7
 43
1.0
 76
     1
 77
     6
 78
     2
 67
     7
 79
     5
170
     0
171
     0
290
     0
174
     0
 93
        1
 44
0.0
173
     0
291
     1
 45
0.0
  0
VISUALSTYLE
  5
33
102
{ACAD_REACTORS
330
2A
102
}
102
{ACAD_XDICTIONARY
360
65
102
}
330
2A
100
AcDbVisualStyle
  2
Realistic
 70
     8
 71
     2
 72
     2
 73
     0
 90
        0
 40
-0.6
 41
-30.0
 62
     5
 63
     7
421
 16777215
 74
     1
 91
        0
 64
     7
 65
   257
 75
     1
175
     1
 42
1.0
 92
        8
 66
     8
424
  7895160
 43
1.0
 76
     1
 77
     6
 78
     2
 67
     7
 79
     5
170
     0
171
     0
290
     0
174
     0
 93
       13
 44
0.0
173
     0
291
     0
 45
0.0
  0
VISUALSTYLE
  5
37
102
{ACAD_REACTORS
330
2A
102
}
102
{ACAD_XDICTIONARY
360
6D
102
}
330
2A
100
AcDbVisualStyle
  2
Thicken
 70
    13
 71
     2
 72
     2
 73
     0
 90
        0
 40
-0.6
 41
-30.0
 62
     5
 63
     7
421
 16777215
 74
     1
 91
        4
 64
     7
 65
   257
 75
     1
175
     1
 42
1.0
 92
       12
 66
     7
 43
1.0
 76
     1
 77
     6
 78
     2
 67
     7
 79
     5
170
     0
171
     0
290
     0
174
     0
 93
        1
 44
0.0
173
     0
291
     1
 45
0.0
  0
DICTIONARY
  5
5D
330
2F
100
AcDbDictionary
280
     1
281
     1
  3
ACAD_XREC_ROUNDTRIP
360
5E
  0
DICTIONARY
  5
61
330
31
100
AcDbDictionary
280
     1
281
     1
  3
ACAD_XREC_ROUNDTRIP
360
62
  0
DICTIONARY
  5
5F
330
30
100
AcDbDictionary
280
     1
281
     1
  3
ACAD_XREC_ROUNDTRIP
360
60
  0
DICTIONARY
  5
63
330
32
100
AcDbDictionary
280
     1
281
     1
  3
ACAD_XREC_ROUNDTRIP
360
64
  0
DICTIONARY
  5
6B
330
36
100
AcDbDictionary
280
     1
281
     1
  3
ACAD_XREC_ROUNDTRIP
360
6C
  0
DICTIONARY
  5
73
330
3A
100
AcDbDictionary
280
     1
281
     1
  3
ACAD_XREC_ROUNDTRIP
360
74
  0
DICTIONARY
  5
67
330
34
100
AcDbDictionary
280
     1
281
     1
  3
ACAD_XREC_ROUNDTRIP
360
68
  0
DICTIONARY
  5
69
330
35
100
AcDbDictionary
280
     1
281
     1
  3
ACAD_XREC_ROUNDTRIP
360
6A
  0
DICTIONARY
  5
71
330
39
100
AcDbDictionary
280
     1
281
     1
  3
ACAD_XREC_ROUNDTRIP
360
72
  0
DICTIONARY
  5
55
330
2B
100
AcDbDictionary
280
     1
281
     1
  3
ACAD_XREC_ROUNDTRIP
360
56
  0
DICTIONARY
  5
57
330
2C
100
AcDbDictionary
280
     1
281
     1
  3
ACAD_XREC_ROUNDTRIP
360
58
  0
DICTIONARY
  5
59
330
2D
100
AcDbDictionary
280
     1
281
     1
  3
ACAD_XREC_ROUNDTRIP
360
5A
  0
DICTIONARY
  5
5B
330
2E
100
AcDbDictionary
280
     1
281
     1
  3
ACAD_XREC_ROUNDTRIP
360
5C
  0
DICTIONARY
  5
6F
330
38
100
AcDbDictionary
280
     1
281
     1
  3
ACAD_XREC_ROUNDTRIP
360
70
  0
DICTIONARY
  5
65
330
33
100
AcDbDictionary
280
     1
281
     1
  3
ACAD_XREC_ROUNDTRIP
360
66
  0
DICTIONARY
  5
6D
330
37
100
AcDbDictionary
280
     1
281
     1
  3
ACAD_XREC_ROUNDTRIP
360
6E
  0
XRECORD
  5
5E
102
{ACAD_REACTORS
330
5D
102
}
330
5D
100
AcDbXrecord
280
     1
102
RTVSPropertyOp0
 70
     1
102
RTVSPropertyOp1
 70
     1
102
RTVSPropertyOp2
 70
     1
102
RTVSPropertyOp3
 70
     1
102
RTVSPropertyOp4
 70
     1
102
RTVSPropertyOp5
 70
     1
102
RTVSPropertyOp6
 70
     1
102
RTVSPropertyOp7
 70
     1
102
RTVSPropertyOp8
 70
     1
102
RTVSPropertyOp9
 70
     1
102
RTVSPropertyOp10
 70
     1
102
RTVSPropertyOp11
 70
     1
102
RTVSPropertyOp12
 70
     1
102
RTVSPropertyOp13
 70
     1
102
RTVSPropertyOp14
 70
     1
102
RTVSPropertyOp15
 70
     1
102
RTVSPropertyOp16
 70
     1
102
RTVSPropertyOp17
 70
     1
102
RTVSPropertyOp18
 70
     1
102
RTVSPropertyOp19
 70
     1
102
RTVSPropertyOp20
 70
     1
102
RTVSPropertyOp21
 70
     1
102
RTVSPropertyOp22
 70
     1
102
RTVSPropertyOp23
 70
     1
102
RTVSPropertyOp24
 70
     1
102
RTVSPropertyOp25
 70
     1
102
RTVSPropertyOp26
 70
     1
102
RTVSPropertyOp27
 70
     1
  0
XRECORD
  5
62
102
{ACAD_REACTORS
330
61
102
}
330
61
100
AcDbXrecord
280
     1
102
RTVSPropertyOp0
 70
     1
102
RTVSPropertyOp1
 70
     1
102
RTVSPropertyOp2
 70
     1
102
RTVSPropertyOp3
 70
     1
102
RTVSPropertyOp4
 70
     1
102
RTVSPropertyOp5
 70
     1
102
RTVSPropertyOp6
 70
     1
102
RTVSPropertyOp7
 70
     1
102
RTVSPropertyOp8
 70
     1
102
RTVSPropertyOp9
 70
     1
102
RTVSPropertyOp10
 70
     1
102
RTVSPropertyOp11
 70
     1
102
RTVSPropertyOp12
 70
     1
102
RTVSPropertyOp13
 70
     1
102
RTVSPropertyOp14
 70
     1
102
RTVSPropertyOp15
 70
     1
102
RTVSPropertyOp16
 70
     1
102
RTVSPropertyOp17
 70
     1
102
RTVSPropertyOp18
 70
     1
102
RTVSPropertyOp19
 70
     1
102
RTVSPropertyOp20
 70
     1
102
RTVSPropertyOp21
 70
     1
102
RTVSPropertyOp22
 70
     1
102
RTVSPropertyOp23
 70
     1
102
RTVSPropertyOp24
 70
     1
102
RTVSPropertyOp25
 70
     1
102
RTVSPropertyOp26
 70
     1
102
RTVSPropertyOp27
 70
     1
  0
XRECORD
  5
60
102
{ACAD_REACTORS
330
5F
102
}
330
5F
100
AcDbXrecord
280
     1
102
RTVSPropertyOp0
 70
     1
102
RTVSPropertyOp1
 70
     1
102
RTVSPropertyOp2
 70
     1
102
RTVSPropertyOp3
 70
     1
102
RTVSPropertyOp4
 70
     1
102
RTVSPropertyOp5
 70
     1
102
RTVSPropertyOp6
 70
     1
102
RTVSPropertyOp7
 70
     1
102
RTVSPropertyOp8
 70
     1
102
RTVSPropertyOp9
 70
     1
102
RTVSPropertyOp10
 70
     1
102
RTVSPropertyOp11
 70
     1
102
RTVSPropertyOp12
 70
     1
102
RTVSPropertyOp13
 70
     1
102
RTVSPropertyOp14
 70
     1
102
RTVSPropertyOp15
 70
     1
102
RTVSPropertyOp16
 70
     1
102
RTVSPropertyOp17
 70
     1
102
RTVSPropertyOp18
 70
     1
102
RTVSPropertyOp19
 70
     1
102
RTVSPropertyOp20
 70
     1
102
RTVSPropertyOp21
 70
     1
102
RTVSPropertyOp22
 70
     1
102
RTVSPropertyOp23
 70
     1
102
RTVSPropertyOp24
 70
     1
102
RTVSPropertyOp25
 70
     1
102
RTVSPropertyOp26
 70
     1
102
RTVSPropertyOp27
 70
     1
  0
XRECORD
  5
64
102
{ACAD_REACTORS
330
63
102
}
330
63
100
AcDbXrecord
280
     1
102
RTVSPropertyOp0
 70
     1
102
RTVSPropertyOp1
 70
     1
102
RTVSPropertyOp2
 70
     1
102
RTVSPropertyOp3
 70
     1
102
RTVSPropertyOp4
 70
     1
102
RTVSPropertyOp5
 70
     1
102
RTVSPropertyOp6
 70
     1
102
RTVSPropertyOp7
 70
     1
102
RTVSPropertyOp8
 70
     1
102
RTVSPropertyOp9
 70
     1
102
RTVSPropertyOp10
 70
     1
102
RTVSPropertyOp11
 70
     1
102
RTVSPropertyOp12
 70
     1
102
RTVSPropertyOp13
 70
     1
102
RTVSPropertyOp14
 70
     1
102
RTVSPropertyOp15
 70
     1
102
RTVSPropertyOp16
 70
     1
102
RTVSPropertyOp17
 70
     1
102
RTVSPropertyOp18
 70
     1
102
RTVSPropertyOp19
 70
     1
102
RTVSPropertyOp20
 70
     1
102
RTVSPropertyOp21
 70
     1
102
RTVSPropertyOp22
 70
     1
102
RTVSPropertyOp23
 70
     1
102
RTVSPropertyOp24
 70
     1
102
RTVSPropertyOp25
 70
     1
102
RTVSPropertyOp26
 70
     1
102
RTVSPropertyOp27
 70
     1
  0
XRECORD
  5
6C
102
{ACAD_REACTORS
330
6B
102
}
330
6B
100
AcDbXrecord
280
     1
102
RTVSPropertyOp0
 70
     1
102
RTVSPropertyOp1
 70
     1
102
RTVSPropertyOp2
 70
     1
102
RTVSPropertyOp3
 70
     1
102
RTVSPropertyOp4
 70
     1
102
RTVSPropertyOp5
 70
     1
102
RTVSPropertyOp6
 70
     1
102
RTVSPropertyOp7
 70
     1
102
RTVSPropertyOp8
 70
     1
102
RTVSPropertyOp9
 70
     1
102
RTVSPropertyOp10
 70
     1
102
RTVSPropertyOp11
 70
     1
102
RTVSPropertyOp12
 70
     1
102
RTVSPropertyOp13
 70
     1
102
RTVSPropertyOp14
 70
     1
102
RTVSPropertyOp15
 70
     1
102
RTVSPropertyOp16
 70
     1
102
RTVSPropertyOp17
 70
     1
102
RTVSPropertyOp18
 70
     1
102
RTVSPropertyOp19
 70
     1
102
RTVSPropertyOp20
 70
     1
102
RTVSPropertyOp21
 70
     1
102
RTVSPropertyOp22
 70
     1
102
RTVSPropertyOp23
 70
     1
102
RTVSPropertyOp24
 70
     1
102
RTVSPropertyOp25
 70
     1
102
RTVSPropertyOp26
 70
     1
102
RTVSPropertyOp27
 70
     1
  0
XRECORD
  5
74
102
{ACAD_REACTORS
330
73
102
}
330
73
100
AcDbXrecord
280
     1
102
RTVSPropertyOp0
 70
     1
102
RTVSPropertyOp1
 70
     1
102
RTVSPropertyOp2
 70
     1
102
RTVSPropertyOp3
 70
     1
102
RTVSPropertyOp4
 70
     1
102
RTVSPropertyOp5
 70
     1
102
RTVSPropertyOp6
 70
     1
102
RTVSPropertyOp7
 70
     1
102
RTVSPropertyOp8
 70
     1
102
RTVSPropertyOp9
 70
     1
102
RTVSPropertyOp10
 70
     1
102
RTVSPropertyOp11
 70
     1
102
RTVSPropertyOp12
 70
     1
102
RTVSPropertyOp13
 70
     1
102
RTVSPropertyOp14
 70
     1
102
RTVSPropertyOp15
 70
     1
102
RTVSPropertyOp16
 70
     1
102
RTVSPropertyOp17
 70
     1
102
RTVSPropertyOp18
 70
     1
102
RTVSPropertyOp19
 70
     1
102
RTVSPropertyOp20
 70
     1
102
RTVSPropertyOp21
 70
     1
102
RTVSPropertyOp22
 70
     1
102
RTVSPropertyOp23
 70
     1
102
RTVSPropertyOp24
 70
     1
102
RTVSPropertyOp25
 70
     1
102
RTVSPropertyOp26
 70
     1
102
RTVSPropertyOp27
 70
     1
  0
XRECORD
  5
68
102
{ACAD_REACTORS
330
67
102
}
330
67
100
AcDbXrecord
280
     1
102
RTVSPropertyOp0
 70
     1
102
RTVSPropertyOp1
 70
     1
102
RTVSPropertyOp2
 70
     1
102
RTVSPropertyOp3
 70
     1
102
RTVSPropertyOp4
 70
     1
102
RTVSPropertyOp5
 70
     1
102
RTVSPropertyOp6
 70
     1
102
RTVSPropertyOp7
 70
     1
102
RTVSPropertyOp8
 70
     1
102
RTVSPropertyOp9
 70
     1
102
RTVSPropertyOp10
 70
     1
102
RTVSPropertyOp11
 70
     1
102
RTVSPropertyOp12
 70
     1
102
RTVSPropertyOp13
 70
     1
102
RTVSPropertyOp14
 70
     1
102
RTVSPropertyOp15
 70
     1
102
RTVSPropertyOp16
 70
     1
102
RTVSPropertyOp17
 70
     1
102
RTVSPropertyOp18
 70
     1
102
RTVSPropertyOp19
 70
     1
102
RTVSPropertyOp20
 70
     1
102
RTVSPropertyOp21
 70
     1
102
RTVSPropertyOp22
 70
     1
102
RTVSPropertyOp23
 70
     1
102
RTVSPropertyOp24
 70
     1
102
RTVSPropertyOp25
 70
     1
102
RTVSPropertyOp26
 70
     1
102
RTVSPropertyOp27
 70
     1
  0
XRECORD
  5
6A
102
{ACAD_REACTORS
330
69
102
}
330
69
100
AcDbXrecord
280
     1
102
RTVSPropertyOp0
 70
     1
102
RTVSPropertyOp1
 70
     1
102
RTVSPropertyOp2
 70
     1
102
RTVSPropertyOp3
 70
     1
102
RTVSPropertyOp4
 70
     1
102
RTVSPropertyOp5
 70
     1
102
RTVSPropertyOp6
 70
     1
102
RTVSPropertyOp7
 70
     1
102
RTVSPropertyOp8
 70
     1
102
RTVSPropertyOp9
 70
     1
102
RTVSPropertyOp10
 70
     1
102
RTVSPropertyOp11
 70
     1
102
RTVSPropertyOp12
 70
     1
102
RTVSPropertyOp13
 70
     1
102
RTVSPropertyOp14
 70
     1
102
RTVSPropertyOp15
 70
     1
102
RTVSPropertyOp16
 70
     1
102
RTVSPropertyOp17
 70
     1
102
RTVSPropertyOp18
 70
     1
102
RTVSPropertyOp19
 70
     1
102
RTVSPropertyOp20
 70
     1
102
RTVSPropertyOp21
 70
     1
102
RTVSPropertyOp22
 70
     1
102
RTVSPropertyOp23
 70
     1
102
RTVSPropertyOp24
 70
     1
102
RTVSPropertyOp25
 70
     1
102
RTVSPropertyOp26
 70
     1
102
RTVSPropertyOp27
 70
     1
  0
XRECORD
  5
72
102
{ACAD_REACTORS
330
71
102
}
330
71
100
AcDbXrecord
280
     1
102
RTVSPropertyOp0
 70
     1
102
RTVSPropertyOp1
 70
     1
102
RTVSPropertyOp2
 70
     1
102
RTVSPropertyOp3
 70
     1
102
RTVSPropertyOp4
 70
     1
102
RTVSPropertyOp5
 70
     1
102
RTVSPropertyOp6
 70
     1
102
RTVSPropertyOp7
 70
     1
102
RTVSPropertyOp8
 70
     1
102
RTVSPropertyOp9
 70
     1
102
RTVSPropertyOp10
 70
     1
102
RTVSPropertyOp11
 70
     1
102
RTVSPropertyOp12
 70
     1
102
RTVSPropertyOp13
 70
     1
102
RTVSPropertyOp14
 70
     1
102
RTVSPropertyOp15
 70
     1
102
RTVSPropertyOp16
 70
     1
102
RTVSPropertyOp17
 70
     1
102
RTVSPropertyOp18
 70
     1
102
RTVSPropertyOp19
 70
     1
102
RTVSPropertyOp20
 70
     1
102
RTVSPropertyOp21
 70
     1
102
RTVSPropertyOp22
 70
     1
102
RTVSPropertyOp23
 70
     1
102
RTVSPropertyOp24
 70
     1
102
RTVSPropertyOp25
 70
     1
102
RTVSPropertyOp26
 70
     1
102
RTVSPropertyOp27
 70
     1
  0
XRECORD
  5
56
102
{ACAD_REACTORS
330
55
102
}
330
55
100
AcDbXrecord
280
     1
102
RTVSPropertyOp0
 70
     1
102
RTVSPropertyOp1
 70
     1
102
RTVSPropertyOp2
 70
     1
102
RTVSPropertyOp3
 70
     1
102
RTVSPropertyOp4
 70
     1
102
RTVSPropertyOp5
 70
     1
102
RTVSPropertyOp6
 70
     1
102
RTVSPropertyOp7
 70
     1
102
RTVSPropertyOp8
 70
     1
102
RTVSPropertyOp9
 70
     1
102
RTVSPropertyOp10
 70
     1
102
RTVSPropertyOp11
 70
     1
102
RTVSPropertyOp12
 70
     1
102
RTVSPropertyOp13
 70
     1
102
RTVSPropertyOp14
 70
     1
102
RTVSPropertyOp15
 70
     1
102
RTVSPropertyOp16
 70
     1
102
RTVSPropertyOp17
 70
     1
102
RTVSPropertyOp18
 70
     1
102
RTVSPropertyOp19
 70
     1
102
RTVSPropertyOp20
 70
     1
102
RTVSPropertyOp21
 70
     1
102
RTVSPropertyOp22
 70
     1
102
RTVSPropertyOp23
 70
     1
102
RTVSPropertyOp24
 70
     1
102
RTVSPropertyOp25
 70
     1
102
RTVSPropertyOp26
 70
     1
102
RTVSPropertyOp27
 70
     1
  0
XRECORD
  5
58
102
{ACAD_REACTORS
330
57
102
}
330
57
100
AcDbXrecord
280
     1
102
RTVSPropertyOp0
 70
     1
102
RTVSPropertyOp1
 70
     1
102
RTVSPropertyOp2
 70
     1
102
RTVSPropertyOp3
 70
     1
102
RTVSPropertyOp4
 70
     1
102
RTVSPropertyOp5
 70
     1
102
RTVSPropertyOp6
 70
     1
102
RTVSPropertyOp7
 70
     1
102
RTVSPropertyOp8
 70
     1
102
RTVSPropertyOp9
 70
     1
102
RTVSPropertyOp10
 70
     1
102
RTVSPropertyOp11
 70
     1
102
RTVSPropertyOp12
 70
     1
102
RTVSPropertyOp13
 70
     1
102
RTVSPropertyOp14
 70
     1
102
RTVSPropertyOp15
 70
     1
102
RTVSPropertyOp16
 70
     1
102
RTVSPropertyOp17
 70
     1
102
RTVSPropertyOp18
 70
     1
102
RTVSPropertyOp19
 70
     1
102
RTVSPropertyOp20
 70
     1
102
RTVSPropertyOp21
 70
     1
102
RTVSPropertyOp22
 70
     1
102
RTVSPropertyOp23
 70
     1
102
RTVSPropertyOp24
 70
     1
102
RTVSPropertyOp25
 70
     1
102
RTVSPropertyOp26
 70
     1
102
RTVSPropertyOp27
 70
     1
  0
XRECORD
  5
5A
102
{ACAD_REACTORS
330
59
102
}
330
59
100
AcDbXrecord
280
     1
102
RTVSPropertyOp0
 70
     1
102
RTVSPropertyOp1
 70
     1
102
RTVSPropertyOp2
 70
     1
102
RTVSPropertyOp3
 70
     1
102
RTVSPropertyOp4
 70
     1
102
RTVSPropertyOp5
 70
     1
102
RTVSPropertyOp6
 70
     1
102
RTVSPropertyOp7
 70
     1
102
RTVSPropertyOp8
 70
     1
102
RTVSPropertyOp9
 70
     1
102
RTVSPropertyOp10
 70
     1
102
RTVSPropertyOp11
 70
     1
102
RTVSPropertyOp12
 70
     1
102
RTVSPropertyOp13
 70
     1
102
RTVSPropertyOp14
 70
     1
102
RTVSPropertyOp15
 70
     1
102
RTVSPropertyOp16
 70
     1
102
RTVSPropertyOp17
 70
     1
102
RTVSPropertyOp18
 70
     1
102
RTVSPropertyOp19
 70
     1
102
RTVSPropertyOp20
 70
     1
102
RTVSPropertyOp21
 70
     1
102
RTVSPropertyOp22
 70
     1
102
RTVSPropertyOp23
 70
     1
102
RTVSPropertyOp24
 70
     1
102
RTVSPropertyOp25
 70
     1
102
RTVSPropertyOp26
 70
     1
102
RTVSPropertyOp27
 70
     1
  0
XRECORD
  5
5C
102
{ACAD_REACTORS
330
5B
102
}
330
5B
100
AcDbXrecord
280
     1
102
RTVSPropertyOp0
 70
     1
102
RTVSPropertyOp1
 70
     1
102
RTVSPropertyOp2
 70
     1
102
RTVSPropertyOp3
 70
     1
102
RTVSPropertyOp4
 70
     1
102
RTVSPropertyOp5
 70
     1
102
RTVSPropertyOp6
 70
     1
102
RTVSPropertyOp7
 70
     1
102
RTVSPropertyOp8
 70
     1
102
RTVSPropertyOp9
 70
     1
102
RTVSPropertyOp10
 70
     1
102
RTVSPropertyOp11
 70
     1
102
RTVSPropertyOp12
 70
     1
102
RTVSPropertyOp13
 70
     1
102
RTVSPropertyOp14
 70
     1
102
RTVSPropertyOp15
 70
     1
102
RTVSPropertyOp16
 70
     1
102
RTVSPropertyOp17
 70
     1
102
RTVSPropertyOp18
 70
     1
102
RTVSPropertyOp19
 70
     1
102
RTVSPropertyOp20
 70
     1
102
RTVSPropertyOp21
 70
     1
102
RTVSPropertyOp22
 70
     1
102
RTVSPropertyOp23
 70
     1
102
RTVSPropertyOp24
 70
     1
102
RTVSPropertyOp25
 70
     1
102
RTVSPropertyOp26
 70
     1
102
RTVSPropertyOp27
 70
     1
  0
XRECORD
  5
70
102
{ACAD_REACTORS
330
6F
102
}
330
6F
100
AcDbXrecord
280
     1
102
RTVSPropertyOp0
 70
     1
102
RTVSPropertyOp1
 70
     1
102
RTVSPropertyOp2
 70
     1
102
RTVSPropertyOp3
 70
     1
102
RTVSPropertyOp4
 70
     1
102
RTVSPropertyOp5
 70
     1
102
RTVSPropertyOp6
 70
     1
102
RTVSPropertyOp7
 70
     1
102
RTVSPropertyOp8
 70
     1
102
RTVSPropertyOp9
 70
     1
102
RTVSPropertyOp10
 70
     1
102
RTVSPropertyOp11
 70
     1
102
RTVSPropertyOp12
 70
     1
102
RTVSPropertyOp13
 70
     1
102
RTVSPropertyOp14
 70
     1
102
RTVSPropertyOp15
 70
     1
102
RTVSPropertyOp16
 70
     1
102
RTVSPropertyOp17
 70
     1
102
RTVSPropertyOp18
 70
     1
102
RTVSPropertyOp19
 70
     1
102
RTVSPropertyOp20
 70
     1
102
RTVSPropertyOp21
 70
     1
102
RTVSPropertyOp22
 70
     1
102
RTVSPropertyOp23
 70
     1
102
RTVSPropertyOp24
 70
     1
102
RTVSPropertyOp25
 70
     1
102
RTVSPropertyOp26
 70
     1
102
RTVSPropertyOp27
 70
     1
  0
XRECORD
  5
66
102
{ACAD_REACTORS
330
65
102
}
330
65
100
AcDbXrecord
280
     1
102
RTVSPropertyOp0
 70
     1
102
RTVSPropertyOp1
 70
     1
102
RTVSPropertyOp2
 70
     1
102
RTVSPropertyOp3
 70
     1
102
RTVSPropertyOp4
 70
     1
102
RTVSPropertyOp5
 70
     1
102
RTVSPropertyOp6
 70
     1
102
RTVSPropertyOp7
 70
     1
102
RTVSPropertyOp8
 70
     1
102
RTVSPropertyOp9
 70
     1
102
RTVSPropertyOp10
 70
     1
102
RTVSPropertyOp11
 70
     1
102
RTVSPropertyOp12
 70
     1
102
RTVSPropertyOp13
 70
     1
102
RTVSPropertyOp14
 70
     1
102
RTVSPropertyOp15
 70
     1
102
RTVSPropertyOp16
 70
     1
102
RTVSPropertyOp17
 70
     1
102
RTVSPropertyOp18
 70
     1
102
RTVSPropertyOp19
 70
     1
102
RTVSPropertyOp20
 70
     1
102
RTVSPropertyOp21
 70
     1
102
RTVSPropertyOp22
 70
     1
102
RTVSPropertyOp23
 70
     1
102
RTVSPropertyOp24
 70
     1
102
RTVSPropertyOp25
 70
     1
102
RTVSPropertyOp26
 70
     1
102
RTVSPropertyOp27
 70
     1
  0
XRECORD
  5
6E
102
{ACAD_REACTORS
330
6D
102
}
330
6D
100
AcDbXrecord
280
     1
102
RTVSPropertyOp0
 70
     1
102
RTVSPropertyOp1
 70
     1
102
RTVSPropertyOp2
 70
     1
102
RTVSPropertyOp3
 70
     1
102
RTVSPropertyOp4
 70
     1
102
RTVSPropertyOp5
 70
     1
102
RTVSPropertyOp6
 70
     1
102
RTVSPropertyOp7
 70
     1
102
RTVSPropertyOp8
 70
     1
102
RTVSPropertyOp9
 70
     1
102
RTVSPropertyOp10
 70
     1
102
RTVSPropertyOp11
 70
     1
102
RTVSPropertyOp12
 70
     1
102
RTVSPropertyOp13
 70
     1
102
RTVSPropertyOp14
 70
     1
102
RTVSPropertyOp15
 70
     1
102
RTVSPropertyOp16
 70
     1
102
RTVSPropertyOp17
 70
     1
102
RTVSPropertyOp18
 70
     1
102
RTVSPropertyOp19
 70
     1
102
RTVSPropertyOp20
 70
     1
102
RTVSPropertyOp21
 70
     1
102
RTVSPropertyOp22
 70
     1
102
RTVSPropertyOp23
 70
     1
102
RTVSPropertyOp24
 70
     1
102
RTVSPropertyOp25
 70
     1
102
RTVSPropertyOp26
 70
     1
102
RTVSPropertyOp27
 70
     1
  0
ENDSEC
  0
EOF
