  0
SECTION
  2
HEADER
  9
$ACADVER
  1
AC1021
  9
$ACADMAINTVER
 70
    25
  9
$DWGCODEPAGE
  3
ANSI_1252
  9
$INSBASE
 10
0.0
 20
0.0
 30
0.0
  9
$EXTMIN
 10
-103.0348
 20
-129.4427
 30
0.0
  9
$EXTMAX
 10
104.1415
 20
130.7189
 30
0.0
  9
$LIMMIN
 10
0.0
 20
0.0
  9
$LIMMAX
 10
12.0
 20
9.0
  9
$ORTHOMODE
 70
     0
  9
$REGENMODE
 70
     1
  9
$FILLMODE
 70
     1
  9
$QTEXTMODE
 70
     0
  9
$MIRRTEXT
 70
     1
  9
$LTSCALE
 40
1.0
  9
$ATTMODE
 70
     1
  9
$TEXTSIZE
 40
0.2
  9
$TRACEWID
 40
0.05
  9
$TEXTSTYLE
  7
Standard
  9
$CLAYER
  8
0
  9
$CELTYPE
  6
ByLayer
  9
$CECOLOR
 62
   256
  9
$CELTSCALE
 40
1.0
  9
$DISPSILH
 70
     0
  9
$DIMSCALE
 40
1.0
  9
$DIMASZ
 40
0.18
  9
$DIMEXO
 40
0.0625
  9
$DIMDLI
 40
0.38
  9
$DIMRND
 40
0.0
  9
$DIMDLE
 40
0.0
  9
$DIMEXE
 40
0.18
  9
$DIMTP
 40
0.0
  9
$DIMTM
 40
0.0
  9
$DIMTXT
 40
0.18
  9
$DIMCEN
 40
0.09
  9
$DIMTSZ
 40
0.0
  9
$DIMTOL
 70
     0
  9
$DIMLIM
 70
     0
  9
$DIMTIH
 70
     1
  9
$DIMTOH
 70
     1
  9
$DIMSE1
 70
     0
  9
$DIMSE2
 70
     0
  9
$DIMTAD
 70
     0
  9
$DIMZIN
 70
     0
  9
$DIMBLK
  1

  9
$DIMASO
 70
     1
  9
$DIMSHO
 70
     1
  9
$DIMPOST
  1

  9
$DIMAPOST
  1

  9
$DIMALT
 70
     0
  9
$DIMALTD
 70
     2
  9
$DIMALTF
 40
25.4
  9
$DIMLFAC
 40
1.0
  9
$DIMTOFL
 70
     0
  9
$DIMTVP
 40
0.0
  9
$DIMTIX
 70
     0
  9
$DIMSOXD
 70
     0
  9
$DIMSAH
 70
     0
  9
$DIMBLK1
  1

  9
$DIMBLK2
  1

  9
$DIMSTYLE
  2
Standard
  9
$DIMCLRD
 70
     0
  9
$DIMCLRE
 70
     0
  9
$DIMCLRT
 70
     0
  9
$DIMTFAC
 40
1.0
  9
$DIMGAP
 40
0.09
  9
$DIMJUST
 70
     0
  9
$DIMSD1
 70
     0
  9
$DIMSD2
 70
     0
  9
$DIMTOLJ
 70
     1
  9
$DIMTZIN
 70
     0
  9
$DIMALTZ
 70
     0
  9
$DIMALTTZ
 70
     0
  9
$DIMUPT
 70
     0
  9
$DIMDEC
 70
     4
  9
$DIMTDEC
 70
     4
  9
$DIMALTU
 70
     2
  9
$DIMALTTD
 70
     2
  9
$DIMTXSTY
  7
Standard
  9
$DIMAUNIT
 70
     0
  9
$DIMADEC
 70
     0
  9
$DIMALTRND
 40
0.0
  9
$DIMAZIN
 70
     0
  9
$DIMDSEP
 70
    46
  9
$DIMATFIT
 70
     3
  9
$DIMFRAC
 70
     0
  9
$DIMLDRBLK
  1

  9
$DIMLUNIT
 70
     2
  9
$DIMLWD
 70
    -2
  9
$DIMLWE
 70
    -2
  9
$DIMTMOVE
 70
     0
  9
$DIMFXL
 40
1.0
  9
$DIMFXLON
 70
     0
  9
$DIMJOGANG
 40
0.7853981633974483
  9
$DIMTFILL
 70
     0
  9
$DIMTFILLCLR
 70
     0
  9
$DIMARCSYM
 70
     0
  9
$DIMLTYPE
  6

  9
$DIMLTEX1
  6

  9
$DIMLTEX2
  6

  9
$LUNITS
 70
     2
  9
$LUPREC
 70
     4
  9
$SKETCHINC
 40
0.1
  9
$FILLETRAD
 40
0.5
  9
$AUNITS
 70
     0
  9
$AUPREC
 70
     0
  9
$MENU
  1
.
  9
$ELEVATION
 40
0.0
  9
$PELEVATION
 40
0.0
  9
$THICKNESS
 40
0.0
  9
$LIMCHECK
 70
     0
  9
$CHAMFERA
 40
0.5
  9
$CHAMFERB
 40
0.5
  9
$CHAMFERC
 40
1.0
  9
$CHAMFERD
 40
0.0
  9
$SKPOLY
 70
     0
  9
$TDCREATE
 40
2457070.027884352
  9
$TDUCREATE
 40
2457069.986217685
  9
$TDUPDATE
 40
2457070.027884363
  9
$TDUUPDATE
 40
2457069.986217697
  9
$TDINDWG
 40
0.0000000116
  9
$TDUSRTIMER
 40
0.0000000116
  9
$USRTIMER
 70
     1
  9
$ANGBASE
 50
0.0
  9
$ANGDIR
 70
     0
  9
$PDMODE
 70
     0
  9
$PDSIZE
 40
0.0
  9
$PLINEWID
 40
0.0
  9
$SPLFRAME
 70
     0
  9
$SPLINETYPE
 70
     6
  9
$SPLINESEGS
 70
     8
  9
$HANDSEED
  5
8B
  9
$SURFTAB1
 70
     6
  9
$SURFTAB2
 70
     6
  9
$SURFTYPE
 70
     6
  9
$SURFU
 70
     6
  9
$SURFV
 70
     6
  9
$UCSBASE
  2

  9
$UCSNAME
  2

  9
$UCSORG
 10
0.0
 20
0.0
 30
0.0
  9
$UCSXDIR
 10
1.0
 20
0.0
 30
0.0
  9
$UCSYDIR
 10
0.0
 20
1.0
 30
0.0
  9
$UCSORTHOREF
  2

  9
$UCSORTHOVIEW
 70
     0
  9
$UCSORGTOP
 10
0.0
 20
0.0
 30
0.0
  9
$UCSORGBOTTOM
 10
0.0
 20
0.0
 30
0.0
  9
$UCSORGLEFT
 10
0.0
 20
0.0
 30
0.0
  9
$UCSORGRIGHT
 10
0.0
 20
0.0
 30
0.0
  9
$UCSORGFRONT
 10
0.0
 20
0.0
 30
0.0
  9
$UCSORGBACK
 10
0.0
 20
0.0
 30
0.0
  9
$PUCSBASE
  2

  9
$PUCSNAME
  2

  9
$PUCSORG
 10
0.0
 20
0.0
 30
0.0
  9
$PUCSXDIR
 10
1.0
 20
0.0
 30
0.0
  9
$PUCSYDIR
 10
0.0
 20
1.0
 30
0.0
  9
$PUCSORTHOREF
  2

  9
$PUCSORTHOVIEW
 70
     0
  9
$PUCSORGTOP
 10
0.0
 20
0.0
 30
0.0
  9
$PUCSORGBOTTOM
 10
0.0
 20
0.0
 30
0.0
  9
$PUCSORGLEFT
 10
0.0
 20
0.0
 30
0.0
  9
$PUCSORGRIGHT
 10
0.0
 20
0.0
 30
0.0
  9
$PUCSORGFRONT
 10
0.0
 20
0.0
 30
0.0
  9
$PUCSORGBACK
 10
0.0
 20
0.0
 30
0.0
  9
$USERI1
 70
     0
  9
$USERI2
 70
     0
  9
$USERI3
 70
     0
  9
$USERI4
 70
     0
  9
$USERI5
 70
     0
  9
$USERR1
 40
0.0
  9
$USERR2
 40
0.0
  9
$USERR3
 40
0.0
  9
$USERR4
 40
0.0
  9
$USERR5
 40
0.0
  9
$WORLDVIEW
 70
     1
  9
$SHADEDGE
 70
     3
  9
$SHADEDIF
 70
    70
  9
$TILEMODE
 70
     1
  9
$MAXACTVP
 70
    64
  9
$PINSBASE
 10
0.0
 20
0.0
 30
0.0
  9
$PLIMCHECK
 70
     0
  9
$PEXTMIN
 10
1.000000000000000E+20
 20
1.000000000000000E+20
 30
1.000000000000000E+20
  9
$PEXTMAX
 10
-1.000000000000000E+20
 20
-1.000000000000000E+20
 30
-1.000000000000000E+20
  9
$PLIMMIN
 10
0.0
 20
0.0
  9
$PLIMMAX
 10
12.0
 20
9.0
  9
$UNITMODE
 70
     0
  9
$VISRETAIN
 70
     1
  9
$PLINEGEN
 70
     0
  9
$PSLTSCALE
 70
     1
  9
$TREEDEPTH
 70
  3020
  9
$CMLSTYLE
  2
Standard
  9
$CMLJUST
 70
     0
  9
$CMLSCALE
 40
1.0
  9
$PROXYGRAPHICS
 70
     1
  9
$MEASUREMENT
 70
     0
  9
$CELWEIGHT
370
    -1
  9
$ENDCAPS
280
     0
  9
$JOINSTYLE
280
     0
  9
$LWDISPLAY
290
     0
  9
$INSUNITS
 70
     4
  9
$HYPERLINKBASE
  1

  9
$STYLESHEET
  1

  9
$XEDIT
290
     1
  9
$CEPSNTYPE
380
     0
  9
$PSTYLEMODE
290
     1
  9
$FINGERPRINTGUID
  2
{544E3D9B-AFAB-4637-B591-1EB38A5E830C}
  9
$VERSIONGUID
  2
{FAEB1C32-E019-11D5-929B-00C0DF256EC4}
  9
$EXTNAMES
290
     1
  9
$PSVPSCALE
 40
0.0
  9
$OLESTARTUP
290
     0
  9
$SORTENTS
280
   127
  9
$INDEXCTL
280
     0
  9
$HIDETEXT
280
     1
  9
$XCLIPFRAME
290
     0
  9
$HALOGAP
280
     0
  9
$OBSCOLOR
 70
   257
  9
$OBSLTYPE
280
     0
  9
$INTERSECTIONDISPLAY
280
     0
  9
$INTERSECTIONCOLOR
 70
   257
  9
$DIMASSOC
280
     2
  9
$PROJECTNAME
  1

  9
$CAMERADISPLAY
290
     0
  9
$LENSLENGTH
 40
50.0
  9
$CAMERAHEIGHT
 40
0.0
  9
$STEPSPERSEC
 40
2.0
  9
$STEPSIZE
 40
6.0
  9
$3DDWFPREC
 40
2.0
  9
$PSOLWIDTH
 40
0.25
  9
$PSOLHEIGHT
 40
4.0
  9
$LOFTANG1
 40
1.570796326794897
  9
$LOFTANG2
 40
1.570796326794897
  9
$LOFTMAG1
 40
0.0
  9
$LOFTMAG2
 40
0.0
  9
$LOFTPARAM
 70
     7
  9
$LOFTNORMALS
280
     1
  9
$LATITUDE
 40
37.795
  9
$LONGITUDE
 40
-122.394
  9
$NORTHDIRECTION
 40
0.0
  9
$TIMEZONE
 70
 -8000
  9
$LIGHTGLYPHDISPLAY
280
     1
  9
$TILEMODELIGHTSYNCH
280
     1
  9
$SOLIDHIST
280
     1
  9
$SHOWHIST
280
     1
  9
$DWFFRAME
280
     2
  9
$DGNFRAME
280
     2
  9
$REALWORLDSCALE
290
     1
  9
$INTERFERECOLOR
 62
   256
  9
$CSHADOW
280
     0
  9
$SHADOWPLANELOCATION
 40
0.0
  0
ENDSEC
  0
SECTION
  2
CLASSES
  0
CLASS
  1
ACDBDICTIONARYWDFLT
  2
AcDbDictionaryWithDefault
  3
ObjectDBX Classes
 90
        0
 91
        4
280
     0
281
     0
  0
CLASS
  1
VISUALSTYLE
  2
AcDbVisualStyle
  3
ObjectDBX Classes
 90
     4095
 91
        4
280
     0
281
     0
  0
CLASS
  1
MATERIAL
  2
AcDbMaterial
  3
ObjectDBX Classes
 90
     1153
 91
        4
280
     0
281
     0
  0
ENDSEC
  0
SECTION
  2
TABLES
  0
TABLE
  2
VPORT
  5
8
330
0
100
AcDbSymbolTable
 70
     1
  0
VPORT
  5
29
330
8
100
AcDbSymbolTableRecord
100
AcDbViewportTableRecord
  2
*Active
 70
     0
 10
0.0
 20
0.0
 11
1.0
 21
1.0
 12
10.42990654205607
 22
4.5
 13
0.0
 23
0.0
 14
0.5
 24
0.5
 15
0.5
 25
0.5
 16
0.0
 26
0.0
 36
1.0
 17
0.0
 27
0.0
 37
0.0
 40
9.0
 41
1.972972972850329
 42
50.0
 43
0.0
 44
0.0
 50
0.0
 51
0.0
 71
     0
 72
   100
 73
     1
 74
     3
 75
     0
 76
     0
 77
     0
 78
     0
281
     0
 65
     1
110
0.0
120
0.0
130
0.0
111
1.0
121
0.0
131
0.0
112
0.0
122
1.0
132
0.0
 79
     0
146
0.0
 60
     3
 61
     5
292
     1
282
     1
141
0.0
142
0.0
 63
   250
  0
ENDTAB
  0
TABLE
  2
LTYPE
  5
5
330
0
100
AcDbSymbolTable
 70
     1
  0
LTYPE
  5
14
330
5
100
AcDbSymbolTableRecord
100
AcDbLinetypeTableRecord
  2
ByBlock
 70
     0
  3

 72
    65
 73
     0
 40
0.0
  0
LTYPE
  5
15
330
5
100
AcDbSymbolTableRecord
100
AcDbLinetypeTableRecord
  2
ByLayer
 70
     0
  3

 72
    65
 73
     0
 40
0.0
  0
LTYPE
  5
16
330
5
100
AcDbSymbolTableRecord
100
AcDbLinetypeTableRecord
  2
Continuous
 70
     0
  3
Solid line
 72
    65
 73
     0
 40
0.0
  0
ENDTAB
  0
TABLE
  2
LAYER
  5
2
330
0
100
AcDbSymbolTable
 70
     2
  0
LAYER
  5
10
330
2
100
AcDbSymbolTableRecord
100
AcDbLayerTableRecord
  2
0
 70
     0
 62
     7
  6
Continuous
370
    -3
390
F
347
3E
  0
LAYER
  5
40
330
2
100
AcDbSymbolTableRecord
100
AcDbLayerTableRecord
  2
Capa 1
 70
     0
 62
     7
  6
Continuous
370
    -3
390
F
347
3E
  0
ENDTAB
  0
TABLE
  2
STYLE
  5
3
330
0
100
AcDbSymbolTable
 70
     1
  0
STYLE
  5
11
330
3
100
AcDbSymbolTableRecord
100
AcDbTextStyleTableRecord
  2
Standard
 70
     0
 40
0.0
 41
1.0
 50
0.0
 71
     0
 42
0.2
  3
txt
  4

  0
ENDTAB
  0
TABLE
  2
VIEW
  5
6
330
0
100
AcDbSymbolTable
 70
     0
  0
ENDTAB
  0
TABLE
  2
UCS
  5
7
330
0
100
AcDbSymbolTable
 70
     0
  0
ENDTAB
  0
TABLE
  2
APPID
  5
9
330
0
100
AcDbSymbolTable
 70
     2
  0
APPID
  5
12
330
9
100
AcDbSymbolTableRecord
100
AcDbRegAppTableRecord
  2
ACAD
 70
     0
  0
APPID
  5
3F
330
9
100
AcDbSymbolTableRecord
100
AcDbRegAppTableRecord
  2
ODA
 70
     0
  0
ENDTAB
  0
TABLE
  2
DIMSTYLE
  5
A
330
0
100
AcDbSymbolTable
 70
     1
100
AcDbDimStyleTable
  0
DIMSTYLE
105
27
330
A
100
AcDbSymbolTableRecord
100
AcDbDimStyleTableRecord
  2
Standard
 70
     0
340
11
  0
ENDTAB
  0
TABLE
  2
BLOCK_RECORD
  5
1
330
0
100
AcDbSymbolTable
 70
     1
  0
BLOCK_RECORD
  5
1F
330
1
100
AcDbSymbolTableRecord
100
AcDbBlockTableRecord
  2
*Model_Space
340
22
 70
     0
280
     1
281
     0
  0
BLOCK_RECORD
  5
1B
330
1
100
AcDbSymbolTableRecord
100
AcDbBlockTableRecord
  2
*Paper_Space
340
1E
 70
     0
280
     1
281
     0
  0
BLOCK_RECORD
  5
23
330
1
100
AcDbSymbolTableRecord
100
AcDbBlockTableRecord
  2
*Paper_Space0
340
26
 70
     0
280
     1
281
     0
  0
ENDTAB
  0
ENDSEC
  0
SECTION
  2
BLOCKS
  0
BLOCK
  5
20
330
1F
100
AcDbEntity
  8
0
100
AcDbBlockBegin
  2
*Model_Space
 70
     0
 10
0.0
 20
0.0
 30
0.0
  3
*Model_Space
  1

  0
ENDBLK
  5
21
330
1F
100
AcDbEntity
  8
0
100
AcDbBlockEnd
  0
BLOCK
  5
1C
330
1B
100
AcDbEntity
 67
     1
  8
0
100
AcDbBlockBegin
  2
*Paper_Space
 70
     0
 10
0.0
 20
0.0
 30
0.0
  3
*Paper_Space
  1

  0
ENDBLK
  5
1D
330
1B
100
AcDbEntity
 67
     1
  8
0
100
AcDbBlockEnd
  0
BLOCK
  5
24
330
23
100
AcDbEntity
  8
0
100
AcDbBlockBegin
  2
*Paper_Space0
 70
     0
 10
0.0
 20
0.0
 30
0.0
  3
*Paper_Space0
  1

  0
ENDBLK
  5
25
330
23
100
AcDbEntity
  8
0
100
AcDbBlockEnd
  0
ENDSEC
  0
SECTION
  2
ENTITIES
  0
SPLINE
  5
41
330
1F
100
AcDbEntity
  8
Capa 1
 62
   250
370
     9
100
AcDbSpline
210
0.0
220
0.0
230
1.0
 70
    11
 71
     3
 72
   164
 73
   160
 74
     0
 42
0.0000000001
 43
0.0000000001
 40
0.0
 40
0.0
 40
0.0
 40
0.0
 40
0.024390243902439
 40
0.024390243902439
 40
0.024390243902439
 40
0.024390243902439
 40
0.0487804878048781
 40
0.0487804878048781
 40
0.0487804878048781
 40
0.0487804878048781
 40
0.0731707317073171
 40
0.0731707317073171
 40
0.0731707317073171
 40
0.0731707317073171
 40
0.0975609756097561
 40
0.0975609756097561
 40
0.0975609756097561
 40
0.0975609756097561
 40
0.1219512195121951
 40
0.1219512195121951
 40
0.1219512195121951
 40
0.1219512195121951
 40
0.1463414634146341
 40
0.1463414634146341
 40
0.1463414634146341
 40
0.1463414634146341
 40
0.1707317073170732
 40
0.1707317073170732
 40
0.1707317073170732
 40
0.1707317073170732
 40
0.1951219512195122
 40
0.1951219512195122
 40
0.1951219512195122
 40
0.1951219512195122
 40
0.2195121951219512
 40
0.2195121951219512
 40
0.2195121951219512
 40
0.2195121951219512
 40
0.2439024390243902
 40
0.2439024390243902
 40
0.2439024390243902
 40
0.2439024390243902
 40
0.2682926829268293
 40
0.2682926829268293
 40
0.2682926829268293
 40
0.2682926829268293
 40
0.2926829268292683
 40
0.2926829268292683
 40
0.2926829268292683
 40
0.2926829268292683
 40
0.3170731707317073
 40
0.3170731707317073
 40
0.3170731707317073
 40
0.3170731707317073
 40
0.3414634146341464
 40
0.3414634146341464
 40
0.3414634146341464
 40
0.3414634146341464
 40
0.3658536585365854
 40
0.3658536585365854
 40
0.3658536585365854
 40
0.3658536585365854
 40
0.3902439024390244
 40
0.3902439024390244
 40
0.3902439024390244
 40
0.3902439024390244
 40
0.4146341463414634
 40
0.4146341463414634
 40
0.4146341463414634
 40
0.4146341463414634
 40
0.4390243902439024
 40
0.4390243902439024
 40
0.4390243902439024
 40
0.4390243902439024
 40
0.4634146341463415
 40
0.4634146341463415
 40
0.4634146341463415
 40
0.4634146341463415
 40
0.4878048780487805
 40
0.4878048780487805
 40
0.4878048780487805
 40
0.4878048780487805
 40
0.5121951219512195
 40
0.5121951219512195
 40
0.5121951219512195
 40
0.5121951219512195
 40
0.5365853658536586
 40
0.5365853658536586
 40
0.5365853658536586
 40
0.5365853658536586
 40
0.5609756097560976
 40
0.5609756097560976
 40
0.5609756097560976
 40
0.5609756097560976
 40
0.5853658536585366
 40
0.5853658536585366
 40
0.5853658536585366
 40
0.5853658536585366
 40
0.6097560975609756
 40
0.6097560975609756
 40
0.6097560975609756
 40
0.6097560975609756
 40
0.6341463414634146
 40
0.6341463414634146
 40
0.6341463414634146
 40
0.6341463414634146
 40
0.6585365853658537
 40
0.6585365853658537
 40
0.6585365853658537
 40
0.6585365853658537
 40
0.6829268292682927
 40
0.6829268292682927
 40
0.6829268292682927
 40
0.6829268292682927
 40
0.7073170731707317
 40
0.7073170731707317
 40
0.7073170731707317
 40
0.7073170731707317
 40
0.7317073170731707
 40
0.7317073170731707
 40
0.7317073170731707
 40
0.7317073170731707
 40
0.7560975609756098
 40
0.7560975609756098
 40
0.7560975609756098
 40
0.7560975609756098
 40
0.7804878048780488
 40
0.7804878048780488
 40
0.7804878048780488
 40
0.7804878048780488
 40
0.8048780487804879
 40
0.8048780487804879
 40
0.8048780487804879
 40
0.8048780487804879
 40
0.8292682926829268
 40
0.8292682926829268
 40
0.8292682926829268
 40
0.8292682926829268
 40
0.8536585365853658
 40
0.8536585365853658
 40
0.8536585365853658
 40
0.8536585365853658
 40
0.8780487804878049
 40
0.8780487804878049
 40
0.8780487804878049
 40
0.8780487804878049
 40
0.9024390243902439
 40
0.9024390243902439
 40
0.9024390243902439
 40
0.9024390243902439
 40
0.926829268292683
 40
0.926829268292683
 40
0.926829268292683
 40
0.926829268292683
 40
0.9512195121951219
 40
0.9512195121951219
 40
0.9512195121951219
 40
0.9512195121951219
 40
1.0
 40
1.0
 40
1.0
 40
1.0
 10
-77.9936
 20
130.6777
 30
0.0
 10
-77.9936
 20
130.6777
 30
0.0
 10
-70.5408
 20
127.5907
 30
0.0
 10
-70.5408
 20
127.5907
 30
0.0
 10
-70.5408
 20
127.5907
 30
0.0
 10
-70.5408
 20
127.5907
 30
0.0
 10
-72.3449
 20
123.2352
 30
0.0
 10
-72.3449
 20
123.2352
 30
0.0
 10
-72.3449
 20
123.2352
 30
0.0
 10
-72.3449
 20
123.2352
 30
0.0
 10
-69.5732
 20
122.0871
 30
0.0
 10
-69.5732
 20
122.0871
 30
0.0
 10
-69.5732
 20
122.0871
 30
0.0
 10
-69.5732
 20
122.0871
 30
0.0
 10
-67.7691
 20
126.4426
 30
0.0
 10
-67.7691
 20
126.4426
 30
0.0
 10
-67.7691
 20
126.4426
 30
0.0
 10
-67.7691
 20
126.4426
 30
0.0
 10
-60.316
 20
123.3554
 30
0.0
 10
-60.316
 20
123.3554
 30
0.0
 10
-60.316
 20
123.3554
 30
0.0
 10
-60.316
 20
123.3554
 30
0.0
 10
-57.2288
 20
115.9024
 30
0.0
 10
-57.2288
 20
115.9024
 30
0.0
 10
-57.2288
 20
115.9024
 30
0.0
 10
-57.2288
 20
115.9024
 30
0.0
 10
-61.5845
 20
114.0982
 30
0.0
 10
-61.5845
 20
114.0982
 30
0.0
 10
-61.5845
 20
114.0982
 30
0.0
 10
-61.5845
 20
114.0982
 30
0.0
 10
-60.4364
 20
111.3266
 30
0.0
 10
-60.4364
 20
111.3266
 30
0.0
 10
-60.4364
 20
111.3266
 30
0.0
 10
-60.4364
 20
111.3266
 30
0.0
 10
-56.0808
 20
113.1307
 30
0.0
 10
-56.0808
 20
113.1307
 30
0.0
 10
-56.0808
 20
113.1307
 30
0.0
 10
-56.0808
 20
113.1307
 30
0.0
 10
-52.9936
 20
105.6777
 30
0.0
 10
-52.9936
 20
105.6777
 30
0.0
 10
-52.9936
 20
105.6777
 30
0.0
 10
-52.9936
 20
105.6777
 30
0.0
 10
-56.0808
 20
98.2246
 30
0.0
 10
-56.0808
 20
98.2246
 30
0.0
 10
-56.0808
 20
98.2246
 30
0.0
 10
-56.0808
 20
98.2246
 30
0.0
 10
-60.4365
 20
100.0288
 30
0.0
 10
-60.4365
 20
100.0288
 30
0.0
 10
-60.4365
 20
100.0288
 30
0.0
 10
-60.4365
 20
100.0288
 30
0.0
 10
-61.5846
 20
97.2572
 30
0.0
 10
-61.5846
 20
97.2572
 30
0.0
 10
-61.5846
 20
97.2572
 30
0.0
 10
-61.5846
 20
97.2572
 30
0.0
 10
-57.2289
 20
95.453
 30
0.0
 10
-57.2289
 20
95.453
 30
0.0
 10
-57.2289
 20
95.453
 30
0.0
 10
-57.2289
 20
95.453
 30
0.0
 10
-60.316
 20
88.0
 30
0.0
 10
-60.316
 20
88.0
 30
0.0
 10
-60.316
 20
88.0
 30
0.0
 10
-60.316
 20
88.0
 30
0.0
 10
-67.7692
 20
84.9128
 30
0.0
 10
-67.7692
 20
84.9128
 30
0.0
 10
-67.7692
 20
84.9128
 30
0.0
 10
-67.7692
 20
84.9128
 30
0.0
 10
-69.5733
 20
89.2683
 30
0.0
 10
-69.5733
 20
89.2683
 30
0.0
 10
-69.5733
 20
89.2683
 30
0.0
 10
-69.5733
 20
89.2683
 30
0.0
 10
-72.345
 20
88.1203
 30
0.0
 10
-72.345
 20
88.1203
 30
0.0
 10
-72.345
 20
88.1203
 30
0.0
 10
-72.345
 20
88.1203
 30
0.0
 10
-70.5409
 20
83.7647
 30
0.0
 10
-70.5409
 20
83.7647
 30
0.0
 10
-70.5409
 20
83.7647
 30
0.0
 10
-70.5409
 20
83.7647
 30
0.0
 10
-77.9936
 20
80.6777
 30
0.0
 10
-77.9936
 20
80.6777
 30
0.0
 10
-77.9936
 20
80.6777
 30
0.0
 10
-77.9936
 20
80.6777
 30
0.0
 10
-85.4467
 20
83.7648
 30
0.0
 10
-85.4467
 20
83.7648
 30
0.0
 10
-85.4467
 20
83.7648
 30
0.0
 10
-85.4467
 20
83.7648
 30
0.0
 10
-83.6426
 20
88.1203
 30
0.0
 10
-83.6426
 20
88.1203
 30
0.0
 10
-83.6426
 20
88.1203
 30
0.0
 10
-83.6426
 20
88.1203
 30
0.0
 10
-86.4143
 20
89.2683
 30
0.0
 10
-86.4143
 20
89.2683
 30
0.0
 10
-86.4143
 20
89.2683
 30
0.0
 10
-86.4143
 20
89.2683
 30
0.0
 10
-88.2184
 20
84.9129
 30
0.0
 10
-88.2184
 20
84.9129
 30
0.0
 10
-88.2184
 20
84.9129
 30
0.0
 10
-88.2184
 20
84.9129
 30
0.0
 10
-95.6712
 20
88.0
 30
0.0
 10
-95.6712
 20
88.0
 30
0.0
 10
-95.6712
 20
88.0
 30
0.0
 10
-95.6712
 20
88.0
 30
0.0
 10
-98.7584
 20
95.4531
 30
0.0
 10
-98.7584
 20
95.4531
 30
0.0
 10
-98.7584
 20
95.4531
 30
0.0
 10
-98.7584
 20
95.4531
 30
0.0
 10
-94.403
 20
97.2572
 30
0.0
 10
-94.403
 20
97.2572
 30
0.0
 10
-94.403
 20
97.2572
 30
0.0
 10
-94.403
 20
97.2572
 30
0.0
 10
-95.5511
 20
100.0288
 30
0.0
 10
-95.5511
 20
100.0288
 30
0.0
 10
-95.5511
 20
100.0288
 30
0.0
 10
-95.5511
 20
100.0288
 30
0.0
 10
-99.9065
 20
98.2248
 30
0.0
 10
-99.9065
 20
98.2248
 30
0.0
 10
-99.9065
 20
98.2248
 30
0.0
 10
-99.9065
 20
98.2248
 30
0.0
 10
-102.9936
 20
105.6777
 30
0.0
 10
-102.9936
 20
105.6777
 30
0.0
 10
-102.9936
 20
105.6777
 30
0.0
 10
-102.9936
 20
105.6777
 30
0.0
 10
-99.9065
 20
113.1306
 30
0.0
 10
-99.9065
 20
113.1306
 30
0.0
 10
-99.9065
 20
113.1306
 30
0.0
 10
-99.9065
 20
113.1306
 30
0.0
 10
-95.5512
 20
111.3266
 30
0.0
 10
-95.5512
 20
111.3266
 30
0.0
 10
-95.5512
 20
111.3266
 30
0.0
 10
-95.5512
 20
111.3266
 30
0.0
 10
-94.4031
 20
114.0982
 30
0.0
 10
-94.4031
 20
114.0982
 30
0.0
 10
-94.4031
 20
114.0982
 30
0.0
 10
-94.4031
 20
114.0982
 30
0.0
 10
-98.7584
 20
115.9022
 30
0.0
 10
-98.7584
 20
115.9022
 30
0.0
 10
-98.7584
 20
115.9022
 30
0.0
 10
-98.7584
 20
115.9022
 30
0.0
 10
-95.6712
 20
123.3554
 30
0.0
 10
-95.6712
 20
123.3554
 30
0.0
 10
-95.6712
 20
123.3554
 30
0.0
 10
-95.6712
 20
123.3554
 30
0.0
 10
-88.2184
 20
126.4425
 30
0.0
 10
-88.2184
 20
126.4425
 30
0.0
 10
-88.2184
 20
126.4425
 30
0.0
 10
-88.2184
 20
126.4425
 30
0.0
 10
-86.4144
 20
122.0871
 30
0.0
 10
-86.4144
 20
122.0871
 30
0.0
 10
-86.4144
 20
122.0871
 30
0.0
 10
-86.4144
 20
122.0871
 30
0.0
 10
-83.6427
 20
123.2352
 30
0.0
 10
-83.6427
 20
123.2352
 30
0.0
 10
-83.6427
 20
123.2352
 30
0.0
 10
-83.6427
 20
123.2352
 30
0.0
 10
-85.4468
 20
127.5905
 30
0.0
 10
-85.4468
 20
127.5905
 30
0.0
 10
-85.4468
 20
127.5905
 30
0.0
 10
-85.4468
 20
127.5905
 30
0.0
 10
-77.9936
 20
130.6777
 30
0.0
 10
-77.9936
 20
130.6777
 30
0.0
  0
SPLINE
  5
42
330
1F
100
AcDbEntity
  8
Capa 1
 62
   250
370
     9
100
AcDbSpline
210
0.0
220
0.0
230
1.0
 70
    11
 71
     3
 72
   164
 73
   160
 74
     0
 42
0.0000000001
 43
0.0000000001
 40
0.0
 40
0.0
 40
0.0
 40
0.0
 40
0.024390243902439
 40
0.024390243902439
 40
0.024390243902439
 40
0.024390243902439
 40
0.0487804878048781
 40
0.0487804878048781
 40
0.0487804878048781
 40
0.0487804878048781
 40
0.0731707317073171
 40
0.0731707317073171
 40
0.0731707317073171
 40
0.0731707317073171
 40
0.0975609756097561
 40
0.0975609756097561
 40
0.0975609756097561
 40
0.0975609756097561
 40
0.1219512195121951
 40
0.1219512195121951
 40
0.1219512195121951
 40
0.1219512195121951
 40
0.1463414634146341
 40
0.1463414634146341
 40
0.1463414634146341
 40
0.1463414634146341
 40
0.1707317073170732
 40
0.1707317073170732
 40
0.1707317073170732
 40
0.1707317073170732
 40
0.1951219512195122
 40
0.1951219512195122
 40
0.1951219512195122
 40
0.1951219512195122
 40
0.2195121951219512
 40
0.2195121951219512
 40
0.2195121951219512
 40
0.2195121951219512
 40
0.2439024390243902
 40
0.2439024390243902
 40
0.2439024390243902
 40
0.2439024390243902
 40
0.2682926829268293
 40
0.2682926829268293
 40
0.2682926829268293
 40
0.2682926829268293
 40
0.2926829268292683
 40
0.2926829268292683
 40
0.2926829268292683
 40
0.2926829268292683
 40
0.3170731707317073
 40
0.3170731707317073
 40
0.3170731707317073
 40
0.3170731707317073
 40
0.3414634146341464
 40
0.3414634146341464
 40
0.3414634146341464
 40
0.3414634146341464
 40
0.3658536585365854
 40
0.3658536585365854
 40
0.3658536585365854
 40
0.3658536585365854
 40
0.3902439024390244
 40
0.3902439024390244
 40
0.3902439024390244
 40
0.3902439024390244
 40
0.4146341463414634
 40
0.4146341463414634
 40
0.4146341463414634
 40
0.4146341463414634
 40
0.4390243902439024
 40
0.4390243902439024
 40
0.4390243902439024
 40
0.4390243902439024
 40
0.4634146341463415
 40
0.4634146341463415
 40
0.4634146341463415
 40
0.4634146341463415
 40
0.4878048780487805
 40
0.4878048780487805
 40
0.4878048780487805
 40
0.4878048780487805
 40
0.5121951219512195
 40
0.5121951219512195
 40
0.5121951219512195
 40
0.5121951219512195
 40
0.5365853658536586
 40
0.5365853658536586
 40
0.5365853658536586
 40
0.5365853658536586
 40
0.5609756097560976
 40
0.5609756097560976
 40
0.5609756097560976
 40
0.5609756097560976
 40
0.5853658536585366
 40
0.5853658536585366
 40
0.5853658536585366
 40
0.5853658536585366
 40
0.6097560975609756
 40
0.6097560975609756
 40
0.6097560975609756
 40
0.6097560975609756
 40
0.6341463414634146
 40
0.6341463414634146
 40
0.6341463414634146
 40
0.6341463414634146
 40
0.6585365853658537
 40
0.6585365853658537
 40
0.6585365853658537
 40
0.6585365853658537
 40
0.6829268292682927
 40
0.6829268292682927
 40
0.6829268292682927
 40
0.6829268292682927
 40
0.7073170731707317
 40
0.7073170731707317
 40
0.7073170731707317
 40
0.7073170731707317
 40
0.7317073170731707
 40
0.7317073170731707
 40
0.7317073170731707
 40
0.7317073170731707
 40
0.7560975609756098
 40
0.7560975609756098
 40
0.7560975609756098
 40
0.7560975609756098
 40
0.7804878048780488
 40
0.7804878048780488
 40
0.7804878048780488
 40
0.7804878048780488
 40
0.8048780487804879
 40
0.8048780487804879
 40
0.8048780487804879
 40
0.8048780487804879
 40
0.8292682926829268
 40
0.8292682926829268
 40
0.8292682926829268
 40
0.8292682926829268
 40
0.8536585365853658
 40
0.8536585365853658
 40
0.8536585365853658
 40
0.8536585365853658
 40
0.8780487804878049
 40
0.8780487804878049
 40
0.8780487804878049
 40
0.8780487804878049
 40
0.9024390243902439
 40
0.9024390243902439
 40
0.9024390243902439
 40
0.9024390243902439
 40
0.926829268292683
 40
0.926829268292683
 40
0.926829268292683
 40
0.926829268292683
 40
0.9512195121951219
 40
0.9512195121951219
 40
0.9512195121951219
 40
0.9512195121951219
 40
1.0
 40
1.0
 40
1.0
 40
1.0
 10
-25.6061
 20
130.6777
 30
0.0
 10
-25.6061
 20
130.6777
 30
0.0
 10
-18.1533
 20
127.5907
 30
0.0
 10
-18.1533
 20
127.5907
 30
0.0
 10
-18.1533
 20
127.5907
 30
0.0
 10
-18.1533
 20
127.5907
 30
0.0
 10
-19.9574
 20
123.2352
 30
0.0
 10
-19.9574
 20
123.2352
 30
0.0
 10
-19.9574
 20
123.2352
 30
0.0
 10
-19.9574
 20
123.2352
 30
0.0
 10
-17.1857
 20
122.0871
 30
0.0
 10
-17.1857
 20
122.0871
 30
0.0
 10
-17.1857
 20
122.0871
 30
0.0
 10
-17.1857
 20
122.0871
 30
0.0
 10
-15.3816
 20
126.4426
 30
0.0
 10
-15.3816
 20
126.4426
 30
0.0
 10
-15.3816
 20
126.4426
 30
0.0
 10
-15.3816
 20
126.4426
 30
0.0
 10
-7.9285
 20
123.3554
 30
0.0
 10
-7.9285
 20
123.3554
 30
0.0
 10
-7.9285
 20
123.3554
 30
0.0
 10
-7.9285
 20
123.3554
 30
0.0
 10
-4.8413
 20
115.9024
 30
0.0
 10
-4.8413
 20
115.9024
 30
0.0
 10
-4.8413
 20
115.9024
 30
0.0
 10
-4.8413
 20
115.9024
 30
0.0
 10
-9.197
 20
114.0982
 30
0.0
 10
-9.197
 20
114.0982
 30
0.0
 10
-9.197
 20
114.0982
 30
0.0
 10
-9.197
 20
114.0982
 30
0.0
 10
-8.0489
 20
111.3266
 30
0.0
 10
-8.0489
 20
111.3266
 30
0.0
 10
-8.0489
 20
111.3266
 30
0.0
 10
-8.0489
 20
111.3266
 30
0.0
 10
-3.6933
 20
113.1307
 30
0.0
 10
-3.6933
 20
113.1307
 30
0.0
 10
-3.6933
 20
113.1307
 30
0.0
 10
-3.6933
 20
113.1307
 30
0.0
 10
-0.6061
 20
105.6777
 30
0.0
 10
-0.6061
 20
105.6777
 30
0.0
 10
-0.6061
 20
105.6777
 30
0.0
 10
-0.6061
 20
105.6777
 30
0.0
 10
-3.6933
 20
98.2246
 30
0.0
 10
-3.6933
 20
98.2246
 30
0.0
 10
-3.6933
 20
98.2246
 30
0.0
 10
-3.6933
 20
98.2246
 30
0.0
 10
-8.049
 20
100.0288
 30
0.0
 10
-8.049
 20
100.0288
 30
0.0
 10
-8.049
 20
100.0288
 30
0.0
 10
-8.049
 20
100.0288
 30
0.0
 10
-9.1971
 20
97.2572
 30
0.0
 10
-9.1971
 20
97.2572
 30
0.0
 10
-9.1971
 20
97.2572
 30
0.0
 10
-9.1971
 20
97.2572
 30
0.0
 10
-4.8414
 20
95.453
 30
0.0
 10
-4.8414
 20
95.453
 30
0.0
 10
-4.8414
 20
95.453
 30
0.0
 10
-4.8414
 20
95.453
 30
0.0
 10
-7.9285
 20
88.0
 30
0.0
 10
-7.9285
 20
88.0
 30
0.0
 10
-7.9285
 20
88.0
 30
0.0
 10
-7.9285
 20
88.0
 30
0.0
 10
-15.3817
 20
84.9128
 30
0.0
 10
-15.3817
 20
84.9128
 30
0.0
 10
-15.3817
 20
84.9128
 30
0.0
 10
-15.3817
 20
84.9128
 30
0.0
 10
-17.1858
 20
89.2683
 30
0.0
 10
-17.1858
 20
89.2683
 30
0.0
 10
-17.1858
 20
89.2683
 30
0.0
 10
-17.1858
 20
89.2683
 30
0.0
 10
-19.9575
 20
88.1203
 30
0.0
 10
-19.9575
 20
88.1203
 30
0.0
 10
-19.9575
 20
88.1203
 30
0.0
 10
-19.9575
 20
88.1203
 30
0.0
 10
-18.1534
 20
83.7647
 30
0.0
 10
-18.1534
 20
83.7647
 30
0.0
 10
-18.1534
 20
83.7647
 30
0.0
 10
-18.1534
 20
83.7647
 30
0.0
 10
-25.6061
 20
80.6777
 30
0.0
 10
-25.6061
 20
80.6777
 30
0.0
 10
-25.6061
 20
80.6777
 30
0.0
 10
-25.6061
 20
80.6777
 30
0.0
 10
-33.0592
 20
83.7648
 30
0.0
 10
-33.0592
 20
83.7648
 30
0.0
 10
-33.0592
 20
83.7648
 30
0.0
 10
-33.0592
 20
83.7648
 30
0.0
 10
-31.2551
 20
88.1203
 30
0.0
 10
-31.2551
 20
88.1203
 30
0.0
 10
-31.2551
 20
88.1203
 30
0.0
 10
-31.2551
 20
88.1203
 30
0.0
 10
-34.0268
 20
89.2683
 30
0.0
 10
-34.0268
 20
89.2683
 30
0.0
 10
-34.0268
 20
89.2683
 30
0.0
 10
-34.0268
 20
89.2683
 30
0.0
 10
-35.8309
 20
84.9129
 30
0.0
 10
-35.8309
 20
84.9129
 30
0.0
 10
-35.8309
 20
84.9129
 30
0.0
 10
-35.8309
 20
84.9129
 30
0.0
 10
-43.2837
 20
88.0
 30
0.0
 10
-43.2837
 20
88.0
 30
0.0
 10
-43.2837
 20
88.0
 30
0.0
 10
-43.2837
 20
88.0
 30
0.0
 10
-46.3709
 20
95.4531
 30
0.0
 10
-46.3709
 20
95.4531
 30
0.0
 10
-46.3709
 20
95.4531
 30
0.0
 10
-46.3709
 20
95.4531
 30
0.0
 10
-42.0155
 20
97.2572
 30
0.0
 10
-42.0155
 20
97.2572
 30
0.0
 10
-42.0155
 20
97.2572
 30
0.0
 10
-42.0155
 20
97.2572
 30
0.0
 10
-43.1636
 20
100.0288
 30
0.0
 10
-43.1636
 20
100.0288
 30
0.0
 10
-43.1636
 20
100.0288
 30
0.0
 10
-43.1636
 20
100.0288
 30
0.0
 10
-47.519
 20
98.2248
 30
0.0
 10
-47.519
 20
98.2248
 30
0.0
 10
-47.519
 20
98.2248
 30
0.0
 10
-47.519
 20
98.2248
 30
0.0
 10
-50.6061
 20
105.6777
 30
0.0
 10
-50.6061
 20
105.6777
 30
0.0
 10
-50.6061
 20
105.6777
 30
0.0
 10
-50.6061
 20
105.6777
 30
0.0
 10
-47.519
 20
113.1306
 30
0.0
 10
-47.519
 20
113.1306
 30
0.0
 10
-47.519
 20
113.1306
 30
0.0
 10
-47.519
 20
113.1306
 30
0.0
 10
-43.1637
 20
111.3266
 30
0.0
 10
-43.1637
 20
111.3266
 30
0.0
 10
-43.1637
 20
111.3266
 30
0.0
 10
-43.1637
 20
111.3266
 30
0.0
 10
-42.0156
 20
114.0982
 30
0.0
 10
-42.0156
 20
114.0982
 30
0.0
 10
-42.0156
 20
114.0982
 30
0.0
 10
-42.0156
 20
114.0982
 30
0.0
 10
-46.3709
 20
115.9022
 30
0.0
 10
-46.3709
 20
115.9022
 30
0.0
 10
-46.3709
 20
115.9022
 30
0.0
 10
-46.3709
 20
115.9022
 30
0.0
 10
-43.2837
 20
123.3554
 30
0.0
 10
-43.2837
 20
123.3554
 30
0.0
 10
-43.2837
 20
123.3554
 30
0.0
 10
-43.2837
 20
123.3554
 30
0.0
 10
-35.8309
 20
126.4425
 30
0.0
 10
-35.8309
 20
126.4425
 30
0.0
 10
-35.8309
 20
126.4425
 30
0.0
 10
-35.8309
 20
126.4425
 30
0.0
 10
-34.0269
 20
122.0871
 30
0.0
 10
-34.0269
 20
122.0871
 30
0.0
 10
-34.0269
 20
122.0871
 30
0.0
 10
-34.0269
 20
122.0871
 30
0.0
 10
-31.2552
 20
123.2352
 30
0.0
 10
-31.2552
 20
123.2352
 30
0.0
 10
-31.2552
 20
123.2352
 30
0.0
 10
-31.2552
 20
123.2352
 30
0.0
 10
-33.0593
 20
127.5905
 30
0.0
 10
-33.0593
 20
127.5905
 30
0.0
 10
-33.0593
 20
127.5905
 30
0.0
 10
-33.0593
 20
127.5905
 30
0.0
 10
-25.6061
 20
130.6777
 30
0.0
 10
-25.6061
 20
130.6777
 30
0.0
  0
SPLINE
  5
43
330
1F
100
AcDbEntity
  8
Capa 1
 62
   250
370
     9
100
AcDbSpline
210
0.0
220
0.0
230
1.0
 70
    11
 71
     3
 72
   164
 73
   160
 74
     0
 42
0.0000000001
 43
0.0000000001
 40
0.0
 40
0.0
 40
0.0
 40
0.0
 40
0.024390243902439
 40
0.024390243902439
 40
0.024390243902439
 40
0.024390243902439
 40
0.0487804878048781
 40
0.0487804878048781
 40
0.0487804878048781
 40
0.0487804878048781
 40
0.0731707317073171
 40
0.0731707317073171
 40
0.0731707317073171
 40
0.0731707317073171
 40
0.0975609756097561
 40
0.0975609756097561
 40
0.0975609756097561
 40
0.0975609756097561
 40
0.1219512195121951
 40
0.1219512195121951
 40
0.1219512195121951
 40
0.1219512195121951
 40
0.1463414634146341
 40
0.1463414634146341
 40
0.1463414634146341
 40
0.1463414634146341
 40
0.1707317073170732
 40
0.1707317073170732
 40
0.1707317073170732
 40
0.1707317073170732
 40
0.1951219512195122
 40
0.1951219512195122
 40
0.1951219512195122
 40
0.1951219512195122
 40
0.2195121951219512
 40
0.2195121951219512
 40
0.2195121951219512
 40
0.2195121951219512
 40
0.2439024390243902
 40
0.2439024390243902
 40
0.2439024390243902
 40
0.2439024390243902
 40
0.2682926829268293
 40
0.2682926829268293
 40
0.2682926829268293
 40
0.2682926829268293
 40
0.2926829268292683
 40
0.2926829268292683
 40
0.2926829268292683
 40
0.2926829268292683
 40
0.3170731707317073
 40
0.3170731707317073
 40
0.3170731707317073
 40
0.3170731707317073
 40
0.3414634146341464
 40
0.3414634146341464
 40
0.3414634146341464
 40
0.3414634146341464
 40
0.3658536585365854
 40
0.3658536585365854
 40
0.3658536585365854
 40
0.3658536585365854
 40
0.3902439024390244
 40
0.3902439024390244
 40
0.3902439024390244
 40
0.3902439024390244
 40
0.4146341463414634
 40
0.4146341463414634
 40
0.4146341463414634
 40
0.4146341463414634
 40
0.4390243902439024
 40
0.4390243902439024
 40
0.4390243902439024
 40
0.4390243902439024
 40
0.4634146341463415
 40
0.4634146341463415
 40
0.4634146341463415
 40
0.4634146341463415
 40
0.4878048780487805
 40
0.4878048780487805
 40
0.4878048780487805
 40
0.4878048780487805
 40
0.5121951219512195
 40
0.5121951219512195
 40
0.5121951219512195
 40
0.5121951219512195
 40
0.5365853658536586
 40
0.5365853658536586
 40
0.5365853658536586
 40
0.5365853658536586
 40
0.5609756097560976
 40
0.5609756097560976
 40
0.5609756097560976
 40
0.5609756097560976
 40
0.5853658536585366
 40
0.5853658536585366
 40
0.5853658536585366
 40
0.5853658536585366
 40
0.6097560975609756
 40
0.6097560975609756
 40
0.6097560975609756
 40
0.6097560975609756
 40
0.6341463414634146
 40
0.6341463414634146
 40
0.6341463414634146
 40
0.6341463414634146
 40
0.6585365853658537
 40
0.6585365853658537
 40
0.6585365853658537
 40
0.6585365853658537
 40
0.6829268292682927
 40
0.6829268292682927
 40
0.6829268292682927
 40
0.6829268292682927
 40
0.7073170731707317
 40
0.7073170731707317
 40
0.7073170731707317
 40
0.7073170731707317
 40
0.7317073170731707
 40
0.7317073170731707
 40
0.7317073170731707
 40
0.7317073170731707
 40
0.7560975609756098
 40
0.7560975609756098
 40
0.7560975609756098
 40
0.7560975609756098
 40
0.7804878048780488
 40
0.7804878048780488
 40
0.7804878048780488
 40
0.7804878048780488
 40
0.8048780487804879
 40
0.8048780487804879
 40
0.8048780487804879
 40
0.8048780487804879
 40
0.8292682926829268
 40
0.8292682926829268
 40
0.8292682926829268
 40
0.8292682926829268
 40
0.8536585365853658
 40
0.8536585365853658
 40
0.8536585365853658
 40
0.8536585365853658
 40
0.8780487804878049
 40
0.8780487804878049
 40
0.8780487804878049
 40
0.8780487804878049
 40
0.9024390243902439
 40
0.9024390243902439
 40
0.9024390243902439
 40
0.9024390243902439
 40
0.926829268292683
 40
0.926829268292683
 40
0.926829268292683
 40
0.926829268292683
 40
0.9512195121951219
 40
0.9512195121951219
 40
0.9512195121951219
 40
0.9512195121951219
 40
1.0
 40
1.0
 40
1.0
 40
1.0
 10
26.7814
 20
130.6777
 30
0.0
 10
26.7814
 20
130.6777
 30
0.0
 10
34.2342
 20
127.5907
 30
0.0
 10
34.2342
 20
127.5907
 30
0.0
 10
34.2342
 20
127.5907
 30
0.0
 10
34.2342
 20
127.5907
 30
0.0
 10
32.4301
 20
123.2352
 30
0.0
 10
32.4301
 20
123.2352
 30
0.0
 10
32.4301
 20
123.2352
 30
0.0
 10
32.4301
 20
123.2352
 30
0.0
 10
35.2018
 20
122.0871
 30
0.0
 10
35.2018
 20
122.0871
 30
0.0
 10
35.2018
 20
122.0871
 30
0.0
 10
35.2018
 20
122.0871
 30
0.0
 10
37.0059
 20
126.4426
 30
0.0
 10
37.0059
 20
126.4426
 30
0.0
 10
37.0059
 20
126.4426
 30
0.0
 10
37.0059
 20
126.4426
 30
0.0
 10
44.459
 20
123.3554
 30
0.0
 10
44.459
 20
123.3554
 30
0.0
 10
44.459
 20
123.3554
 30
0.0
 10
44.459
 20
123.3554
 30
0.0
 10
47.5462
 20
115.9024
 30
0.0
 10
47.5462
 20
115.9024
 30
0.0
 10
47.5462
 20
115.9024
 30
0.0
 10
47.5462
 20
115.9024
 30
0.0
 10
43.1905
 20
114.0982
 30
0.0
 10
43.1905
 20
114.0982
 30
0.0
 10
43.1905
 20
114.0982
 30
0.0
 10
43.1905
 20
114.0982
 30
0.0
 10
44.3386
 20
111.3266
 30
0.0
 10
44.3386
 20
111.3266
 30
0.0
 10
44.3386
 20
111.3266
 30
0.0
 10
44.3386
 20
111.3266
 30
0.0
 10
48.6942
 20
113.1307
 30
0.0
 10
48.6942
 20
113.1307
 30
0.0
 10
48.6942
 20
113.1307
 30
0.0
 10
48.6942
 20
113.1307
 30
0.0
 10
51.7814
 20
105.6777
 30
0.0
 10
51.7814
 20
105.6777
 30
0.0
 10
51.7814
 20
105.6777
 30
0.0
 10
51.7814
 20
105.6777
 30
0.0
 10
48.6942
 20
98.2246
 30
0.0
 10
48.6942
 20
98.2246
 30
0.0
 10
48.6942
 20
98.2246
 30
0.0
 10
48.6942
 20
98.2246
 30
0.0
 10
44.3385
 20
100.0288
 30
0.0
 10
44.3385
 20
100.0288
 30
0.0
 10
44.3385
 20
100.0288
 30
0.0
 10
44.3385
 20
100.0288
 30
0.0
 10
43.1904
 20
97.2572
 30
0.0
 10
43.1904
 20
97.2572
 30
0.0
 10
43.1904
 20
97.2572
 30
0.0
 10
43.1904
 20
97.2572
 30
0.0
 10
47.5461
 20
95.453
 30
0.0
 10
47.5461
 20
95.453
 30
0.0
 10
47.5461
 20
95.453
 30
0.0
 10
47.5461
 20
95.453
 30
0.0
 10
44.459
 20
88.0
 30
0.0
 10
44.459
 20
88.0
 30
0.0
 10
44.459
 20
88.0
 30
0.0
 10
44.459
 20
88.0
 30
0.0
 10
37.0058
 20
84.9128
 30
0.0
 10
37.0058
 20
84.9128
 30
0.0
 10
37.0058
 20
84.9128
 30
0.0
 10
37.0058
 20
84.9128
 30
0.0
 10
35.2017
 20
89.2683
 30
0.0
 10
35.2017
 20
89.2683
 30
0.0
 10
35.2017
 20
89.2683
 30
0.0
 10
35.2017
 20
89.2683
 30
0.0
 10
32.43
 20
88.1203
 30
0.0
 10
32.43
 20
88.1203
 30
0.0
 10
32.43
 20
88.1203
 30
0.0
 10
32.43
 20
88.1203
 30
0.0
 10
34.2341
 20
83.7647
 30
0.0
 10
34.2341
 20
83.7647
 30
0.0
 10
34.2341
 20
83.7647
 30
0.0
 10
34.2341
 20
83.7647
 30
0.0
 10
26.7814
 20
80.6777
 30
0.0
 10
26.7814
 20
80.6777
 30
0.0
 10
26.7814
 20
80.6777
 30
0.0
 10
26.7814
 20
80.6777
 30
0.0
 10
19.3283
 20
83.7648
 30
0.0
 10
19.3283
 20
83.7648
 30
0.0
 10
19.3283
 20
83.7648
 30
0.0
 10
19.3283
 20
83.7648
 30
0.0
 10
21.1324
 20
88.1203
 30
0.0
 10
21.1324
 20
88.1203
 30
0.0
 10
21.1324
 20
88.1203
 30
0.0
 10
21.1324
 20
88.1203
 30
0.0
 10
18.3607
 20
89.2683
 30
0.0
 10
18.3607
 20
89.2683
 30
0.0
 10
18.3607
 20
89.2683
 30
0.0
 10
18.3607
 20
89.2683
 30
0.0
 10
16.5566
 20
84.9129
 30
0.0
 10
16.5566
 20
84.9129
 30
0.0
 10
16.5566
 20
84.9129
 30
0.0
 10
16.5566
 20
84.9129
 30
0.0
 10
9.1038
 20
88.0
 30
0.0
 10
9.1038
 20
88.0
 30
0.0
 10
9.1038
 20
88.0
 30
0.0
 10
9.1038
 20
88.0
 30
0.0
 10
6.0166
 20
95.4531
 30
0.0
 10
6.0166
 20
95.4531
 30
0.0
 10
6.0166
 20
95.4531
 30
0.0
 10
6.0166
 20
95.4531
 30
0.0
 10
10.372
 20
97.2572
 30
0.0
 10
10.372
 20
97.2572
 30
0.0
 10
10.372
 20
97.2572
 30
0.0
 10
10.372
 20
97.2572
 30
0.0
 10
9.2239
 20
100.0288
 30
0.0
 10
9.2239
 20
100.0288
 30
0.0
 10
9.2239
 20
100.0288
 30
0.0
 10
9.2239
 20
100.0288
 30
0.0
 10
4.8685
 20
98.2248
 30
0.0
 10
4.8685
 20
98.2248
 30
0.0
 10
4.8685
 20
98.2248
 30
0.0
 10
4.8685
 20
98.2248
 30
0.0
 10
1.7814
 20
105.6777
 30
0.0
 10
1.7814
 20
105.6777
 30
0.0
 10
1.7814
 20
105.6777
 30
0.0
 10
1.7814
 20
105.6777
 30
0.0
 10
4.8685
 20
113.1306
 30
0.0
 10
4.8685
 20
113.1306
 30
0.0
 10
4.8685
 20
113.1306
 30
0.0
 10
4.8685
 20
113.1306
 30
0.0
 10
9.2238
 20
111.3266
 30
0.0
 10
9.2238
 20
111.3266
 30
0.0
 10
9.2238
 20
111.3266
 30
0.0
 10
9.2238
 20
111.3266
 30
0.0
 10
10.3719
 20
114.0982
 30
0.0
 10
10.3719
 20
114.0982
 30
0.0
 10
10.3719
 20
114.0982
 30
0.0
 10
10.3719
 20
114.0982
 30
0.0
 10
6.0166
 20
115.9022
 30
0.0
 10
6.0166
 20
115.9022
 30
0.0
 10
6.0166
 20
115.9022
 30
0.0
 10
6.0166
 20
115.9022
 30
0.0
 10
9.1038
 20
123.3554
 30
0.0
 10
9.1038
 20
123.3554
 30
0.0
 10
9.1038
 20
123.3554
 30
0.0
 10
9.1038
 20
123.3554
 30
0.0
 10
16.5566
 20
126.4425
 30
0.0
 10
16.5566
 20
126.4425
 30
0.0
 10
16.5566
 20
126.4425
 30
0.0
 10
16.5566
 20
126.4425
 30
0.0
 10
18.3606
 20
122.0871
 30
0.0
 10
18.3606
 20
122.0871
 30
0.0
 10
18.3606
 20
122.0871
 30
0.0
 10
18.3606
 20
122.0871
 30
0.0
 10
21.1323
 20
123.2352
 30
0.0
 10
21.1323
 20
123.2352
 30
0.0
 10
21.1323
 20
123.2352
 30
0.0
 10
21.1323
 20
123.2352
 30
0.0
 10
19.3282
 20
127.5905
 30
0.0
 10
19.3282
 20
127.5905
 30
0.0
 10
19.3282
 20
127.5905
 30
0.0
 10
19.3282
 20
127.5905
 30
0.0
 10
26.7814
 20
130.6777
 30
0.0
 10
26.7814
 20
130.6777
 30
0.0
  0
SPLINE
  5
44
330
1F
100
AcDbEntity
  8
Capa 1
 62
   250
370
     9
100
AcDbSpline
210
0.0
220
0.0
230
1.0
 70
    11
 71
     3
 72
   164
 73
   160
 74
     0
 42
0.0000000001
 43
0.0000000001
 40
0.0
 40
0.0
 40
0.0
 40
0.0
 40
0.024390243902439
 40
0.024390243902439
 40
0.024390243902439
 40
0.024390243902439
 40
0.0487804878048781
 40
0.0487804878048781
 40
0.0487804878048781
 40
0.0487804878048781
 40
0.0731707317073171
 40
0.0731707317073171
 40
0.0731707317073171
 40
0.0731707317073171
 40
0.0975609756097561
 40
0.0975609756097561
 40
0.0975609756097561
 40
0.0975609756097561
 40
0.1219512195121951
 40
0.1219512195121951
 40
0.1219512195121951
 40
0.1219512195121951
 40
0.1463414634146341
 40
0.1463414634146341
 40
0.1463414634146341
 40
0.1463414634146341
 40
0.1707317073170732
 40
0.1707317073170732
 40
0.1707317073170732
 40
0.1707317073170732
 40
0.1951219512195122
 40
0.1951219512195122
 40
0.1951219512195122
 40
0.1951219512195122
 40
0.2195121951219512
 40
0.2195121951219512
 40
0.2195121951219512
 40
0.2195121951219512
 40
0.2439024390243902
 40
0.2439024390243902
 40
0.2439024390243902
 40
0.2439024390243902
 40
0.2682926829268293
 40
0.2682926829268293
 40
0.2682926829268293
 40
0.2682926829268293
 40
0.2926829268292683
 40
0.2926829268292683
 40
0.2926829268292683
 40
0.2926829268292683
 40
0.3170731707317073
 40
0.3170731707317073
 40
0.3170731707317073
 40
0.3170731707317073
 40
0.3414634146341464
 40
0.3414634146341464
 40
0.3414634146341464
 40
0.3414634146341464
 40
0.3658536585365854
 40
0.3658536585365854
 40
0.3658536585365854
 40
0.3658536585365854
 40
0.3902439024390244
 40
0.3902439024390244
 40
0.3902439024390244
 40
0.3902439024390244
 40
0.4146341463414634
 40
0.4146341463414634
 40
0.4146341463414634
 40
0.4146341463414634
 40
0.4390243902439024
 40
0.4390243902439024
 40
0.4390243902439024
 40
0.4390243902439024
 40
0.4634146341463415
 40
0.4634146341463415
 40
0.4634146341463415
 40
0.4634146341463415
 40
0.4878048780487805
 40
0.4878048780487805
 40
0.4878048780487805
 40
0.4878048780487805
 40
0.5121951219512195
 40
0.5121951219512195
 40
0.5121951219512195
 40
0.5121951219512195
 40
0.5365853658536586
 40
0.5365853658536586
 40
0.5365853658536586
 40
0.5365853658536586
 40
0.5609756097560976
 40
0.5609756097560976
 40
0.5609756097560976
 40
0.5609756097560976
 40
0.5853658536585366
 40
0.5853658536585366
 40
0.5853658536585366
 40
0.5853658536585366
 40
0.6097560975609756
 40
0.6097560975609756
 40
0.6097560975609756
 40
0.6097560975609756
 40
0.6341463414634146
 40
0.6341463414634146
 40
0.6341463414634146
 40
0.6341463414634146
 40
0.6585365853658537
 40
0.6585365853658537
 40
0.6585365853658537
 40
0.6585365853658537
 40
0.6829268292682927
 40
0.6829268292682927
 40
0.6829268292682927
 40
0.6829268292682927
 40
0.7073170731707317
 40
0.7073170731707317
 40
0.7073170731707317
 40
0.7073170731707317
 40
0.7317073170731707
 40
0.7317073170731707
 40
0.7317073170731707
 40
0.7317073170731707
 40
0.7560975609756098
 40
0.7560975609756098
 40
0.7560975609756098
 40
0.7560975609756098
 40
0.7804878048780488
 40
0.7804878048780488
 40
0.7804878048780488
 40
0.7804878048780488
 40
0.8048780487804879
 40
0.8048780487804879
 40
0.8048780487804879
 40
0.8048780487804879
 40
0.8292682926829268
 40
0.8292682926829268
 40
0.8292682926829268
 40
0.8292682926829268
 40
0.8536585365853658
 40
0.8536585365853658
 40
0.8536585365853658
 40
0.8536585365853658
 40
0.8780487804878049
 40
0.8780487804878049
 40
0.8780487804878049
 40
0.8780487804878049
 40
0.9024390243902439
 40
0.9024390243902439
 40
0.9024390243902439
 40
0.9024390243902439
 40
0.926829268292683
 40
0.926829268292683
 40
0.926829268292683
 40
0.926829268292683
 40
0.9512195121951219
 40
0.9512195121951219
 40
0.9512195121951219
 40
0.9512195121951219
 40
1.0
 40
1.0
 40
1.0
 40
1.0
 10
-77.9936
 20
78.2902
 30
0.0
 10
-77.9936
 20
78.2902
 30
0.0
 10
-70.5408
 20
75.2032
 30
0.0
 10
-70.5408
 20
75.2032
 30
0.0
 10
-70.5408
 20
75.2032
 30
0.0
 10
-70.5408
 20
75.2032
 30
0.0
 10
-72.3449
 20
70.8477
 30
0.0
 10
-72.3449
 20
70.8477
 30
0.0
 10
-72.3449
 20
70.8477
 30
0.0
 10
-72.3449
 20
70.8477
 30
0.0
 10
-69.5732
 20
69.6996
 30
0.0
 10
-69.5732
 20
69.6996
 30
0.0
 10
-69.5732
 20
69.6996
 30
0.0
 10
-69.5732
 20
69.6996
 30
0.0
 10
-67.7691
 20
74.0551
 30
0.0
 10
-67.7691
 20
74.0551
 30
0.0
 10
-67.7691
 20
74.0551
 30
0.0
 10
-67.7691
 20
74.0551
 30
0.0
 10
-60.316
 20
70.9679
 30
0.0
 10
-60.316
 20
70.9679
 30
0.0
 10
-60.316
 20
70.9679
 30
0.0
 10
-60.316
 20
70.9679
 30
0.0
 10
-57.2288
 20
63.5149
 30
0.0
 10
-57.2288
 20
63.5149
 30
0.0
 10
-57.2288
 20
63.5149
 30
0.0
 10
-57.2288
 20
63.5149
 30
0.0
 10
-61.5845
 20
61.7107
 30
0.0
 10
-61.5845
 20
61.7107
 30
0.0
 10
-61.5845
 20
61.7107
 30
0.0
 10
-61.5845
 20
61.7107
 30
0.0
 10
-60.4364
 20
58.9391
 30
0.0
 10
-60.4364
 20
58.9391
 30
0.0
 10
-60.4364
 20
58.9391
 30
0.0
 10
-60.4364
 20
58.9391
 30
0.0
 10
-56.0808
 20
60.7432
 30
0.0
 10
-56.0808
 20
60.7432
 30
0.0
 10
-56.0808
 20
60.7432
 30
0.0
 10
-56.0808
 20
60.7432
 30
0.0
 10
-52.9936
 20
53.2902
 30
0.0
 10
-52.9936
 20
53.2902
 30
0.0
 10
-52.9936
 20
53.2902
 30
0.0
 10
-52.9936
 20
53.2902
 30
0.0
 10
-56.0808
 20
45.8371
 30
0.0
 10
-56.0808
 20
45.8371
 30
0.0
 10
-56.0808
 20
45.8371
 30
0.0
 10
-56.0808
 20
45.8371
 30
0.0
 10
-60.4365
 20
47.6413
 30
0.0
 10
-60.4365
 20
47.6413
 30
0.0
 10
-60.4365
 20
47.6413
 30
0.0
 10
-60.4365
 20
47.6413
 30
0.0
 10
-61.5846
 20
44.8697
 30
0.0
 10
-61.5846
 20
44.8697
 30
0.0
 10
-61.5846
 20
44.8697
 30
0.0
 10
-61.5846
 20
44.8697
 30
0.0
 10
-57.2289
 20
43.0655
 30
0.0
 10
-57.2289
 20
43.0655
 30
0.0
 10
-57.2289
 20
43.0655
 30
0.0
 10
-57.2289
 20
43.0655
 30
0.0
 10
-60.316
 20
35.6125
 30
0.0
 10
-60.316
 20
35.6125
 30
0.0
 10
-60.316
 20
35.6125
 30
0.0
 10
-60.316
 20
35.6125
 30
0.0
 10
-67.7692
 20
32.5253
 30
0.0
 10
-67.7692
 20
32.5253
 30
0.0
 10
-67.7692
 20
32.5253
 30
0.0
 10
-67.7692
 20
32.5253
 30
0.0
 10
-69.5733
 20
36.8808
 30
0.0
 10
-69.5733
 20
36.8808
 30
0.0
 10
-69.5733
 20
36.8808
 30
0.0
 10
-69.5733
 20
36.8808
 30
0.0
 10
-72.345
 20
35.7328
 30
0.0
 10
-72.345
 20
35.7328
 30
0.0
 10
-72.345
 20
35.7328
 30
0.0
 10
-72.345
 20
35.7328
 30
0.0
 10
-70.5409
 20
31.3772
 30
0.0
 10
-70.5409
 20
31.3772
 30
0.0
 10
-70.5409
 20
31.3772
 30
0.0
 10
-70.5409
 20
31.3772
 30
0.0
 10
-77.9936
 20
28.2902
 30
0.0
 10
-77.9936
 20
28.2902
 30
0.0
 10
-77.9936
 20
28.2902
 30
0.0
 10
-77.9936
 20
28.2902
 30
0.0
 10
-85.4467
 20
31.3773
 30
0.0
 10
-85.4467
 20
31.3773
 30
0.0
 10
-85.4467
 20
31.3773
 30
0.0
 10
-85.4467
 20
31.3773
 30
0.0
 10
-83.6426
 20
35.7328
 30
0.0
 10
-83.6426
 20
35.7328
 30
0.0
 10
-83.6426
 20
35.7328
 30
0.0
 10
-83.6426
 20
35.7328
 30
0.0
 10
-86.4143
 20
36.8808
 30
0.0
 10
-86.4143
 20
36.8808
 30
0.0
 10
-86.4143
 20
36.8808
 30
0.0
 10
-86.4143
 20
36.8808
 30
0.0
 10
-88.2184
 20
32.5254
 30
0.0
 10
-88.2184
 20
32.5254
 30
0.0
 10
-88.2184
 20
32.5254
 30
0.0
 10
-88.2184
 20
32.5254
 30
0.0
 10
-95.6712
 20
35.6125
 30
0.0
 10
-95.6712
 20
35.6125
 30
0.0
 10
-95.6712
 20
35.6125
 30
0.0
 10
-95.6712
 20
35.6125
 30
0.0
 10
-98.7584
 20
43.0656
 30
0.0
 10
-98.7584
 20
43.0656
 30
0.0
 10
-98.7584
 20
43.0656
 30
0.0
 10
-98.7584
 20
43.0656
 30
0.0
 10
-94.403
 20
44.8697
 30
0.0
 10
-94.403
 20
44.8697
 30
0.0
 10
-94.403
 20
44.8697
 30
0.0
 10
-94.403
 20
44.8697
 30
0.0
 10
-95.5511
 20
47.6413
 30
0.0
 10
-95.5511
 20
47.6413
 30
0.0
 10
-95.5511
 20
47.6413
 30
0.0
 10
-95.5511
 20
47.6413
 30
0.0
 10
-99.9065
 20
45.8373
 30
0.0
 10
-99.9065
 20
45.8373
 30
0.0
 10
-99.9065
 20
45.8373
 30
0.0
 10
-99.9065
 20
45.8373
 30
0.0
 10
-102.9936
 20
53.2902
 30
0.0
 10
-102.9936
 20
53.2902
 30
0.0
 10
-102.9936
 20
53.2902
 30
0.0
 10
-102.9936
 20
53.2902
 30
0.0
 10
-99.9065
 20
60.7431
 30
0.0
 10
-99.9065
 20
60.7431
 30
0.0
 10
-99.9065
 20
60.7431
 30
0.0
 10
-99.9065
 20
60.7431
 30
0.0
 10
-95.5512
 20
58.9391
 30
0.0
 10
-95.5512
 20
58.9391
 30
0.0
 10
-95.5512
 20
58.9391
 30
0.0
 10
-95.5512
 20
58.9391
 30
0.0
 10
-94.4031
 20
61.7107
 30
0.0
 10
-94.4031
 20
61.7107
 30
0.0
 10
-94.4031
 20
61.7107
 30
0.0
 10
-94.4031
 20
61.7107
 30
0.0
 10
-98.7584
 20
63.5147
 30
0.0
 10
-98.7584
 20
63.5147
 30
0.0
 10
-98.7584
 20
63.5147
 30
0.0
 10
-98.7584
 20
63.5147
 30
0.0
 10
-95.6712
 20
70.9679
 30
0.0
 10
-95.6712
 20
70.9679
 30
0.0
 10
-95.6712
 20
70.9679
 30
0.0
 10
-95.6712
 20
70.9679
 30
0.0
 10
-88.2184
 20
74.055
 30
0.0
 10
-88.2184
 20
74.055
 30
0.0
 10
-88.2184
 20
74.055
 30
0.0
 10
-88.2184
 20
74.055
 30
0.0
 10
-86.4144
 20
69.6996
 30
0.0
 10
-86.4144
 20
69.6996
 30
0.0
 10
-86.4144
 20
69.6996
 30
0.0
 10
-86.4144
 20
69.6996
 30
0.0
 10
-83.6427
 20
70.8477
 30
0.0
 10
-83.6427
 20
70.8477
 30
0.0
 10
-83.6427
 20
70.8477
 30
0.0
 10
-83.6427
 20
70.8477
 30
0.0
 10
-85.4468
 20
75.203
 30
0.0
 10
-85.4468
 20
75.203
 30
0.0
 10
-85.4468
 20
75.203
 30
0.0
 10
-85.4468
 20
75.203
 30
0.0
 10
-77.9936
 20
78.2902
 30
0.0
 10
-77.9936
 20
78.2902
 30
0.0
  0
SPLINE
  5
45
330
1F
100
AcDbEntity
  8
Capa 1
 62
   250
370
     9
100
AcDbSpline
210
0.0
220
0.0
230
1.0
 70
    11
 71
     3
 72
   164
 73
   160
 74
     0
 42
0.0000000001
 43
0.0000000001
 40
0.0
 40
0.0
 40
0.0
 40
0.0
 40
0.024390243902439
 40
0.024390243902439
 40
0.024390243902439
 40
0.024390243902439
 40
0.0487804878048781
 40
0.0487804878048781
 40
0.0487804878048781
 40
0.0487804878048781
 40
0.0731707317073171
 40
0.0731707317073171
 40
0.0731707317073171
 40
0.0731707317073171
 40
0.0975609756097561
 40
0.0975609756097561
 40
0.0975609756097561
 40
0.0975609756097561
 40
0.1219512195121951
 40
0.1219512195121951
 40
0.1219512195121951
 40
0.1219512195121951
 40
0.1463414634146341
 40
0.1463414634146341
 40
0.1463414634146341
 40
0.1463414634146341
 40
0.1707317073170732
 40
0.1707317073170732
 40
0.1707317073170732
 40
0.1707317073170732
 40
0.1951219512195122
 40
0.1951219512195122
 40
0.1951219512195122
 40
0.1951219512195122
 40
0.2195121951219512
 40
0.2195121951219512
 40
0.2195121951219512
 40
0.2195121951219512
 40
0.2439024390243902
 40
0.2439024390243902
 40
0.2439024390243902
 40
0.2439024390243902
 40
0.2682926829268293
 40
0.2682926829268293
 40
0.2682926829268293
 40
0.2682926829268293
 40
0.2926829268292683
 40
0.2926829268292683
 40
0.2926829268292683
 40
0.2926829268292683
 40
0.3170731707317073
 40
0.3170731707317073
 40
0.3170731707317073
 40
0.3170731707317073
 40
0.3414634146341464
 40
0.3414634146341464
 40
0.3414634146341464
 40
0.3414634146341464
 40
0.3658536585365854
 40
0.3658536585365854
 40
0.3658536585365854
 40
0.3658536585365854
 40
0.3902439024390244
 40
0.3902439024390244
 40
0.3902439024390244
 40
0.3902439024390244
 40
0.4146341463414634
 40
0.4146341463414634
 40
0.4146341463414634
 40
0.4146341463414634
 40
0.4390243902439024
 40
0.4390243902439024
 40
0.4390243902439024
 40
0.4390243902439024
 40
0.4634146341463415
 40
0.4634146341463415
 40
0.4634146341463415
 40
0.4634146341463415
 40
0.4878048780487805
 40
0.4878048780487805
 40
0.4878048780487805
 40
0.4878048780487805
 40
0.5121951219512195
 40
0.5121951219512195
 40
0.5121951219512195
 40
0.5121951219512195
 40
0.5365853658536586
 40
0.5365853658536586
 40
0.5365853658536586
 40
0.5365853658536586
 40
0.5609756097560976
 40
0.5609756097560976
 40
0.5609756097560976
 40
0.5609756097560976
 40
0.5853658536585366
 40
0.5853658536585366
 40
0.5853658536585366
 40
0.5853658536585366
 40
0.6097560975609756
 40
0.6097560975609756
 40
0.6097560975609756
 40
0.6097560975609756
 40
0.6341463414634146
 40
0.6341463414634146
 40
0.6341463414634146
 40
0.6341463414634146
 40
0.6585365853658537
 40
0.6585365853658537
 40
0.6585365853658537
 40
0.6585365853658537
 40
0.6829268292682927
 40
0.6829268292682927
 40
0.6829268292682927
 40
0.6829268292682927
 40
0.7073170731707317
 40
0.7073170731707317
 40
0.7073170731707317
 40
0.7073170731707317
 40
0.7317073170731707
 40
0.7317073170731707
 40
0.7317073170731707
 40
0.7317073170731707
 40
0.7560975609756098
 40
0.7560975609756098
 40
0.7560975609756098
 40
0.7560975609756098
 40
0.7804878048780488
 40
0.7804878048780488
 40
0.7804878048780488
 40
0.7804878048780488
 40
0.8048780487804879
 40
0.8048780487804879
 40
0.8048780487804879
 40
0.8048780487804879
 40
0.8292682926829268
 40
0.8292682926829268
 40
0.8292682926829268
 40
0.8292682926829268
 40
0.8536585365853658
 40
0.8536585365853658
 40
0.8536585365853658
 40
0.8536585365853658
 40
0.8780487804878049
 40
0.8780487804878049
 40
0.8780487804878049
 40
0.8780487804878049
 40
0.9024390243902439
 40
0.9024390243902439
 40
0.9024390243902439
 40
0.9024390243902439
 40
0.926829268292683
 40
0.926829268292683
 40
0.926829268292683
 40
0.926829268292683
 40
0.9512195121951219
 40
0.9512195121951219
 40
0.9512195121951219
 40
0.9512195121951219
 40
1.0
 40
1.0
 40
1.0
 40
1.0
 10
-25.6061
 20
78.2902
 30
0.0
 10
-25.6061
 20
78.2902
 30
0.0
 10
-18.1533
 20
75.2032
 30
0.0
 10
-18.1533
 20
75.2032
 30
0.0
 10
-18.1533
 20
75.2032
 30
0.0
 10
-18.1533
 20
75.2032
 30
0.0
 10
-19.9574
 20
70.8477
 30
0.0
 10
-19.9574
 20
70.8477
 30
0.0
 10
-19.9574
 20
70.8477
 30
0.0
 10
-19.9574
 20
70.8477
 30
0.0
 10
-17.1857
 20
69.6996
 30
0.0
 10
-17.1857
 20
69.6996
 30
0.0
 10
-17.1857
 20
69.6996
 30
0.0
 10
-17.1857
 20
69.6996
 30
0.0
 10
-15.3816
 20
74.0551
 30
0.0
 10
-15.3816
 20
74.0551
 30
0.0
 10
-15.3816
 20
74.0551
 30
0.0
 10
-15.3816
 20
74.0551
 30
0.0
 10
-7.9285
 20
70.9679
 30
0.0
 10
-7.9285
 20
70.9679
 30
0.0
 10
-7.9285
 20
70.9679
 30
0.0
 10
-7.9285
 20
70.9679
 30
0.0
 10
-4.8413
 20
63.5149
 30
0.0
 10
-4.8413
 20
63.5149
 30
0.0
 10
-4.8413
 20
63.5149
 30
0.0
 10
-4.8413
 20
63.5149
 30
0.0
 10
-9.197
 20
61.7107
 30
0.0
 10
-9.197
 20
61.7107
 30
0.0
 10
-9.197
 20
61.7107
 30
0.0
 10
-9.197
 20
61.7107
 30
0.0
 10
-8.0489
 20
58.9391
 30
0.0
 10
-8.0489
 20
58.9391
 30
0.0
 10
-8.0489
 20
58.9391
 30
0.0
 10
-8.0489
 20
58.9391
 30
0.0
 10
-3.6933
 20
60.7432
 30
0.0
 10
-3.6933
 20
60.7432
 30
0.0
 10
-3.6933
 20
60.7432
 30
0.0
 10
-3.6933
 20
60.7432
 30
0.0
 10
-0.6061
 20
53.2902
 30
0.0
 10
-0.6061
 20
53.2902
 30
0.0
 10
-0.6061
 20
53.2902
 30
0.0
 10
-0.6061
 20
53.2902
 30
0.0
 10
-3.6933
 20
45.8371
 30
0.0
 10
-3.6933
 20
45.8371
 30
0.0
 10
-3.6933
 20
45.8371
 30
0.0
 10
-3.6933
 20
45.8371
 30
0.0
 10
-8.049
 20
47.6413
 30
0.0
 10
-8.049
 20
47.6413
 30
0.0
 10
-8.049
 20
47.6413
 30
0.0
 10
-8.049
 20
47.6413
 30
0.0
 10
-9.1971
 20
44.8697
 30
0.0
 10
-9.1971
 20
44.8697
 30
0.0
 10
-9.1971
 20
44.8697
 30
0.0
 10
-9.1971
 20
44.8697
 30
0.0
 10
-4.8414
 20
43.0655
 30
0.0
 10
-4.8414
 20
43.0655
 30
0.0
 10
-4.8414
 20
43.0655
 30
0.0
 10
-4.8414
 20
43.0655
 30
0.0
 10
-7.9285
 20
35.6125
 30
0.0
 10
-7.9285
 20
35.6125
 30
0.0
 10
-7.9285
 20
35.6125
 30
0.0
 10
-7.9285
 20
35.6125
 30
0.0
 10
-15.3817
 20
32.5253
 30
0.0
 10
-15.3817
 20
32.5253
 30
0.0
 10
-15.3817
 20
32.5253
 30
0.0
 10
-15.3817
 20
32.5253
 30
0.0
 10
-17.1858
 20
36.8808
 30
0.0
 10
-17.1858
 20
36.8808
 30
0.0
 10
-17.1858
 20
36.8808
 30
0.0
 10
-17.1858
 20
36.8808
 30
0.0
 10
-19.9575
 20
35.7328
 30
0.0
 10
-19.9575
 20
35.7328
 30
0.0
 10
-19.9575
 20
35.7328
 30
0.0
 10
-19.9575
 20
35.7328
 30
0.0
 10
-18.1534
 20
31.3772
 30
0.0
 10
-18.1534
 20
31.3772
 30
0.0
 10
-18.1534
 20
31.3772
 30
0.0
 10
-18.1534
 20
31.3772
 30
0.0
 10
-25.6061
 20
28.2902
 30
0.0
 10
-25.6061
 20
28.2902
 30
0.0
 10
-25.6061
 20
28.2902
 30
0.0
 10
-25.6061
 20
28.2902
 30
0.0
 10
-33.0592
 20
31.3773
 30
0.0
 10
-33.0592
 20
31.3773
 30
0.0
 10
-33.0592
 20
31.3773
 30
0.0
 10
-33.0592
 20
31.3773
 30
0.0
 10
-31.2551
 20
35.7328
 30
0.0
 10
-31.2551
 20
35.7328
 30
0.0
 10
-31.2551
 20
35.7328
 30
0.0
 10
-31.2551
 20
35.7328
 30
0.0
 10
-34.0268
 20
36.8808
 30
0.0
 10
-34.0268
 20
36.8808
 30
0.0
 10
-34.0268
 20
36.8808
 30
0.0
 10
-34.0268
 20
36.8808
 30
0.0
 10
-35.8309
 20
32.5254
 30
0.0
 10
-35.8309
 20
32.5254
 30
0.0
 10
-35.8309
 20
32.5254
 30
0.0
 10
-35.8309
 20
32.5254
 30
0.0
 10
-43.2837
 20
35.6125
 30
0.0
 10
-43.2837
 20
35.6125
 30
0.0
 10
-43.2837
 20
35.6125
 30
0.0
 10
-43.2837
 20
35.6125
 30
0.0
 10
-46.3709
 20
43.0656
 30
0.0
 10
-46.3709
 20
43.0656
 30
0.0
 10
-46.3709
 20
43.0656
 30
0.0
 10
-46.3709
 20
43.0656
 30
0.0
 10
-42.0155
 20
44.8697
 30
0.0
 10
-42.0155
 20
44.8697
 30
0.0
 10
-42.0155
 20
44.8697
 30
0.0
 10
-42.0155
 20
44.8697
 30
0.0
 10
-43.1636
 20
47.6413
 30
0.0
 10
-43.1636
 20
47.6413
 30
0.0
 10
-43.1636
 20
47.6413
 30
0.0
 10
-43.1636
 20
47.6413
 30
0.0
 10
-47.519
 20
45.8373
 30
0.0
 10
-47.519
 20
45.8373
 30
0.0
 10
-47.519
 20
45.8373
 30
0.0
 10
-47.519
 20
45.8373
 30
0.0
 10
-50.6061
 20
53.2902
 30
0.0
 10
-50.6061
 20
53.2902
 30
0.0
 10
-50.6061
 20
53.2902
 30
0.0
 10
-50.6061
 20
53.2902
 30
0.0
 10
-47.519
 20
60.7431
 30
0.0
 10
-47.519
 20
60.7431
 30
0.0
 10
-47.519
 20
60.7431
 30
0.0
 10
-47.519
 20
60.7431
 30
0.0
 10
-43.1637
 20
58.9391
 30
0.0
 10
-43.1637
 20
58.9391
 30
0.0
 10
-43.1637
 20
58.9391
 30
0.0
 10
-43.1637
 20
58.9391
 30
0.0
 10
-42.0156
 20
61.7107
 30
0.0
 10
-42.0156
 20
61.7107
 30
0.0
 10
-42.0156
 20
61.7107
 30
0.0
 10
-42.0156
 20
61.7107
 30
0.0
 10
-46.3709
 20
63.5147
 30
0.0
 10
-46.3709
 20
63.5147
 30
0.0
 10
-46.3709
 20
63.5147
 30
0.0
 10
-46.3709
 20
63.5147
 30
0.0
 10
-43.2837
 20
70.9679
 30
0.0
 10
-43.2837
 20
70.9679
 30
0.0
 10
-43.2837
 20
70.9679
 30
0.0
 10
-43.2837
 20
70.9679
 30
0.0
 10
-35.8309
 20
74.055
 30
0.0
 10
-35.8309
 20
74.055
 30
0.0
 10
-35.8309
 20
74.055
 30
0.0
 10
-35.8309
 20
74.055
 30
0.0
 10
-34.0269
 20
69.6996
 30
0.0
 10
-34.0269
 20
69.6996
 30
0.0
 10
-34.0269
 20
69.6996
 30
0.0
 10
-34.0269
 20
69.6996
 30
0.0
 10
-31.2552
 20
70.8477
 30
0.0
 10
-31.2552
 20
70.8477
 30
0.0
 10
-31.2552
 20
70.8477
 30
0.0
 10
-31.2552
 20
70.8477
 30
0.0
 10
-33.0593
 20
75.203
 30
0.0
 10
-33.0593
 20
75.203
 30
0.0
 10
-33.0593
 20
75.203
 30
0.0
 10
-33.0593
 20
75.203
 30
0.0
 10
-25.6061
 20
78.2902
 30
0.0
 10
-25.6061
 20
78.2902
 30
0.0
  0
SPLINE
  5
46
330
1F
100
AcDbEntity
  8
Capa 1
 62
   250
370
     9
100
AcDbSpline
210
0.0
220
0.0
230
1.0
 70
    11
 71
     3
 72
   164
 73
   160
 74
     0
 42
0.0000000001
 43
0.0000000001
 40
0.0
 40
0.0
 40
0.0
 40
0.0
 40
0.024390243902439
 40
0.024390243902439
 40
0.024390243902439
 40
0.024390243902439
 40
0.0487804878048781
 40
0.0487804878048781
 40
0.0487804878048781
 40
0.0487804878048781
 40
0.0731707317073171
 40
0.0731707317073171
 40
0.0731707317073171
 40
0.0731707317073171
 40
0.0975609756097561
 40
0.0975609756097561
 40
0.0975609756097561
 40
0.0975609756097561
 40
0.1219512195121951
 40
0.1219512195121951
 40
0.1219512195121951
 40
0.1219512195121951
 40
0.1463414634146341
 40
0.1463414634146341
 40
0.1463414634146341
 40
0.1463414634146341
 40
0.1707317073170732
 40
0.1707317073170732
 40
0.1707317073170732
 40
0.1707317073170732
 40
0.1951219512195122
 40
0.1951219512195122
 40
0.1951219512195122
 40
0.1951219512195122
 40
0.2195121951219512
 40
0.2195121951219512
 40
0.2195121951219512
 40
0.2195121951219512
 40
0.2439024390243902
 40
0.2439024390243902
 40
0.2439024390243902
 40
0.2439024390243902
 40
0.2682926829268293
 40
0.2682926829268293
 40
0.2682926829268293
 40
0.2682926829268293
 40
0.2926829268292683
 40
0.2926829268292683
 40
0.2926829268292683
 40
0.2926829268292683
 40
0.3170731707317073
 40
0.3170731707317073
 40
0.3170731707317073
 40
0.3170731707317073
 40
0.3414634146341464
 40
0.3414634146341464
 40
0.3414634146341464
 40
0.3414634146341464
 40
0.3658536585365854
 40
0.3658536585365854
 40
0.3658536585365854
 40
0.3658536585365854
 40
0.3902439024390244
 40
0.3902439024390244
 40
0.3902439024390244
 40
0.3902439024390244
 40
0.4146341463414634
 40
0.4146341463414634
 40
0.4146341463414634
 40
0.4146341463414634
 40
0.4390243902439024
 40
0.4390243902439024
 40
0.4390243902439024
 40
0.4390243902439024
 40
0.4634146341463415
 40
0.4634146341463415
 40
0.4634146341463415
 40
0.4634146341463415
 40
0.4878048780487805
 40
0.4878048780487805
 40
0.4878048780487805
 40
0.4878048780487805
 40
0.5121951219512195
 40
0.5121951219512195
 40
0.5121951219512195
 40
0.5121951219512195
 40
0.5365853658536586
 40
0.5365853658536586
 40
0.5365853658536586
 40
0.5365853658536586
 40
0.5609756097560976
 40
0.5609756097560976
 40
0.5609756097560976
 40
0.5609756097560976
 40
0.5853658536585366
 40
0.5853658536585366
 40
0.5853658536585366
 40
0.5853658536585366
 40
0.6097560975609756
 40
0.6097560975609756
 40
0.6097560975609756
 40
0.6097560975609756
 40
0.6341463414634146
 40
0.6341463414634146
 40
0.6341463414634146
 40
0.6341463414634146
 40
0.6585365853658537
 40
0.6585365853658537
 40
0.6585365853658537
 40
0.6585365853658537
 40
0.6829268292682927
 40
0.6829268292682927
 40
0.6829268292682927
 40
0.6829268292682927
 40
0.7073170731707317
 40
0.7073170731707317
 40
0.7073170731707317
 40
0.7073170731707317
 40
0.7317073170731707
 40
0.7317073170731707
 40
0.7317073170731707
 40
0.7317073170731707
 40
0.7560975609756098
 40
0.7560975609756098
 40
0.7560975609756098
 40
0.7560975609756098
 40
0.7804878048780488
 40
0.7804878048780488
 40
0.7804878048780488
 40
0.7804878048780488
 40
0.8048780487804879
 40
0.8048780487804879
 40
0.8048780487804879
 40
0.8048780487804879
 40
0.8292682926829268
 40
0.8292682926829268
 40
0.8292682926829268
 40
0.8292682926829268
 40
0.8536585365853658
 40
0.8536585365853658
 40
0.8536585365853658
 40
0.8536585365853658
 40
0.8780487804878049
 40
0.8780487804878049
 40
0.8780487804878049
 40
0.8780487804878049
 40
0.9024390243902439
 40
0.9024390243902439
 40
0.9024390243902439
 40
0.9024390243902439
 40
0.926829268292683
 40
0.926829268292683
 40
0.926829268292683
 40
0.926829268292683
 40
0.9512195121951219
 40
0.9512195121951219
 40
0.9512195121951219
 40
0.9512195121951219
 40
1.0
 40
1.0
 40
1.0
 40
1.0
 10
26.7814
 20
78.2902
 30
0.0
 10
26.7814
 20
78.2902
 30
0.0
 10
34.2342
 20
75.2032
 30
0.0
 10
34.2342
 20
75.2032
 30
0.0
 10
34.2342
 20
75.2032
 30
0.0
 10
34.2342
 20
75.2032
 30
0.0
 10
32.4301
 20
70.8477
 30
0.0
 10
32.4301
 20
70.8477
 30
0.0
 10
32.4301
 20
70.8477
 30
0.0
 10
32.4301
 20
70.8477
 30
0.0
 10
35.2018
 20
69.6996
 30
0.0
 10
35.2018
 20
69.6996
 30
0.0
 10
35.2018
 20
69.6996
 30
0.0
 10
35.2018
 20
69.6996
 30
0.0
 10
37.0059
 20
74.0551
 30
0.0
 10
37.0059
 20
74.0551
 30
0.0
 10
37.0059
 20
74.0551
 30
0.0
 10
37.0059
 20
74.0551
 30
0.0
 10
44.459
 20
70.9679
 30
0.0
 10
44.459
 20
70.9679
 30
0.0
 10
44.459
 20
70.9679
 30
0.0
 10
44.459
 20
70.9679
 30
0.0
 10
47.5462
 20
63.5149
 30
0.0
 10
47.5462
 20
63.5149
 30
0.0
 10
47.5462
 20
63.5149
 30
0.0
 10
47.5462
 20
63.5149
 30
0.0
 10
43.1905
 20
61.7107
 30
0.0
 10
43.1905
 20
61.7107
 30
0.0
 10
43.1905
 20
61.7107
 30
0.0
 10
43.1905
 20
61.7107
 30
0.0
 10
44.3386
 20
58.9391
 30
0.0
 10
44.3386
 20
58.9391
 30
0.0
 10
44.3386
 20
58.9391
 30
0.0
 10
44.3386
 20
58.9391
 30
0.0
 10
48.6942
 20
60.7432
 30
0.0
 10
48.6942
 20
60.7432
 30
0.0
 10
48.6942
 20
60.7432
 30
0.0
 10
48.6942
 20
60.7432
 30
0.0
 10
51.7814
 20
53.2902
 30
0.0
 10
51.7814
 20
53.2902
 30
0.0
 10
51.7814
 20
53.2902
 30
0.0
 10
51.7814
 20
53.2902
 30
0.0
 10
48.6942
 20
45.8371
 30
0.0
 10
48.6942
 20
45.8371
 30
0.0
 10
48.6942
 20
45.8371
 30
0.0
 10
48.6942
 20
45.8371
 30
0.0
 10
44.3385
 20
47.6413
 30
0.0
 10
44.3385
 20
47.6413
 30
0.0
 10
44.3385
 20
47.6413
 30
0.0
 10
44.3385
 20
47.6413
 30
0.0
 10
43.1904
 20
44.8697
 30
0.0
 10
43.1904
 20
44.8697
 30
0.0
 10
43.1904
 20
44.8697
 30
0.0
 10
43.1904
 20
44.8697
 30
0.0
 10
47.5461
 20
43.0655
 30
0.0
 10
47.5461
 20
43.0655
 30
0.0
 10
47.5461
 20
43.0655
 30
0.0
 10
47.5461
 20
43.0655
 30
0.0
 10
44.459
 20
35.6125
 30
0.0
 10
44.459
 20
35.6125
 30
0.0
 10
44.459
 20
35.6125
 30
0.0
 10
44.459
 20
35.6125
 30
0.0
 10
37.0058
 20
32.5253
 30
0.0
 10
37.0058
 20
32.5253
 30
0.0
 10
37.0058
 20
32.5253
 30
0.0
 10
37.0058
 20
32.5253
 30
0.0
 10
35.2017
 20
36.8808
 30
0.0
 10
35.2017
 20
36.8808
 30
0.0
 10
35.2017
 20
36.8808
 30
0.0
 10
35.2017
 20
36.8808
 30
0.0
 10
32.43
 20
35.7328
 30
0.0
 10
32.43
 20
35.7328
 30
0.0
 10
32.43
 20
35.7328
 30
0.0
 10
32.43
 20
35.7328
 30
0.0
 10
34.2341
 20
31.3772
 30
0.0
 10
34.2341
 20
31.3772
 30
0.0
 10
34.2341
 20
31.3772
 30
0.0
 10
34.2341
 20
31.3772
 30
0.0
 10
26.7814
 20
28.2902
 30
0.0
 10
26.7814
 20
28.2902
 30
0.0
 10
26.7814
 20
28.2902
 30
0.0
 10
26.7814
 20
28.2902
 30
0.0
 10
19.3283
 20
31.3773
 30
0.0
 10
19.3283
 20
31.3773
 30
0.0
 10
19.3283
 20
31.3773
 30
0.0
 10
19.3283
 20
31.3773
 30
0.0
 10
21.1324
 20
35.7328
 30
0.0
 10
21.1324
 20
35.7328
 30
0.0
 10
21.1324
 20
35.7328
 30
0.0
 10
21.1324
 20
35.7328
 30
0.0
 10
18.3607
 20
36.8808
 30
0.0
 10
18.3607
 20
36.8808
 30
0.0
 10
18.3607
 20
36.8808
 30
0.0
 10
18.3607
 20
36.8808
 30
0.0
 10
16.5566
 20
32.5254
 30
0.0
 10
16.5566
 20
32.5254
 30
0.0
 10
16.5566
 20
32.5254
 30
0.0
 10
16.5566
 20
32.5254
 30
0.0
 10
9.1038
 20
35.6125
 30
0.0
 10
9.1038
 20
35.6125
 30
0.0
 10
9.1038
 20
35.6125
 30
0.0
 10
9.1038
 20
35.6125
 30
0.0
 10
6.0166
 20
43.0656
 30
0.0
 10
6.0166
 20
43.0656
 30
0.0
 10
6.0166
 20
43.0656
 30
0.0
 10
6.0166
 20
43.0656
 30
0.0
 10
10.372
 20
44.8697
 30
0.0
 10
10.372
 20
44.8697
 30
0.0
 10
10.372
 20
44.8697
 30
0.0
 10
10.372
 20
44.8697
 30
0.0
 10
9.2239
 20
47.6413
 30
0.0
 10
9.2239
 20
47.6413
 30
0.0
 10
9.2239
 20
47.6413
 30
0.0
 10
9.2239
 20
47.6413
 30
0.0
 10
4.8685
 20
45.8373
 30
0.0
 10
4.8685
 20
45.8373
 30
0.0
 10
4.8685
 20
45.8373
 30
0.0
 10
4.8685
 20
45.8373
 30
0.0
 10
1.7814
 20
53.2902
 30
0.0
 10
1.7814
 20
53.2902
 30
0.0
 10
1.7814
 20
53.2902
 30
0.0
 10
1.7814
 20
53.2902
 30
0.0
 10
4.8685
 20
60.7431
 30
0.0
 10
4.8685
 20
60.7431
 30
0.0
 10
4.8685
 20
60.7431
 30
0.0
 10
4.8685
 20
60.7431
 30
0.0
 10
9.2238
 20
58.9391
 30
0.0
 10
9.2238
 20
58.9391
 30
0.0
 10
9.2238
 20
58.9391
 30
0.0
 10
9.2238
 20
58.9391
 30
0.0
 10
10.3719
 20
61.7107
 30
0.0
 10
10.3719
 20
61.7107
 30
0.0
 10
10.3719
 20
61.7107
 30
0.0
 10
10.3719
 20
61.7107
 30
0.0
 10
6.0166
 20
63.5147
 30
0.0
 10
6.0166
 20
63.5147
 30
0.0
 10
6.0166
 20
63.5147
 30
0.0
 10
6.0166
 20
63.5147
 30
0.0
 10
9.1038
 20
70.9679
 30
0.0
 10
9.1038
 20
70.9679
 30
0.0
 10
9.1038
 20
70.9679
 30
0.0
 10
9.1038
 20
70.9679
 30
0.0
 10
16.5566
 20
74.055
 30
0.0
 10
16.5566
 20
74.055
 30
0.0
 10
16.5566
 20
74.055
 30
0.0
 10
16.5566
 20
74.055
 30
0.0
 10
18.3606
 20
69.6996
 30
0.0
 10
18.3606
 20
69.6996
 30
0.0
 10
18.3606
 20
69.6996
 30
0.0
 10
18.3606
 20
69.6996
 30
0.0
 10
21.1323
 20
70.8477
 30
0.0
 10
21.1323
 20
70.8477
 30
0.0
 10
21.1323
 20
70.8477
 30
0.0
 10
21.1323
 20
70.8477
 30
0.0
 10
19.3282
 20
75.203
 30
0.0
 10
19.3282
 20
75.203
 30
0.0
 10
19.3282
 20
75.203
 30
0.0
 10
19.3282
 20
75.203
 30
0.0
 10
26.7814
 20
78.2902
 30
0.0
 10
26.7814
 20
78.2902
 30
0.0
  0
SPLINE
  5
47
330
1F
100
AcDbEntity
  8
Capa 1
 62
   250
370
     9
100
AcDbSpline
210
0.0
220
0.0
230
1.0
 70
    11
 71
     3
 72
   164
 73
   160
 74
     0
 42
0.0000000001
 43
0.0000000001
 40
0.0
 40
0.0
 40
0.0
 40
0.0
 40
0.024390243902439
 40
0.024390243902439
 40
0.024390243902439
 40
0.024390243902439
 40
0.0487804878048781
 40
0.0487804878048781
 40
0.0487804878048781
 40
0.0487804878048781
 40
0.0731707317073171
 40
0.0731707317073171
 40
0.0731707317073171
 40
0.0731707317073171
 40
0.0975609756097561
 40
0.0975609756097561
 40
0.0975609756097561
 40
0.0975609756097561
 40
0.1219512195121951
 40
0.1219512195121951
 40
0.1219512195121951
 40
0.1219512195121951
 40
0.1463414634146341
 40
0.1463414634146341
 40
0.1463414634146341
 40
0.1463414634146341
 40
0.1707317073170732
 40
0.1707317073170732
 40
0.1707317073170732
 40
0.1707317073170732
 40
0.1951219512195122
 40
0.1951219512195122
 40
0.1951219512195122
 40
0.1951219512195122
 40
0.2195121951219512
 40
0.2195121951219512
 40
0.2195121951219512
 40
0.2195121951219512
 40
0.2439024390243902
 40
0.2439024390243902
 40
0.2439024390243902
 40
0.2439024390243902
 40
0.2682926829268293
 40
0.2682926829268293
 40
0.2682926829268293
 40
0.2682926829268293
 40
0.2926829268292683
 40
0.2926829268292683
 40
0.2926829268292683
 40
0.2926829268292683
 40
0.3170731707317073
 40
0.3170731707317073
 40
0.3170731707317073
 40
0.3170731707317073
 40
0.3414634146341464
 40
0.3414634146341464
 40
0.3414634146341464
 40
0.3414634146341464
 40
0.3658536585365854
 40
0.3658536585365854
 40
0.3658536585365854
 40
0.3658536585365854
 40
0.3902439024390244
 40
0.3902439024390244
 40
0.3902439024390244
 40
0.3902439024390244
 40
0.4146341463414634
 40
0.4146341463414634
 40
0.4146341463414634
 40
0.4146341463414634
 40
0.4390243902439024
 40
0.4390243902439024
 40
0.4390243902439024
 40
0.4390243902439024
 40
0.4634146341463415
 40
0.4634146341463415
 40
0.4634146341463415
 40
0.4634146341463415
 40
0.4878048780487805
 40
0.4878048780487805
 40
0.4878048780487805
 40
0.4878048780487805
 40
0.5121951219512195
 40
0.5121951219512195
 40
0.5121951219512195
 40
0.5121951219512195
 40
0.5365853658536586
 40
0.5365853658536586
 40
0.5365853658536586
 40
0.5365853658536586
 40
0.5609756097560976
 40
0.5609756097560976
 40
0.5609756097560976
 40
0.5609756097560976
 40
0.5853658536585366
 40
0.5853658536585366
 40
0.5853658536585366
 40
0.5853658536585366
 40
0.6097560975609756
 40
0.6097560975609756
 40
0.6097560975609756
 40
0.6097560975609756
 40
0.6341463414634146
 40
0.6341463414634146
 40
0.6341463414634146
 40
0.6341463414634146
 40
0.6585365853658537
 40
0.6585365853658537
 40
0.6585365853658537
 40
0.6585365853658537
 40
0.6829268292682927
 40
0.6829268292682927
 40
0.6829268292682927
 40
0.6829268292682927
 40
0.7073170731707317
 40
0.7073170731707317
 40
0.7073170731707317
 40
0.7073170731707317
 40
0.7317073170731707
 40
0.7317073170731707
 40
0.7317073170731707
 40
0.7317073170731707
 40
0.7560975609756098
 40
0.7560975609756098
 40
0.7560975609756098
 40
0.7560975609756098
 40
0.7804878048780488
 40
0.7804878048780488
 40
0.7804878048780488
 40
0.7804878048780488
 40
0.8048780487804879
 40
0.8048780487804879
 40
0.8048780487804879
 40
0.8048780487804879
 40
0.8292682926829268
 40
0.8292682926829268
 40
0.8292682926829268
 40
0.8292682926829268
 40
0.8536585365853658
 40
0.8536585365853658
 40
0.8536585365853658
 40
0.8536585365853658
 40
0.8780487804878049
 40
0.8780487804878049
 40
0.8780487804878049
 40
0.8780487804878049
 40
0.9024390243902439
 40
0.9024390243902439
 40
0.9024390243902439
 40
0.9024390243902439
 40
0.926829268292683
 40
0.926829268292683
 40
0.926829268292683
 40
0.926829268292683
 40
0.9512195121951219
 40
0.9512195121951219
 40
0.9512195121951219
 40
0.9512195121951219
 40
1.0
 40
1.0
 40
1.0
 40
1.0
 10
-77.9936
 20
25.7735
 30
0.0
 10
-77.9936
 20
25.7735
 30
0.0
 10
-70.5408
 20
22.6865
 30
0.0
 10
-70.5408
 20
22.6865
 30
0.0
 10
-70.5408
 20
22.6865
 30
0.0
 10
-70.5408
 20
22.6865
 30
0.0
 10
-72.3449
 20
18.331
 30
0.0
 10
-72.3449
 20
18.331
 30
0.0
 10
-72.3449
 20
18.331
 30
0.0
 10
-72.3449
 20
18.331
 30
0.0
 10
-69.5732
 20
17.1829
 30
0.0
 10
-69.5732
 20
17.1829
 30
0.0
 10
-69.5732
 20
17.1829
 30
0.0
 10
-69.5732
 20
17.1829
 30
0.0
 10
-67.7691
 20
21.5384
 30
0.0
 10
-67.7691
 20
21.5384
 30
0.0
 10
-67.7691
 20
21.5384
 30
0.0
 10
-67.7691
 20
21.5384
 30
0.0
 10
-60.316
 20
18.4512
 30
0.0
 10
-60.316
 20
18.4512
 30
0.0
 10
-60.316
 20
18.4512
 30
0.0
 10
-60.316
 20
18.4512
 30
0.0
 10
-57.2288
 20
10.9982
 30
0.0
 10
-57.2288
 20
10.9982
 30
0.0
 10
-57.2288
 20
10.9982
 30
0.0
 10
-57.2288
 20
10.9982
 30
0.0
 10
-61.5845
 20
9.194
 30
0.0
 10
-61.5845
 20
9.194
 30
0.0
 10
-61.5845
 20
9.194
 30
0.0
 10
-61.5845
 20
9.194
 30
0.0
 10
-60.4364
 20
6.4224
 30
0.0
 10
-60.4364
 20
6.4224
 30
0.0
 10
-60.4364
 20
6.4224
 30
0.0
 10
-60.4364
 20
6.4224
 30
0.0
 10
-56.0808
 20
8.2265
 30
0.0
 10
-56.0808
 20
8.2265
 30
0.0
 10
-56.0808
 20
8.2265
 30
0.0
 10
-56.0808
 20
8.2265
 30
0.0
 10
-52.9936
 20
0.7735
 30
0.0
 10
-52.9936
 20
0.7735
 30
0.0
 10
-52.9936
 20
0.7735
 30
0.0
 10
-52.9936
 20
0.7735
 30
0.0
 10
-56.0808
 20
-6.6796
 30
0.0
 10
-56.0808
 20
-6.6796
 30
0.0
 10
-56.0808
 20
-6.6796
 30
0.0
 10
-56.0808
 20
-6.6796
 30
0.0
 10
-60.4365
 20
-4.8754
 30
0.0
 10
-60.4365
 20
-4.8754
 30
0.0
 10
-60.4365
 20
-4.8754
 30
0.0
 10
-60.4365
 20
-4.8754
 30
0.0
 10
-61.5846
 20
-7.647
 30
0.0
 10
-61.5846
 20
-7.647
 30
0.0
 10
-61.5846
 20
-7.647
 30
0.0
 10
-61.5846
 20
-7.647
 30
0.0
 10
-57.2289
 20
-9.4512
 30
0.0
 10
-57.2289
 20
-9.4512
 30
0.0
 10
-57.2289
 20
-9.4512
 30
0.0
 10
-57.2289
 20
-9.4512
 30
0.0
 10
-60.316
 20
-16.9042
 30
0.0
 10
-60.316
 20
-16.9042
 30
0.0
 10
-60.316
 20
-16.9042
 30
0.0
 10
-60.316
 20
-16.9042
 30
0.0
 10
-67.7692
 20
-19.9914
 30
0.0
 10
-67.7692
 20
-19.9914
 30
0.0
 10
-67.7692
 20
-19.9914
 30
0.0
 10
-67.7692
 20
-19.9914
 30
0.0
 10
-69.5733
 20
-15.6359
 30
0.0
 10
-69.5733
 20
-15.6359
 30
0.0
 10
-69.5733
 20
-15.6359
 30
0.0
 10
-69.5733
 20
-15.6359
 30
0.0
 10
-72.345
 20
-16.7839
 30
0.0
 10
-72.345
 20
-16.7839
 30
0.0
 10
-72.345
 20
-16.7839
 30
0.0
 10
-72.345
 20
-16.7839
 30
0.0
 10
-70.5409
 20
-21.1395
 30
0.0
 10
-70.5409
 20
-21.1395
 30
0.0
 10
-70.5409
 20
-21.1395
 30
0.0
 10
-70.5409
 20
-21.1395
 30
0.0
 10
-77.9936
 20
-24.2265
 30
0.0
 10
-77.9936
 20
-24.2265
 30
0.0
 10
-77.9936
 20
-24.2265
 30
0.0
 10
-77.9936
 20
-24.2265
 30
0.0
 10
-85.4467
 20
-21.1394
 30
0.0
 10
-85.4467
 20
-21.1394
 30
0.0
 10
-85.4467
 20
-21.1394
 30
0.0
 10
-85.4467
 20
-21.1394
 30
0.0
 10
-83.6426
 20
-16.7839
 30
0.0
 10
-83.6426
 20
-16.7839
 30
0.0
 10
-83.6426
 20
-16.7839
 30
0.0
 10
-83.6426
 20
-16.7839
 30
0.0
 10
-86.4143
 20
-15.6359
 30
0.0
 10
-86.4143
 20
-15.6359
 30
0.0
 10
-86.4143
 20
-15.6359
 30
0.0
 10
-86.4143
 20
-15.6359
 30
0.0
 10
-88.2184
 20
-19.9913
 30
0.0
 10
-88.2184
 20
-19.9913
 30
0.0
 10
-88.2184
 20
-19.9913
 30
0.0
 10
-88.2184
 20
-19.9913
 30
0.0
 10
-95.6712
 20
-16.9042
 30
0.0
 10
-95.6712
 20
-16.9042
 30
0.0
 10
-95.6712
 20
-16.9042
 30
0.0
 10
-95.6712
 20
-16.9042
 30
0.0
 10
-98.7584
 20
-9.4511
 30
0.0
 10
-98.7584
 20
-9.4511
 30
0.0
 10
-98.7584
 20
-9.4511
 30
0.0
 10
-98.7584
 20
-9.4511
 30
0.0
 10
-94.403
 20
-7.647
 30
0.0
 10
-94.403
 20
-7.647
 30
0.0
 10
-94.403
 20
-7.647
 30
0.0
 10
-94.403
 20
-7.647
 30
0.0
 10
-95.5511
 20
-4.8754
 30
0.0
 10
-95.5511
 20
-4.8754
 30
0.0
 10
-95.5511
 20
-4.8754
 30
0.0
 10
-95.5511
 20
-4.8754
 30
0.0
 10
-99.9065
 20
-6.6794
 30
0.0
 10
-99.9065
 20
-6.6794
 30
0.0
 10
-99.9065
 20
-6.6794
 30
0.0
 10
-99.9065
 20
-6.6794
 30
0.0
 10
-102.9936
 20
0.7735
 30
0.0
 10
-102.9936
 20
0.7735
 30
0.0
 10
-102.9936
 20
0.7735
 30
0.0
 10
-102.9936
 20
0.7735
 30
0.0
 10
-99.9065
 20
8.2264
 30
0.0
 10
-99.9065
 20
8.2264
 30
0.0
 10
-99.9065
 20
8.2264
 30
0.0
 10
-99.9065
 20
8.2264
 30
0.0
 10
-95.5512
 20
6.4224
 30
0.0
 10
-95.5512
 20
6.4224
 30
0.0
 10
-95.5512
 20
6.4224
 30
0.0
 10
-95.5512
 20
6.4224
 30
0.0
 10
-94.4031
 20
9.194
 30
0.0
 10
-94.4031
 20
9.194
 30
0.0
 10
-94.4031
 20
9.194
 30
0.0
 10
-94.4031
 20
9.194
 30
0.0
 10
-98.7584
 20
10.998
 30
0.0
 10
-98.7584
 20
10.998
 30
0.0
 10
-98.7584
 20
10.998
 30
0.0
 10
-98.7584
 20
10.998
 30
0.0
 10
-95.6712
 20
18.4512
 30
0.0
 10
-95.6712
 20
18.4512
 30
0.0
 10
-95.6712
 20
18.4512
 30
0.0
 10
-95.6712
 20
18.4512
 30
0.0
 10
-88.2184
 20
21.5383
 30
0.0
 10
-88.2184
 20
21.5383
 30
0.0
 10
-88.2184
 20
21.5383
 30
0.0
 10
-88.2184
 20
21.5383
 30
0.0
 10
-86.4144
 20
17.1829
 30
0.0
 10
-86.4144
 20
17.1829
 30
0.0
 10
-86.4144
 20
17.1829
 30
0.0
 10
-86.4144
 20
17.1829
 30
0.0
 10
-83.6427
 20
18.331
 30
0.0
 10
-83.6427
 20
18.331
 30
0.0
 10
-83.6427
 20
18.331
 30
0.0
 10
-83.6427
 20
18.331
 30
0.0
 10
-85.4468
 20
22.6863
 30
0.0
 10
-85.4468
 20
22.6863
 30
0.0
 10
-85.4468
 20
22.6863
 30
0.0
 10
-85.4468
 20
22.6863
 30
0.0
 10
-77.9936
 20
25.7735
 30
0.0
 10
-77.9936
 20
25.7735
 30
0.0
  0
SPLINE
  5
48
330
1F
100
AcDbEntity
  8
Capa 1
 62
   250
370
     9
100
AcDbSpline
210
0.0
220
0.0
230
1.0
 70
    11
 71
     3
 72
   164
 73
   160
 74
     0
 42
0.0000000001
 43
0.0000000001
 40
0.0
 40
0.0
 40
0.0
 40
0.0
 40
0.024390243902439
 40
0.024390243902439
 40
0.024390243902439
 40
0.024390243902439
 40
0.0487804878048781
 40
0.0487804878048781
 40
0.0487804878048781
 40
0.0487804878048781
 40
0.0731707317073171
 40
0.0731707317073171
 40
0.0731707317073171
 40
0.0731707317073171
 40
0.0975609756097561
 40
0.0975609756097561
 40
0.0975609756097561
 40
0.0975609756097561
 40
0.1219512195121951
 40
0.1219512195121951
 40
0.1219512195121951
 40
0.1219512195121951
 40
0.1463414634146341
 40
0.1463414634146341
 40
0.1463414634146341
 40
0.1463414634146341
 40
0.1707317073170732
 40
0.1707317073170732
 40
0.1707317073170732
 40
0.1707317073170732
 40
0.1951219512195122
 40
0.1951219512195122
 40
0.1951219512195122
 40
0.1951219512195122
 40
0.2195121951219512
 40
0.2195121951219512
 40
0.2195121951219512
 40
0.2195121951219512
 40
0.2439024390243902
 40
0.2439024390243902
 40
0.2439024390243902
 40
0.2439024390243902
 40
0.2682926829268293
 40
0.2682926829268293
 40
0.2682926829268293
 40
0.2682926829268293
 40
0.2926829268292683
 40
0.2926829268292683
 40
0.2926829268292683
 40
0.2926829268292683
 40
0.3170731707317073
 40
0.3170731707317073
 40
0.3170731707317073
 40
0.3170731707317073
 40
0.3414634146341464
 40
0.3414634146341464
 40
0.3414634146341464
 40
0.3414634146341464
 40
0.3658536585365854
 40
0.3658536585365854
 40
0.3658536585365854
 40
0.3658536585365854
 40
0.3902439024390244
 40
0.3902439024390244
 40
0.3902439024390244
 40
0.3902439024390244
 40
0.4146341463414634
 40
0.4146341463414634
 40
0.4146341463414634
 40
0.4146341463414634
 40
0.4390243902439024
 40
0.4390243902439024
 40
0.4390243902439024
 40
0.4390243902439024
 40
0.4634146341463415
 40
0.4634146341463415
 40
0.4634146341463415
 40
0.4634146341463415
 40
0.4878048780487805
 40
0.4878048780487805
 40
0.4878048780487805
 40
0.4878048780487805
 40
0.5121951219512195
 40
0.5121951219512195
 40
0.5121951219512195
 40
0.5121951219512195
 40
0.5365853658536586
 40
0.5365853658536586
 40
0.5365853658536586
 40
0.5365853658536586
 40
0.5609756097560976
 40
0.5609756097560976
 40
0.5609756097560976
 40
0.5609756097560976
 40
0.5853658536585366
 40
0.5853658536585366
 40
0.5853658536585366
 40
0.5853658536585366
 40
0.6097560975609756
 40
0.6097560975609756
 40
0.6097560975609756
 40
0.6097560975609756
 40
0.6341463414634146
 40
0.6341463414634146
 40
0.6341463414634146
 40
0.6341463414634146
 40
0.6585365853658537
 40
0.6585365853658537
 40
0.6585365853658537
 40
0.6585365853658537
 40
0.6829268292682927
 40
0.6829268292682927
 40
0.6829268292682927
 40
0.6829268292682927
 40
0.7073170731707317
 40
0.7073170731707317
 40
0.7073170731707317
 40
0.7073170731707317
 40
0.7317073170731707
 40
0.7317073170731707
 40
0.7317073170731707
 40
0.7317073170731707
 40
0.7560975609756098
 40
0.7560975609756098
 40
0.7560975609756098
 40
0.7560975609756098
 40
0.7804878048780488
 40
0.7804878048780488
 40
0.7804878048780488
 40
0.7804878048780488
 40
0.8048780487804879
 40
0.8048780487804879
 40
0.8048780487804879
 40
0.8048780487804879
 40
0.8292682926829268
 40
0.8292682926829268
 40
0.8292682926829268
 40
0.8292682926829268
 40
0.8536585365853658
 40
0.8536585365853658
 40
0.8536585365853658
 40
0.8536585365853658
 40
0.8780487804878049
 40
0.8780487804878049
 40
0.8780487804878049
 40
0.8780487804878049
 40
0.9024390243902439
 40
0.9024390243902439
 40
0.9024390243902439
 40
0.9024390243902439
 40
0.926829268292683
 40
0.926829268292683
 40
0.926829268292683
 40
0.926829268292683
 40
0.9512195121951219
 40
0.9512195121951219
 40
0.9512195121951219
 40
0.9512195121951219
 40
1.0
 40
1.0
 40
1.0
 40
1.0
 10
-25.6061
 20
25.7735
 30
0.0
 10
-25.6061
 20
25.7735
 30
0.0
 10
-18.1533
 20
22.6865
 30
0.0
 10
-18.1533
 20
22.6865
 30
0.0
 10
-18.1533
 20
22.6865
 30
0.0
 10
-18.1533
 20
22.6865
 30
0.0
 10
-19.9574
 20
18.331
 30
0.0
 10
-19.9574
 20
18.331
 30
0.0
 10
-19.9574
 20
18.331
 30
0.0
 10
-19.9574
 20
18.331
 30
0.0
 10
-17.1857
 20
17.1829
 30
0.0
 10
-17.1857
 20
17.1829
 30
0.0
 10
-17.1857
 20
17.1829
 30
0.0
 10
-17.1857
 20
17.1829
 30
0.0
 10
-15.3816
 20
21.5384
 30
0.0
 10
-15.3816
 20
21.5384
 30
0.0
 10
-15.3816
 20
21.5384
 30
0.0
 10
-15.3816
 20
21.5384
 30
0.0
 10
-7.9285
 20
18.4512
 30
0.0
 10
-7.9285
 20
18.4512
 30
0.0
 10
-7.9285
 20
18.4512
 30
0.0
 10
-7.9285
 20
18.4512
 30
0.0
 10
-4.8413
 20
10.9982
 30
0.0
 10
-4.8413
 20
10.9982
 30
0.0
 10
-4.8413
 20
10.9982
 30
0.0
 10
-4.8413
 20
10.9982
 30
0.0
 10
-9.197
 20
9.194
 30
0.0
 10
-9.197
 20
9.194
 30
0.0
 10
-9.197
 20
9.194
 30
0.0
 10
-9.197
 20
9.194
 30
0.0
 10
-8.0489
 20
6.4224
 30
0.0
 10
-8.0489
 20
6.4224
 30
0.0
 10
-8.0489
 20
6.4224
 30
0.0
 10
-8.0489
 20
6.4224
 30
0.0
 10
-3.6933
 20
8.2265
 30
0.0
 10
-3.6933
 20
8.2265
 30
0.0
 10
-3.6933
 20
8.2265
 30
0.0
 10
-3.6933
 20
8.2265
 30
0.0
 10
-0.6061
 20
0.7735
 30
0.0
 10
-0.6061
 20
0.7735
 30
0.0
 10
-0.6061
 20
0.7735
 30
0.0
 10
-0.6061
 20
0.7735
 30
0.0
 10
-3.6933
 20
-6.6796
 30
0.0
 10
-3.6933
 20
-6.6796
 30
0.0
 10
-3.6933
 20
-6.6796
 30
0.0
 10
-3.6933
 20
-6.6796
 30
0.0
 10
-8.049
 20
-4.8754
 30
0.0
 10
-8.049
 20
-4.8754
 30
0.0
 10
-8.049
 20
-4.8754
 30
0.0
 10
-8.049
 20
-4.8754
 30
0.0
 10
-9.1971
 20
-7.647
 30
0.0
 10
-9.1971
 20
-7.647
 30
0.0
 10
-9.1971
 20
-7.647
 30
0.0
 10
-9.1971
 20
-7.647
 30
0.0
 10
-4.8414
 20
-9.4512
 30
0.0
 10
-4.8414
 20
-9.4512
 30
0.0
 10
-4.8414
 20
-9.4512
 30
0.0
 10
-4.8414
 20
-9.4512
 30
0.0
 10
-7.9285
 20
-16.9042
 30
0.0
 10
-7.9285
 20
-16.9042
 30
0.0
 10
-7.9285
 20
-16.9042
 30
0.0
 10
-7.9285
 20
-16.9042
 30
0.0
 10
-15.3817
 20
-19.9914
 30
0.0
 10
-15.3817
 20
-19.9914
 30
0.0
 10
-15.3817
 20
-19.9914
 30
0.0
 10
-15.3817
 20
-19.9914
 30
0.0
 10
-17.1858
 20
-15.6359
 30
0.0
 10
-17.1858
 20
-15.6359
 30
0.0
 10
-17.1858
 20
-15.6359
 30
0.0
 10
-17.1858
 20
-15.6359
 30
0.0
 10
-19.9575
 20
-16.7839
 30
0.0
 10
-19.9575
 20
-16.7839
 30
0.0
 10
-19.9575
 20
-16.7839
 30
0.0
 10
-19.9575
 20
-16.7839
 30
0.0
 10
-18.1534
 20
-21.1395
 30
0.0
 10
-18.1534
 20
-21.1395
 30
0.0
 10
-18.1534
 20
-21.1395
 30
0.0
 10
-18.1534
 20
-21.1395
 30
0.0
 10
-25.6061
 20
-24.2265
 30
0.0
 10
-25.6061
 20
-24.2265
 30
0.0
 10
-25.6061
 20
-24.2265
 30
0.0
 10
-25.6061
 20
-24.2265
 30
0.0
 10
-33.0592
 20
-21.1394
 30
0.0
 10
-33.0592
 20
-21.1394
 30
0.0
 10
-33.0592
 20
-21.1394
 30
0.0
 10
-33.0592
 20
-21.1394
 30
0.0
 10
-31.2551
 20
-16.7839
 30
0.0
 10
-31.2551
 20
-16.7839
 30
0.0
 10
-31.2551
 20
-16.7839
 30
0.0
 10
-31.2551
 20
-16.7839
 30
0.0
 10
-34.0268
 20
-15.6359
 30
0.0
 10
-34.0268
 20
-15.6359
 30
0.0
 10
-34.0268
 20
-15.6359
 30
0.0
 10
-34.0268
 20
-15.6359
 30
0.0
 10
-35.8309
 20
-19.9913
 30
0.0
 10
-35.8309
 20
-19.9913
 30
0.0
 10
-35.8309
 20
-19.9913
 30
0.0
 10
-35.8309
 20
-19.9913
 30
0.0
 10
-43.2837
 20
-16.9042
 30
0.0
 10
-43.2837
 20
-16.9042
 30
0.0
 10
-43.2837
 20
-16.9042
 30
0.0
 10
-43.2837
 20
-16.9042
 30
0.0
 10
-46.3709
 20
-9.4511
 30
0.0
 10
-46.3709
 20
-9.4511
 30
0.0
 10
-46.3709
 20
-9.4511
 30
0.0
 10
-46.3709
 20
-9.4511
 30
0.0
 10
-42.0155
 20
-7.647
 30
0.0
 10
-42.0155
 20
-7.647
 30
0.0
 10
-42.0155
 20
-7.647
 30
0.0
 10
-42.0155
 20
-7.647
 30
0.0
 10
-43.1636
 20
-4.8754
 30
0.0
 10
-43.1636
 20
-4.8754
 30
0.0
 10
-43.1636
 20
-4.8754
 30
0.0
 10
-43.1636
 20
-4.8754
 30
0.0
 10
-47.519
 20
-6.6794
 30
0.0
 10
-47.519
 20
-6.6794
 30
0.0
 10
-47.519
 20
-6.6794
 30
0.0
 10
-47.519
 20
-6.6794
 30
0.0
 10
-50.6061
 20
0.7735
 30
0.0
 10
-50.6061
 20
0.7735
 30
0.0
 10
-50.6061
 20
0.7735
 30
0.0
 10
-50.6061
 20
0.7735
 30
0.0
 10
-47.519
 20
8.2264
 30
0.0
 10
-47.519
 20
8.2264
 30
0.0
 10
-47.519
 20
8.2264
 30
0.0
 10
-47.519
 20
8.2264
 30
0.0
 10
-43.1637
 20
6.4224
 30
0.0
 10
-43.1637
 20
6.4224
 30
0.0
 10
-43.1637
 20
6.4224
 30
0.0
 10
-43.1637
 20
6.4224
 30
0.0
 10
-42.0156
 20
9.194
 30
0.0
 10
-42.0156
 20
9.194
 30
0.0
 10
-42.0156
 20
9.194
 30
0.0
 10
-42.0156
 20
9.194
 30
0.0
 10
-46.3709
 20
10.998
 30
0.0
 10
-46.3709
 20
10.998
 30
0.0
 10
-46.3709
 20
10.998
 30
0.0
 10
-46.3709
 20
10.998
 30
0.0
 10
-43.2837
 20
18.4512
 30
0.0
 10
-43.2837
 20
18.4512
 30
0.0
 10
-43.2837
 20
18.4512
 30
0.0
 10
-43.2837
 20
18.4512
 30
0.0
 10
-35.8309
 20
21.5383
 30
0.0
 10
-35.8309
 20
21.5383
 30
0.0
 10
-35.8309
 20
21.5383
 30
0.0
 10
-35.8309
 20
21.5383
 30
0.0
 10
-34.0269
 20
17.1829
 30
0.0
 10
-34.0269
 20
17.1829
 30
0.0
 10
-34.0269
 20
17.1829
 30
0.0
 10
-34.0269
 20
17.1829
 30
0.0
 10
-31.2552
 20
18.331
 30
0.0
 10
-31.2552
 20
18.331
 30
0.0
 10
-31.2552
 20
18.331
 30
0.0
 10
-31.2552
 20
18.331
 30
0.0
 10
-33.0593
 20
22.6863
 30
0.0
 10
-33.0593
 20
22.6863
 30
0.0
 10
-33.0593
 20
22.6863
 30
0.0
 10
-33.0593
 20
22.6863
 30
0.0
 10
-25.6061
 20
25.7735
 30
0.0
 10
-25.6061
 20
25.7735
 30
0.0
  0
SPLINE
  5
49
330
1F
100
AcDbEntity
  8
Capa 1
 62
   250
370
     9
100
AcDbSpline
210
0.0
220
0.0
230
1.0
 70
    11
 71
     3
 72
   164
 73
   160
 74
     0
 42
0.0000000001
 43
0.0000000001
 40
0.0
 40
0.0
 40
0.0
 40
0.0
 40
0.024390243902439
 40
0.024390243902439
 40
0.024390243902439
 40
0.024390243902439
 40
0.0487804878048781
 40
0.0487804878048781
 40
0.0487804878048781
 40
0.0487804878048781
 40
0.0731707317073171
 40
0.0731707317073171
 40
0.0731707317073171
 40
0.0731707317073171
 40
0.0975609756097561
 40
0.0975609756097561
 40
0.0975609756097561
 40
0.0975609756097561
 40
0.1219512195121951
 40
0.1219512195121951
 40
0.1219512195121951
 40
0.1219512195121951
 40
0.1463414634146341
 40
0.1463414634146341
 40
0.1463414634146341
 40
0.1463414634146341
 40
0.1707317073170732
 40
0.1707317073170732
 40
0.1707317073170732
 40
0.1707317073170732
 40
0.1951219512195122
 40
0.1951219512195122
 40
0.1951219512195122
 40
0.1951219512195122
 40
0.2195121951219512
 40
0.2195121951219512
 40
0.2195121951219512
 40
0.2195121951219512
 40
0.2439024390243902
 40
0.2439024390243902
 40
0.2439024390243902
 40
0.2439024390243902
 40
0.2682926829268293
 40
0.2682926829268293
 40
0.2682926829268293
 40
0.2682926829268293
 40
0.2926829268292683
 40
0.2926829268292683
 40
0.2926829268292683
 40
0.2926829268292683
 40
0.3170731707317073
 40
0.3170731707317073
 40
0.3170731707317073
 40
0.3170731707317073
 40
0.3414634146341464
 40
0.3414634146341464
 40
0.3414634146341464
 40
0.3414634146341464
 40
0.3658536585365854
 40
0.3658536585365854
 40
0.3658536585365854
 40
0.3658536585365854
 40
0.3902439024390244
 40
0.3902439024390244
 40
0.3902439024390244
 40
0.3902439024390244
 40
0.4146341463414634
 40
0.4146341463414634
 40
0.4146341463414634
 40
0.4146341463414634
 40
0.4390243902439024
 40
0.4390243902439024
 40
0.4390243902439024
 40
0.4390243902439024
 40
0.4634146341463415
 40
0.4634146341463415
 40
0.4634146341463415
 40
0.4634146341463415
 40
0.4878048780487805
 40
0.4878048780487805
 40
0.4878048780487805
 40
0.4878048780487805
 40
0.5121951219512195
 40
0.5121951219512195
 40
0.5121951219512195
 40
0.5121951219512195
 40
0.5365853658536586
 40
0.5365853658536586
 40
0.5365853658536586
 40
0.5365853658536586
 40
0.5609756097560976
 40
0.5609756097560976
 40
0.5609756097560976
 40
0.5609756097560976
 40
0.5853658536585366
 40
0.5853658536585366
 40
0.5853658536585366
 40
0.5853658536585366
 40
0.6097560975609756
 40
0.6097560975609756
 40
0.6097560975609756
 40
0.6097560975609756
 40
0.6341463414634146
 40
0.6341463414634146
 40
0.6341463414634146
 40
0.6341463414634146
 40
0.6585365853658537
 40
0.6585365853658537
 40
0.6585365853658537
 40
0.6585365853658537
 40
0.6829268292682927
 40
0.6829268292682927
 40
0.6829268292682927
 40
0.6829268292682927
 40
0.7073170731707317
 40
0.7073170731707317
 40
0.7073170731707317
 40
0.7073170731707317
 40
0.7317073170731707
 40
0.7317073170731707
 40
0.7317073170731707
 40
0.7317073170731707
 40
0.7560975609756098
 40
0.7560975609756098
 40
0.7560975609756098
 40
0.7560975609756098
 40
0.7804878048780488
 40
0.7804878048780488
 40
0.7804878048780488
 40
0.7804878048780488
 40
0.8048780487804879
 40
0.8048780487804879
 40
0.8048780487804879
 40
0.8048780487804879
 40
0.8292682926829268
 40
0.8292682926829268
 40
0.8292682926829268
 40
0.8292682926829268
 40
0.8536585365853658
 40
0.8536585365853658
 40
0.8536585365853658
 40
0.8536585365853658
 40
0.8780487804878049
 40
0.8780487804878049
 40
0.8780487804878049
 40
0.8780487804878049
 40
0.9024390243902439
 40
0.9024390243902439
 40
0.9024390243902439
 40
0.9024390243902439
 40
0.926829268292683
 40
0.926829268292683
 40
0.926829268292683
 40
0.926829268292683
 40
0.9512195121951219
 40
0.9512195121951219
 40
0.9512195121951219
 40
0.9512195121951219
 40
1.0
 40
1.0
 40
1.0
 40
1.0
 10
26.7814
 20
25.7735
 30
0.0
 10
26.7814
 20
25.7735
 30
0.0
 10
34.2342
 20
22.6865
 30
0.0
 10
34.2342
 20
22.6865
 30
0.0
 10
34.2342
 20
22.6865
 30
0.0
 10
34.2342
 20
22.6865
 30
0.0
 10
32.4301
 20
18.331
 30
0.0
 10
32.4301
 20
18.331
 30
0.0
 10
32.4301
 20
18.331
 30
0.0
 10
32.4301
 20
18.331
 30
0.0
 10
35.2018
 20
17.1829
 30
0.0
 10
35.2018
 20
17.1829
 30
0.0
 10
35.2018
 20
17.1829
 30
0.0
 10
35.2018
 20
17.1829
 30
0.0
 10
37.0059
 20
21.5384
 30
0.0
 10
37.0059
 20
21.5384
 30
0.0
 10
37.0059
 20
21.5384
 30
0.0
 10
37.0059
 20
21.5384
 30
0.0
 10
44.459
 20
18.4512
 30
0.0
 10
44.459
 20
18.4512
 30
0.0
 10
44.459
 20
18.4512
 30
0.0
 10
44.459
 20
18.4512
 30
0.0
 10
47.5462
 20
10.9982
 30
0.0
 10
47.5462
 20
10.9982
 30
0.0
 10
47.5462
 20
10.9982
 30
0.0
 10
47.5462
 20
10.9982
 30
0.0
 10
43.1905
 20
9.194
 30
0.0
 10
43.1905
 20
9.194
 30
0.0
 10
43.1905
 20
9.194
 30
0.0
 10
43.1905
 20
9.194
 30
0.0
 10
44.3386
 20
6.4224
 30
0.0
 10
44.3386
 20
6.4224
 30
0.0
 10
44.3386
 20
6.4224
 30
0.0
 10
44.3386
 20
6.4224
 30
0.0
 10
48.6942
 20
8.2265
 30
0.0
 10
48.6942
 20
8.2265
 30
0.0
 10
48.6942
 20
8.2265
 30
0.0
 10
48.6942
 20
8.2265
 30
0.0
 10
51.7814
 20
0.7735
 30
0.0
 10
51.7814
 20
0.7735
 30
0.0
 10
51.7814
 20
0.7735
 30
0.0
 10
51.7814
 20
0.7735
 30
0.0
 10
48.6942
 20
-6.6796
 30
0.0
 10
48.6942
 20
-6.6796
 30
0.0
 10
48.6942
 20
-6.6796
 30
0.0
 10
48.6942
 20
-6.6796
 30
0.0
 10
44.3385
 20
-4.8754
 30
0.0
 10
44.3385
 20
-4.8754
 30
0.0
 10
44.3385
 20
-4.8754
 30
0.0
 10
44.3385
 20
-4.8754
 30
0.0
 10
43.1904
 20
-7.647
 30
0.0
 10
43.1904
 20
-7.647
 30
0.0
 10
43.1904
 20
-7.647
 30
0.0
 10
43.1904
 20
-7.647
 30
0.0
 10
47.5461
 20
-9.4512
 30
0.0
 10
47.5461
 20
-9.4512
 30
0.0
 10
47.5461
 20
-9.4512
 30
0.0
 10
47.5461
 20
-9.4512
 30
0.0
 10
44.459
 20
-16.9042
 30
0.0
 10
44.459
 20
-16.9042
 30
0.0
 10
44.459
 20
-16.9042
 30
0.0
 10
44.459
 20
-16.9042
 30
0.0
 10
37.0058
 20
-19.9914
 30
0.0
 10
37.0058
 20
-19.9914
 30
0.0
 10
37.0058
 20
-19.9914
 30
0.0
 10
37.0058
 20
-19.9914
 30
0.0
 10
35.2017
 20
-15.6359
 30
0.0
 10
35.2017
 20
-15.6359
 30
0.0
 10
35.2017
 20
-15.6359
 30
0.0
 10
35.2017
 20
-15.6359
 30
0.0
 10
32.43
 20
-16.7839
 30
0.0
 10
32.43
 20
-16.7839
 30
0.0
 10
32.43
 20
-16.7839
 30
0.0
 10
32.43
 20
-16.7839
 30
0.0
 10
34.2341
 20
-21.1395
 30
0.0
 10
34.2341
 20
-21.1395
 30
0.0
 10
34.2341
 20
-21.1395
 30
0.0
 10
34.2341
 20
-21.1395
 30
0.0
 10
26.7814
 20
-24.2265
 30
0.0
 10
26.7814
 20
-24.2265
 30
0.0
 10
26.7814
 20
-24.2265
 30
0.0
 10
26.7814
 20
-24.2265
 30
0.0
 10
19.3283
 20
-21.1394
 30
0.0
 10
19.3283
 20
-21.1394
 30
0.0
 10
19.3283
 20
-21.1394
 30
0.0
 10
19.3283
 20
-21.1394
 30
0.0
 10
21.1324
 20
-16.7839
 30
0.0
 10
21.1324
 20
-16.7839
 30
0.0
 10
21.1324
 20
-16.7839
 30
0.0
 10
21.1324
 20
-16.7839
 30
0.0
 10
18.3607
 20
-15.6359
 30
0.0
 10
18.3607
 20
-15.6359
 30
0.0
 10
18.3607
 20
-15.6359
 30
0.0
 10
18.3607
 20
-15.6359
 30
0.0
 10
16.5566
 20
-19.9913
 30
0.0
 10
16.5566
 20
-19.9913
 30
0.0
 10
16.5566
 20
-19.9913
 30
0.0
 10
16.5566
 20
-19.9913
 30
0.0
 10
9.1038
 20
-16.9042
 30
0.0
 10
9.1038
 20
-16.9042
 30
0.0
 10
9.1038
 20
-16.9042
 30
0.0
 10
9.1038
 20
-16.9042
 30
0.0
 10
6.0166
 20
-9.4511
 30
0.0
 10
6.0166
 20
-9.4511
 30
0.0
 10
6.0166
 20
-9.4511
 30
0.0
 10
6.0166
 20
-9.4511
 30
0.0
 10
10.372
 20
-7.647
 30
0.0
 10
10.372
 20
-7.647
 30
0.0
 10
10.372
 20
-7.647
 30
0.0
 10
10.372
 20
-7.647
 30
0.0
 10
9.2239
 20
-4.8754
 30
0.0
 10
9.2239
 20
-4.8754
 30
0.0
 10
9.2239
 20
-4.8754
 30
0.0
 10
9.2239
 20
-4.8754
 30
0.0
 10
4.8685
 20
-6.6794
 30
0.0
 10
4.8685
 20
-6.6794
 30
0.0
 10
4.8685
 20
-6.6794
 30
0.0
 10
4.8685
 20
-6.6794
 30
0.0
 10
1.7814
 20
0.7735
 30
0.0
 10
1.7814
 20
0.7735
 30
0.0
 10
1.7814
 20
0.7735
 30
0.0
 10
1.7814
 20
0.7735
 30
0.0
 10
4.8685
 20
8.2264
 30
0.0
 10
4.8685
 20
8.2264
 30
0.0
 10
4.8685
 20
8.2264
 30
0.0
 10
4.8685
 20
8.2264
 30
0.0
 10
9.2238
 20
6.4224
 30
0.0
 10
9.2238
 20
6.4224
 30
0.0
 10
9.2238
 20
6.4224
 30
0.0
 10
9.2238
 20
6.4224
 30
0.0
 10
10.3719
 20
9.194
 30
0.0
 10
10.3719
 20
9.194
 30
0.0
 10
10.3719
 20
9.194
 30
0.0
 10
10.3719
 20
9.194
 30
0.0
 10
6.0166
 20
10.998
 30
0.0
 10
6.0166
 20
10.998
 30
0.0
 10
6.0166
 20
10.998
 30
0.0
 10
6.0166
 20
10.998
 30
0.0
 10
9.1038
 20
18.4512
 30
0.0
 10
9.1038
 20
18.4512
 30
0.0
 10
9.1038
 20
18.4512
 30
0.0
 10
9.1038
 20
18.4512
 30
0.0
 10
16.5566
 20
21.5383
 30
0.0
 10
16.5566
 20
21.5383
 30
0.0
 10
16.5566
 20
21.5383
 30
0.0
 10
16.5566
 20
21.5383
 30
0.0
 10
18.3606
 20
17.1829
 30
0.0
 10
18.3606
 20
17.1829
 30
0.0
 10
18.3606
 20
17.1829
 30
0.0
 10
18.3606
 20
17.1829
 30
0.0
 10
21.1323
 20
18.331
 30
0.0
 10
21.1323
 20
18.331
 30
0.0
 10
21.1323
 20
18.331
 30
0.0
 10
21.1323
 20
18.331
 30
0.0
 10
19.3282
 20
22.6863
 30
0.0
 10
19.3282
 20
22.6863
 30
0.0
 10
19.3282
 20
22.6863
 30
0.0
 10
19.3282
 20
22.6863
 30
0.0
 10
26.7814
 20
25.7735
 30
0.0
 10
26.7814
 20
25.7735
 30
0.0
  0
SPLINE
  5
4A
330
1F
100
AcDbEntity
  8
Capa 1
 62
   250
370
     9
100
AcDbSpline
210
0.0
220
0.0
230
1.0
 70
    11
 71
     3
 72
   164
 73
   160
 74
     0
 42
0.0000000001
 43
0.0000000001
 40
0.0
 40
0.0
 40
0.0
 40
0.0
 40
0.024390243902439
 40
0.024390243902439
 40
0.024390243902439
 40
0.024390243902439
 40
0.0487804878048781
 40
0.0487804878048781
 40
0.0487804878048781
 40
0.0487804878048781
 40
0.0731707317073171
 40
0.0731707317073171
 40
0.0731707317073171
 40
0.0731707317073171
 40
0.0975609756097561
 40
0.0975609756097561
 40
0.0975609756097561
 40
0.0975609756097561
 40
0.1219512195121951
 40
0.1219512195121951
 40
0.1219512195121951
 40
0.1219512195121951
 40
0.1463414634146341
 40
0.1463414634146341
 40
0.1463414634146341
 40
0.1463414634146341
 40
0.1707317073170732
 40
0.1707317073170732
 40
0.1707317073170732
 40
0.1707317073170732
 40
0.1951219512195122
 40
0.1951219512195122
 40
0.1951219512195122
 40
0.1951219512195122
 40
0.2195121951219512
 40
0.2195121951219512
 40
0.2195121951219512
 40
0.2195121951219512
 40
0.2439024390243902
 40
0.2439024390243902
 40
0.2439024390243902
 40
0.2439024390243902
 40
0.2682926829268293
 40
0.2682926829268293
 40
0.2682926829268293
 40
0.2682926829268293
 40
0.2926829268292683
 40
0.2926829268292683
 40
0.2926829268292683
 40
0.2926829268292683
 40
0.3170731707317073
 40
0.3170731707317073
 40
0.3170731707317073
 40
0.3170731707317073
 40
0.3414634146341464
 40
0.3414634146341464
 40
0.3414634146341464
 40
0.3414634146341464
 40
0.3658536585365854
 40
0.3658536585365854
 40
0.3658536585365854
 40
0.3658536585365854
 40
0.3902439024390244
 40
0.3902439024390244
 40
0.3902439024390244
 40
0.3902439024390244
 40
0.4146341463414634
 40
0.4146341463414634
 40
0.4146341463414634
 40
0.4146341463414634
 40
0.4390243902439024
 40
0.4390243902439024
 40
0.4390243902439024
 40
0.4390243902439024
 40
0.4634146341463415
 40
0.4634146341463415
 40
0.4634146341463415
 40
0.4634146341463415
 40
0.4878048780487805
 40
0.4878048780487805
 40
0.4878048780487805
 40
0.4878048780487805
 40
0.5121951219512195
 40
0.5121951219512195
 40
0.5121951219512195
 40
0.5121951219512195
 40
0.5365853658536586
 40
0.5365853658536586
 40
0.5365853658536586
 40
0.5365853658536586
 40
0.5609756097560976
 40
0.5609756097560976
 40
0.5609756097560976
 40
0.5609756097560976
 40
0.5853658536585366
 40
0.5853658536585366
 40
0.5853658536585366
 40
0.5853658536585366
 40
0.6097560975609756
 40
0.6097560975609756
 40
0.6097560975609756
 40
0.6097560975609756
 40
0.6341463414634146
 40
0.6341463414634146
 40
0.6341463414634146
 40
0.6341463414634146
 40
0.6585365853658537
 40
0.6585365853658537
 40
0.6585365853658537
 40
0.6585365853658537
 40
0.6829268292682927
 40
0.6829268292682927
 40
0.6829268292682927
 40
0.6829268292682927
 40
0.7073170731707317
 40
0.7073170731707317
 40
0.7073170731707317
 40
0.7073170731707317
 40
0.7317073170731707
 40
0.7317073170731707
 40
0.7317073170731707
 40
0.7317073170731707
 40
0.7560975609756098
 40
0.7560975609756098
 40
0.7560975609756098
 40
0.7560975609756098
 40
0.7804878048780488
 40
0.7804878048780488
 40
0.7804878048780488
 40
0.7804878048780488
 40
0.8048780487804879
 40
0.8048780487804879
 40
0.8048780487804879
 40
0.8048780487804879
 40
0.8292682926829268
 40
0.8292682926829268
 40
0.8292682926829268
 40
0.8292682926829268
 40
0.8536585365853658
 40
0.8536585365853658
 40
0.8536585365853658
 40
0.8536585365853658
 40
0.8780487804878049
 40
0.8780487804878049
 40
0.8780487804878049
 40
0.8780487804878049
 40
0.9024390243902439
 40
0.9024390243902439
 40
0.9024390243902439
 40
0.9024390243902439
 40
0.926829268292683
 40
0.926829268292683
 40
0.926829268292683
 40
0.926829268292683
 40
0.9512195121951219
 40
0.9512195121951219
 40
0.9512195121951219
 40
0.9512195121951219
 40
1.0
 40
1.0
 40
1.0
 40
1.0
 10
-77.9936
 20
-26.614
 30
0.0
 10
-77.9936
 20
-26.614
 30
0.0
 10
-70.5408
 20
-29.701
 30
0.0
 10
-70.5408
 20
-29.701
 30
0.0
 10
-70.5408
 20
-29.701
 30
0.0
 10
-70.5408
 20
-29.701
 30
0.0
 10
-72.3449
 20
-34.0565
 30
0.0
 10
-72.3449
 20
-34.0565
 30
0.0
 10
-72.3449
 20
-34.0565
 30
0.0
 10
-72.3449
 20
-34.0565
 30
0.0
 10
-69.5732
 20
-35.2046
 30
0.0
 10
-69.5732
 20
-35.2046
 30
0.0
 10
-69.5732
 20
-35.2046
 30
0.0
 10
-69.5732
 20
-35.2046
 30
0.0
 10
-67.7691
 20
-30.8491
 30
0.0
 10
-67.7691
 20
-30.8491
 30
0.0
 10
-67.7691
 20
-30.8491
 30
0.0
 10
-67.7691
 20
-30.8491
 30
0.0
 10
-60.316
 20
-33.9363
 30
0.0
 10
-60.316
 20
-33.9363
 30
0.0
 10
-60.316
 20
-33.9363
 30
0.0
 10
-60.316
 20
-33.9363
 30
0.0
 10
-57.2288
 20
-41.3893
 30
0.0
 10
-57.2288
 20
-41.3893
 30
0.0
 10
-57.2288
 20
-41.3893
 30
0.0
 10
-57.2288
 20
-41.3893
 30
0.0
 10
-61.5845
 20
-43.1935
 30
0.0
 10
-61.5845
 20
-43.1935
 30
0.0
 10
-61.5845
 20
-43.1935
 30
0.0
 10
-61.5845
 20
-43.1935
 30
0.0
 10
-60.4364
 20
-45.9651
 30
0.0
 10
-60.4364
 20
-45.9651
 30
0.0
 10
-60.4364
 20
-45.9651
 30
0.0
 10
-60.4364
 20
-45.9651
 30
0.0
 10
-56.0808
 20
-44.161
 30
0.0
 10
-56.0808
 20
-44.161
 30
0.0
 10
-56.0808
 20
-44.161
 30
0.0
 10
-56.0808
 20
-44.161
 30
0.0
 10
-52.9936
 20
-51.614
 30
0.0
 10
-52.9936
 20
-51.614
 30
0.0
 10
-52.9936
 20
-51.614
 30
0.0
 10
-52.9936
 20
-51.614
 30
0.0
 10
-56.0808
 20
-59.0671
 30
0.0
 10
-56.0808
 20
-59.0671
 30
0.0
 10
-56.0808
 20
-59.0671
 30
0.0
 10
-56.0808
 20
-59.0671
 30
0.0
 10
-60.4365
 20
-57.2629
 30
0.0
 10
-60.4365
 20
-57.2629
 30
0.0
 10
-60.4365
 20
-57.2629
 30
0.0
 10
-60.4365
 20
-57.2629
 30
0.0
 10
-61.5846
 20
-60.0345
 30
0.0
 10
-61.5846
 20
-60.0345
 30
0.0
 10
-61.5846
 20
-60.0345
 30
0.0
 10
-61.5846
 20
-60.0345
 30
0.0
 10
-57.2289
 20
-61.8387
 30
0.0
 10
-57.2289
 20
-61.8387
 30
0.0
 10
-57.2289
 20
-61.8387
 30
0.0
 10
-57.2289
 20
-61.8387
 30
0.0
 10
-60.316
 20
-69.2917
 30
0.0
 10
-60.316
 20
-69.2917
 30
0.0
 10
-60.316
 20
-69.2917
 30
0.0
 10
-60.316
 20
-69.2917
 30
0.0
 10
-67.7692
 20
-72.3789
 30
0.0
 10
-67.7692
 20
-72.3789
 30
0.0
 10
-67.7692
 20
-72.3789
 30
0.0
 10
-67.7692
 20
-72.3789
 30
0.0
 10
-69.5733
 20
-68.0234
 30
0.0
 10
-69.5733
 20
-68.0234
 30
0.0
 10
-69.5733
 20
-68.0234
 30
0.0
 10
-69.5733
 20
-68.0234
 30
0.0
 10
-72.345
 20
-69.1714
 30
0.0
 10
-72.345
 20
-69.1714
 30
0.0
 10
-72.345
 20
-69.1714
 30
0.0
 10
-72.345
 20
-69.1714
 30
0.0
 10
-70.5409
 20
-73.527
 30
0.0
 10
-70.5409
 20
-73.527
 30
0.0
 10
-70.5409
 20
-73.527
 30
0.0
 10
-70.5409
 20
-73.527
 30
0.0
 10
-77.9936
 20
-76.614
 30
0.0
 10
-77.9936
 20
-76.614
 30
0.0
 10
-77.9936
 20
-76.614
 30
0.0
 10
-77.9936
 20
-76.614
 30
0.0
 10
-85.4467
 20
-73.5269
 30
0.0
 10
-85.4467
 20
-73.5269
 30
0.0
 10
-85.4467
 20
-73.5269
 30
0.0
 10
-85.4467
 20
-73.5269
 30
0.0
 10
-83.6426
 20
-69.1714
 30
0.0
 10
-83.6426
 20
-69.1714
 30
0.0
 10
-83.6426
 20
-69.1714
 30
0.0
 10
-83.6426
 20
-69.1714
 30
0.0
 10
-86.4143
 20
-68.0234
 30
0.0
 10
-86.4143
 20
-68.0234
 30
0.0
 10
-86.4143
 20
-68.0234
 30
0.0
 10
-86.4143
 20
-68.0234
 30
0.0
 10
-88.2184
 20
-72.3788
 30
0.0
 10
-88.2184
 20
-72.3788
 30
0.0
 10
-88.2184
 20
-72.3788
 30
0.0
 10
-88.2184
 20
-72.3788
 30
0.0
 10
-95.6712
 20
-69.2917
 30
0.0
 10
-95.6712
 20
-69.2917
 30
0.0
 10
-95.6712
 20
-69.2917
 30
0.0
 10
-95.6712
 20
-69.2917
 30
0.0
 10
-98.7584
 20
-61.8386
 30
0.0
 10
-98.7584
 20
-61.8386
 30
0.0
 10
-98.7584
 20
-61.8386
 30
0.0
 10
-98.7584
 20
-61.8386
 30
0.0
 10
-94.403
 20
-60.0345
 30
0.0
 10
-94.403
 20
-60.0345
 30
0.0
 10
-94.403
 20
-60.0345
 30
0.0
 10
-94.403
 20
-60.0345
 30
0.0
 10
-95.5511
 20
-57.2629
 30
0.0
 10
-95.5511
 20
-57.2629
 30
0.0
 10
-95.5511
 20
-57.2629
 30
0.0
 10
-95.5511
 20
-57.2629
 30
0.0
 10
-99.9065
 20
-59.0669
 30
0.0
 10
-99.9065
 20
-59.0669
 30
0.0
 10
-99.9065
 20
-59.0669
 30
0.0
 10
-99.9065
 20
-59.0669
 30
0.0
 10
-102.9936
 20
-51.614
 30
0.0
 10
-102.9936
 20
-51.614
 30
0.0
 10
-102.9936
 20
-51.614
 30
0.0
 10
-102.9936
 20
-51.614
 30
0.0
 10
-99.9065
 20
-44.1611
 30
0.0
 10
-99.9065
 20
-44.1611
 30
0.0
 10
-99.9065
 20
-44.1611
 30
0.0
 10
-99.9065
 20
-44.1611
 30
0.0
 10
-95.5512
 20
-45.9651
 30
0.0
 10
-95.5512
 20
-45.9651
 30
0.0
 10
-95.5512
 20
-45.9651
 30
0.0
 10
-95.5512
 20
-45.9651
 30
0.0
 10
-94.4031
 20
-43.1935
 30
0.0
 10
-94.4031
 20
-43.1935
 30
0.0
 10
-94.4031
 20
-43.1935
 30
0.0
 10
-94.4031
 20
-43.1935
 30
0.0
 10
-98.7584
 20
-41.3895
 30
0.0
 10
-98.7584
 20
-41.3895
 30
0.0
 10
-98.7584
 20
-41.3895
 30
0.0
 10
-98.7584
 20
-41.3895
 30
0.0
 10
-95.6712
 20
-33.9363
 30
0.0
 10
-95.6712
 20
-33.9363
 30
0.0
 10
-95.6712
 20
-33.9363
 30
0.0
 10
-95.6712
 20
-33.9363
 30
0.0
 10
-88.2184
 20
-30.8492
 30
0.0
 10
-88.2184
 20
-30.8492
 30
0.0
 10
-88.2184
 20
-30.8492
 30
0.0
 10
-88.2184
 20
-30.8492
 30
0.0
 10
-86.4144
 20
-35.2046
 30
0.0
 10
-86.4144
 20
-35.2046
 30
0.0
 10
-86.4144
 20
-35.2046
 30
0.0
 10
-86.4144
 20
-35.2046
 30
0.0
 10
-83.6427
 20
-34.0565
 30
0.0
 10
-83.6427
 20
-34.0565
 30
0.0
 10
-83.6427
 20
-34.0565
 30
0.0
 10
-83.6427
 20
-34.0565
 30
0.0
 10
-85.4468
 20
-29.7012
 30
0.0
 10
-85.4468
 20
-29.7012
 30
0.0
 10
-85.4468
 20
-29.7012
 30
0.0
 10
-85.4468
 20
-29.7012
 30
0.0
 10
-77.9936
 20
-26.614
 30
0.0
 10
-77.9936
 20
-26.614
 30
0.0
  0
SPLINE
  5
4B
330
1F
100
AcDbEntity
  8
Capa 1
 62
   250
370
     9
100
AcDbSpline
210
0.0
220
0.0
230
1.0
 70
    11
 71
     3
 72
   164
 73
   160
 74
     0
 42
0.0000000001
 43
0.0000000001
 40
0.0
 40
0.0
 40
0.0
 40
0.0
 40
0.024390243902439
 40
0.024390243902439
 40
0.024390243902439
 40
0.024390243902439
 40
0.0487804878048781
 40
0.0487804878048781
 40
0.0487804878048781
 40
0.0487804878048781
 40
0.0731707317073171
 40
0.0731707317073171
 40
0.0731707317073171
 40
0.0731707317073171
 40
0.0975609756097561
 40
0.0975609756097561
 40
0.0975609756097561
 40
0.0975609756097561
 40
0.1219512195121951
 40
0.1219512195121951
 40
0.1219512195121951
 40
0.1219512195121951
 40
0.1463414634146341
 40
0.1463414634146341
 40
0.1463414634146341
 40
0.1463414634146341
 40
0.1707317073170732
 40
0.1707317073170732
 40
0.1707317073170732
 40
0.1707317073170732
 40
0.1951219512195122
 40
0.1951219512195122
 40
0.1951219512195122
 40
0.1951219512195122
 40
0.2195121951219512
 40
0.2195121951219512
 40
0.2195121951219512
 40
0.2195121951219512
 40
0.2439024390243902
 40
0.2439024390243902
 40
0.2439024390243902
 40
0.2439024390243902
 40
0.2682926829268293
 40
0.2682926829268293
 40
0.2682926829268293
 40
0.2682926829268293
 40
0.2926829268292683
 40
0.2926829268292683
 40
0.2926829268292683
 40
0.2926829268292683
 40
0.3170731707317073
 40
0.3170731707317073
 40
0.3170731707317073
 40
0.3170731707317073
 40
0.3414634146341464
 40
0.3414634146341464
 40
0.3414634146341464
 40
0.3414634146341464
 40
0.3658536585365854
 40
0.3658536585365854
 40
0.3658536585365854
 40
0.3658536585365854
 40
0.3902439024390244
 40
0.3902439024390244
 40
0.3902439024390244
 40
0.3902439024390244
 40
0.4146341463414634
 40
0.4146341463414634
 40
0.4146341463414634
 40
0.4146341463414634
 40
0.4390243902439024
 40
0.4390243902439024
 40
0.4390243902439024
 40
0.4390243902439024
 40
0.4634146341463415
 40
0.4634146341463415
 40
0.4634146341463415
 40
0.4634146341463415
 40
0.4878048780487805
 40
0.4878048780487805
 40
0.4878048780487805
 40
0.4878048780487805
 40
0.5121951219512195
 40
0.5121951219512195
 40
0.5121951219512195
 40
0.5121951219512195
 40
0.5365853658536586
 40
0.5365853658536586
 40
0.5365853658536586
 40
0.5365853658536586
 40
0.5609756097560976
 40
0.5609756097560976
 40
0.5609756097560976
 40
0.5609756097560976
 40
0.5853658536585366
 40
0.5853658536585366
 40
0.5853658536585366
 40
0.5853658536585366
 40
0.6097560975609756
 40
0.6097560975609756
 40
0.6097560975609756
 40
0.6097560975609756
 40
0.6341463414634146
 40
0.6341463414634146
 40
0.6341463414634146
 40
0.6341463414634146
 40
0.6585365853658537
 40
0.6585365853658537
 40
0.6585365853658537
 40
0.6585365853658537
 40
0.6829268292682927
 40
0.6829268292682927
 40
0.6829268292682927
 40
0.6829268292682927
 40
0.7073170731707317
 40
0.7073170731707317
 40
0.7073170731707317
 40
0.7073170731707317
 40
0.7317073170731707
 40
0.7317073170731707
 40
0.7317073170731707
 40
0.7317073170731707
 40
0.7560975609756098
 40
0.7560975609756098
 40
0.7560975609756098
 40
0.7560975609756098
 40
0.7804878048780488
 40
0.7804878048780488
 40
0.7804878048780488
 40
0.7804878048780488
 40
0.8048780487804879
 40
0.8048780487804879
 40
0.8048780487804879
 40
0.8048780487804879
 40
0.8292682926829268
 40
0.8292682926829268
 40
0.8292682926829268
 40
0.8292682926829268
 40
0.8536585365853658
 40
0.8536585365853658
 40
0.8536585365853658
 40
0.8536585365853658
 40
0.8780487804878049
 40
0.8780487804878049
 40
0.8780487804878049
 40
0.8780487804878049
 40
0.9024390243902439
 40
0.9024390243902439
 40
0.9024390243902439
 40
0.9024390243902439
 40
0.926829268292683
 40
0.926829268292683
 40
0.926829268292683
 40
0.926829268292683
 40
0.9512195121951219
 40
0.9512195121951219
 40
0.9512195121951219
 40
0.9512195121951219
 40
1.0
 40
1.0
 40
1.0
 40
1.0
 10
-25.6061
 20
-26.614
 30
0.0
 10
-25.6061
 20
-26.614
 30
0.0
 10
-18.1533
 20
-29.701
 30
0.0
 10
-18.1533
 20
-29.701
 30
0.0
 10
-18.1533
 20
-29.701
 30
0.0
 10
-18.1533
 20
-29.701
 30
0.0
 10
-19.9574
 20
-34.0565
 30
0.0
 10
-19.9574
 20
-34.0565
 30
0.0
 10
-19.9574
 20
-34.0565
 30
0.0
 10
-19.9574
 20
-34.0565
 30
0.0
 10
-17.1857
 20
-35.2046
 30
0.0
 10
-17.1857
 20
-35.2046
 30
0.0
 10
-17.1857
 20
-35.2046
 30
0.0
 10
-17.1857
 20
-35.2046
 30
0.0
 10
-15.3816
 20
-30.8491
 30
0.0
 10
-15.3816
 20
-30.8491
 30
0.0
 10
-15.3816
 20
-30.8491
 30
0.0
 10
-15.3816
 20
-30.8491
 30
0.0
 10
-7.9285
 20
-33.9363
 30
0.0
 10
-7.9285
 20
-33.9363
 30
0.0
 10
-7.9285
 20
-33.9363
 30
0.0
 10
-7.9285
 20
-33.9363
 30
0.0
 10
-4.8413
 20
-41.3893
 30
0.0
 10
-4.8413
 20
-41.3893
 30
0.0
 10
-4.8413
 20
-41.3893
 30
0.0
 10
-4.8413
 20
-41.3893
 30
0.0
 10
-9.197
 20
-43.1935
 30
0.0
 10
-9.197
 20
-43.1935
 30
0.0
 10
-9.197
 20
-43.1935
 30
0.0
 10
-9.197
 20
-43.1935
 30
0.0
 10
-8.0489
 20
-45.9651
 30
0.0
 10
-8.0489
 20
-45.9651
 30
0.0
 10
-8.0489
 20
-45.9651
 30
0.0
 10
-8.0489
 20
-45.9651
 30
0.0
 10
-3.6933
 20
-44.161
 30
0.0
 10
-3.6933
 20
-44.161
 30
0.0
 10
-3.6933
 20
-44.161
 30
0.0
 10
-3.6933
 20
-44.161
 30
0.0
 10
-0.6061
 20
-51.614
 30
0.0
 10
-0.6061
 20
-51.614
 30
0.0
 10
-0.6061
 20
-51.614
 30
0.0
 10
-0.6061
 20
-51.614
 30
0.0
 10
-3.6933
 20
-59.0671
 30
0.0
 10
-3.6933
 20
-59.0671
 30
0.0
 10
-3.6933
 20
-59.0671
 30
0.0
 10
-3.6933
 20
-59.0671
 30
0.0
 10
-8.049
 20
-57.2629
 30
0.0
 10
-8.049
 20
-57.2629
 30
0.0
 10
-8.049
 20
-57.2629
 30
0.0
 10
-8.049
 20
-57.2629
 30
0.0
 10
-9.1971
 20
-60.0345
 30
0.0
 10
-9.1971
 20
-60.0345
 30
0.0
 10
-9.1971
 20
-60.0345
 30
0.0
 10
-9.1971
 20
-60.0345
 30
0.0
 10
-4.8414
 20
-61.8387
 30
0.0
 10
-4.8414
 20
-61.8387
 30
0.0
 10
-4.8414
 20
-61.8387
 30
0.0
 10
-4.8414
 20
-61.8387
 30
0.0
 10
-7.9285
 20
-69.2917
 30
0.0
 10
-7.9285
 20
-69.2917
 30
0.0
 10
-7.9285
 20
-69.2917
 30
0.0
 10
-7.9285
 20
-69.2917
 30
0.0
 10
-15.3817
 20
-72.3789
 30
0.0
 10
-15.3817
 20
-72.3789
 30
0.0
 10
-15.3817
 20
-72.3789
 30
0.0
 10
-15.3817
 20
-72.3789
 30
0.0
 10
-17.1858
 20
-68.0234
 30
0.0
 10
-17.1858
 20
-68.0234
 30
0.0
 10
-17.1858
 20
-68.0234
 30
0.0
 10
-17.1858
 20
-68.0234
 30
0.0
 10
-19.9575
 20
-69.1714
 30
0.0
 10
-19.9575
 20
-69.1714
 30
0.0
 10
-19.9575
 20
-69.1714
 30
0.0
 10
-19.9575
 20
-69.1714
 30
0.0
 10
-18.1534
 20
-73.527
 30
0.0
 10
-18.1534
 20
-73.527
 30
0.0
 10
-18.1534
 20
-73.527
 30
0.0
 10
-18.1534
 20
-73.527
 30
0.0
 10
-25.6061
 20
-76.614
 30
0.0
 10
-25.6061
 20
-76.614
 30
0.0
 10
-25.6061
 20
-76.614
 30
0.0
 10
-25.6061
 20
-76.614
 30
0.0
 10
-33.0592
 20
-73.5269
 30
0.0
 10
-33.0592
 20
-73.5269
 30
0.0
 10
-33.0592
 20
-73.5269
 30
0.0
 10
-33.0592
 20
-73.5269
 30
0.0
 10
-31.2551
 20
-69.1714
 30
0.0
 10
-31.2551
 20
-69.1714
 30
0.0
 10
-31.2551
 20
-69.1714
 30
0.0
 10
-31.2551
 20
-69.1714
 30
0.0
 10
-34.0268
 20
-68.0234
 30
0.0
 10
-34.0268
 20
-68.0234
 30
0.0
 10
-34.0268
 20
-68.0234
 30
0.0
 10
-34.0268
 20
-68.0234
 30
0.0
 10
-35.8309
 20
-72.3788
 30
0.0
 10
-35.8309
 20
-72.3788
 30
0.0
 10
-35.8309
 20
-72.3788
 30
0.0
 10
-35.8309
 20
-72.3788
 30
0.0
 10
-43.2837
 20
-69.2917
 30
0.0
 10
-43.2837
 20
-69.2917
 30
0.0
 10
-43.2837
 20
-69.2917
 30
0.0
 10
-43.2837
 20
-69.2917
 30
0.0
 10
-46.3709
 20
-61.8386
 30
0.0
 10
-46.3709
 20
-61.8386
 30
0.0
 10
-46.3709
 20
-61.8386
 30
0.0
 10
-46.3709
 20
-61.8386
 30
0.0
 10
-42.0155
 20
-60.0345
 30
0.0
 10
-42.0155
 20
-60.0345
 30
0.0
 10
-42.0155
 20
-60.0345
 30
0.0
 10
-42.0155
 20
-60.0345
 30
0.0
 10
-43.1636
 20
-57.2629
 30
0.0
 10
-43.1636
 20
-57.2629
 30
0.0
 10
-43.1636
 20
-57.2629
 30
0.0
 10
-43.1636
 20
-57.2629
 30
0.0
 10
-47.519
 20
-59.0669
 30
0.0
 10
-47.519
 20
-59.0669
 30
0.0
 10
-47.519
 20
-59.0669
 30
0.0
 10
-47.519
 20
-59.0669
 30
0.0
 10
-50.6061
 20
-51.614
 30
0.0
 10
-50.6061
 20
-51.614
 30
0.0
 10
-50.6061
 20
-51.614
 30
0.0
 10
-50.6061
 20
-51.614
 30
0.0
 10
-47.519
 20
-44.1611
 30
0.0
 10
-47.519
 20
-44.1611
 30
0.0
 10
-47.519
 20
-44.1611
 30
0.0
 10
-47.519
 20
-44.1611
 30
0.0
 10
-43.1637
 20
-45.9651
 30
0.0
 10
-43.1637
 20
-45.9651
 30
0.0
 10
-43.1637
 20
-45.9651
 30
0.0
 10
-43.1637
 20
-45.9651
 30
0.0
 10
-42.0156
 20
-43.1935
 30
0.0
 10
-42.0156
 20
-43.1935
 30
0.0
 10
-42.0156
 20
-43.1935
 30
0.0
 10
-42.0156
 20
-43.1935
 30
0.0
 10
-46.3709
 20
-41.3895
 30
0.0
 10
-46.3709
 20
-41.3895
 30
0.0
 10
-46.3709
 20
-41.3895
 30
0.0
 10
-46.3709
 20
-41.3895
 30
0.0
 10
-43.2837
 20
-33.9363
 30
0.0
 10
-43.2837
 20
-33.9363
 30
0.0
 10
-43.2837
 20
-33.9363
 30
0.0
 10
-43.2837
 20
-33.9363
 30
0.0
 10
-35.8309
 20
-30.8492
 30
0.0
 10
-35.8309
 20
-30.8492
 30
0.0
 10
-35.8309
 20
-30.8492
 30
0.0
 10
-35.8309
 20
-30.8492
 30
0.0
 10
-34.0269
 20
-35.2046
 30
0.0
 10
-34.0269
 20
-35.2046
 30
0.0
 10
-34.0269
 20
-35.2046
 30
0.0
 10
-34.0269
 20
-35.2046
 30
0.0
 10
-31.2552
 20
-34.0565
 30
0.0
 10
-31.2552
 20
-34.0565
 30
0.0
 10
-31.2552
 20
-34.0565
 30
0.0
 10
-31.2552
 20
-34.0565
 30
0.0
 10
-33.0593
 20
-29.7012
 30
0.0
 10
-33.0593
 20
-29.7012
 30
0.0
 10
-33.0593
 20
-29.7012
 30
0.0
 10
-33.0593
 20
-29.7012
 30
0.0
 10
-25.6061
 20
-26.614
 30
0.0
 10
-25.6061
 20
-26.614
 30
0.0
  0
SPLINE
  5
4C
330
1F
100
AcDbEntity
  8
Capa 1
 62
   250
370
     9
100
AcDbSpline
210
0.0
220
0.0
230
1.0
 70
    11
 71
     3
 72
   164
 73
   160
 74
     0
 42
0.0000000001
 43
0.0000000001
 40
0.0
 40
0.0
 40
0.0
 40
0.0
 40
0.024390243902439
 40
0.024390243902439
 40
0.024390243902439
 40
0.024390243902439
 40
0.0487804878048781
 40
0.0487804878048781
 40
0.0487804878048781
 40
0.0487804878048781
 40
0.0731707317073171
 40
0.0731707317073171
 40
0.0731707317073171
 40
0.0731707317073171
 40
0.0975609756097561
 40
0.0975609756097561
 40
0.0975609756097561
 40
0.0975609756097561
 40
0.1219512195121951
 40
0.1219512195121951
 40
0.1219512195121951
 40
0.1219512195121951
 40
0.1463414634146341
 40
0.1463414634146341
 40
0.1463414634146341
 40
0.1463414634146341
 40
0.1707317073170732
 40
0.1707317073170732
 40
0.1707317073170732
 40
0.1707317073170732
 40
0.1951219512195122
 40
0.1951219512195122
 40
0.1951219512195122
 40
0.1951219512195122
 40
0.2195121951219512
 40
0.2195121951219512
 40
0.2195121951219512
 40
0.2195121951219512
 40
0.2439024390243902
 40
0.2439024390243902
 40
0.2439024390243902
 40
0.2439024390243902
 40
0.2682926829268293
 40
0.2682926829268293
 40
0.2682926829268293
 40
0.2682926829268293
 40
0.2926829268292683
 40
0.2926829268292683
 40
0.2926829268292683
 40
0.2926829268292683
 40
0.3170731707317073
 40
0.3170731707317073
 40
0.3170731707317073
 40
0.3170731707317073
 40
0.3414634146341464
 40
0.3414634146341464
 40
0.3414634146341464
 40
0.3414634146341464
 40
0.3658536585365854
 40
0.3658536585365854
 40
0.3658536585365854
 40
0.3658536585365854
 40
0.3902439024390244
 40
0.3902439024390244
 40
0.3902439024390244
 40
0.3902439024390244
 40
0.4146341463414634
 40
0.4146341463414634
 40
0.4146341463414634
 40
0.4146341463414634
 40
0.4390243902439024
 40
0.4390243902439024
 40
0.4390243902439024
 40
0.4390243902439024
 40
0.4634146341463415
 40
0.4634146341463415
 40
0.4634146341463415
 40
0.4634146341463415
 40
0.4878048780487805
 40
0.4878048780487805
 40
0.4878048780487805
 40
0.4878048780487805
 40
0.5121951219512195
 40
0.5121951219512195
 40
0.5121951219512195
 40
0.5121951219512195
 40
0.5365853658536586
 40
0.5365853658536586
 40
0.5365853658536586
 40
0.5365853658536586
 40
0.5609756097560976
 40
0.5609756097560976
 40
0.5609756097560976
 40
0.5609756097560976
 40
0.5853658536585366
 40
0.5853658536585366
 40
0.5853658536585366
 40
0.5853658536585366
 40
0.6097560975609756
 40
0.6097560975609756
 40
0.6097560975609756
 40
0.6097560975609756
 40
0.6341463414634146
 40
0.6341463414634146
 40
0.6341463414634146
 40
0.6341463414634146
 40
0.6585365853658537
 40
0.6585365853658537
 40
0.6585365853658537
 40
0.6585365853658537
 40
0.6829268292682927
 40
0.6829268292682927
 40
0.6829268292682927
 40
0.6829268292682927
 40
0.7073170731707317
 40
0.7073170731707317
 40
0.7073170731707317
 40
0.7073170731707317
 40
0.7317073170731707
 40
0.7317073170731707
 40
0.7317073170731707
 40
0.7317073170731707
 40
0.7560975609756098
 40
0.7560975609756098
 40
0.7560975609756098
 40
0.7560975609756098
 40
0.7804878048780488
 40
0.7804878048780488
 40
0.7804878048780488
 40
0.7804878048780488
 40
0.8048780487804879
 40
0.8048780487804879
 40
0.8048780487804879
 40
0.8048780487804879
 40
0.8292682926829268
 40
0.8292682926829268
 40
0.8292682926829268
 40
0.8292682926829268
 40
0.8536585365853658
 40
0.8536585365853658
 40
0.8536585365853658
 40
0.8536585365853658
 40
0.8780487804878049
 40
0.8780487804878049
 40
0.8780487804878049
 40
0.8780487804878049
 40
0.9024390243902439
 40
0.9024390243902439
 40
0.9024390243902439
 40
0.9024390243902439
 40
0.926829268292683
 40
0.926829268292683
 40
0.926829268292683
 40
0.926829268292683
 40
0.9512195121951219
 40
0.9512195121951219
 40
0.9512195121951219
 40
0.9512195121951219
 40
1.0
 40
1.0
 40
1.0
 40
1.0
 10
26.7814
 20
-26.614
 30
0.0
 10
26.7814
 20
-26.614
 30
0.0
 10
34.2342
 20
-29.701
 30
0.0
 10
34.2342
 20
-29.701
 30
0.0
 10
34.2342
 20
-29.701
 30
0.0
 10
34.2342
 20
-29.701
 30
0.0
 10
32.4301
 20
-34.0565
 30
0.0
 10
32.4301
 20
-34.0565
 30
0.0
 10
32.4301
 20
-34.0565
 30
0.0
 10
32.4301
 20
-34.0565
 30
0.0
 10
35.2018
 20
-35.2046
 30
0.0
 10
35.2018
 20
-35.2046
 30
0.0
 10
35.2018
 20
-35.2046
 30
0.0
 10
35.2018
 20
-35.2046
 30
0.0
 10
37.0059
 20
-30.8491
 30
0.0
 10
37.0059
 20
-30.8491
 30
0.0
 10
37.0059
 20
-30.8491
 30
0.0
 10
37.0059
 20
-30.8491
 30
0.0
 10
44.459
 20
-33.9363
 30
0.0
 10
44.459
 20
-33.9363
 30
0.0
 10
44.459
 20
-33.9363
 30
0.0
 10
44.459
 20
-33.9363
 30
0.0
 10
47.5462
 20
-41.3893
 30
0.0
 10
47.5462
 20
-41.3893
 30
0.0
 10
47.5462
 20
-41.3893
 30
0.0
 10
47.5462
 20
-41.3893
 30
0.0
 10
43.1905
 20
-43.1935
 30
0.0
 10
43.1905
 20
-43.1935
 30
0.0
 10
43.1905
 20
-43.1935
 30
0.0
 10
43.1905
 20
-43.1935
 30
0.0
 10
44.3386
 20
-45.9651
 30
0.0
 10
44.3386
 20
-45.9651
 30
0.0
 10
44.3386
 20
-45.9651
 30
0.0
 10
44.3386
 20
-45.9651
 30
0.0
 10
48.6942
 20
-44.161
 30
0.0
 10
48.6942
 20
-44.161
 30
0.0
 10
48.6942
 20
-44.161
 30
0.0
 10
48.6942
 20
-44.161
 30
0.0
 10
51.7814
 20
-51.614
 30
0.0
 10
51.7814
 20
-51.614
 30
0.0
 10
51.7814
 20
-51.614
 30
0.0
 10
51.7814
 20
-51.614
 30
0.0
 10
48.6942
 20
-59.0671
 30
0.0
 10
48.6942
 20
-59.0671
 30
0.0
 10
48.6942
 20
-59.0671
 30
0.0
 10
48.6942
 20
-59.0671
 30
0.0
 10
44.3385
 20
-57.2629
 30
0.0
 10
44.3385
 20
-57.2629
 30
0.0
 10
44.3385
 20
-57.2629
 30
0.0
 10
44.3385
 20
-57.2629
 30
0.0
 10
43.1904
 20
-60.0345
 30
0.0
 10
43.1904
 20
-60.0345
 30
0.0
 10
43.1904
 20
-60.0345
 30
0.0
 10
43.1904
 20
-60.0345
 30
0.0
 10
47.5461
 20
-61.8387
 30
0.0
 10
47.5461
 20
-61.8387
 30
0.0
 10
47.5461
 20
-61.8387
 30
0.0
 10
47.5461
 20
-61.8387
 30
0.0
 10
44.459
 20
-69.2917
 30
0.0
 10
44.459
 20
-69.2917
 30
0.0
 10
44.459
 20
-69.2917
 30
0.0
 10
44.459
 20
-69.2917
 30
0.0
 10
37.0058
 20
-72.3789
 30
0.0
 10
37.0058
 20
-72.3789
 30
0.0
 10
37.0058
 20
-72.3789
 30
0.0
 10
37.0058
 20
-72.3789
 30
0.0
 10
35.2017
 20
-68.0234
 30
0.0
 10
35.2017
 20
-68.0234
 30
0.0
 10
35.2017
 20
-68.0234
 30
0.0
 10
35.2017
 20
-68.0234
 30
0.0
 10
32.43
 20
-69.1714
 30
0.0
 10
32.43
 20
-69.1714
 30
0.0
 10
32.43
 20
-69.1714
 30
0.0
 10
32.43
 20
-69.1714
 30
0.0
 10
34.2341
 20
-73.527
 30
0.0
 10
34.2341
 20
-73.527
 30
0.0
 10
34.2341
 20
-73.527
 30
0.0
 10
34.2341
 20
-73.527
 30
0.0
 10
26.7814
 20
-76.614
 30
0.0
 10
26.7814
 20
-76.614
 30
0.0
 10
26.7814
 20
-76.614
 30
0.0
 10
26.7814
 20
-76.614
 30
0.0
 10
19.3283
 20
-73.5269
 30
0.0
 10
19.3283
 20
-73.5269
 30
0.0
 10
19.3283
 20
-73.5269
 30
0.0
 10
19.3283
 20
-73.5269
 30
0.0
 10
21.1324
 20
-69.1714
 30
0.0
 10
21.1324
 20
-69.1714
 30
0.0
 10
21.1324
 20
-69.1714
 30
0.0
 10
21.1324
 20
-69.1714
 30
0.0
 10
18.3607
 20
-68.0234
 30
0.0
 10
18.3607
 20
-68.0234
 30
0.0
 10
18.3607
 20
-68.0234
 30
0.0
 10
18.3607
 20
-68.0234
 30
0.0
 10
16.5566
 20
-72.3788
 30
0.0
 10
16.5566
 20
-72.3788
 30
0.0
 10
16.5566
 20
-72.3788
 30
0.0
 10
16.5566
 20
-72.3788
 30
0.0
 10
9.1038
 20
-69.2917
 30
0.0
 10
9.1038
 20
-69.2917
 30
0.0
 10
9.1038
 20
-69.2917
 30
0.0
 10
9.1038
 20
-69.2917
 30
0.0
 10
6.0166
 20
-61.8386
 30
0.0
 10
6.0166
 20
-61.8386
 30
0.0
 10
6.0166
 20
-61.8386
 30
0.0
 10
6.0166
 20
-61.8386
 30
0.0
 10
10.372
 20
-60.0345
 30
0.0
 10
10.372
 20
-60.0345
 30
0.0
 10
10.372
 20
-60.0345
 30
0.0
 10
10.372
 20
-60.0345
 30
0.0
 10
9.2239
 20
-57.2629
 30
0.0
 10
9.2239
 20
-57.2629
 30
0.0
 10
9.2239
 20
-57.2629
 30
0.0
 10
9.2239
 20
-57.2629
 30
0.0
 10
4.8685
 20
-59.0669
 30
0.0
 10
4.8685
 20
-59.0669
 30
0.0
 10
4.8685
 20
-59.0669
 30
0.0
 10
4.8685
 20
-59.0669
 30
0.0
 10
1.7814
 20
-51.614
 30
0.0
 10
1.7814
 20
-51.614
 30
0.0
 10
1.7814
 20
-51.614
 30
0.0
 10
1.7814
 20
-51.614
 30
0.0
 10
4.8685
 20
-44.1611
 30
0.0
 10
4.8685
 20
-44.1611
 30
0.0
 10
4.8685
 20
-44.1611
 30
0.0
 10
4.8685
 20
-44.1611
 30
0.0
 10
9.2238
 20
-45.9651
 30
0.0
 10
9.2238
 20
-45.9651
 30
0.0
 10
9.2238
 20
-45.9651
 30
0.0
 10
9.2238
 20
-45.9651
 30
0.0
 10
10.3719
 20
-43.1935
 30
0.0
 10
10.3719
 20
-43.1935
 30
0.0
 10
10.3719
 20
-43.1935
 30
0.0
 10
10.3719
 20
-43.1935
 30
0.0
 10
6.0166
 20
-41.3895
 30
0.0
 10
6.0166
 20
-41.3895
 30
0.0
 10
6.0166
 20
-41.3895
 30
0.0
 10
6.0166
 20
-41.3895
 30
0.0
 10
9.1038
 20
-33.9363
 30
0.0
 10
9.1038
 20
-33.9363
 30
0.0
 10
9.1038
 20
-33.9363
 30
0.0
 10
9.1038
 20
-33.9363
 30
0.0
 10
16.5566
 20
-30.8492
 30
0.0
 10
16.5566
 20
-30.8492
 30
0.0
 10
16.5566
 20
-30.8492
 30
0.0
 10
16.5566
 20
-30.8492
 30
0.0
 10
18.3606
 20
-35.2046
 30
0.0
 10
18.3606
 20
-35.2046
 30
0.0
 10
18.3606
 20
-35.2046
 30
0.0
 10
18.3606
 20
-35.2046
 30
0.0
 10
21.1323
 20
-34.0565
 30
0.0
 10
21.1323
 20
-34.0565
 30
0.0
 10
21.1323
 20
-34.0565
 30
0.0
 10
21.1323
 20
-34.0565
 30
0.0
 10
19.3282
 20
-29.7012
 30
0.0
 10
19.3282
 20
-29.7012
 30
0.0
 10
19.3282
 20
-29.7012
 30
0.0
 10
19.3282
 20
-29.7012
 30
0.0
 10
26.7814
 20
-26.614
 30
0.0
 10
26.7814
 20
-26.614
 30
0.0
  0
SPLINE
  5
4D
330
1F
100
AcDbEntity
  8
Capa 1
 62
   250
370
     9
100
AcDbSpline
210
0.0
220
0.0
230
1.0
 70
    11
 71
     3
 72
   164
 73
   160
 74
     0
 42
0.0000000001
 43
0.0000000001
 40
0.0
 40
0.0
 40
0.0
 40
0.0
 40
0.024390243902439
 40
0.024390243902439
 40
0.024390243902439
 40
0.024390243902439
 40
0.0487804878048781
 40
0.0487804878048781
 40
0.0487804878048781
 40
0.0487804878048781
 40
0.0731707317073171
 40
0.0731707317073171
 40
0.0731707317073171
 40
0.0731707317073171
 40
0.0975609756097561
 40
0.0975609756097561
 40
0.0975609756097561
 40
0.0975609756097561
 40
0.1219512195121951
 40
0.1219512195121951
 40
0.1219512195121951
 40
0.1219512195121951
 40
0.1463414634146341
 40
0.1463414634146341
 40
0.1463414634146341
 40
0.1463414634146341
 40
0.1707317073170732
 40
0.1707317073170732
 40
0.1707317073170732
 40
0.1707317073170732
 40
0.1951219512195122
 40
0.1951219512195122
 40
0.1951219512195122
 40
0.1951219512195122
 40
0.2195121951219512
 40
0.2195121951219512
 40
0.2195121951219512
 40
0.2195121951219512
 40
0.2439024390243902
 40
0.2439024390243902
 40
0.2439024390243902
 40
0.2439024390243902
 40
0.2682926829268293
 40
0.2682926829268293
 40
0.2682926829268293
 40
0.2682926829268293
 40
0.2926829268292683
 40
0.2926829268292683
 40
0.2926829268292683
 40
0.2926829268292683
 40
0.3170731707317073
 40
0.3170731707317073
 40
0.3170731707317073
 40
0.3170731707317073
 40
0.3414634146341464
 40
0.3414634146341464
 40
0.3414634146341464
 40
0.3414634146341464
 40
0.3658536585365854
 40
0.3658536585365854
 40
0.3658536585365854
 40
0.3658536585365854
 40
0.3902439024390244
 40
0.3902439024390244
 40
0.3902439024390244
 40
0.3902439024390244
 40
0.4146341463414634
 40
0.4146341463414634
 40
0.4146341463414634
 40
0.4146341463414634
 40
0.4390243902439024
 40
0.4390243902439024
 40
0.4390243902439024
 40
0.4390243902439024
 40
0.4634146341463415
 40
0.4634146341463415
 40
0.4634146341463415
 40
0.4634146341463415
 40
0.4878048780487805
 40
0.4878048780487805
 40
0.4878048780487805
 40
0.4878048780487805
 40
0.5121951219512195
 40
0.5121951219512195
 40
0.5121951219512195
 40
0.5121951219512195
 40
0.5365853658536586
 40
0.5365853658536586
 40
0.5365853658536586
 40
0.5365853658536586
 40
0.5609756097560976
 40
0.5609756097560976
 40
0.5609756097560976
 40
0.5609756097560976
 40
0.5853658536585366
 40
0.5853658536585366
 40
0.5853658536585366
 40
0.5853658536585366
 40
0.6097560975609756
 40
0.6097560975609756
 40
0.6097560975609756
 40
0.6097560975609756
 40
0.6341463414634146
 40
0.6341463414634146
 40
0.6341463414634146
 40
0.6341463414634146
 40
0.6585365853658537
 40
0.6585365853658537
 40
0.6585365853658537
 40
0.6585365853658537
 40
0.6829268292682927
 40
0.6829268292682927
 40
0.6829268292682927
 40
0.6829268292682927
 40
0.7073170731707317
 40
0.7073170731707317
 40
0.7073170731707317
 40
0.7073170731707317
 40
0.7317073170731707
 40
0.7317073170731707
 40
0.7317073170731707
 40
0.7317073170731707
 40
0.7560975609756098
 40
0.7560975609756098
 40
0.7560975609756098
 40
0.7560975609756098
 40
0.7804878048780488
 40
0.7804878048780488
 40
0.7804878048780488
 40
0.7804878048780488
 40
0.8048780487804879
 40
0.8048780487804879
 40
0.8048780487804879
 40
0.8048780487804879
 40
0.8292682926829268
 40
0.8292682926829268
 40
0.8292682926829268
 40
0.8292682926829268
 40
0.8536585365853658
 40
0.8536585365853658
 40
0.8536585365853658
 40
0.8536585365853658
 40
0.8780487804878049
 40
0.8780487804878049
 40
0.8780487804878049
 40
0.8780487804878049
 40
0.9024390243902439
 40
0.9024390243902439
 40
0.9024390243902439
 40
0.9024390243902439
 40
0.926829268292683
 40
0.926829268292683
 40
0.926829268292683
 40
0.926829268292683
 40
0.9512195121951219
 40
0.9512195121951219
 40
0.9512195121951219
 40
0.9512195121951219
 40
1.0
 40
1.0
 40
1.0
 40
1.0
 10
-77.9936
 20
-79.4015
 30
0.0
 10
-77.9936
 20
-79.4015
 30
0.0
 10
-70.5408
 20
-82.4885
 30
0.0
 10
-70.5408
 20
-82.4885
 30
0.0
 10
-70.5408
 20
-82.4885
 30
0.0
 10
-70.5408
 20
-82.4885
 30
0.0
 10
-72.3449
 20
-86.844
 30
0.0
 10
-72.3449
 20
-86.844
 30
0.0
 10
-72.3449
 20
-86.844
 30
0.0
 10
-72.3449
 20
-86.844
 30
0.0
 10
-69.5732
 20
-87.9921
 30
0.0
 10
-69.5732
 20
-87.9921
 30
0.0
 10
-69.5732
 20
-87.9921
 30
0.0
 10
-69.5732
 20
-87.9921
 30
0.0
 10
-67.7691
 20
-83.6366
 30
0.0
 10
-67.7691
 20
-83.6366
 30
0.0
 10
-67.7691
 20
-83.6366
 30
0.0
 10
-67.7691
 20
-83.6366
 30
0.0
 10
-60.316
 20
-86.7238
 30
0.0
 10
-60.316
 20
-86.7238
 30
0.0
 10
-60.316
 20
-86.7238
 30
0.0
 10
-60.316
 20
-86.7238
 30
0.0
 10
-57.2288
 20
-94.1768
 30
0.0
 10
-57.2288
 20
-94.1768
 30
0.0
 10
-57.2288
 20
-94.1768
 30
0.0
 10
-57.2288
 20
-94.1768
 30
0.0
 10
-61.5845
 20
-95.981
 30
0.0
 10
-61.5845
 20
-95.981
 30
0.0
 10
-61.5845
 20
-95.981
 30
0.0
 10
-61.5845
 20
-95.981
 30
0.0
 10
-60.4364
 20
-98.7526
 30
0.0
 10
-60.4364
 20
-98.7526
 30
0.0
 10
-60.4364
 20
-98.7526
 30
0.0
 10
-60.4364
 20
-98.7526
 30
0.0
 10
-56.0808
 20
-96.9485
 30
0.0
 10
-56.0808
 20
-96.9485
 30
0.0
 10
-56.0808
 20
-96.9485
 30
0.0
 10
-56.0808
 20
-96.9485
 30
0.0
 10
-52.9936
 20
-104.4015
 30
0.0
 10
-52.9936
 20
-104.4015
 30
0.0
 10
-52.9936
 20
-104.4015
 30
0.0
 10
-52.9936
 20
-104.4015
 30
0.0
 10
-56.0808
 20
-111.8546
 30
0.0
 10
-56.0808
 20
-111.8546
 30
0.0
 10
-56.0808
 20
-111.8546
 30
0.0
 10
-56.0808
 20
-111.8546
 30
0.0
 10
-60.4365
 20
-110.0504
 30
0.0
 10
-60.4365
 20
-110.0504
 30
0.0
 10
-60.4365
 20
-110.0504
 30
0.0
 10
-60.4365
 20
-110.0504
 30
0.0
 10
-61.5846
 20
-112.822
 30
0.0
 10
-61.5846
 20
-112.822
 30
0.0
 10
-61.5846
 20
-112.822
 30
0.0
 10
-61.5846
 20
-112.822
 30
0.0
 10
-57.2289
 20
-114.6262
 30
0.0
 10
-57.2289
 20
-114.6262
 30
0.0
 10
-57.2289
 20
-114.6262
 30
0.0
 10
-57.2289
 20
-114.6262
 30
0.0
 10
-60.316
 20
-122.0792
 30
0.0
 10
-60.316
 20
-122.0792
 30
0.0
 10
-60.316
 20
-122.0792
 30
0.0
 10
-60.316
 20
-122.0792
 30
0.0
 10
-67.7692
 20
-125.1664
 30
0.0
 10
-67.7692
 20
-125.1664
 30
0.0
 10
-67.7692
 20
-125.1664
 30
0.0
 10
-67.7692
 20
-125.1664
 30
0.0
 10
-69.5733
 20
-120.8109
 30
0.0
 10
-69.5733
 20
-120.8109
 30
0.0
 10
-69.5733
 20
-120.8109
 30
0.0
 10
-69.5733
 20
-120.8109
 30
0.0
 10
-72.345
 20
-121.9589
 30
0.0
 10
-72.345
 20
-121.9589
 30
0.0
 10
-72.345
 20
-121.9589
 30
0.0
 10
-72.345
 20
-121.9589
 30
0.0
 10
-70.5409
 20
-126.3145
 30
0.0
 10
-70.5409
 20
-126.3145
 30
0.0
 10
-70.5409
 20
-126.3145
 30
0.0
 10
-70.5409
 20
-126.3145
 30
0.0
 10
-77.9936
 20
-129.4015
 30
0.0
 10
-77.9936
 20
-129.4015
 30
0.0
 10
-77.9936
 20
-129.4015
 30
0.0
 10
-77.9936
 20
-129.4015
 30
0.0
 10
-85.4467
 20
-126.3144
 30
0.0
 10
-85.4467
 20
-126.3144
 30
0.0
 10
-85.4467
 20
-126.3144
 30
0.0
 10
-85.4467
 20
-126.3144
 30
0.0
 10
-83.6426
 20
-121.9589
 30
0.0
 10
-83.6426
 20
-121.9589
 30
0.0
 10
-83.6426
 20
-121.9589
 30
0.0
 10
-83.6426
 20
-121.9589
 30
0.0
 10
-86.4143
 20
-120.8109
 30
0.0
 10
-86.4143
 20
-120.8109
 30
0.0
 10
-86.4143
 20
-120.8109
 30
0.0
 10
-86.4143
 20
-120.8109
 30
0.0
 10
-88.2184
 20
-125.1663
 30
0.0
 10
-88.2184
 20
-125.1663
 30
0.0
 10
-88.2184
 20
-125.1663
 30
0.0
 10
-88.2184
 20
-125.1663
 30
0.0
 10
-95.6712
 20
-122.0792
 30
0.0
 10
-95.6712
 20
-122.0792
 30
0.0
 10
-95.6712
 20
-122.0792
 30
0.0
 10
-95.6712
 20
-122.0792
 30
0.0
 10
-98.7584
 20
-114.6261
 30
0.0
 10
-98.7584
 20
-114.6261
 30
0.0
 10
-98.7584
 20
-114.6261
 30
0.0
 10
-98.7584
 20
-114.6261
 30
0.0
 10
-94.403
 20
-112.822
 30
0.0
 10
-94.403
 20
-112.822
 30
0.0
 10
-94.403
 20
-112.822
 30
0.0
 10
-94.403
 20
-112.822
 30
0.0
 10
-95.5511
 20
-110.0504
 30
0.0
 10
-95.5511
 20
-110.0504
 30
0.0
 10
-95.5511
 20
-110.0504
 30
0.0
 10
-95.5511
 20
-110.0504
 30
0.0
 10
-99.9065
 20
-111.8544
 30
0.0
 10
-99.9065
 20
-111.8544
 30
0.0
 10
-99.9065
 20
-111.8544
 30
0.0
 10
-99.9065
 20
-111.8544
 30
0.0
 10
-102.9936
 20
-104.4015
 30
0.0
 10
-102.9936
 20
-104.4015
 30
0.0
 10
-102.9936
 20
-104.4015
 30
0.0
 10
-102.9936
 20
-104.4015
 30
0.0
 10
-99.9065
 20
-96.9486
 30
0.0
 10
-99.9065
 20
-96.9486
 30
0.0
 10
-99.9065
 20
-96.9486
 30
0.0
 10
-99.9065
 20
-96.9486
 30
0.0
 10
-95.5512
 20
-98.7526
 30
0.0
 10
-95.5512
 20
-98.7526
 30
0.0
 10
-95.5512
 20
-98.7526
 30
0.0
 10
-95.5512
 20
-98.7526
 30
0.0
 10
-94.4031
 20
-95.981
 30
0.0
 10
-94.4031
 20
-95.981
 30
0.0
 10
-94.4031
 20
-95.981
 30
0.0
 10
-94.4031
 20
-95.981
 30
0.0
 10
-98.7584
 20
-94.177
 30
0.0
 10
-98.7584
 20
-94.177
 30
0.0
 10
-98.7584
 20
-94.177
 30
0.0
 10
-98.7584
 20
-94.177
 30
0.0
 10
-95.6712
 20
-86.7238
 30
0.0
 10
-95.6712
 20
-86.7238
 30
0.0
 10
-95.6712
 20
-86.7238
 30
0.0
 10
-95.6712
 20
-86.7238
 30
0.0
 10
-88.2184
 20
-83.6367
 30
0.0
 10
-88.2184
 20
-83.6367
 30
0.0
 10
-88.2184
 20
-83.6367
 30
0.0
 10
-88.2184
 20
-83.6367
 30
0.0
 10
-86.4144
 20
-87.9921
 30
0.0
 10
-86.4144
 20
-87.9921
 30
0.0
 10
-86.4144
 20
-87.9921
 30
0.0
 10
-86.4144
 20
-87.9921
 30
0.0
 10
-83.6427
 20
-86.844
 30
0.0
 10
-83.6427
 20
-86.844
 30
0.0
 10
-83.6427
 20
-86.844
 30
0.0
 10
-83.6427
 20
-86.844
 30
0.0
 10
-85.4468
 20
-82.4887
 30
0.0
 10
-85.4468
 20
-82.4887
 30
0.0
 10
-85.4468
 20
-82.4887
 30
0.0
 10
-85.4468
 20
-82.4887
 30
0.0
 10
-77.9936
 20
-79.4015
 30
0.0
 10
-77.9936
 20
-79.4015
 30
0.0
  0
SPLINE
  5
4E
330
1F
100
AcDbEntity
  8
Capa 1
 62
   250
370
     9
100
AcDbSpline
210
0.0
220
0.0
230
1.0
 70
    11
 71
     3
 72
   164
 73
   160
 74
     0
 42
0.0000000001
 43
0.0000000001
 40
0.0
 40
0.0
 40
0.0
 40
0.0
 40
0.024390243902439
 40
0.024390243902439
 40
0.024390243902439
 40
0.024390243902439
 40
0.0487804878048781
 40
0.0487804878048781
 40
0.0487804878048781
 40
0.0487804878048781
 40
0.0731707317073171
 40
0.0731707317073171
 40
0.0731707317073171
 40
0.0731707317073171
 40
0.0975609756097561
 40
0.0975609756097561
 40
0.0975609756097561
 40
0.0975609756097561
 40
0.1219512195121951
 40
0.1219512195121951
 40
0.1219512195121951
 40
0.1219512195121951
 40
0.1463414634146341
 40
0.1463414634146341
 40
0.1463414634146341
 40
0.1463414634146341
 40
0.1707317073170732
 40
0.1707317073170732
 40
0.1707317073170732
 40
0.1707317073170732
 40
0.1951219512195122
 40
0.1951219512195122
 40
0.1951219512195122
 40
0.1951219512195122
 40
0.2195121951219512
 40
0.2195121951219512
 40
0.2195121951219512
 40
0.2195121951219512
 40
0.2439024390243902
 40
0.2439024390243902
 40
0.2439024390243902
 40
0.2439024390243902
 40
0.2682926829268293
 40
0.2682926829268293
 40
0.2682926829268293
 40
0.2682926829268293
 40
0.2926829268292683
 40
0.2926829268292683
 40
0.2926829268292683
 40
0.2926829268292683
 40
0.3170731707317073
 40
0.3170731707317073
 40
0.3170731707317073
 40
0.3170731707317073
 40
0.3414634146341464
 40
0.3414634146341464
 40
0.3414634146341464
 40
0.3414634146341464
 40
0.3658536585365854
 40
0.3658536585365854
 40
0.3658536585365854
 40
0.3658536585365854
 40
0.3902439024390244
 40
0.3902439024390244
 40
0.3902439024390244
 40
0.3902439024390244
 40
0.4146341463414634
 40
0.4146341463414634
 40
0.4146341463414634
 40
0.4146341463414634
 40
0.4390243902439024
 40
0.4390243902439024
 40
0.4390243902439024
 40
0.4390243902439024
 40
0.4634146341463415
 40
0.4634146341463415
 40
0.4634146341463415
 40
0.4634146341463415
 40
0.4878048780487805
 40
0.4878048780487805
 40
0.4878048780487805
 40
0.4878048780487805
 40
0.5121951219512195
 40
0.5121951219512195
 40
0.5121951219512195
 40
0.5121951219512195
 40
0.5365853658536586
 40
0.5365853658536586
 40
0.5365853658536586
 40
0.5365853658536586
 40
0.5609756097560976
 40
0.5609756097560976
 40
0.5609756097560976
 40
0.5609756097560976
 40
0.5853658536585366
 40
0.5853658536585366
 40
0.5853658536585366
 40
0.5853658536585366
 40
0.6097560975609756
 40
0.6097560975609756
 40
0.6097560975609756
 40
0.6097560975609756
 40
0.6341463414634146
 40
0.6341463414634146
 40
0.6341463414634146
 40
0.6341463414634146
 40
0.6585365853658537
 40
0.6585365853658537
 40
0.6585365853658537
 40
0.6585365853658537
 40
0.6829268292682927
 40
0.6829268292682927
 40
0.6829268292682927
 40
0.6829268292682927
 40
0.7073170731707317
 40
0.7073170731707317
 40
0.7073170731707317
 40
0.7073170731707317
 40
0.7317073170731707
 40
0.7317073170731707
 40
0.7317073170731707
 40
0.7317073170731707
 40
0.7560975609756098
 40
0.7560975609756098
 40
0.7560975609756098
 40
0.7560975609756098
 40
0.7804878048780488
 40
0.7804878048780488
 40
0.7804878048780488
 40
0.7804878048780488
 40
0.8048780487804879
 40
0.8048780487804879
 40
0.8048780487804879
 40
0.8048780487804879
 40
0.8292682926829268
 40
0.8292682926829268
 40
0.8292682926829268
 40
0.8292682926829268
 40
0.8536585365853658
 40
0.8536585365853658
 40
0.8536585365853658
 40
0.8536585365853658
 40
0.8780487804878049
 40
0.8780487804878049
 40
0.8780487804878049
 40
0.8780487804878049
 40
0.9024390243902439
 40
0.9024390243902439
 40
0.9024390243902439
 40
0.9024390243902439
 40
0.926829268292683
 40
0.926829268292683
 40
0.926829268292683
 40
0.926829268292683
 40
0.9512195121951219
 40
0.9512195121951219
 40
0.9512195121951219
 40
0.9512195121951219
 40
1.0
 40
1.0
 40
1.0
 40
1.0
 10
-25.6061
 20
-79.4015
 30
0.0
 10
-25.6061
 20
-79.4015
 30
0.0
 10
-18.1533
 20
-82.4885
 30
0.0
 10
-18.1533
 20
-82.4885
 30
0.0
 10
-18.1533
 20
-82.4885
 30
0.0
 10
-18.1533
 20
-82.4885
 30
0.0
 10
-19.9574
 20
-86.844
 30
0.0
 10
-19.9574
 20
-86.844
 30
0.0
 10
-19.9574
 20
-86.844
 30
0.0
 10
-19.9574
 20
-86.844
 30
0.0
 10
-17.1857
 20
-87.9921
 30
0.0
 10
-17.1857
 20
-87.9921
 30
0.0
 10
-17.1857
 20
-87.9921
 30
0.0
 10
-17.1857
 20
-87.9921
 30
0.0
 10
-15.3816
 20
-83.6366
 30
0.0
 10
-15.3816
 20
-83.6366
 30
0.0
 10
-15.3816
 20
-83.6366
 30
0.0
 10
-15.3816
 20
-83.6366
 30
0.0
 10
-7.9285
 20
-86.7238
 30
0.0
 10
-7.9285
 20
-86.7238
 30
0.0
 10
-7.9285
 20
-86.7238
 30
0.0
 10
-7.9285
 20
-86.7238
 30
0.0
 10
-4.8413
 20
-94.1768
 30
0.0
 10
-4.8413
 20
-94.1768
 30
0.0
 10
-4.8413
 20
-94.1768
 30
0.0
 10
-4.8413
 20
-94.1768
 30
0.0
 10
-9.197
 20
-95.981
 30
0.0
 10
-9.197
 20
-95.981
 30
0.0
 10
-9.197
 20
-95.981
 30
0.0
 10
-9.197
 20
-95.981
 30
0.0
 10
-8.0489
 20
-98.7526
 30
0.0
 10
-8.0489
 20
-98.7526
 30
0.0
 10
-8.0489
 20
-98.7526
 30
0.0
 10
-8.0489
 20
-98.7526
 30
0.0
 10
-3.6933
 20
-96.9485
 30
0.0
 10
-3.6933
 20
-96.9485
 30
0.0
 10
-3.6933
 20
-96.9485
 30
0.0
 10
-3.6933
 20
-96.9485
 30
0.0
 10
-0.6061
 20
-104.4015
 30
0.0
 10
-0.6061
 20
-104.4015
 30
0.0
 10
-0.6061
 20
-104.4015
 30
0.0
 10
-0.6061
 20
-104.4015
 30
0.0
 10
-3.6933
 20
-111.8546
 30
0.0
 10
-3.6933
 20
-111.8546
 30
0.0
 10
-3.6933
 20
-111.8546
 30
0.0
 10
-3.6933
 20
-111.8546
 30
0.0
 10
-8.049
 20
-110.0504
 30
0.0
 10
-8.049
 20
-110.0504
 30
0.0
 10
-8.049
 20
-110.0504
 30
0.0
 10
-8.049
 20
-110.0504
 30
0.0
 10
-9.1971
 20
-112.822
 30
0.0
 10
-9.1971
 20
-112.822
 30
0.0
 10
-9.1971
 20
-112.822
 30
0.0
 10
-9.1971
 20
-112.822
 30
0.0
 10
-4.8414
 20
-114.6262
 30
0.0
 10
-4.8414
 20
-114.6262
 30
0.0
 10
-4.8414
 20
-114.6262
 30
0.0
 10
-4.8414
 20
-114.6262
 30
0.0
 10
-7.9285
 20
-122.0792
 30
0.0
 10
-7.9285
 20
-122.0792
 30
0.0
 10
-7.9285
 20
-122.0792
 30
0.0
 10
-7.9285
 20
-122.0792
 30
0.0
 10
-15.3817
 20
-125.1664
 30
0.0
 10
-15.3817
 20
-125.1664
 30
0.0
 10
-15.3817
 20
-125.1664
 30
0.0
 10
-15.3817
 20
-125.1664
 30
0.0
 10
-17.1858
 20
-120.8109
 30
0.0
 10
-17.1858
 20
-120.8109
 30
0.0
 10
-17.1858
 20
-120.8109
 30
0.0
 10
-17.1858
 20
-120.8109
 30
0.0
 10
-19.9575
 20
-121.9589
 30
0.0
 10
-19.9575
 20
-121.9589
 30
0.0
 10
-19.9575
 20
-121.9589
 30
0.0
 10
-19.9575
 20
-121.9589
 30
0.0
 10
-18.1534
 20
-126.3145
 30
0.0
 10
-18.1534
 20
-126.3145
 30
0.0
 10
-18.1534
 20
-126.3145
 30
0.0
 10
-18.1534
 20
-126.3145
 30
0.0
 10
-25.6061
 20
-129.4015
 30
0.0
 10
-25.6061
 20
-129.4015
 30
0.0
 10
-25.6061
 20
-129.4015
 30
0.0
 10
-25.6061
 20
-129.4015
 30
0.0
 10
-33.0592
 20
-126.3144
 30
0.0
 10
-33.0592
 20
-126.3144
 30
0.0
 10
-33.0592
 20
-126.3144
 30
0.0
 10
-33.0592
 20
-126.3144
 30
0.0
 10
-31.2551
 20
-121.9589
 30
0.0
 10
-31.2551
 20
-121.9589
 30
0.0
 10
-31.2551
 20
-121.9589
 30
0.0
 10
-31.2551
 20
-121.9589
 30
0.0
 10
-34.0268
 20
-120.8109
 30
0.0
 10
-34.0268
 20
-120.8109
 30
0.0
 10
-34.0268
 20
-120.8109
 30
0.0
 10
-34.0268
 20
-120.8109
 30
0.0
 10
-35.8309
 20
-125.1663
 30
0.0
 10
-35.8309
 20
-125.1663
 30
0.0
 10
-35.8309
 20
-125.1663
 30
0.0
 10
-35.8309
 20
-125.1663
 30
0.0
 10
-43.2837
 20
-122.0792
 30
0.0
 10
-43.2837
 20
-122.0792
 30
0.0
 10
-43.2837
 20
-122.0792
 30
0.0
 10
-43.2837
 20
-122.0792
 30
0.0
 10
-46.3709
 20
-114.6261
 30
0.0
 10
-46.3709
 20
-114.6261
 30
0.0
 10
-46.3709
 20
-114.6261
 30
0.0
 10
-46.3709
 20
-114.6261
 30
0.0
 10
-42.0155
 20
-112.822
 30
0.0
 10
-42.0155
 20
-112.822
 30
0.0
 10
-42.0155
 20
-112.822
 30
0.0
 10
-42.0155
 20
-112.822
 30
0.0
 10
-43.1636
 20
-110.0504
 30
0.0
 10
-43.1636
 20
-110.0504
 30
0.0
 10
-43.1636
 20
-110.0504
 30
0.0
 10
-43.1636
 20
-110.0504
 30
0.0
 10
-47.519
 20
-111.8544
 30
0.0
 10
-47.519
 20
-111.8544
 30
0.0
 10
-47.519
 20
-111.8544
 30
0.0
 10
-47.519
 20
-111.8544
 30
0.0
 10
-50.6061
 20
-104.4015
 30
0.0
 10
-50.6061
 20
-104.4015
 30
0.0
 10
-50.6061
 20
-104.4015
 30
0.0
 10
-50.6061
 20
-104.4015
 30
0.0
 10
-47.519
 20
-96.9486
 30
0.0
 10
-47.519
 20
-96.9486
 30
0.0
 10
-47.519
 20
-96.9486
 30
0.0
 10
-47.519
 20
-96.9486
 30
0.0
 10
-43.1637
 20
-98.7526
 30
0.0
 10
-43.1637
 20
-98.7526
 30
0.0
 10
-43.1637
 20
-98.7526
 30
0.0
 10
-43.1637
 20
-98.7526
 30
0.0
 10
-42.0156
 20
-95.981
 30
0.0
 10
-42.0156
 20
-95.981
 30
0.0
 10
-42.0156
 20
-95.981
 30
0.0
 10
-42.0156
 20
-95.981
 30
0.0
 10
-46.3709
 20
-94.177
 30
0.0
 10
-46.3709
 20
-94.177
 30
0.0
 10
-46.3709
 20
-94.177
 30
0.0
 10
-46.3709
 20
-94.177
 30
0.0
 10
-43.2837
 20
-86.7238
 30
0.0
 10
-43.2837
 20
-86.7238
 30
0.0
 10
-43.2837
 20
-86.7238
 30
0.0
 10
-43.2837
 20
-86.7238
 30
0.0
 10
-35.8309
 20
-83.6367
 30
0.0
 10
-35.8309
 20
-83.6367
 30
0.0
 10
-35.8309
 20
-83.6367
 30
0.0
 10
-35.8309
 20
-83.6367
 30
0.0
 10
-34.0269
 20
-87.9921
 30
0.0
 10
-34.0269
 20
-87.9921
 30
0.0
 10
-34.0269
 20
-87.9921
 30
0.0
 10
-34.0269
 20
-87.9921
 30
0.0
 10
-31.2552
 20
-86.844
 30
0.0
 10
-31.2552
 20
-86.844
 30
0.0
 10
-31.2552
 20
-86.844
 30
0.0
 10
-31.2552
 20
-86.844
 30
0.0
 10
-33.0593
 20
-82.4887
 30
0.0
 10
-33.0593
 20
-82.4887
 30
0.0
 10
-33.0593
 20
-82.4887
 30
0.0
 10
-33.0593
 20
-82.4887
 30
0.0
 10
-25.6061
 20
-79.4015
 30
0.0
 10
-25.6061
 20
-79.4015
 30
0.0
  0
SPLINE
  5
4F
330
1F
100
AcDbEntity
  8
Capa 1
 62
   250
370
     9
100
AcDbSpline
210
0.0
220
0.0
230
1.0
 70
    11
 71
     3
 72
   164
 73
   160
 74
     0
 42
0.0000000001
 43
0.0000000001
 40
0.0
 40
0.0
 40
0.0
 40
0.0
 40
0.024390243902439
 40
0.024390243902439
 40
0.024390243902439
 40
0.024390243902439
 40
0.0487804878048781
 40
0.0487804878048781
 40
0.0487804878048781
 40
0.0487804878048781
 40
0.0731707317073171
 40
0.0731707317073171
 40
0.0731707317073171
 40
0.0731707317073171
 40
0.0975609756097561
 40
0.0975609756097561
 40
0.0975609756097561
 40
0.0975609756097561
 40
0.1219512195121951
 40
0.1219512195121951
 40
0.1219512195121951
 40
0.1219512195121951
 40
0.1463414634146341
 40
0.1463414634146341
 40
0.1463414634146341
 40
0.1463414634146341
 40
0.1707317073170732
 40
0.1707317073170732
 40
0.1707317073170732
 40
0.1707317073170732
 40
0.1951219512195122
 40
0.1951219512195122
 40
0.1951219512195122
 40
0.1951219512195122
 40
0.2195121951219512
 40
0.2195121951219512
 40
0.2195121951219512
 40
0.2195121951219512
 40
0.2439024390243902
 40
0.2439024390243902
 40
0.2439024390243902
 40
0.2439024390243902
 40
0.2682926829268293
 40
0.2682926829268293
 40
0.2682926829268293
 40
0.2682926829268293
 40
0.2926829268292683
 40
0.2926829268292683
 40
0.2926829268292683
 40
0.2926829268292683
 40
0.3170731707317073
 40
0.3170731707317073
 40
0.3170731707317073
 40
0.3170731707317073
 40
0.3414634146341464
 40
0.3414634146341464
 40
0.3414634146341464
 40
0.3414634146341464
 40
0.3658536585365854
 40
0.3658536585365854
 40
0.3658536585365854
 40
0.3658536585365854
 40
0.3902439024390244
 40
0.3902439024390244
 40
0.3902439024390244
 40
0.3902439024390244
 40
0.4146341463414634
 40
0.4146341463414634
 40
0.4146341463414634
 40
0.4146341463414634
 40
0.4390243902439024
 40
0.4390243902439024
 40
0.4390243902439024
 40
0.4390243902439024
 40
0.4634146341463415
 40
0.4634146341463415
 40
0.4634146341463415
 40
0.4634146341463415
 40
0.4878048780487805
 40
0.4878048780487805
 40
0.4878048780487805
 40
0.4878048780487805
 40
0.5121951219512195
 40
0.5121951219512195
 40
0.5121951219512195
 40
0.5121951219512195
 40
0.5365853658536586
 40
0.5365853658536586
 40
0.5365853658536586
 40
0.5365853658536586
 40
0.5609756097560976
 40
0.5609756097560976
 40
0.5609756097560976
 40
0.5609756097560976
 40
0.5853658536585366
 40
0.5853658536585366
 40
0.5853658536585366
 40
0.5853658536585366
 40
0.6097560975609756
 40
0.6097560975609756
 40
0.6097560975609756
 40
0.6097560975609756
 40
0.6341463414634146
 40
0.6341463414634146
 40
0.6341463414634146
 40
0.6341463414634146
 40
0.6585365853658537
 40
0.6585365853658537
 40
0.6585365853658537
 40
0.6585365853658537
 40
0.6829268292682927
 40
0.6829268292682927
 40
0.6829268292682927
 40
0.6829268292682927
 40
0.7073170731707317
 40
0.7073170731707317
 40
0.7073170731707317
 40
0.7073170731707317
 40
0.7317073170731707
 40
0.7317073170731707
 40
0.7317073170731707
 40
0.7317073170731707
 40
0.7560975609756098
 40
0.7560975609756098
 40
0.7560975609756098
 40
0.7560975609756098
 40
0.7804878048780488
 40
0.7804878048780488
 40
0.7804878048780488
 40
0.7804878048780488
 40
0.8048780487804879
 40
0.8048780487804879
 40
0.8048780487804879
 40
0.8048780487804879
 40
0.8292682926829268
 40
0.8292682926829268
 40
0.8292682926829268
 40
0.8292682926829268
 40
0.8536585365853658
 40
0.8536585365853658
 40
0.8536585365853658
 40
0.8536585365853658
 40
0.8780487804878049
 40
0.8780487804878049
 40
0.8780487804878049
 40
0.8780487804878049
 40
0.9024390243902439
 40
0.9024390243902439
 40
0.9024390243902439
 40
0.9024390243902439
 40
0.926829268292683
 40
0.926829268292683
 40
0.926829268292683
 40
0.926829268292683
 40
0.9512195121951219
 40
0.9512195121951219
 40
0.9512195121951219
 40
0.9512195121951219
 40
1.0
 40
1.0
 40
1.0
 40
1.0
 10
26.7814
 20
-79.4015
 30
0.0
 10
26.7814
 20
-79.4015
 30
0.0
 10
34.2342
 20
-82.4885
 30
0.0
 10
34.2342
 20
-82.4885
 30
0.0
 10
34.2342
 20
-82.4885
 30
0.0
 10
34.2342
 20
-82.4885
 30
0.0
 10
32.4301
 20
-86.844
 30
0.0
 10
32.4301
 20
-86.844
 30
0.0
 10
32.4301
 20
-86.844
 30
0.0
 10
32.4301
 20
-86.844
 30
0.0
 10
35.2018
 20
-87.9921
 30
0.0
 10
35.2018
 20
-87.9921
 30
0.0
 10
35.2018
 20
-87.9921
 30
0.0
 10
35.2018
 20
-87.9921
 30
0.0
 10
37.0059
 20
-83.6366
 30
0.0
 10
37.0059
 20
-83.6366
 30
0.0
 10
37.0059
 20
-83.6366
 30
0.0
 10
37.0059
 20
-83.6366
 30
0.0
 10
44.459
 20
-86.7238
 30
0.0
 10
44.459
 20
-86.7238
 30
0.0
 10
44.459
 20
-86.7238
 30
0.0
 10
44.459
 20
-86.7238
 30
0.0
 10
47.5462
 20
-94.1768
 30
0.0
 10
47.5462
 20
-94.1768
 30
0.0
 10
47.5462
 20
-94.1768
 30
0.0
 10
47.5462
 20
-94.1768
 30
0.0
 10
43.1905
 20
-95.981
 30
0.0
 10
43.1905
 20
-95.981
 30
0.0
 10
43.1905
 20
-95.981
 30
0.0
 10
43.1905
 20
-95.981
 30
0.0
 10
44.3386
 20
-98.7526
 30
0.0
 10
44.3386
 20
-98.7526
 30
0.0
 10
44.3386
 20
-98.7526
 30
0.0
 10
44.3386
 20
-98.7526
 30
0.0
 10
48.6942
 20
-96.9485
 30
0.0
 10
48.6942
 20
-96.9485
 30
0.0
 10
48.6942
 20
-96.9485
 30
0.0
 10
48.6942
 20
-96.9485
 30
0.0
 10
51.7814
 20
-104.4015
 30
0.0
 10
51.7814
 20
-104.4015
 30
0.0
 10
51.7814
 20
-104.4015
 30
0.0
 10
51.7814
 20
-104.4015
 30
0.0
 10
48.6942
 20
-111.8546
 30
0.0
 10
48.6942
 20
-111.8546
 30
0.0
 10
48.6942
 20
-111.8546
 30
0.0
 10
48.6942
 20
-111.8546
 30
0.0
 10
44.3385
 20
-110.0504
 30
0.0
 10
44.3385
 20
-110.0504
 30
0.0
 10
44.3385
 20
-110.0504
 30
0.0
 10
44.3385
 20
-110.0504
 30
0.0
 10
43.1904
 20
-112.822
 30
0.0
 10
43.1904
 20
-112.822
 30
0.0
 10
43.1904
 20
-112.822
 30
0.0
 10
43.1904
 20
-112.822
 30
0.0
 10
47.5461
 20
-114.6262
 30
0.0
 10
47.5461
 20
-114.6262
 30
0.0
 10
47.5461
 20
-114.6262
 30
0.0
 10
47.5461
 20
-114.6262
 30
0.0
 10
44.459
 20
-122.0792
 30
0.0
 10
44.459
 20
-122.0792
 30
0.0
 10
44.459
 20
-122.0792
 30
0.0
 10
44.459
 20
-122.0792
 30
0.0
 10
37.0058
 20
-125.1664
 30
0.0
 10
37.0058
 20
-125.1664
 30
0.0
 10
37.0058
 20
-125.1664
 30
0.0
 10
37.0058
 20
-125.1664
 30
0.0
 10
35.2017
 20
-120.8109
 30
0.0
 10
35.2017
 20
-120.8109
 30
0.0
 10
35.2017
 20
-120.8109
 30
0.0
 10
35.2017
 20
-120.8109
 30
0.0
 10
32.43
 20
-121.9589
 30
0.0
 10
32.43
 20
-121.9589
 30
0.0
 10
32.43
 20
-121.9589
 30
0.0
 10
32.43
 20
-121.9589
 30
0.0
 10
34.2341
 20
-126.3145
 30
0.0
 10
34.2341
 20
-126.3145
 30
0.0
 10
34.2341
 20
-126.3145
 30
0.0
 10
34.2341
 20
-126.3145
 30
0.0
 10
26.7814
 20
-129.4015
 30
0.0
 10
26.7814
 20
-129.4015
 30
0.0
 10
26.7814
 20
-129.4015
 30
0.0
 10
26.7814
 20
-129.4015
 30
0.0
 10
19.3283
 20
-126.3144
 30
0.0
 10
19.3283
 20
-126.3144
 30
0.0
 10
19.3283
 20
-126.3144
 30
0.0
 10
19.3283
 20
-126.3144
 30
0.0
 10
21.1324
 20
-121.9589
 30
0.0
 10
21.1324
 20
-121.9589
 30
0.0
 10
21.1324
 20
-121.9589
 30
0.0
 10
21.1324
 20
-121.9589
 30
0.0
 10
18.3607
 20
-120.8109
 30
0.0
 10
18.3607
 20
-120.8109
 30
0.0
 10
18.3607
 20
-120.8109
 30
0.0
 10
18.3607
 20
-120.8109
 30
0.0
 10
16.5566
 20
-125.1663
 30
0.0
 10
16.5566
 20
-125.1663
 30
0.0
 10
16.5566
 20
-125.1663
 30
0.0
 10
16.5566
 20
-125.1663
 30
0.0
 10
9.1038
 20
-122.0792
 30
0.0
 10
9.1038
 20
-122.0792
 30
0.0
 10
9.1038
 20
-122.0792
 30
0.0
 10
9.1038
 20
-122.0792
 30
0.0
 10
6.0166
 20
-114.6261
 30
0.0
 10
6.0166
 20
-114.6261
 30
0.0
 10
6.0166
 20
-114.6261
 30
0.0
 10
6.0166
 20
-114.6261
 30
0.0
 10
10.372
 20
-112.822
 30
0.0
 10
10.372
 20
-112.822
 30
0.0
 10
10.372
 20
-112.822
 30
0.0
 10
10.372
 20
-112.822
 30
0.0
 10
9.2239
 20
-110.0504
 30
0.0
 10
9.2239
 20
-110.0504
 30
0.0
 10
9.2239
 20
-110.0504
 30
0.0
 10
9.2239
 20
-110.0504
 30
0.0
 10
4.8685
 20
-111.8544
 30
0.0
 10
4.8685
 20
-111.8544
 30
0.0
 10
4.8685
 20
-111.8544
 30
0.0
 10
4.8685
 20
-111.8544
 30
0.0
 10
1.7814
 20
-104.4015
 30
0.0
 10
1.7814
 20
-104.4015
 30
0.0
 10
1.7814
 20
-104.4015
 30
0.0
 10
1.7814
 20
-104.4015
 30
0.0
 10
4.8685
 20
-96.9486
 30
0.0
 10
4.8685
 20
-96.9486
 30
0.0
 10
4.8685
 20
-96.9486
 30
0.0
 10
4.8685
 20
-96.9486
 30
0.0
 10
9.2238
 20
-98.7526
 30
0.0
 10
9.2238
 20
-98.7526
 30
0.0
 10
9.2238
 20
-98.7526
 30
0.0
 10
9.2238
 20
-98.7526
 30
0.0
 10
10.3719
 20
-95.981
 30
0.0
 10
10.3719
 20
-95.981
 30
0.0
 10
10.3719
 20
-95.981
 30
0.0
 10
10.3719
 20
-95.981
 30
0.0
 10
6.0166
 20
-94.177
 30
0.0
 10
6.0166
 20
-94.177
 30
0.0
 10
6.0166
 20
-94.177
 30
0.0
 10
6.0166
 20
-94.177
 30
0.0
 10
9.1038
 20
-86.7238
 30
0.0
 10
9.1038
 20
-86.7238
 30
0.0
 10
9.1038
 20
-86.7238
 30
0.0
 10
9.1038
 20
-86.7238
 30
0.0
 10
16.5566
 20
-83.6367
 30
0.0
 10
16.5566
 20
-83.6367
 30
0.0
 10
16.5566
 20
-83.6367
 30
0.0
 10
16.5566
 20
-83.6367
 30
0.0
 10
18.3606
 20
-87.9921
 30
0.0
 10
18.3606
 20
-87.9921
 30
0.0
 10
18.3606
 20
-87.9921
 30
0.0
 10
18.3606
 20
-87.9921
 30
0.0
 10
21.1323
 20
-86.844
 30
0.0
 10
21.1323
 20
-86.844
 30
0.0
 10
21.1323
 20
-86.844
 30
0.0
 10
21.1323
 20
-86.844
 30
0.0
 10
19.3282
 20
-82.4887
 30
0.0
 10
19.3282
 20
-82.4887
 30
0.0
 10
19.3282
 20
-82.4887
 30
0.0
 10
19.3282
 20
-82.4887
 30
0.0
 10
26.7814
 20
-79.4015
 30
0.0
 10
26.7814
 20
-79.4015
 30
0.0
  0
SPLINE
  5
50
330
1F
100
AcDbEntity
  8
Capa 1
 62
   250
370
     9
100
AcDbSpline
210
0.0
220
0.0
230
1.0
 70
    11
 71
     3
 72
    68
 73
    64
 74
     0
 42
0.0000000001
 43
0.0000000001
 40
0.0
 40
0.0
 40
0.0
 40
0.0
 40
0.0588235294117647
 40
0.0588235294117647
 40
0.0588235294117647
 40
0.0588235294117647
 40
0.1176470588235294
 40
0.1176470588235294
 40
0.1176470588235294
 40
0.1176470588235294
 40
0.1764705882352941
 40
0.1764705882352941
 40
0.1764705882352941
 40
0.1764705882352941
 40
0.2352941176470588
 40
0.2352941176470588
 40
0.2352941176470588
 40
0.2352941176470588
 40
0.2941176470588235
 40
0.2941176470588235
 40
0.2941176470588235
 40
0.2941176470588235
 40
0.3529411764705883
 40
0.3529411764705883
 40
0.3529411764705883
 40
0.3529411764705883
 40
0.4117647058823529
 40
0.4117647058823529
 40
0.4117647058823529
 40
0.4117647058823529
 40
0.4705882352941176
 40
0.4705882352941176
 40
0.4705882352941176
 40
0.4705882352941176
 40
0.5294117647058824
 40
0.5294117647058824
 40
0.5294117647058824
 40
0.5294117647058824
 40
0.5882352941176471
 40
0.5882352941176471
 40
0.5882352941176471
 40
0.5882352941176471
 40
0.6470588235294118
 40
0.6470588235294118
 40
0.6470588235294118
 40
0.6470588235294118
 40
0.7058823529411765
 40
0.7058823529411765
 40
0.7058823529411765
 40
0.7058823529411765
 40
0.7647058823529411
 40
0.7647058823529411
 40
0.7647058823529411
 40
0.7647058823529411
 40
0.8235294117647058
 40
0.8235294117647058
 40
0.8235294117647058
 40
0.8235294117647058
 40
0.8823529411764706
 40
0.8823529411764706
 40
0.8823529411764706
 40
0.8823529411764706
 40
1.0
 40
1.0
 40
1.0
 40
1.0
 10
39.1921
 20
-0.7265
 30
0.0
 10
38.5099
 20
-6.4309
 30
0.0
 10
33.9859
 20
-10.9543
 30
0.0
 10
28.2814
 20
-11.6366
 30
0.0
 10
28.2814
 20
-11.6366
 30
0.0
 10
28.2814
 20
-11.6366
 30
0.0
 10
28.2814
 20
-7.0121
 30
0.0
 10
28.2814
 20
-7.0121
 30
0.0
 10
28.2814
 20
-7.0121
 30
0.0
 10
28.2814
 20
-7.0121
 30
0.0
 10
25.2814
 20
-7.0121
 30
0.0
 10
25.2814
 20
-7.0121
 30
0.0
 10
25.2814
 20
-7.0121
 30
0.0
 10
25.2814
 20
-7.0121
 30
0.0
 10
25.2814
 20
-11.6366
 30
0.0
 10
25.2814
 20
-11.6366
 30
0.0
 10
25.2814
 20
-11.6366
 30
0.0
 10
19.5769
 20
-10.9543
 30
0.0
 10
15.0529
 20
-6.4309
 30
0.0
 10
14.3707
 20
-0.7265
 30
0.0
 10
14.3707
 20
-0.7265
 30
0.0
 10
14.3707
 20
-0.7265
 30
0.0
 10
18.9958
 20
-0.7265
 30
0.0
 10
18.9958
 20
-0.7265
 30
0.0
 10
18.9958
 20
-0.7265
 30
0.0
 10
18.9958
 20
-0.7265
 30
0.0
 10
18.9958
 20
2.2735
 30
0.0
 10
18.9958
 20
2.2735
 30
0.0
 10
18.9958
 20
2.2735
 30
0.0
 10
18.9958
 20
2.2735
 30
0.0
 10
14.3707
 20
2.2735
 30
0.0
 10
14.3707
 20
2.2735
 30
0.0
 10
14.3707
 20
2.2735
 30
0.0
 10
15.0529
 20
7.9779
 30
0.0
 10
19.5769
 20
12.5013
 30
0.0
 10
25.2814
 20
13.1836
 30
0.0
 10
25.2814
 20
13.1836
 30
0.0
 10
25.2814
 20
13.1836
 30
0.0
 10
25.2814
 20
8.5591
 30
0.0
 10
25.2814
 20
8.5591
 30
0.0
 10
25.2814
 20
8.5591
 30
0.0
 10
25.2814
 20
8.5591
 30
0.0
 10
28.2814
 20
8.5591
 30
0.0
 10
28.2814
 20
8.5591
 30
0.0
 10
28.2814
 20
8.5591
 30
0.0
 10
28.2814
 20
8.5591
 30
0.0
 10
28.2814
 20
13.1836
 30
0.0
 10
28.2814
 20
13.1836
 30
0.0
 10
28.2814
 20
13.1836
 30
0.0
 10
33.9859
 20
12.5013
 30
0.0
 10
38.5099
 20
7.9779
 30
0.0
 10
39.1921
 20
2.2735
 30
0.0
 10
39.1921
 20
2.2735
 30
0.0
 10
39.1921
 20
2.2735
 30
0.0
 10
34.567
 20
2.2735
 30
0.0
 10
34.567
 20
2.2735
 30
0.0
 10
34.567
 20
2.2735
 30
0.0
 10
34.567
 20
2.2735
 30
0.0
 10
34.567
 20
-0.7265
 30
0.0
 10
34.567
 20
-0.7265
 30
0.0
 10
34.567
 20
-0.7265
 30
0.0
 10
34.567
 20
-0.7265
 30
0.0
 10
39.1921
 20
-0.7265
 30
0.0
 10
39.1921
 20
-0.7265
 30
0.0
  0
SPLINE
  5
51
330
1F
100
AcDbEntity
  8
Capa 1
 62
   250
370
     9
100
AcDbSpline
210
0.0
220
0.0
230
1.0
 70
    11
 71
     3
 72
   132
 73
   128
 74
     0
 42
0.0000000001
 43
0.0000000001
 40
0.0
 40
0.0
 40
0.0
 40
0.0
 40
0.0303030303030303
 40
0.0303030303030303
 40
0.0303030303030303
 40
0.0303030303030303
 40
0.0606060606060606
 40
0.0606060606060606
 40
0.0606060606060606
 40
0.0606060606060606
 40
0.0909090909090909
 40
0.0909090909090909
 40
0.0909090909090909
 40
0.0909090909090909
 40
0.1212121212121212
 40
0.1212121212121212
 40
0.1212121212121212
 40
0.1212121212121212
 40
0.1515151515151515
 40
0.1515151515151515
 40
0.1515151515151515
 40
0.1515151515151515
 40
0.1818181818181818
 40
0.1818181818181818
 40
0.1818181818181818
 40
0.1818181818181818
 40
0.2121212121212121
 40
0.2121212121212121
 40
0.2121212121212121
 40
0.2121212121212121
 40
0.2424242424242424
 40
0.2424242424242424
 40
0.2424242424242424
 40
0.2424242424242424
 40
0.2727272727272727
 40
0.2727272727272727
 40
0.2727272727272727
 40
0.2727272727272727
 40
0.303030303030303
 40
0.303030303030303
 40
0.303030303030303
 40
0.303030303030303
 40
0.3333333333333333
 40
0.3333333333333333
 40
0.3333333333333333
 40
0.3333333333333333
 40
0.3636363636363636
 40
0.3636363636363636
 40
0.3636363636363636
 40
0.3636363636363636
 40
0.3939393939393939
 40
0.3939393939393939
 40
0.3939393939393939
 40
0.3939393939393939
 40
0.4242424242424243
 40
0.4242424242424243
 40
0.4242424242424243
 40
0.4242424242424243
 40
0.4545454545454545
 40
0.4545454545454545
 40
0.4545454545454545
 40
0.4545454545454545
 40
0.4848484848484849
 40
0.4848484848484849
 40
0.4848484848484849
 40
0.4848484848484849
 40
0.5151515151515151
 40
0.5151515151515151
 40
0.5151515151515151
 40
0.5151515151515151
 40
0.5454545454545454
 40
0.5454545454545454
 40
0.5454545454545454
 40
0.5454545454545454
 40
0.5757575757575758
 40
0.5757575757575758
 40
0.5757575757575758
 40
0.5757575757575758
 40
0.6060606060606061
 40
0.6060606060606061
 40
0.6060606060606061
 40
0.6060606060606061
 40
0.6363636363636364
 40
0.6363636363636364
 40
0.6363636363636364
 40
0.6363636363636364
 40
0.6666666666666666
 40
0.6666666666666666
 40
0.6666666666666666
 40
0.6666666666666666
 40
0.696969696969697
 40
0.696969696969697
 40
0.696969696969697
 40
0.696969696969697
 40
0.7272727272727273
 40
0.7272727272727273
 40
0.7272727272727273
 40
0.7272727272727273
 40
0.7575757575757576
 40
0.7575757575757576
 40
0.7575757575757576
 40
0.7575757575757576
 40
0.7878787878787878
 40
0.7878787878787878
 40
0.7878787878787878
 40
0.7878787878787878
 40
0.8181818181818182
 40
0.8181818181818182
 40
0.8181818181818182
 40
0.8181818181818182
 40
0.8484848484848485
 40
0.8484848484848485
 40
0.8484848484848485
 40
0.8484848484848485
 40
0.8787878787878788
 40
0.8787878787878788
 40
0.8787878787878788
 40
0.8787878787878788
 40
0.9090909090909091
 40
0.9090909090909091
 40
0.9090909090909091
 40
0.9090909090909091
 40
0.9393939393939394
 40
0.9393939393939394
 40
0.9393939393939394
 40
0.9393939393939394
 40
1.0
 40
1.0
 40
1.0
 40
1.0
 10
-65.5829
 20
104.1777
 30
0.0
 10
-65.8614
 20
101.8491
 30
0.0
 10
-66.7801
 20
99.7173
 30
0.0
 10
-68.158
 20
97.9634
 30
0.0
 10
-68.158
 20
97.9634
 30
0.0
 10
-68.158
 20
97.9634
 30
0.0
 10
-71.415
 20
101.2204
 30
0.0
 10
-71.415
 20
101.2204
 30
0.0
 10
-71.415
 20
101.2204
 30
0.0
 10
-71.415
 20
101.2204
 30
0.0
 10
-73.5363
 20
99.0991
 30
0.0
 10
-73.5363
 20
99.0991
 30
0.0
 10
-73.5363
 20
99.0991
 30
0.0
 10
-73.5363
 20
99.0991
 30
0.0
 10
-70.2795
 20
95.8423
 30
0.0
 10
-70.2795
 20
95.8423
 30
0.0
 10
-70.2795
 20
95.8423
 30
0.0
 10
-72.0336
 20
94.4648
 30
0.0
 10
-74.1652
 20
93.5461
 30
0.0
 10
-76.4936
 20
93.2676
 30
0.0
 10
-76.4936
 20
93.2676
 30
0.0
 10
-76.4936
 20
93.2676
 30
0.0
 10
-76.4936
 20
97.8921
 30
0.0
 10
-76.4936
 20
97.8921
 30
0.0
 10
-76.4936
 20
97.8921
 30
0.0
 10
-76.4936
 20
97.8921
 30
0.0
 10
-79.4936
 20
97.8921
 30
0.0
 10
-79.4936
 20
97.8921
 30
0.0
 10
-79.4936
 20
97.8921
 30
0.0
 10
-79.4936
 20
97.8921
 30
0.0
 10
-79.4936
 20
93.2676
 30
0.0
 10
-79.4936
 20
93.2676
 30
0.0
 10
-79.4936
 20
93.2676
 30
0.0
 10
-81.8221
 20
93.5461
 30
0.0
 10
-83.9536
 20
94.4647
 30
0.0
 10
-85.7077
 20
95.8423
 30
0.0
 10
-85.7077
 20
95.8423
 30
0.0
 10
-85.7077
 20
95.8423
 30
0.0
 10
-82.4509
 20
99.0991
 30
0.0
 10
-82.4509
 20
99.0991
 30
0.0
 10
-82.4509
 20
99.0991
 30
0.0
 10
-82.4509
 20
99.0991
 30
0.0
 10
-84.5722
 20
101.2204
 30
0.0
 10
-84.5722
 20
101.2204
 30
0.0
 10
-84.5722
 20
101.2204
 30
0.0
 10
-84.5722
 20
101.2204
 30
0.0
 10
-87.8292
 20
97.9634
 30
0.0
 10
-87.8292
 20
97.9634
 30
0.0
 10
-87.8292
 20
97.9634
 30
0.0
 10
-89.207
 20
99.7174
 30
0.0
 10
-90.1258
 20
101.8491
 30
0.0
 10
-90.4043
 20
104.1777
 30
0.0
 10
-90.4043
 20
104.1777
 30
0.0
 10
-90.4043
 20
104.1777
 30
0.0
 10
-85.7792
 20
104.1777
 30
0.0
 10
-85.7792
 20
104.1777
 30
0.0
 10
-85.7792
 20
104.1777
 30
0.0
 10
-85.7792
 20
104.1777
 30
0.0
 10
-85.7792
 20
107.1777
 30
0.0
 10
-85.7792
 20
107.1777
 30
0.0
 10
-85.7792
 20
107.1777
 30
0.0
 10
-85.7792
 20
107.1777
 30
0.0
 10
-90.4043
 20
107.1777
 30
0.0
 10
-90.4043
 20
107.1777
 30
0.0
 10
-90.4043
 20
107.1777
 30
0.0
 10
-90.1258
 20
109.5063
 30
0.0
 10
-89.2071
 20
111.6381
 30
0.0
 10
-87.8292
 20
113.392
 30
0.0
 10
-87.8292
 20
113.392
 30
0.0
 10
-87.8292
 20
113.392
 30
0.0
 10
-84.5722
 20
110.135
 30
0.0
 10
-84.5722
 20
110.135
 30
0.0
 10
-84.5722
 20
110.135
 30
0.0
 10
-84.5722
 20
110.135
 30
0.0
 10
-82.4509
 20
112.2563
 30
0.0
 10
-82.4509
 20
112.2563
 30
0.0
 10
-82.4509
 20
112.2563
 30
0.0
 10
-82.4509
 20
112.2563
 30
0.0
 10
-85.7077
 20
115.5131
 30
0.0
 10
-85.7077
 20
115.5131
 30
0.0
 10
-85.7077
 20
115.5131
 30
0.0
 10
-83.9536
 20
116.8906
 30
0.0
 10
-81.822
 20
117.8093
 30
0.0
 10
-79.4936
 20
118.0878
 30
0.0
 10
-79.4936
 20
118.0878
 30
0.0
 10
-79.4936
 20
118.0878
 30
0.0
 10
-79.4936
 20
113.4633
 30
0.0
 10
-79.4936
 20
113.4633
 30
0.0
 10
-79.4936
 20
113.4633
 30
0.0
 10
-79.4936
 20
113.4633
 30
0.0
 10
-76.4936
 20
113.4633
 30
0.0
 10
-76.4936
 20
113.4633
 30
0.0
 10
-76.4936
 20
113.4633
 30
0.0
 10
-76.4936
 20
113.4633
 30
0.0
 10
-76.4936
 20
118.0878
 30
0.0
 10
-76.4936
 20
118.0878
 30
0.0
 10
-76.4936
 20
118.0878
 30
0.0
 10
-74.1651
 20
117.8093
 30
0.0
 10
-72.0336
 20
116.8907
 30
0.0
 10
-70.2795
 20
115.5131
 30
0.0
 10
-70.2795
 20
115.5131
 30
0.0
 10
-70.2795
 20
115.5131
 30
0.0
 10
-73.5363
 20
112.2563
 30
0.0
 10
-73.5363
 20
112.2563
 30
0.0
 10
-73.5363
 20
112.2563
 30
0.0
 10
-73.5363
 20
112.2563
 30
0.0
 10
-71.415
 20
110.135
 30
0.0
 10
-71.415
 20
110.135
 30
0.0
 10
-71.415
 20
110.135
 30
0.0
 10
-71.415
 20
110.135
 30
0.0
 10
-68.158
 20
113.392
 30
0.0
 10
-68.158
 20
113.392
 30
0.0
 10
-68.158
 20
113.392
 30
0.0
 10
-66.7802
 20
111.638
 30
0.0
 10
-65.8614
 20
109.5063
 30
0.0
 10
-65.5829
 20
107.1777
 30
0.0
 10
-65.5829
 20
107.1777
 30
0.0
 10
-65.5829
 20
107.1777
 30
0.0
 10
-70.208
 20
107.1777
 30
0.0
 10
-70.208
 20
107.1777
 30
0.0
 10
-70.208
 20
107.1777
 30
0.0
 10
-70.208
 20
107.1777
 30
0.0
 10
-70.208
 20
104.1777
 30
0.0
 10
-70.208
 20
104.1777
 30
0.0
 10
-70.208
 20
104.1777
 30
0.0
 10
-70.208
 20
104.1777
 30
0.0
 10
-65.5829
 20
104.1777
 30
0.0
 10
-65.5829
 20
104.1777
 30
0.0
  0
SPLINE
  5
52
330
1F
100
AcDbEntity
  8
Capa 1
 62
   250
370
     9
100
AcDbSpline
210
0.0
220
0.0
230
1.0
 70
    11
 71
     3
 72
    68
 73
    64
 74
     0
 42
0.0000000001
 43
0.0000000001
 40
0.0
 40
0.0
 40
0.0
 40
0.0
 40
0.0588235294117647
 40
0.0588235294117647
 40
0.0588235294117647
 40
0.0588235294117647
 40
0.1176470588235294
 40
0.1176470588235294
 40
0.1176470588235294
 40
0.1176470588235294
 40
0.1764705882352941
 40
0.1764705882352941
 40
0.1764705882352941
 40
0.1764705882352941
 40
0.2352941176470588
 40
0.2352941176470588
 40
0.2352941176470588
 40
0.2352941176470588
 40
0.2941176470588235
 40
0.2941176470588235
 40
0.2941176470588235
 40
0.2941176470588235
 40
0.3529411764705883
 40
0.3529411764705883
 40
0.3529411764705883
 40
0.3529411764705883
 40
0.4117647058823529
 40
0.4117647058823529
 40
0.4117647058823529
 40
0.4117647058823529
 40
0.4705882352941176
 40
0.4705882352941176
 40
0.4705882352941176
 40
0.4705882352941176
 40
0.5294117647058824
 40
0.5294117647058824
 40
0.5294117647058824
 40
0.5294117647058824
 40
0.5882352941176471
 40
0.5882352941176471
 40
0.5882352941176471
 40
0.5882352941176471
 40
0.6470588235294118
 40
0.6470588235294118
 40
0.6470588235294118
 40
0.6470588235294118
 40
0.7058823529411765
 40
0.7058823529411765
 40
0.7058823529411765
 40
0.7058823529411765
 40
0.7647058823529411
 40
0.7647058823529411
 40
0.7647058823529411
 40
0.7647058823529411
 40
0.8235294117647058
 40
0.8235294117647058
 40
0.8235294117647058
 40
0.8235294117647058
 40
0.8823529411764706
 40
0.8823529411764706
 40
0.8823529411764706
 40
0.8823529411764706
 40
1.0
 40
1.0
 40
1.0
 40
1.0
 10
-65.5829
 20
51.7902
 30
0.0
 10
-66.2651
 20
46.0858
 30
0.0
 10
-70.7891
 20
41.5624
 30
0.0
 10
-76.4936
 20
40.8801
 30
0.0
 10
-76.4936
 20
40.8801
 30
0.0
 10
-76.4936
 20
40.8801
 30
0.0
 10
-76.4936
 20
45.5046
 30
0.0
 10
-76.4936
 20
45.5046
 30
0.0
 10
-76.4936
 20
45.5046
 30
0.0
 10
-76.4936
 20
45.5046
 30
0.0
 10
-79.4936
 20
45.5046
 30
0.0
 10
-79.4936
 20
45.5046
 30
0.0
 10
-79.4936
 20
45.5046
 30
0.0
 10
-79.4936
 20
45.5046
 30
0.0
 10
-79.4936
 20
40.8801
 30
0.0
 10
-79.4936
 20
40.8801
 30
0.0
 10
-79.4936
 20
40.8801
 30
0.0
 10
-85.1981
 20
41.5624
 30
0.0
 10
-89.7221
 20
46.0858
 30
0.0
 10
-90.4043
 20
51.7902
 30
0.0
 10
-90.4043
 20
51.7902
 30
0.0
 10
-90.4043
 20
51.7902
 30
0.0
 10
-85.7792
 20
51.7902
 30
0.0
 10
-85.7792
 20
51.7902
 30
0.0
 10
-85.7792
 20
51.7902
 30
0.0
 10
-85.7792
 20
51.7902
 30
0.0
 10
-85.7792
 20
54.7902
 30
0.0
 10
-85.7792
 20
54.7902
 30
0.0
 10
-85.7792
 20
54.7902
 30
0.0
 10
-85.7792
 20
54.7902
 30
0.0
 10
-90.4043
 20
54.7902
 30
0.0
 10
-90.4043
 20
54.7902
 30
0.0
 10
-90.4043
 20
54.7902
 30
0.0
 10
-89.7221
 20
60.4946
 30
0.0
 10
-85.1981
 20
65.018
 30
0.0
 10
-79.4936
 20
65.7003
 30
0.0
 10
-79.4936
 20
65.7003
 30
0.0
 10
-79.4936
 20
65.7003
 30
0.0
 10
-79.4936
 20
61.0758
 30
0.0
 10
-79.4936
 20
61.0758
 30
0.0
 10
-79.4936
 20
61.0758
 30
0.0
 10
-79.4936
 20
61.0758
 30
0.0
 10
-76.4936
 20
61.0758
 30
0.0
 10
-76.4936
 20
61.0758
 30
0.0
 10
-76.4936
 20
61.0758
 30
0.0
 10
-76.4936
 20
61.0758
 30
0.0
 10
-76.4936
 20
65.7003
 30
0.0
 10
-76.4936
 20
65.7003
 30
0.0
 10
-76.4936
 20
65.7003
 30
0.0
 10
-70.7891
 20
65.018
 30
0.0
 10
-66.2651
 20
60.4946
 30
0.0
 10
-65.5829
 20
54.7902
 30
0.0
 10
-65.5829
 20
54.7902
 30
0.0
 10
-65.5829
 20
54.7902
 30
0.0
 10
-70.208
 20
54.7902
 30
0.0
 10
-70.208
 20
54.7902
 30
0.0
 10
-70.208
 20
54.7902
 30
0.0
 10
-70.208
 20
54.7902
 30
0.0
 10
-70.208
 20
51.7902
 30
0.0
 10
-70.208
 20
51.7902
 30
0.0
 10
-70.208
 20
51.7902
 30
0.0
 10
-70.208
 20
51.7902
 30
0.0
 10
-65.5829
 20
51.7902
 30
0.0
 10
-65.5829
 20
51.7902
 30
0.0
  0
SPLINE
  5
53
330
1F
100
AcDbEntity
  8
Capa 1
 62
   250
370
     9
100
AcDbSpline
210
0.0
220
0.0
230
1.0
 70
    11
 71
     3
 72
   132
 73
   128
 74
     0
 42
0.0000000001
 43
0.0000000001
 40
0.0
 40
0.0
 40
0.0
 40
0.0
 40
0.0303030303030303
 40
0.0303030303030303
 40
0.0303030303030303
 40
0.0303030303030303
 40
0.0606060606060606
 40
0.0606060606060606
 40
0.0606060606060606
 40
0.0606060606060606
 40
0.0909090909090909
 40
0.0909090909090909
 40
0.0909090909090909
 40
0.0909090909090909
 40
0.1212121212121212
 40
0.1212121212121212
 40
0.1212121212121212
 40
0.1212121212121212
 40
0.1515151515151515
 40
0.1515151515151515
 40
0.1515151515151515
 40
0.1515151515151515
 40
0.1818181818181818
 40
0.1818181818181818
 40
0.1818181818181818
 40
0.1818181818181818
 40
0.2121212121212121
 40
0.2121212121212121
 40
0.2121212121212121
 40
0.2121212121212121
 40
0.2424242424242424
 40
0.2424242424242424
 40
0.2424242424242424
 40
0.2424242424242424
 40
0.2727272727272727
 40
0.2727272727272727
 40
0.2727272727272727
 40
0.2727272727272727
 40
0.303030303030303
 40
0.303030303030303
 40
0.303030303030303
 40
0.303030303030303
 40
0.3333333333333333
 40
0.3333333333333333
 40
0.3333333333333333
 40
0.3333333333333333
 40
0.3636363636363636
 40
0.3636363636363636
 40
0.3636363636363636
 40
0.3636363636363636
 40
0.3939393939393939
 40
0.3939393939393939
 40
0.3939393939393939
 40
0.3939393939393939
 40
0.4242424242424243
 40
0.4242424242424243
 40
0.4242424242424243
 40
0.4242424242424243
 40
0.4545454545454545
 40
0.4545454545454545
 40
0.4545454545454545
 40
0.4545454545454545
 40
0.4848484848484849
 40
0.4848484848484849
 40
0.4848484848484849
 40
0.4848484848484849
 40
0.5151515151515151
 40
0.5151515151515151
 40
0.5151515151515151
 40
0.5151515151515151
 40
0.5454545454545454
 40
0.5454545454545454
 40
0.5454545454545454
 40
0.5454545454545454
 40
0.5757575757575758
 40
0.5757575757575758
 40
0.5757575757575758
 40
0.5757575757575758
 40
0.6060606060606061
 40
0.6060606060606061
 40
0.6060606060606061
 40
0.6060606060606061
 40
0.6363636363636364
 40
0.6363636363636364
 40
0.6363636363636364
 40
0.6363636363636364
 40
0.6666666666666666
 40
0.6666666666666666
 40
0.6666666666666666
 40
0.6666666666666666
 40
0.696969696969697
 40
0.696969696969697
 40
0.696969696969697
 40
0.696969696969697
 40
0.7272727272727273
 40
0.7272727272727273
 40
0.7272727272727273
 40
0.7272727272727273
 40
0.7575757575757576
 40
0.7575757575757576
 40
0.7575757575757576
 40
0.7575757575757576
 40
0.7878787878787878
 40
0.7878787878787878
 40
0.7878787878787878
 40
0.7878787878787878
 40
0.8181818181818182
 40
0.8181818181818182
 40
0.8181818181818182
 40
0.8181818181818182
 40
0.8484848484848485
 40
0.8484848484848485
 40
0.8484848484848485
 40
0.8484848484848485
 40
0.8787878787878788
 40
0.8787878787878788
 40
0.8787878787878788
 40
0.8787878787878788
 40
0.9090909090909091
 40
0.9090909090909091
 40
0.9090909090909091
 40
0.9090909090909091
 40
0.9393939393939394
 40
0.9393939393939394
 40
0.9393939393939394
 40
0.9393939393939394
 40
1.0
 40
1.0
 40
1.0
 40
1.0
 10
-13.1954
 20
104.1777
 30
0.0
 10
-13.4739
 20
101.8491
 30
0.0
 10
-14.3926
 20
99.7173
 30
0.0
 10
-15.7705
 20
97.9634
 30
0.0
 10
-15.7705
 20
97.9634
 30
0.0
 10
-15.7705
 20
97.9634
 30
0.0
 10
-19.0275
 20
101.2204
 30
0.0
 10
-19.0275
 20
101.2204
 30
0.0
 10
-19.0275
 20
101.2204
 30
0.0
 10
-19.0275
 20
101.2204
 30
0.0
 10
-21.1488
 20
99.0991
 30
0.0
 10
-21.1488
 20
99.0991
 30
0.0
 10
-21.1488
 20
99.0991
 30
0.0
 10
-21.1488
 20
99.0991
 30
0.0
 10
-17.892
 20
95.8423
 30
0.0
 10
-17.892
 20
95.8423
 30
0.0
 10
-17.892
 20
95.8423
 30
0.0
 10
-19.6461
 20
94.4648
 30
0.0
 10
-21.7777
 20
93.5461
 30
0.0
 10
-24.1061
 20
93.2676
 30
0.0
 10
-24.1061
 20
93.2676
 30
0.0
 10
-24.1061
 20
93.2676
 30
0.0
 10
-24.1061
 20
97.8921
 30
0.0
 10
-24.1061
 20
97.8921
 30
0.0
 10
-24.1061
 20
97.8921
 30
0.0
 10
-24.1061
 20
97.8921
 30
0.0
 10
-27.1061
 20
97.8921
 30
0.0
 10
-27.1061
 20
97.8921
 30
0.0
 10
-27.1061
 20
97.8921
 30
0.0
 10
-27.1061
 20
97.8921
 30
0.0
 10
-27.1061
 20
93.2676
 30
0.0
 10
-27.1061
 20
93.2676
 30
0.0
 10
-27.1061
 20
93.2676
 30
0.0
 10
-29.4346
 20
93.5461
 30
0.0
 10
-31.5661
 20
94.4647
 30
0.0
 10
-33.3202
 20
95.8423
 30
0.0
 10
-33.3202
 20
95.8423
 30
0.0
 10
-33.3202
 20
95.8423
 30
0.0
 10
-30.0634
 20
99.0991
 30
0.0
 10
-30.0634
 20
99.0991
 30
0.0
 10
-30.0634
 20
99.0991
 30
0.0
 10
-30.0634
 20
99.0991
 30
0.0
 10
-32.1847
 20
101.2204
 30
0.0
 10
-32.1847
 20
101.2204
 30
0.0
 10
-32.1847
 20
101.2204
 30
0.0
 10
-32.1847
 20
101.2204
 30
0.0
 10
-35.4417
 20
97.9634
 30
0.0
 10
-35.4417
 20
97.9634
 30
0.0
 10
-35.4417
 20
97.9634
 30
0.0
 10
-36.8195
 20
99.7174
 30
0.0
 10
-37.7383
 20
101.8491
 30
0.0
 10
-38.0168
 20
104.1777
 30
0.0
 10
-38.0168
 20
104.1777
 30
0.0
 10
-38.0168
 20
104.1777
 30
0.0
 10
-33.3917
 20
104.1777
 30
0.0
 10
-33.3917
 20
104.1777
 30
0.0
 10
-33.3917
 20
104.1777
 30
0.0
 10
-33.3917
 20
104.1777
 30
0.0
 10
-33.3917
 20
107.1777
 30
0.0
 10
-33.3917
 20
107.1777
 30
0.0
 10
-33.3917
 20
107.1777
 30
0.0
 10
-33.3917
 20
107.1777
 30
0.0
 10
-38.0168
 20
107.1777
 30
0.0
 10
-38.0168
 20
107.1777
 30
0.0
 10
-38.0168
 20
107.1777
 30
0.0
 10
-37.7383
 20
109.5063
 30
0.0
 10
-36.8196
 20
111.6381
 30
0.0
 10
-35.4417
 20
113.392
 30
0.0
 10
-35.4417
 20
113.392
 30
0.0
 10
-35.4417
 20
113.392
 30
0.0
 10
-32.1847
 20
110.135
 30
0.0
 10
-32.1847
 20
110.135
 30
0.0
 10
-32.1847
 20
110.135
 30
0.0
 10
-32.1847
 20
110.135
 30
0.0
 10
-30.0634
 20
112.2563
 30
0.0
 10
-30.0634
 20
112.2563
 30
0.0
 10
-30.0634
 20
112.2563
 30
0.0
 10
-30.0634
 20
112.2563
 30
0.0
 10
-33.3202
 20
115.5131
 30
0.0
 10
-33.3202
 20
115.5131
 30
0.0
 10
-33.3202
 20
115.5131
 30
0.0
 10
-31.5661
 20
116.8906
 30
0.0
 10
-29.4345
 20
117.8093
 30
0.0
 10
-27.1061
 20
118.0878
 30
0.0
 10
-27.1061
 20
118.0878
 30
0.0
 10
-27.1061
 20
118.0878
 30
0.0
 10
-27.1061
 20
113.4633
 30
0.0
 10
-27.1061
 20
113.4633
 30
0.0
 10
-27.1061
 20
113.4633
 30
0.0
 10
-27.1061
 20
113.4633
 30
0.0
 10
-24.1061
 20
113.4633
 30
0.0
 10
-24.1061
 20
113.4633
 30
0.0
 10
-24.1061
 20
113.4633
 30
0.0
 10
-24.1061
 20
113.4633
 30
0.0
 10
-24.1061
 20
118.0878
 30
0.0
 10
-24.1061
 20
118.0878
 30
0.0
 10
-24.1061
 20
118.0878
 30
0.0
 10
-21.7776
 20
117.8093
 30
0.0
 10
-19.6461
 20
116.8907
 30
0.0
 10
-17.892
 20
115.5131
 30
0.0
 10
-17.892
 20
115.5131
 30
0.0
 10
-17.892
 20
115.5131
 30
0.0
 10
-21.1488
 20
112.2563
 30
0.0
 10
-21.1488
 20
112.2563
 30
0.0
 10
-21.1488
 20
112.2563
 30
0.0
 10
-21.1488
 20
112.2563
 30
0.0
 10
-19.0275
 20
110.135
 30
0.0
 10
-19.0275
 20
110.135
 30
0.0
 10
-19.0275
 20
110.135
 30
0.0
 10
-19.0275
 20
110.135
 30
0.0
 10
-15.7705
 20
113.392
 30
0.0
 10
-15.7705
 20
113.392
 30
0.0
 10
-15.7705
 20
113.392
 30
0.0
 10
-14.3927
 20
111.638
 30
0.0
 10
-13.4739
 20
109.5063
 30
0.0
 10
-13.1954
 20
107.1777
 30
0.0
 10
-13.1954
 20
107.1777
 30
0.0
 10
-13.1954
 20
107.1777
 30
0.0
 10
-17.8205
 20
107.1777
 30
0.0
 10
-17.8205
 20
107.1777
 30
0.0
 10
-17.8205
 20
107.1777
 30
0.0
 10
-17.8205
 20
107.1777
 30
0.0
 10
-17.8205
 20
104.1777
 30
0.0
 10
-17.8205
 20
104.1777
 30
0.0
 10
-17.8205
 20
104.1777
 30
0.0
 10
-17.8205
 20
104.1777
 30
0.0
 10
-13.1954
 20
104.1777
 30
0.0
 10
-13.1954
 20
104.1777
 30
0.0
  0
SPLINE
  5
54
330
1F
100
AcDbEntity
  8
Capa 1
 62
   250
370
     9
100
AcDbSpline
210
0.0
220
0.0
230
1.0
 70
    11
 71
     3
 72
    68
 73
    64
 74
     0
 42
0.0000000001
 43
0.0000000001
 40
0.0
 40
0.0
 40
0.0
 40
0.0
 40
0.0588235294117647
 40
0.0588235294117647
 40
0.0588235294117647
 40
0.0588235294117647
 40
0.1176470588235294
 40
0.1176470588235294
 40
0.1176470588235294
 40
0.1176470588235294
 40
0.1764705882352941
 40
0.1764705882352941
 40
0.1764705882352941
 40
0.1764705882352941
 40
0.2352941176470588
 40
0.2352941176470588
 40
0.2352941176470588
 40
0.2352941176470588
 40
0.2941176470588235
 40
0.2941176470588235
 40
0.2941176470588235
 40
0.2941176470588235
 40
0.3529411764705883
 40
0.3529411764705883
 40
0.3529411764705883
 40
0.3529411764705883
 40
0.4117647058823529
 40
0.4117647058823529
 40
0.4117647058823529
 40
0.4117647058823529
 40
0.4705882352941176
 40
0.4705882352941176
 40
0.4705882352941176
 40
0.4705882352941176
 40
0.5294117647058824
 40
0.5294117647058824
 40
0.5294117647058824
 40
0.5294117647058824
 40
0.5882352941176471
 40
0.5882352941176471
 40
0.5882352941176471
 40
0.5882352941176471
 40
0.6470588235294118
 40
0.6470588235294118
 40
0.6470588235294118
 40
0.6470588235294118
 40
0.7058823529411765
 40
0.7058823529411765
 40
0.7058823529411765
 40
0.7058823529411765
 40
0.7647058823529411
 40
0.7647058823529411
 40
0.7647058823529411
 40
0.7647058823529411
 40
0.8235294117647058
 40
0.8235294117647058
 40
0.8235294117647058
 40
0.8235294117647058
 40
0.8823529411764706
 40
0.8823529411764706
 40
0.8823529411764706
 40
0.8823529411764706
 40
1.0
 40
1.0
 40
1.0
 40
1.0
 10
-13.1954
 20
51.7902
 30
0.0
 10
-13.8776
 20
46.0858
 30
0.0
 10
-18.4016
 20
41.5624
 30
0.0
 10
-24.1061
 20
40.8801
 30
0.0
 10
-24.1061
 20
40.8801
 30
0.0
 10
-24.1061
 20
40.8801
 30
0.0
 10
-24.1061
 20
45.5046
 30
0.0
 10
-24.1061
 20
45.5046
 30
0.0
 10
-24.1061
 20
45.5046
 30
0.0
 10
-24.1061
 20
45.5046
 30
0.0
 10
-27.1061
 20
45.5046
 30
0.0
 10
-27.1061
 20
45.5046
 30
0.0
 10
-27.1061
 20
45.5046
 30
0.0
 10
-27.1061
 20
45.5046
 30
0.0
 10
-27.1061
 20
40.8801
 30
0.0
 10
-27.1061
 20
40.8801
 30
0.0
 10
-27.1061
 20
40.8801
 30
0.0
 10
-32.8106
 20
41.5624
 30
0.0
 10
-37.3346
 20
46.0858
 30
0.0
 10
-38.0168
 20
51.7902
 30
0.0
 10
-38.0168
 20
51.7902
 30
0.0
 10
-38.0168
 20
51.7902
 30
0.0
 10
-33.3917
 20
51.7902
 30
0.0
 10
-33.3917
 20
51.7902
 30
0.0
 10
-33.3917
 20
51.7902
 30
0.0
 10
-33.3917
 20
51.7902
 30
0.0
 10
-33.3917
 20
54.7902
 30
0.0
 10
-33.3917
 20
54.7902
 30
0.0
 10
-33.3917
 20
54.7902
 30
0.0
 10
-33.3917
 20
54.7902
 30
0.0
 10
-38.0168
 20
54.7902
 30
0.0
 10
-38.0168
 20
54.7902
 30
0.0
 10
-38.0168
 20
54.7902
 30
0.0
 10
-37.3346
 20
60.4946
 30
0.0
 10
-32.8106
 20
65.018
 30
0.0
 10
-27.1061
 20
65.7003
 30
0.0
 10
-27.1061
 20
65.7003
 30
0.0
 10
-27.1061
 20
65.7003
 30
0.0
 10
-27.1061
 20
61.0758
 30
0.0
 10
-27.1061
 20
61.0758
 30
0.0
 10
-27.1061
 20
61.0758
 30
0.0
 10
-27.1061
 20
61.0758
 30
0.0
 10
-24.1061
 20
61.0758
 30
0.0
 10
-24.1061
 20
61.0758
 30
0.0
 10
-24.1061
 20
61.0758
 30
0.0
 10
-24.1061
 20
61.0758
 30
0.0
 10
-24.1061
 20
65.7003
 30
0.0
 10
-24.1061
 20
65.7003
 30
0.0
 10
-24.1061
 20
65.7003
 30
0.0
 10
-18.4016
 20
65.018
 30
0.0
 10
-13.8776
 20
60.4946
 30
0.0
 10
-13.1954
 20
54.7902
 30
0.0
 10
-13.1954
 20
54.7902
 30
0.0
 10
-13.1954
 20
54.7902
 30
0.0
 10
-17.8205
 20
54.7902
 30
0.0
 10
-17.8205
 20
54.7902
 30
0.0
 10
-17.8205
 20
54.7902
 30
0.0
 10
-17.8205
 20
54.7902
 30
0.0
 10
-17.8205
 20
51.7902
 30
0.0
 10
-17.8205
 20
51.7902
 30
0.0
 10
-17.8205
 20
51.7902
 30
0.0
 10
-17.8205
 20
51.7902
 30
0.0
 10
-13.1954
 20
51.7902
 30
0.0
 10
-13.1954
 20
51.7902
 30
0.0
  0
SPLINE
  5
55
330
1F
100
AcDbEntity
  8
Capa 1
 62
   250
370
     9
100
AcDbSpline
210
0.0
220
0.0
230
1.0
 70
    11
 71
     3
 72
    68
 73
    64
 74
     0
 42
0.0000000001
 43
0.0000000001
 40
0.0
 40
0.0
 40
0.0
 40
0.0
 40
0.0588235294117647
 40
0.0588235294117647
 40
0.0588235294117647
 40
0.0588235294117647
 40
0.1176470588235294
 40
0.1176470588235294
 40
0.1176470588235294
 40
0.1176470588235294
 40
0.1764705882352941
 40
0.1764705882352941
 40
0.1764705882352941
 40
0.1764705882352941
 40
0.2352941176470588
 40
0.2352941176470588
 40
0.2352941176470588
 40
0.2352941176470588
 40
0.2941176470588235
 40
0.2941176470588235
 40
0.2941176470588235
 40
0.2941176470588235
 40
0.3529411764705883
 40
0.3529411764705883
 40
0.3529411764705883
 40
0.3529411764705883
 40
0.4117647058823529
 40
0.4117647058823529
 40
0.4117647058823529
 40
0.4117647058823529
 40
0.4705882352941176
 40
0.4705882352941176
 40
0.4705882352941176
 40
0.4705882352941176
 40
0.5294117647058824
 40
0.5294117647058824
 40
0.5294117647058824
 40
0.5294117647058824
 40
0.5882352941176471
 40
0.5882352941176471
 40
0.5882352941176471
 40
0.5882352941176471
 40
0.6470588235294118
 40
0.6470588235294118
 40
0.6470588235294118
 40
0.6470588235294118
 40
0.7058823529411765
 40
0.7058823529411765
 40
0.7058823529411765
 40
0.7058823529411765
 40
0.7647058823529411
 40
0.7647058823529411
 40
0.7647058823529411
 40
0.7647058823529411
 40
0.8235294117647058
 40
0.8235294117647058
 40
0.8235294117647058
 40
0.8235294117647058
 40
0.8823529411764706
 40
0.8823529411764706
 40
0.8823529411764706
 40
0.8823529411764706
 40
1.0
 40
1.0
 40
1.0
 40
1.0
 10
39.1921
 20
51.7902
 30
0.0
 10
38.5099
 20
46.0858
 30
0.0
 10
33.9859
 20
41.5624
 30
0.0
 10
28.2814
 20
40.8801
 30
0.0
 10
28.2814
 20
40.8801
 30
0.0
 10
28.2814
 20
40.8801
 30
0.0
 10
28.2814
 20
45.5046
 30
0.0
 10
28.2814
 20
45.5046
 30
0.0
 10
28.2814
 20
45.5046
 30
0.0
 10
28.2814
 20
45.5046
 30
0.0
 10
25.2814
 20
45.5046
 30
0.0
 10
25.2814
 20
45.5046
 30
0.0
 10
25.2814
 20
45.5046
 30
0.0
 10
25.2814
 20
45.5046
 30
0.0
 10
25.2814
 20
40.8801
 30
0.0
 10
25.2814
 20
40.8801
 30
0.0
 10
25.2814
 20
40.8801
 30
0.0
 10
19.5769
 20
41.5624
 30
0.0
 10
15.0529
 20
46.0858
 30
0.0
 10
14.3707
 20
51.7902
 30
0.0
 10
14.3707
 20
51.7902
 30
0.0
 10
14.3707
 20
51.7902
 30
0.0
 10
18.9958
 20
51.7902
 30
0.0
 10
18.9958
 20
51.7902
 30
0.0
 10
18.9958
 20
51.7902
 30
0.0
 10
18.9958
 20
51.7902
 30
0.0
 10
18.9958
 20
54.7902
 30
0.0
 10
18.9958
 20
54.7902
 30
0.0
 10
18.9958
 20
54.7902
 30
0.0
 10
18.9958
 20
54.7902
 30
0.0
 10
14.3707
 20
54.7902
 30
0.0
 10
14.3707
 20
54.7902
 30
0.0
 10
14.3707
 20
54.7902
 30
0.0
 10
15.0529
 20
60.4946
 30
0.0
 10
19.5769
 20
65.018
 30
0.0
 10
25.2814
 20
65.7003
 30
0.0
 10
25.2814
 20
65.7003
 30
0.0
 10
25.2814
 20
65.7003
 30
0.0
 10
25.2814
 20
61.0758
 30
0.0
 10
25.2814
 20
61.0758
 30
0.0
 10
25.2814
 20
61.0758
 30
0.0
 10
25.2814
 20
61.0758
 30
0.0
 10
28.2814
 20
61.0758
 30
0.0
 10
28.2814
 20
61.0758
 30
0.0
 10
28.2814
 20
61.0758
 30
0.0
 10
28.2814
 20
61.0758
 30
0.0
 10
28.2814
 20
65.7003
 30
0.0
 10
28.2814
 20
65.7003
 30
0.0
 10
28.2814
 20
65.7003
 30
0.0
 10
33.9859
 20
65.018
 30
0.0
 10
38.5099
 20
60.4946
 30
0.0
 10
39.1921
 20
54.7902
 30
0.0
 10
39.1921
 20
54.7902
 30
0.0
 10
39.1921
 20
54.7902
 30
0.0
 10
34.567
 20
54.7902
 30
0.0
 10
34.567
 20
54.7902
 30
0.0
 10
34.567
 20
54.7902
 30
0.0
 10
34.567
 20
54.7902
 30
0.0
 10
34.567
 20
51.7902
 30
0.0
 10
34.567
 20
51.7902
 30
0.0
 10
34.567
 20
51.7902
 30
0.0
 10
34.567
 20
51.7902
 30
0.0
 10
39.1921
 20
51.7902
 30
0.0
 10
39.1921
 20
51.7902
 30
0.0
  0
SPLINE
  5
56
330
1F
100
AcDbEntity
  8
Capa 1
 62
   250
370
     9
100
AcDbSpline
210
0.0
220
0.0
230
1.0
 70
    11
 71
     3
 72
   132
 73
   128
 74
     0
 42
0.0000000001
 43
0.0000000001
 40
0.0
 40
0.0
 40
0.0
 40
0.0
 40
0.0303030303030303
 40
0.0303030303030303
 40
0.0303030303030303
 40
0.0303030303030303
 40
0.0606060606060606
 40
0.0606060606060606
 40
0.0606060606060606
 40
0.0606060606060606
 40
0.0909090909090909
 40
0.0909090909090909
 40
0.0909090909090909
 40
0.0909090909090909
 40
0.1212121212121212
 40
0.1212121212121212
 40
0.1212121212121212
 40
0.1212121212121212
 40
0.1515151515151515
 40
0.1515151515151515
 40
0.1515151515151515
 40
0.1515151515151515
 40
0.1818181818181818
 40
0.1818181818181818
 40
0.1818181818181818
 40
0.1818181818181818
 40
0.2121212121212121
 40
0.2121212121212121
 40
0.2121212121212121
 40
0.2121212121212121
 40
0.2424242424242424
 40
0.2424242424242424
 40
0.2424242424242424
 40
0.2424242424242424
 40
0.2727272727272727
 40
0.2727272727272727
 40
0.2727272727272727
 40
0.2727272727272727
 40
0.303030303030303
 40
0.303030303030303
 40
0.303030303030303
 40
0.303030303030303
 40
0.3333333333333333
 40
0.3333333333333333
 40
0.3333333333333333
 40
0.3333333333333333
 40
0.3636363636363636
 40
0.3636363636363636
 40
0.3636363636363636
 40
0.3636363636363636
 40
0.3939393939393939
 40
0.3939393939393939
 40
0.3939393939393939
 40
0.3939393939393939
 40
0.4242424242424243
 40
0.4242424242424243
 40
0.4242424242424243
 40
0.4242424242424243
 40
0.4545454545454545
 40
0.4545454545454545
 40
0.4545454545454545
 40
0.4545454545454545
 40
0.4848484848484849
 40
0.4848484848484849
 40
0.4848484848484849
 40
0.4848484848484849
 40
0.5151515151515151
 40
0.5151515151515151
 40
0.5151515151515151
 40
0.5151515151515151
 40
0.5454545454545454
 40
0.5454545454545454
 40
0.5454545454545454
 40
0.5454545454545454
 40
0.5757575757575758
 40
0.5757575757575758
 40
0.5757575757575758
 40
0.5757575757575758
 40
0.6060606060606061
 40
0.6060606060606061
 40
0.6060606060606061
 40
0.6060606060606061
 40
0.6363636363636364
 40
0.6363636363636364
 40
0.6363636363636364
 40
0.6363636363636364
 40
0.6666666666666666
 40
0.6666666666666666
 40
0.6666666666666666
 40
0.6666666666666666
 40
0.696969696969697
 40
0.696969696969697
 40
0.696969696969697
 40
0.696969696969697
 40
0.7272727272727273
 40
0.7272727272727273
 40
0.7272727272727273
 40
0.7272727272727273
 40
0.7575757575757576
 40
0.7575757575757576
 40
0.7575757575757576
 40
0.7575757575757576
 40
0.7878787878787878
 40
0.7878787878787878
 40
0.7878787878787878
 40
0.7878787878787878
 40
0.8181818181818182
 40
0.8181818181818182
 40
0.8181818181818182
 40
0.8181818181818182
 40
0.8484848484848485
 40
0.8484848484848485
 40
0.8484848484848485
 40
0.8484848484848485
 40
0.8787878787878788
 40
0.8787878787878788
 40
0.8787878787878788
 40
0.8787878787878788
 40
0.9090909090909091
 40
0.9090909090909091
 40
0.9090909090909091
 40
0.9090909090909091
 40
0.9393939393939394
 40
0.9393939393939394
 40
0.9393939393939394
 40
0.9393939393939394
 40
1.0
 40
1.0
 40
1.0
 40
1.0
 10
39.1921
 20
104.1777
 30
0.0
 10
38.9136
 20
101.8491
 30
0.0
 10
37.9949
 20
99.7173
 30
0.0
 10
36.617
 20
97.9634
 30
0.0
 10
36.617
 20
97.9634
 30
0.0
 10
36.617
 20
97.9634
 30
0.0
 10
33.36
 20
101.2204
 30
0.0
 10
33.36
 20
101.2204
 30
0.0
 10
33.36
 20
101.2204
 30
0.0
 10
33.36
 20
101.2204
 30
0.0
 10
31.2387
 20
99.0991
 30
0.0
 10
31.2387
 20
99.0991
 30
0.0
 10
31.2387
 20
99.0991
 30
0.0
 10
31.2387
 20
99.0991
 30
0.0
 10
34.4955
 20
95.8423
 30
0.0
 10
34.4955
 20
95.8423
 30
0.0
 10
34.4955
 20
95.8423
 30
0.0
 10
32.7414
 20
94.4648
 30
0.0
 10
30.6098
 20
93.5461
 30
0.0
 10
28.2814
 20
93.2676
 30
0.0
 10
28.2814
 20
93.2676
 30
0.0
 10
28.2814
 20
93.2676
 30
0.0
 10
28.2814
 20
97.8921
 30
0.0
 10
28.2814
 20
97.8921
 30
0.0
 10
28.2814
 20
97.8921
 30
0.0
 10
28.2814
 20
97.8921
 30
0.0
 10
25.2814
 20
97.8921
 30
0.0
 10
25.2814
 20
97.8921
 30
0.0
 10
25.2814
 20
97.8921
 30
0.0
 10
25.2814
 20
97.8921
 30
0.0
 10
25.2814
 20
93.2676
 30
0.0
 10
25.2814
 20
93.2676
 30
0.0
 10
25.2814
 20
93.2676
 30
0.0
 10
22.9529
 20
93.5461
 30
0.0
 10
20.8214
 20
94.4647
 30
0.0
 10
19.0673
 20
95.8423
 30
0.0
 10
19.0673
 20
95.8423
 30
0.0
 10
19.0673
 20
95.8423
 30
0.0
 10
22.3241
 20
99.0991
 30
0.0
 10
22.3241
 20
99.0991
 30
0.0
 10
22.3241
 20
99.0991
 30
0.0
 10
22.3241
 20
99.0991
 30
0.0
 10
20.2028
 20
101.2204
 30
0.0
 10
20.2028
 20
101.2204
 30
0.0
 10
20.2028
 20
101.2204
 30
0.0
 10
20.2028
 20
101.2204
 30
0.0
 10
16.9458
 20
97.9634
 30
0.0
 10
16.9458
 20
97.9634
 30
0.0
 10
16.9458
 20
97.9634
 30
0.0
 10
15.568
 20
99.7174
 30
0.0
 10
14.6492
 20
101.8491
 30
0.0
 10
14.3707
 20
104.1777
 30
0.0
 10
14.3707
 20
104.1777
 30
0.0
 10
14.3707
 20
104.1777
 30
0.0
 10
18.9958
 20
104.1777
 30
0.0
 10
18.9958
 20
104.1777
 30
0.0
 10
18.9958
 20
104.1777
 30
0.0
 10
18.9958
 20
104.1777
 30
0.0
 10
18.9958
 20
107.1777
 30
0.0
 10
18.9958
 20
107.1777
 30
0.0
 10
18.9958
 20
107.1777
 30
0.0
 10
18.9958
 20
107.1777
 30
0.0
 10
14.3707
 20
107.1777
 30
0.0
 10
14.3707
 20
107.1777
 30
0.0
 10
14.3707
 20
107.1777
 30
0.0
 10
14.6492
 20
109.5063
 30
0.0
 10
15.5679
 20
111.6381
 30
0.0
 10
16.9458
 20
113.392
 30
0.0
 10
16.9458
 20
113.392
 30
0.0
 10
16.9458
 20
113.392
 30
0.0
 10
20.2028
 20
110.135
 30
0.0
 10
20.2028
 20
110.135
 30
0.0
 10
20.2028
 20
110.135
 30
0.0
 10
20.2028
 20
110.135
 30
0.0
 10
22.3241
 20
112.2563
 30
0.0
 10
22.3241
 20
112.2563
 30
0.0
 10
22.3241
 20
112.2563
 30
0.0
 10
22.3241
 20
112.2563
 30
0.0
 10
19.0673
 20
115.5131
 30
0.0
 10
19.0673
 20
115.5131
 30
0.0
 10
19.0673
 20
115.5131
 30
0.0
 10
20.8214
 20
116.8906
 30
0.0
 10
22.953
 20
117.8093
 30
0.0
 10
25.2814
 20
118.0878
 30
0.0
 10
25.2814
 20
118.0878
 30
0.0
 10
25.2814
 20
118.0878
 30
0.0
 10
25.2814
 20
113.4633
 30
0.0
 10
25.2814
 20
113.4633
 30
0.0
 10
25.2814
 20
113.4633
 30
0.0
 10
25.2814
 20
113.4633
 30
0.0
 10
28.2814
 20
113.4633
 30
0.0
 10
28.2814
 20
113.4633
 30
0.0
 10
28.2814
 20
113.4633
 30
0.0
 10
28.2814
 20
113.4633
 30
0.0
 10
28.2814
 20
118.0878
 30
0.0
 10
28.2814
 20
118.0878
 30
0.0
 10
28.2814
 20
118.0878
 30
0.0
 10
30.6099
 20
117.8093
 30
0.0
 10
32.7414
 20
116.8907
 30
0.0
 10
34.4955
 20
115.5131
 30
0.0
 10
34.4955
 20
115.5131
 30
0.0
 10
34.4955
 20
115.5131
 30
0.0
 10
31.2387
 20
112.2563
 30
0.0
 10
31.2387
 20
112.2563
 30
0.0
 10
31.2387
 20
112.2563
 30
0.0
 10
31.2387
 20
112.2563
 30
0.0
 10
33.36
 20
110.135
 30
0.0
 10
33.36
 20
110.135
 30
0.0
 10
33.36
 20
110.135
 30
0.0
 10
33.36
 20
110.135
 30
0.0
 10
36.617
 20
113.392
 30
0.0
 10
36.617
 20
113.392
 30
0.0
 10
36.617
 20
113.392
 30
0.0
 10
37.9948
 20
111.638
 30
0.0
 10
38.9136
 20
109.5063
 30
0.0
 10
39.1921
 20
107.1777
 30
0.0
 10
39.1921
 20
107.1777
 30
0.0
 10
39.1921
 20
107.1777
 30
0.0
 10
34.567
 20
107.1777
 30
0.0
 10
34.567
 20
107.1777
 30
0.0
 10
34.567
 20
107.1777
 30
0.0
 10
34.567
 20
107.1777
 30
0.0
 10
34.567
 20
104.1777
 30
0.0
 10
34.567
 20
104.1777
 30
0.0
 10
34.567
 20
104.1777
 30
0.0
 10
34.567
 20
104.1777
 30
0.0
 10
39.1921
 20
104.1777
 30
0.0
 10
39.1921
 20
104.1777
 30
0.0
  0
SPLINE
  5
57
330
1F
100
AcDbEntity
  8
Capa 1
 62
   250
370
     9
100
AcDbSpline
210
0.0
220
0.0
230
1.0
 70
    11
 71
     3
 72
    68
 73
    64
 74
     0
 42
0.0000000001
 43
0.0000000001
 40
0.0
 40
0.0
 40
0.0
 40
0.0
 40
0.0588235294117647
 40
0.0588235294117647
 40
0.0588235294117647
 40
0.0588235294117647
 40
0.1176470588235294
 40
0.1176470588235294
 40
0.1176470588235294
 40
0.1176470588235294
 40
0.1764705882352941
 40
0.1764705882352941
 40
0.1764705882352941
 40
0.1764705882352941
 40
0.2352941176470588
 40
0.2352941176470588
 40
0.2352941176470588
 40
0.2352941176470588
 40
0.2941176470588235
 40
0.2941176470588235
 40
0.2941176470588235
 40
0.2941176470588235
 40
0.3529411764705883
 40
0.3529411764705883
 40
0.3529411764705883
 40
0.3529411764705883
 40
0.4117647058823529
 40
0.4117647058823529
 40
0.4117647058823529
 40
0.4117647058823529
 40
0.4705882352941176
 40
0.4705882352941176
 40
0.4705882352941176
 40
0.4705882352941176
 40
0.5294117647058824
 40
0.5294117647058824
 40
0.5294117647058824
 40
0.5294117647058824
 40
0.5882352941176471
 40
0.5882352941176471
 40
0.5882352941176471
 40
0.5882352941176471
 40
0.6470588235294118
 40
0.6470588235294118
 40
0.6470588235294118
 40
0.6470588235294118
 40
0.7058823529411765
 40
0.7058823529411765
 40
0.7058823529411765
 40
0.7058823529411765
 40
0.7647058823529411
 40
0.7647058823529411
 40
0.7647058823529411
 40
0.7647058823529411
 40
0.8235294117647058
 40
0.8235294117647058
 40
0.8235294117647058
 40
0.8235294117647058
 40
0.8823529411764706
 40
0.8823529411764706
 40
0.8823529411764706
 40
0.8823529411764706
 40
1.0
 40
1.0
 40
1.0
 40
1.0
 10
-13.1954
 20
-0.7265
 30
0.0
 10
-13.8776
 20
-6.4309
 30
0.0
 10
-18.4016
 20
-10.9543
 30
0.0
 10
-24.1061
 20
-11.6366
 30
0.0
 10
-24.1061
 20
-11.6366
 30
0.0
 10
-24.1061
 20
-11.6366
 30
0.0
 10
-24.1061
 20
-7.0121
 30
0.0
 10
-24.1061
 20
-7.0121
 30
0.0
 10
-24.1061
 20
-7.0121
 30
0.0
 10
-24.1061
 20
-7.0121
 30
0.0
 10
-27.1061
 20
-7.0121
 30
0.0
 10
-27.1061
 20
-7.0121
 30
0.0
 10
-27.1061
 20
-7.0121
 30
0.0
 10
-27.1061
 20
-7.0121
 30
0.0
 10
-27.1061
 20
-11.6366
 30
0.0
 10
-27.1061
 20
-11.6366
 30
0.0
 10
-27.1061
 20
-11.6366
 30
0.0
 10
-32.8106
 20
-10.9543
 30
0.0
 10
-37.3346
 20
-6.4309
 30
0.0
 10
-38.0168
 20
-0.7265
 30
0.0
 10
-38.0168
 20
-0.7265
 30
0.0
 10
-38.0168
 20
-0.7265
 30
0.0
 10
-33.3917
 20
-0.7265
 30
0.0
 10
-33.3917
 20
-0.7265
 30
0.0
 10
-33.3917
 20
-0.7265
 30
0.0
 10
-33.3917
 20
-0.7265
 30
0.0
 10
-33.3917
 20
2.2735
 30
0.0
 10
-33.3917
 20
2.2735
 30
0.0
 10
-33.3917
 20
2.2735
 30
0.0
 10
-33.3917
 20
2.2735
 30
0.0
 10
-38.0168
 20
2.2735
 30
0.0
 10
-38.0168
 20
2.2735
 30
0.0
 10
-38.0168
 20
2.2735
 30
0.0
 10
-37.3346
 20
7.9779
 30
0.0
 10
-32.8106
 20
12.5013
 30
0.0
 10
-27.1061
 20
13.1836
 30
0.0
 10
-27.1061
 20
13.1836
 30
0.0
 10
-27.1061
 20
13.1836
 30
0.0
 10
-27.1061
 20
8.5591
 30
0.0
 10
-27.1061
 20
8.5591
 30
0.0
 10
-27.1061
 20
8.5591
 30
0.0
 10
-27.1061
 20
8.5591
 30
0.0
 10
-24.1061
 20
8.5591
 30
0.0
 10
-24.1061
 20
8.5591
 30
0.0
 10
-24.1061
 20
8.5591
 30
0.0
 10
-24.1061
 20
8.5591
 30
0.0
 10
-24.1061
 20
13.1836
 30
0.0
 10
-24.1061
 20
13.1836
 30
0.0
 10
-24.1061
 20
13.1836
 30
0.0
 10
-18.4016
 20
12.5013
 30
0.0
 10
-13.8776
 20
7.9779
 30
0.0
 10
-13.1954
 20
2.2735
 30
0.0
 10
-13.1954
 20
2.2735
 30
0.0
 10
-13.1954
 20
2.2735
 30
0.0
 10
-17.8205
 20
2.2735
 30
0.0
 10
-17.8205
 20
2.2735
 30
0.0
 10
-17.8205
 20
2.2735
 30
0.0
 10
-17.8205
 20
2.2735
 30
0.0
 10
-17.8205
 20
-0.7265
 30
0.0
 10
-17.8205
 20
-0.7265
 30
0.0
 10
-17.8205
 20
-0.7265
 30
0.0
 10
-17.8205
 20
-0.7265
 30
0.0
 10
-13.1954
 20
-0.7265
 30
0.0
 10
-13.1954
 20
-0.7265
 30
0.0
  0
SPLINE
  5
58
330
1F
100
AcDbEntity
  8
Capa 1
 62
   250
370
     9
100
AcDbSpline
210
0.0
220
0.0
230
1.0
 70
    11
 71
     3
 72
   132
 73
   128
 74
     0
 42
0.0000000001
 43
0.0000000001
 40
0.0
 40
0.0
 40
0.0
 40
0.0
 40
0.0303030303030303
 40
0.0303030303030303
 40
0.0303030303030303
 40
0.0303030303030303
 40
0.0606060606060606
 40
0.0606060606060606
 40
0.0606060606060606
 40
0.0606060606060606
 40
0.0909090909090909
 40
0.0909090909090909
 40
0.0909090909090909
 40
0.0909090909090909
 40
0.1212121212121212
 40
0.1212121212121212
 40
0.1212121212121212
 40
0.1212121212121212
 40
0.1515151515151515
 40
0.1515151515151515
 40
0.1515151515151515
 40
0.1515151515151515
 40
0.1818181818181818
 40
0.1818181818181818
 40
0.1818181818181818
 40
0.1818181818181818
 40
0.2121212121212121
 40
0.2121212121212121
 40
0.2121212121212121
 40
0.2121212121212121
 40
0.2424242424242424
 40
0.2424242424242424
 40
0.2424242424242424
 40
0.2424242424242424
 40
0.2727272727272727
 40
0.2727272727272727
 40
0.2727272727272727
 40
0.2727272727272727
 40
0.303030303030303
 40
0.303030303030303
 40
0.303030303030303
 40
0.303030303030303
 40
0.3333333333333333
 40
0.3333333333333333
 40
0.3333333333333333
 40
0.3333333333333333
 40
0.3636363636363636
 40
0.3636363636363636
 40
0.3636363636363636
 40
0.3636363636363636
 40
0.3939393939393939
 40
0.3939393939393939
 40
0.3939393939393939
 40
0.3939393939393939
 40
0.4242424242424243
 40
0.4242424242424243
 40
0.4242424242424243
 40
0.4242424242424243
 40
0.4545454545454545
 40
0.4545454545454545
 40
0.4545454545454545
 40
0.4545454545454545
 40
0.4848484848484849
 40
0.4848484848484849
 40
0.4848484848484849
 40
0.4848484848484849
 40
0.5151515151515151
 40
0.5151515151515151
 40
0.5151515151515151
 40
0.5151515151515151
 40
0.5454545454545454
 40
0.5454545454545454
 40
0.5454545454545454
 40
0.5454545454545454
 40
0.5757575757575758
 40
0.5757575757575758
 40
0.5757575757575758
 40
0.5757575757575758
 40
0.6060606060606061
 40
0.6060606060606061
 40
0.6060606060606061
 40
0.6060606060606061
 40
0.6363636363636364
 40
0.6363636363636364
 40
0.6363636363636364
 40
0.6363636363636364
 40
0.6666666666666666
 40
0.6666666666666666
 40
0.6666666666666666
 40
0.6666666666666666
 40
0.696969696969697
 40
0.696969696969697
 40
0.696969696969697
 40
0.696969696969697
 40
0.7272727272727273
 40
0.7272727272727273
 40
0.7272727272727273
 40
0.7272727272727273
 40
0.7575757575757576
 40
0.7575757575757576
 40
0.7575757575757576
 40
0.7575757575757576
 40
0.7878787878787878
 40
0.7878787878787878
 40
0.7878787878787878
 40
0.7878787878787878
 40
0.8181818181818182
 40
0.8181818181818182
 40
0.8181818181818182
 40
0.8181818181818182
 40
0.8484848484848485
 40
0.8484848484848485
 40
0.8484848484848485
 40
0.8484848484848485
 40
0.8787878787878788
 40
0.8787878787878788
 40
0.8787878787878788
 40
0.8787878787878788
 40
0.9090909090909091
 40
0.9090909090909091
 40
0.9090909090909091
 40
0.9090909090909091
 40
0.9393939393939394
 40
0.9393939393939394
 40
0.9393939393939394
 40
0.9393939393939394
 40
1.0
 40
1.0
 40
1.0
 40
1.0
 10
-65.5829
 20
-53.114
 30
0.0
 10
-65.8614
 20
-55.4426
 30
0.0
 10
-66.7801
 20
-57.5744
 30
0.0
 10
-68.158
 20
-59.3283
 30
0.0
 10
-68.158
 20
-59.3283
 30
0.0
 10
-68.158
 20
-59.3283
 30
0.0
 10
-71.415
 20
-56.0713
 30
0.0
 10
-71.415
 20
-56.0713
 30
0.0
 10
-71.415
 20
-56.0713
 30
0.0
 10
-71.415
 20
-56.0713
 30
0.0
 10
-73.5363
 20
-58.1926
 30
0.0
 10
-73.5363
 20
-58.1926
 30
0.0
 10
-73.5363
 20
-58.1926
 30
0.0
 10
-73.5363
 20
-58.1926
 30
0.0
 10
-70.2795
 20
-61.4494
 30
0.0
 10
-70.2795
 20
-61.4494
 30
0.0
 10
-70.2795
 20
-61.4494
 30
0.0
 10
-72.0336
 20
-62.8269
 30
0.0
 10
-74.1652
 20
-63.7456
 30
0.0
 10
-76.4936
 20
-64.0241
 30
0.0
 10
-76.4936
 20
-64.0241
 30
0.0
 10
-76.4936
 20
-64.0241
 30
0.0
 10
-76.4936
 20
-59.3996
 30
0.0
 10
-76.4936
 20
-59.3996
 30
0.0
 10
-76.4936
 20
-59.3996
 30
0.0
 10
-76.4936
 20
-59.3996
 30
0.0
 10
-79.4936
 20
-59.3996
 30
0.0
 10
-79.4936
 20
-59.3996
 30
0.0
 10
-79.4936
 20
-59.3996
 30
0.0
 10
-79.4936
 20
-59.3996
 30
0.0
 10
-79.4936
 20
-64.0241
 30
0.0
 10
-79.4936
 20
-64.0241
 30
0.0
 10
-79.4936
 20
-64.0241
 30
0.0
 10
-81.8221
 20
-63.7456
 30
0.0
 10
-83.9536
 20
-62.827
 30
0.0
 10
-85.7077
 20
-61.4494
 30
0.0
 10
-85.7077
 20
-61.4494
 30
0.0
 10
-85.7077
 20
-61.4494
 30
0.0
 10
-82.4509
 20
-58.1926
 30
0.0
 10
-82.4509
 20
-58.1926
 30
0.0
 10
-82.4509
 20
-58.1926
 30
0.0
 10
-82.4509
 20
-58.1926
 30
0.0
 10
-84.5722
 20
-56.0713
 30
0.0
 10
-84.5722
 20
-56.0713
 30
0.0
 10
-84.5722
 20
-56.0713
 30
0.0
 10
-84.5722
 20
-56.0713
 30
0.0
 10
-87.8292
 20
-59.3283
 30
0.0
 10
-87.8292
 20
-59.3283
 30
0.0
 10
-87.8292
 20
-59.3283
 30
0.0
 10
-89.207
 20
-57.5743
 30
0.0
 10
-90.1258
 20
-55.4426
 30
0.0
 10
-90.4043
 20
-53.114
 30
0.0
 10
-90.4043
 20
-53.114
 30
0.0
 10
-90.4043
 20
-53.114
 30
0.0
 10
-85.7792
 20
-53.114
 30
0.0
 10
-85.7792
 20
-53.114
 30
0.0
 10
-85.7792
 20
-53.114
 30
0.0
 10
-85.7792
 20
-53.114
 30
0.0
 10
-85.7792
 20
-50.114
 30
0.0
 10
-85.7792
 20
-50.114
 30
0.0
 10
-85.7792
 20
-50.114
 30
0.0
 10
-85.7792
 20
-50.114
 30
0.0
 10
-90.4043
 20
-50.114
 30
0.0
 10
-90.4043
 20
-50.114
 30
0.0
 10
-90.4043
 20
-50.114
 30
0.0
 10
-90.1258
 20
-47.7854
 30
0.0
 10
-89.2071
 20
-45.6536
 30
0.0
 10
-87.8292
 20
-43.8997
 30
0.0
 10
-87.8292
 20
-43.8997
 30
0.0
 10
-87.8292
 20
-43.8997
 30
0.0
 10
-84.5722
 20
-47.1567
 30
0.0
 10
-84.5722
 20
-47.1567
 30
0.0
 10
-84.5722
 20
-47.1567
 30
0.0
 10
-84.5722
 20
-47.1567
 30
0.0
 10
-82.4509
 20
-45.0354
 30
0.0
 10
-82.4509
 20
-45.0354
 30
0.0
 10
-82.4509
 20
-45.0354
 30
0.0
 10
-82.4509
 20
-45.0354
 30
0.0
 10
-85.7077
 20
-41.7786
 30
0.0
 10
-85.7077
 20
-41.7786
 30
0.0
 10
-85.7077
 20
-41.7786
 30
0.0
 10
-83.9536
 20
-40.4011
 30
0.0
 10
-81.822
 20
-39.4824
 30
0.0
 10
-79.4936
 20
-39.2039
 30
0.0
 10
-79.4936
 20
-39.2039
 30
0.0
 10
-79.4936
 20
-39.2039
 30
0.0
 10
-79.4936
 20
-43.8284
 30
0.0
 10
-79.4936
 20
-43.8284
 30
0.0
 10
-79.4936
 20
-43.8284
 30
0.0
 10
-79.4936
 20
-43.8284
 30
0.0
 10
-76.4936
 20
-43.8284
 30
0.0
 10
-76.4936
 20
-43.8284
 30
0.0
 10
-76.4936
 20
-43.8284
 30
0.0
 10
-76.4936
 20
-43.8284
 30
0.0
 10
-76.4936
 20
-39.2039
 30
0.0
 10
-76.4936
 20
-39.2039
 30
0.0
 10
-76.4936
 20
-39.2039
 30
0.0
 10
-74.1651
 20
-39.4824
 30
0.0
 10
-72.0336
 20
-40.401
 30
0.0
 10
-70.2795
 20
-41.7786
 30
0.0
 10
-70.2795
 20
-41.7786
 30
0.0
 10
-70.2795
 20
-41.7786
 30
0.0
 10
-73.5363
 20
-45.0354
 30
0.0
 10
-73.5363
 20
-45.0354
 30
0.0
 10
-73.5363
 20
-45.0354
 30
0.0
 10
-73.5363
 20
-45.0354
 30
0.0
 10
-71.415
 20
-47.1567
 30
0.0
 10
-71.415
 20
-47.1567
 30
0.0
 10
-71.415
 20
-47.1567
 30
0.0
 10
-71.415
 20
-47.1567
 30
0.0
 10
-68.158
 20
-43.8997
 30
0.0
 10
-68.158
 20
-43.8997
 30
0.0
 10
-68.158
 20
-43.8997
 30
0.0
 10
-66.7802
 20
-45.6537
 30
0.0
 10
-65.8614
 20
-47.7854
 30
0.0
 10
-65.5829
 20
-50.114
 30
0.0
 10
-65.5829
 20
-50.114
 30
0.0
 10
-65.5829
 20
-50.114
 30
0.0
 10
-70.208
 20
-50.114
 30
0.0
 10
-70.208
 20
-50.114
 30
0.0
 10
-70.208
 20
-50.114
 30
0.0
 10
-70.208
 20
-50.114
 30
0.0
 10
-70.208
 20
-53.114
 30
0.0
 10
-70.208
 20
-53.114
 30
0.0
 10
-70.208
 20
-53.114
 30
0.0
 10
-70.208
 20
-53.114
 30
0.0
 10
-65.5829
 20
-53.114
 30
0.0
 10
-65.5829
 20
-53.114
 30
0.0
  0
SPLINE
  5
59
330
1F
100
AcDbEntity
  8
Capa 1
 62
   250
370
     9
100
AcDbSpline
210
0.0
220
0.0
230
1.0
 70
    11
 71
     3
 72
    68
 73
    64
 74
     0
 42
0.0000000001
 43
0.0000000001
 40
0.0
 40
0.0
 40
0.0
 40
0.0
 40
0.0588235294117647
 40
0.0588235294117647
 40
0.0588235294117647
 40
0.0588235294117647
 40
0.1176470588235294
 40
0.1176470588235294
 40
0.1176470588235294
 40
0.1176470588235294
 40
0.1764705882352941
 40
0.1764705882352941
 40
0.1764705882352941
 40
0.1764705882352941
 40
0.2352941176470588
 40
0.2352941176470588
 40
0.2352941176470588
 40
0.2352941176470588
 40
0.2941176470588235
 40
0.2941176470588235
 40
0.2941176470588235
 40
0.2941176470588235
 40
0.3529411764705883
 40
0.3529411764705883
 40
0.3529411764705883
 40
0.3529411764705883
 40
0.4117647058823529
 40
0.4117647058823529
 40
0.4117647058823529
 40
0.4117647058823529
 40
0.4705882352941176
 40
0.4705882352941176
 40
0.4705882352941176
 40
0.4705882352941176
 40
0.5294117647058824
 40
0.5294117647058824
 40
0.5294117647058824
 40
0.5294117647058824
 40
0.5882352941176471
 40
0.5882352941176471
 40
0.5882352941176471
 40
0.5882352941176471
 40
0.6470588235294118
 40
0.6470588235294118
 40
0.6470588235294118
 40
0.6470588235294118
 40
0.7058823529411765
 40
0.7058823529411765
 40
0.7058823529411765
 40
0.7058823529411765
 40
0.7647058823529411
 40
0.7647058823529411
 40
0.7647058823529411
 40
0.7647058823529411
 40
0.8235294117647058
 40
0.8235294117647058
 40
0.8235294117647058
 40
0.8235294117647058
 40
0.8823529411764706
 40
0.8823529411764706
 40
0.8823529411764706
 40
0.8823529411764706
 40
1.0
 40
1.0
 40
1.0
 40
1.0
 10
-65.5829
 20
-0.7265
 30
0.0
 10
-66.2651
 20
-6.4309
 30
0.0
 10
-70.7891
 20
-10.9543
 30
0.0
 10
-76.4936
 20
-11.6366
 30
0.0
 10
-76.4936
 20
-11.6366
 30
0.0
 10
-76.4936
 20
-11.6366
 30
0.0
 10
-76.4936
 20
-7.0121
 30
0.0
 10
-76.4936
 20
-7.0121
 30
0.0
 10
-76.4936
 20
-7.0121
 30
0.0
 10
-76.4936
 20
-7.0121
 30
0.0
 10
-79.4936
 20
-7.0121
 30
0.0
 10
-79.4936
 20
-7.0121
 30
0.0
 10
-79.4936
 20
-7.0121
 30
0.0
 10
-79.4936
 20
-7.0121
 30
0.0
 10
-79.4936
 20
-11.6366
 30
0.0
 10
-79.4936
 20
-11.6366
 30
0.0
 10
-79.4936
 20
-11.6366
 30
0.0
 10
-85.1981
 20
-10.9543
 30
0.0
 10
-89.7221
 20
-6.4309
 30
0.0
 10
-90.4043
 20
-0.7265
 30
0.0
 10
-90.4043
 20
-0.7265
 30
0.0
 10
-90.4043
 20
-0.7265
 30
0.0
 10
-85.7792
 20
-0.7265
 30
0.0
 10
-85.7792
 20
-0.7265
 30
0.0
 10
-85.7792
 20
-0.7265
 30
0.0
 10
-85.7792
 20
-0.7265
 30
0.0
 10
-85.7792
 20
2.2735
 30
0.0
 10
-85.7792
 20
2.2735
 30
0.0
 10
-85.7792
 20
2.2735
 30
0.0
 10
-85.7792
 20
2.2735
 30
0.0
 10
-90.4043
 20
2.2735
 30
0.0
 10
-90.4043
 20
2.2735
 30
0.0
 10
-90.4043
 20
2.2735
 30
0.0
 10
-89.7221
 20
7.9779
 30
0.0
 10
-85.1981
 20
12.5013
 30
0.0
 10
-79.4936
 20
13.1836
 30
0.0
 10
-79.4936
 20
13.1836
 30
0.0
 10
-79.4936
 20
13.1836
 30
0.0
 10
-79.4936
 20
8.5591
 30
0.0
 10
-79.4936
 20
8.5591
 30
0.0
 10
-79.4936
 20
8.5591
 30
0.0
 10
-79.4936
 20
8.5591
 30
0.0
 10
-76.4936
 20
8.5591
 30
0.0
 10
-76.4936
 20
8.5591
 30
0.0
 10
-76.4936
 20
8.5591
 30
0.0
 10
-76.4936
 20
8.5591
 30
0.0
 10
-76.4936
 20
13.1836
 30
0.0
 10
-76.4936
 20
13.1836
 30
0.0
 10
-76.4936
 20
13.1836
 30
0.0
 10
-70.7891
 20
12.5013
 30
0.0
 10
-66.2651
 20
7.9779
 30
0.0
 10
-65.5829
 20
2.2735
 30
0.0
 10
-65.5829
 20
2.2735
 30
0.0
 10
-65.5829
 20
2.2735
 30
0.0
 10
-70.208
 20
2.2735
 30
0.0
 10
-70.208
 20
2.2735
 30
0.0
 10
-70.208
 20
2.2735
 30
0.0
 10
-70.208
 20
2.2735
 30
0.0
 10
-70.208
 20
-0.7265
 30
0.0
 10
-70.208
 20
-0.7265
 30
0.0
 10
-70.208
 20
-0.7265
 30
0.0
 10
-70.208
 20
-0.7265
 30
0.0
 10
-65.5829
 20
-0.7265
 30
0.0
 10
-65.5829
 20
-0.7265
 30
0.0
  0
SPLINE
  5
5A
330
1F
100
AcDbEntity
  8
Capa 1
 62
   250
370
     9
100
AcDbSpline
210
0.0
220
0.0
230
1.0
 70
    11
 71
     3
 72
   132
 73
   128
 74
     0
 42
0.0000000001
 43
0.0000000001
 40
0.0
 40
0.0
 40
0.0
 40
0.0
 40
0.0303030303030303
 40
0.0303030303030303
 40
0.0303030303030303
 40
0.0303030303030303
 40
0.0606060606060606
 40
0.0606060606060606
 40
0.0606060606060606
 40
0.0606060606060606
 40
0.0909090909090909
 40
0.0909090909090909
 40
0.0909090909090909
 40
0.0909090909090909
 40
0.1212121212121212
 40
0.1212121212121212
 40
0.1212121212121212
 40
0.1212121212121212
 40
0.1515151515151515
 40
0.1515151515151515
 40
0.1515151515151515
 40
0.1515151515151515
 40
0.1818181818181818
 40
0.1818181818181818
 40
0.1818181818181818
 40
0.1818181818181818
 40
0.2121212121212121
 40
0.2121212121212121
 40
0.2121212121212121
 40
0.2121212121212121
 40
0.2424242424242424
 40
0.2424242424242424
 40
0.2424242424242424
 40
0.2424242424242424
 40
0.2727272727272727
 40
0.2727272727272727
 40
0.2727272727272727
 40
0.2727272727272727
 40
0.303030303030303
 40
0.303030303030303
 40
0.303030303030303
 40
0.303030303030303
 40
0.3333333333333333
 40
0.3333333333333333
 40
0.3333333333333333
 40
0.3333333333333333
 40
0.3636363636363636
 40
0.3636363636363636
 40
0.3636363636363636
 40
0.3636363636363636
 40
0.3939393939393939
 40
0.3939393939393939
 40
0.3939393939393939
 40
0.3939393939393939
 40
0.4242424242424243
 40
0.4242424242424243
 40
0.4242424242424243
 40
0.4242424242424243
 40
0.4545454545454545
 40
0.4545454545454545
 40
0.4545454545454545
 40
0.4545454545454545
 40
0.4848484848484849
 40
0.4848484848484849
 40
0.4848484848484849
 40
0.4848484848484849
 40
0.5151515151515151
 40
0.5151515151515151
 40
0.5151515151515151
 40
0.5151515151515151
 40
0.5454545454545454
 40
0.5454545454545454
 40
0.5454545454545454
 40
0.5454545454545454
 40
0.5757575757575758
 40
0.5757575757575758
 40
0.5757575757575758
 40
0.5757575757575758
 40
0.6060606060606061
 40
0.6060606060606061
 40
0.6060606060606061
 40
0.6060606060606061
 40
0.6363636363636364
 40
0.6363636363636364
 40
0.6363636363636364
 40
0.6363636363636364
 40
0.6666666666666666
 40
0.6666666666666666
 40
0.6666666666666666
 40
0.6666666666666666
 40
0.696969696969697
 40
0.696969696969697
 40
0.696969696969697
 40
0.696969696969697
 40
0.7272727272727273
 40
0.7272727272727273
 40
0.7272727272727273
 40
0.7272727272727273
 40
0.7575757575757576
 40
0.7575757575757576
 40
0.7575757575757576
 40
0.7575757575757576
 40
0.7878787878787878
 40
0.7878787878787878
 40
0.7878787878787878
 40
0.7878787878787878
 40
0.8181818181818182
 40
0.8181818181818182
 40
0.8181818181818182
 40
0.8181818181818182
 40
0.8484848484848485
 40
0.8484848484848485
 40
0.8484848484848485
 40
0.8484848484848485
 40
0.8787878787878788
 40
0.8787878787878788
 40
0.8787878787878788
 40
0.8787878787878788
 40
0.9090909090909091
 40
0.9090909090909091
 40
0.9090909090909091
 40
0.9090909090909091
 40
0.9393939393939394
 40
0.9393939393939394
 40
0.9393939393939394
 40
0.9393939393939394
 40
1.0
 40
1.0
 40
1.0
 40
1.0
 10
-13.1954
 20
-53.114
 30
0.0
 10
-13.4739
 20
-55.4426
 30
0.0
 10
-14.3926
 20
-57.5744
 30
0.0
 10
-15.7705
 20
-59.3283
 30
0.0
 10
-15.7705
 20
-59.3283
 30
0.0
 10
-15.7705
 20
-59.3283
 30
0.0
 10
-19.0275
 20
-56.0713
 30
0.0
 10
-19.0275
 20
-56.0713
 30
0.0
 10
-19.0275
 20
-56.0713
 30
0.0
 10
-19.0275
 20
-56.0713
 30
0.0
 10
-21.1488
 20
-58.1926
 30
0.0
 10
-21.1488
 20
-58.1926
 30
0.0
 10
-21.1488
 20
-58.1926
 30
0.0
 10
-21.1488
 20
-58.1926
 30
0.0
 10
-17.892
 20
-61.4494
 30
0.0
 10
-17.892
 20
-61.4494
 30
0.0
 10
-17.892
 20
-61.4494
 30
0.0
 10
-19.6461
 20
-62.8269
 30
0.0
 10
-21.7777
 20
-63.7456
 30
0.0
 10
-24.1061
 20
-64.0241
 30
0.0
 10
-24.1061
 20
-64.0241
 30
0.0
 10
-24.1061
 20
-64.0241
 30
0.0
 10
-24.1061
 20
-59.3996
 30
0.0
 10
-24.1061
 20
-59.3996
 30
0.0
 10
-24.1061
 20
-59.3996
 30
0.0
 10
-24.1061
 20
-59.3996
 30
0.0
 10
-27.1061
 20
-59.3996
 30
0.0
 10
-27.1061
 20
-59.3996
 30
0.0
 10
-27.1061
 20
-59.3996
 30
0.0
 10
-27.1061
 20
-59.3996
 30
0.0
 10
-27.1061
 20
-64.0241
 30
0.0
 10
-27.1061
 20
-64.0241
 30
0.0
 10
-27.1061
 20
-64.0241
 30
0.0
 10
-29.4346
 20
-63.7456
 30
0.0
 10
-31.5661
 20
-62.827
 30
0.0
 10
-33.3202
 20
-61.4494
 30
0.0
 10
-33.3202
 20
-61.4494
 30
0.0
 10
-33.3202
 20
-61.4494
 30
0.0
 10
-30.0634
 20
-58.1926
 30
0.0
 10
-30.0634
 20
-58.1926
 30
0.0
 10
-30.0634
 20
-58.1926
 30
0.0
 10
-30.0634
 20
-58.1926
 30
0.0
 10
-32.1847
 20
-56.0713
 30
0.0
 10
-32.1847
 20
-56.0713
 30
0.0
 10
-32.1847
 20
-56.0713
 30
0.0
 10
-32.1847
 20
-56.0713
 30
0.0
 10
-35.4417
 20
-59.3283
 30
0.0
 10
-35.4417
 20
-59.3283
 30
0.0
 10
-35.4417
 20
-59.3283
 30
0.0
 10
-36.8195
 20
-57.5743
 30
0.0
 10
-37.7383
 20
-55.4426
 30
0.0
 10
-38.0168
 20
-53.114
 30
0.0
 10
-38.0168
 20
-53.114
 30
0.0
 10
-38.0168
 20
-53.114
 30
0.0
 10
-33.3917
 20
-53.114
 30
0.0
 10
-33.3917
 20
-53.114
 30
0.0
 10
-33.3917
 20
-53.114
 30
0.0
 10
-33.3917
 20
-53.114
 30
0.0
 10
-33.3917
 20
-50.114
 30
0.0
 10
-33.3917
 20
-50.114
 30
0.0
 10
-33.3917
 20
-50.114
 30
0.0
 10
-33.3917
 20
-50.114
 30
0.0
 10
-38.0168
 20
-50.114
 30
0.0
 10
-38.0168
 20
-50.114
 30
0.0
 10
-38.0168
 20
-50.114
 30
0.0
 10
-37.7383
 20
-47.7854
 30
0.0
 10
-36.8196
 20
-45.6536
 30
0.0
 10
-35.4417
 20
-43.8997
 30
0.0
 10
-35.4417
 20
-43.8997
 30
0.0
 10
-35.4417
 20
-43.8997
 30
0.0
 10
-32.1847
 20
-47.1567
 30
0.0
 10
-32.1847
 20
-47.1567
 30
0.0
 10
-32.1847
 20
-47.1567
 30
0.0
 10
-32.1847
 20
-47.1567
 30
0.0
 10
-30.0634
 20
-45.0354
 30
0.0
 10
-30.0634
 20
-45.0354
 30
0.0
 10
-30.0634
 20
-45.0354
 30
0.0
 10
-30.0634
 20
-45.0354
 30
0.0
 10
-33.3202
 20
-41.7786
 30
0.0
 10
-33.3202
 20
-41.7786
 30
0.0
 10
-33.3202
 20
-41.7786
 30
0.0
 10
-31.5661
 20
-40.4011
 30
0.0
 10
-29.4345
 20
-39.4824
 30
0.0
 10
-27.1061
 20
-39.2039
 30
0.0
 10
-27.1061
 20
-39.2039
 30
0.0
 10
-27.1061
 20
-39.2039
 30
0.0
 10
-27.1061
 20
-43.8284
 30
0.0
 10
-27.1061
 20
-43.8284
 30
0.0
 10
-27.1061
 20
-43.8284
 30
0.0
 10
-27.1061
 20
-43.8284
 30
0.0
 10
-24.1061
 20
-43.8284
 30
0.0
 10
-24.1061
 20
-43.8284
 30
0.0
 10
-24.1061
 20
-43.8284
 30
0.0
 10
-24.1061
 20
-43.8284
 30
0.0
 10
-24.1061
 20
-39.2039
 30
0.0
 10
-24.1061
 20
-39.2039
 30
0.0
 10
-24.1061
 20
-39.2039
 30
0.0
 10
-21.7776
 20
-39.4824
 30
0.0
 10
-19.6461
 20
-40.401
 30
0.0
 10
-17.892
 20
-41.7786
 30
0.0
 10
-17.892
 20
-41.7786
 30
0.0
 10
-17.892
 20
-41.7786
 30
0.0
 10
-21.1488
 20
-45.0354
 30
0.0
 10
-21.1488
 20
-45.0354
 30
0.0
 10
-21.1488
 20
-45.0354
 30
0.0
 10
-21.1488
 20
-45.0354
 30
0.0
 10
-19.0275
 20
-47.1567
 30
0.0
 10
-19.0275
 20
-47.1567
 30
0.0
 10
-19.0275
 20
-47.1567
 30
0.0
 10
-19.0275
 20
-47.1567
 30
0.0
 10
-15.7705
 20
-43.8997
 30
0.0
 10
-15.7705
 20
-43.8997
 30
0.0
 10
-15.7705
 20
-43.8997
 30
0.0
 10
-14.3927
 20
-45.6537
 30
0.0
 10
-13.4739
 20
-47.7854
 30
0.0
 10
-13.1954
 20
-50.114
 30
0.0
 10
-13.1954
 20
-50.114
 30
0.0
 10
-13.1954
 20
-50.114
 30
0.0
 10
-17.8205
 20
-50.114
 30
0.0
 10
-17.8205
 20
-50.114
 30
0.0
 10
-17.8205
 20
-50.114
 30
0.0
 10
-17.8205
 20
-50.114
 30
0.0
 10
-17.8205
 20
-53.114
 30
0.0
 10
-17.8205
 20
-53.114
 30
0.0
 10
-17.8205
 20
-53.114
 30
0.0
 10
-17.8205
 20
-53.114
 30
0.0
 10
-13.1954
 20
-53.114
 30
0.0
 10
-13.1954
 20
-53.114
 30
0.0
  0
SPLINE
  5
5B
330
1F
100
AcDbEntity
  8
Capa 1
 62
   250
370
     9
100
AcDbSpline
210
0.0
220
0.0
230
1.0
 70
    11
 71
     3
 72
   132
 73
   128
 74
     0
 42
0.0000000001
 43
0.0000000001
 40
0.0
 40
0.0
 40
0.0
 40
0.0
 40
0.0303030303030303
 40
0.0303030303030303
 40
0.0303030303030303
 40
0.0303030303030303
 40
0.0606060606060606
 40
0.0606060606060606
 40
0.0606060606060606
 40
0.0606060606060606
 40
0.0909090909090909
 40
0.0909090909090909
 40
0.0909090909090909
 40
0.0909090909090909
 40
0.1212121212121212
 40
0.1212121212121212
 40
0.1212121212121212
 40
0.1212121212121212
 40
0.1515151515151515
 40
0.1515151515151515
 40
0.1515151515151515
 40
0.1515151515151515
 40
0.1818181818181818
 40
0.1818181818181818
 40
0.1818181818181818
 40
0.1818181818181818
 40
0.2121212121212121
 40
0.2121212121212121
 40
0.2121212121212121
 40
0.2121212121212121
 40
0.2424242424242424
 40
0.2424242424242424
 40
0.2424242424242424
 40
0.2424242424242424
 40
0.2727272727272727
 40
0.2727272727272727
 40
0.2727272727272727
 40
0.2727272727272727
 40
0.303030303030303
 40
0.303030303030303
 40
0.303030303030303
 40
0.303030303030303
 40
0.3333333333333333
 40
0.3333333333333333
 40
0.3333333333333333
 40
0.3333333333333333
 40
0.3636363636363636
 40
0.3636363636363636
 40
0.3636363636363636
 40
0.3636363636363636
 40
0.3939393939393939
 40
0.3939393939393939
 40
0.3939393939393939
 40
0.3939393939393939
 40
0.4242424242424243
 40
0.4242424242424243
 40
0.4242424242424243
 40
0.4242424242424243
 40
0.4545454545454545
 40
0.4545454545454545
 40
0.4545454545454545
 40
0.4545454545454545
 40
0.4848484848484849
 40
0.4848484848484849
 40
0.4848484848484849
 40
0.4848484848484849
 40
0.5151515151515151
 40
0.5151515151515151
 40
0.5151515151515151
 40
0.5151515151515151
 40
0.5454545454545454
 40
0.5454545454545454
 40
0.5454545454545454
 40
0.5454545454545454
 40
0.5757575757575758
 40
0.5757575757575758
 40
0.5757575757575758
 40
0.5757575757575758
 40
0.6060606060606061
 40
0.6060606060606061
 40
0.6060606060606061
 40
0.6060606060606061
 40
0.6363636363636364
 40
0.6363636363636364
 40
0.6363636363636364
 40
0.6363636363636364
 40
0.6666666666666666
 40
0.6666666666666666
 40
0.6666666666666666
 40
0.6666666666666666
 40
0.696969696969697
 40
0.696969696969697
 40
0.696969696969697
 40
0.696969696969697
 40
0.7272727272727273
 40
0.7272727272727273
 40
0.7272727272727273
 40
0.7272727272727273
 40
0.7575757575757576
 40
0.7575757575757576
 40
0.7575757575757576
 40
0.7575757575757576
 40
0.7878787878787878
 40
0.7878787878787878
 40
0.7878787878787878
 40
0.7878787878787878
 40
0.8181818181818182
 40
0.8181818181818182
 40
0.8181818181818182
 40
0.8181818181818182
 40
0.8484848484848485
 40
0.8484848484848485
 40
0.8484848484848485
 40
0.8484848484848485
 40
0.8787878787878788
 40
0.8787878787878788
 40
0.8787878787878788
 40
0.8787878787878788
 40
0.9090909090909091
 40
0.9090909090909091
 40
0.9090909090909091
 40
0.9090909090909091
 40
0.9393939393939394
 40
0.9393939393939394
 40
0.9393939393939394
 40
0.9393939393939394
 40
1.0
 40
1.0
 40
1.0
 40
1.0
 10
39.1921
 20
-53.114
 30
0.0
 10
38.9136
 20
-55.4426
 30
0.0
 10
37.9949
 20
-57.5744
 30
0.0
 10
36.617
 20
-59.3283
 30
0.0
 10
36.617
 20
-59.3283
 30
0.0
 10
36.617
 20
-59.3283
 30
0.0
 10
33.36
 20
-56.0713
 30
0.0
 10
33.36
 20
-56.0713
 30
0.0
 10
33.36
 20
-56.0713
 30
0.0
 10
33.36
 20
-56.0713
 30
0.0
 10
31.2387
 20
-58.1926
 30
0.0
 10
31.2387
 20
-58.1926
 30
0.0
 10
31.2387
 20
-58.1926
 30
0.0
 10
31.2387
 20
-58.1926
 30
0.0
 10
34.4955
 20
-61.4494
 30
0.0
 10
34.4955
 20
-61.4494
 30
0.0
 10
34.4955
 20
-61.4494
 30
0.0
 10
32.7414
 20
-62.8269
 30
0.0
 10
30.6098
 20
-63.7456
 30
0.0
 10
28.2814
 20
-64.0241
 30
0.0
 10
28.2814
 20
-64.0241
 30
0.0
 10
28.2814
 20
-64.0241
 30
0.0
 10
28.2814
 20
-59.3996
 30
0.0
 10
28.2814
 20
-59.3996
 30
0.0
 10
28.2814
 20
-59.3996
 30
0.0
 10
28.2814
 20
-59.3996
 30
0.0
 10
25.2814
 20
-59.3996
 30
0.0
 10
25.2814
 20
-59.3996
 30
0.0
 10
25.2814
 20
-59.3996
 30
0.0
 10
25.2814
 20
-59.3996
 30
0.0
 10
25.2814
 20
-64.0241
 30
0.0
 10
25.2814
 20
-64.0241
 30
0.0
 10
25.2814
 20
-64.0241
 30
0.0
 10
22.9529
 20
-63.7456
 30
0.0
 10
20.8214
 20
-62.827
 30
0.0
 10
19.0673
 20
-61.4494
 30
0.0
 10
19.0673
 20
-61.4494
 30
0.0
 10
19.0673
 20
-61.4494
 30
0.0
 10
22.3241
 20
-58.1926
 30
0.0
 10
22.3241
 20
-58.1926
 30
0.0
 10
22.3241
 20
-58.1926
 30
0.0
 10
22.3241
 20
-58.1926
 30
0.0
 10
20.2028
 20
-56.0713
 30
0.0
 10
20.2028
 20
-56.0713
 30
0.0
 10
20.2028
 20
-56.0713
 30
0.0
 10
20.2028
 20
-56.0713
 30
0.0
 10
16.9458
 20
-59.3283
 30
0.0
 10
16.9458
 20
-59.3283
 30
0.0
 10
16.9458
 20
-59.3283
 30
0.0
 10
15.568
 20
-57.5743
 30
0.0
 10
14.6492
 20
-55.4426
 30
0.0
 10
14.3707
 20
-53.114
 30
0.0
 10
14.3707
 20
-53.114
 30
0.0
 10
14.3707
 20
-53.114
 30
0.0
 10
18.9958
 20
-53.114
 30
0.0
 10
18.9958
 20
-53.114
 30
0.0
 10
18.9958
 20
-53.114
 30
0.0
 10
18.9958
 20
-53.114
 30
0.0
 10
18.9958
 20
-50.114
 30
0.0
 10
18.9958
 20
-50.114
 30
0.0
 10
18.9958
 20
-50.114
 30
0.0
 10
18.9958
 20
-50.114
 30
0.0
 10
14.3707
 20
-50.114
 30
0.0
 10
14.3707
 20
-50.114
 30
0.0
 10
14.3707
 20
-50.114
 30
0.0
 10
14.6492
 20
-47.7854
 30
0.0
 10
15.5679
 20
-45.6536
 30
0.0
 10
16.9458
 20
-43.8997
 30
0.0
 10
16.9458
 20
-43.8997
 30
0.0
 10
16.9458
 20
-43.8997
 30
0.0
 10
20.2028
 20
-47.1567
 30
0.0
 10
20.2028
 20
-47.1567
 30
0.0
 10
20.2028
 20
-47.1567
 30
0.0
 10
20.2028
 20
-47.1567
 30
0.0
 10
22.3241
 20
-45.0354
 30
0.0
 10
22.3241
 20
-45.0354
 30
0.0
 10
22.3241
 20
-45.0354
 30
0.0
 10
22.3241
 20
-45.0354
 30
0.0
 10
19.0673
 20
-41.7786
 30
0.0
 10
19.0673
 20
-41.7786
 30
0.0
 10
19.0673
 20
-41.7786
 30
0.0
 10
20.8214
 20
-40.4011
 30
0.0
 10
22.953
 20
-39.4824
 30
0.0
 10
25.2814
 20
-39.2039
 30
0.0
 10
25.2814
 20
-39.2039
 30
0.0
 10
25.2814
 20
-39.2039
 30
0.0
 10
25.2814
 20
-43.8284
 30
0.0
 10
25.2814
 20
-43.8284
 30
0.0
 10
25.2814
 20
-43.8284
 30
0.0
 10
25.2814
 20
-43.8284
 30
0.0
 10
28.2814
 20
-43.8284
 30
0.0
 10
28.2814
 20
-43.8284
 30
0.0
 10
28.2814
 20
-43.8284
 30
0.0
 10
28.2814
 20
-43.8284
 30
0.0
 10
28.2814
 20
-39.2039
 30
0.0
 10
28.2814
 20
-39.2039
 30
0.0
 10
28.2814
 20
-39.2039
 30
0.0
 10
30.6099
 20
-39.4824
 30
0.0
 10
32.7414
 20
-40.401
 30
0.0
 10
34.4955
 20
-41.7786
 30
0.0
 10
34.4955
 20
-41.7786
 30
0.0
 10
34.4955
 20
-41.7786
 30
0.0
 10
31.2387
 20
-45.0354
 30
0.0
 10
31.2387
 20
-45.0354
 30
0.0
 10
31.2387
 20
-45.0354
 30
0.0
 10
31.2387
 20
-45.0354
 30
0.0
 10
33.36
 20
-47.1567
 30
0.0
 10
33.36
 20
-47.1567
 30
0.0
 10
33.36
 20
-47.1567
 30
0.0
 10
33.36
 20
-47.1567
 30
0.0
 10
36.617
 20
-43.8997
 30
0.0
 10
36.617
 20
-43.8997
 30
0.0
 10
36.617
 20
-43.8997
 30
0.0
 10
37.9948
 20
-45.6537
 30
0.0
 10
38.9136
 20
-47.7854
 30
0.0
 10
39.1921
 20
-50.114
 30
0.0
 10
39.1921
 20
-50.114
 30
0.0
 10
39.1921
 20
-50.114
 30
0.0
 10
34.567
 20
-50.114
 30
0.0
 10
34.567
 20
-50.114
 30
0.0
 10
34.567
 20
-50.114
 30
0.0
 10
34.567
 20
-50.114
 30
0.0
 10
34.567
 20
-53.114
 30
0.0
 10
34.567
 20
-53.114
 30
0.0
 10
34.567
 20
-53.114
 30
0.0
 10
34.567
 20
-53.114
 30
0.0
 10
39.1921
 20
-53.114
 30
0.0
 10
39.1921
 20
-53.114
 30
0.0
  0
SPLINE
  5
5C
330
1F
100
AcDbEntity
  8
Capa 1
 62
   250
370
     9
100
AcDbSpline
210
0.0
220
0.0
230
1.0
 70
    11
 71
     3
 72
    68
 73
    64
 74
     0
 42
0.0000000001
 43
0.0000000001
 40
0.0
 40
0.0
 40
0.0
 40
0.0
 40
0.0588235294117647
 40
0.0588235294117647
 40
0.0588235294117647
 40
0.0588235294117647
 40
0.1176470588235294
 40
0.1176470588235294
 40
0.1176470588235294
 40
0.1176470588235294
 40
0.1764705882352941
 40
0.1764705882352941
 40
0.1764705882352941
 40
0.1764705882352941
 40
0.2352941176470588
 40
0.2352941176470588
 40
0.2352941176470588
 40
0.2352941176470588
 40
0.2941176470588235
 40
0.2941176470588235
 40
0.2941176470588235
 40
0.2941176470588235
 40
0.3529411764705883
 40
0.3529411764705883
 40
0.3529411764705883
 40
0.3529411764705883
 40
0.4117647058823529
 40
0.4117647058823529
 40
0.4117647058823529
 40
0.4117647058823529
 40
0.4705882352941176
 40
0.4705882352941176
 40
0.4705882352941176
 40
0.4705882352941176
 40
0.5294117647058824
 40
0.5294117647058824
 40
0.5294117647058824
 40
0.5294117647058824
 40
0.5882352941176471
 40
0.5882352941176471
 40
0.5882352941176471
 40
0.5882352941176471
 40
0.6470588235294118
 40
0.6470588235294118
 40
0.6470588235294118
 40
0.6470588235294118
 40
0.7058823529411765
 40
0.7058823529411765
 40
0.7058823529411765
 40
0.7058823529411765
 40
0.7647058823529411
 40
0.7647058823529411
 40
0.7647058823529411
 40
0.7647058823529411
 40
0.8235294117647058
 40
0.8235294117647058
 40
0.8235294117647058
 40
0.8235294117647058
 40
0.8823529411764706
 40
0.8823529411764706
 40
0.8823529411764706
 40
0.8823529411764706
 40
1.0
 40
1.0
 40
1.0
 40
1.0
 10
-13.1954
 20
-105.9015
 30
0.0
 10
-13.8776
 20
-111.6059
 30
0.0
 10
-18.4016
 20
-116.1293
 30
0.0
 10
-24.1061
 20
-116.8116
 30
0.0
 10
-24.1061
 20
-116.8116
 30
0.0
 10
-24.1061
 20
-116.8116
 30
0.0
 10
-24.1061
 20
-112.1871
 30
0.0
 10
-24.1061
 20
-112.1871
 30
0.0
 10
-24.1061
 20
-112.1871
 30
0.0
 10
-24.1061
 20
-112.1871
 30
0.0
 10
-27.1061
 20
-112.1871
 30
0.0
 10
-27.1061
 20
-112.1871
 30
0.0
 10
-27.1061
 20
-112.1871
 30
0.0
 10
-27.1061
 20
-112.1871
 30
0.0
 10
-27.1061
 20
-116.8116
 30
0.0
 10
-27.1061
 20
-116.8116
 30
0.0
 10
-27.1061
 20
-116.8116
 30
0.0
 10
-32.8106
 20
-116.1293
 30
0.0
 10
-37.3346
 20
-111.6059
 30
0.0
 10
-38.0168
 20
-105.9015
 30
0.0
 10
-38.0168
 20
-105.9015
 30
0.0
 10
-38.0168
 20
-105.9015
 30
0.0
 10
-33.3917
 20
-105.9015
 30
0.0
 10
-33.3917
 20
-105.9015
 30
0.0
 10
-33.3917
 20
-105.9015
 30
0.0
 10
-33.3917
 20
-105.9015
 30
0.0
 10
-33.3917
 20
-102.9015
 30
0.0
 10
-33.3917
 20
-102.9015
 30
0.0
 10
-33.3917
 20
-102.9015
 30
0.0
 10
-33.3917
 20
-102.9015
 30
0.0
 10
-38.0168
 20
-102.9015
 30
0.0
 10
-38.0168
 20
-102.9015
 30
0.0
 10
-38.0168
 20
-102.9015
 30
0.0
 10
-37.3346
 20
-97.1971
 30
0.0
 10
-32.8106
 20
-92.6737
 30
0.0
 10
-27.1061
 20
-91.9914
 30
0.0
 10
-27.1061
 20
-91.9914
 30
0.0
 10
-27.1061
 20
-91.9914
 30
0.0
 10
-27.1061
 20
-96.6159
 30
0.0
 10
-27.1061
 20
-96.6159
 30
0.0
 10
-27.1061
 20
-96.6159
 30
0.0
 10
-27.1061
 20
-96.6159
 30
0.0
 10
-24.1061
 20
-96.6159
 30
0.0
 10
-24.1061
 20
-96.6159
 30
0.0
 10
-24.1061
 20
-96.6159
 30
0.0
 10
-24.1061
 20
-96.6159
 30
0.0
 10
-24.1061
 20
-91.9914
 30
0.0
 10
-24.1061
 20
-91.9914
 30
0.0
 10
-24.1061
 20
-91.9914
 30
0.0
 10
-18.4016
 20
-92.6737
 30
0.0
 10
-13.8776
 20
-97.1971
 30
0.0
 10
-13.1954
 20
-102.9015
 30
0.0
 10
-13.1954
 20
-102.9015
 30
0.0
 10
-13.1954
 20
-102.9015
 30
0.0
 10
-17.8205
 20
-102.9015
 30
0.0
 10
-17.8205
 20
-102.9015
 30
0.0
 10
-17.8205
 20
-102.9015
 30
0.0
 10
-17.8205
 20
-102.9015
 30
0.0
 10
-17.8205
 20
-105.9015
 30
0.0
 10
-17.8205
 20
-105.9015
 30
0.0
 10
-17.8205
 20
-105.9015
 30
0.0
 10
-17.8205
 20
-105.9015
 30
0.0
 10
-13.1954
 20
-105.9015
 30
0.0
 10
-13.1954
 20
-105.9015
 30
0.0
  0
SPLINE
  5
5D
330
1F
100
AcDbEntity
  8
Capa 1
 62
   250
370
     9
100
AcDbSpline
210
0.0
220
0.0
230
1.0
 70
    11
 71
     3
 72
    68
 73
    64
 74
     0
 42
0.0000000001
 43
0.0000000001
 40
0.0
 40
0.0
 40
0.0
 40
0.0
 40
0.0588235294117647
 40
0.0588235294117647
 40
0.0588235294117647
 40
0.0588235294117647
 40
0.1176470588235294
 40
0.1176470588235294
 40
0.1176470588235294
 40
0.1176470588235294
 40
0.1764705882352941
 40
0.1764705882352941
 40
0.1764705882352941
 40
0.1764705882352941
 40
0.2352941176470588
 40
0.2352941176470588
 40
0.2352941176470588
 40
0.2352941176470588
 40
0.2941176470588235
 40
0.2941176470588235
 40
0.2941176470588235
 40
0.2941176470588235
 40
0.3529411764705883
 40
0.3529411764705883
 40
0.3529411764705883
 40
0.3529411764705883
 40
0.4117647058823529
 40
0.4117647058823529
 40
0.4117647058823529
 40
0.4117647058823529
 40
0.4705882352941176
 40
0.4705882352941176
 40
0.4705882352941176
 40
0.4705882352941176
 40
0.5294117647058824
 40
0.5294117647058824
 40
0.5294117647058824
 40
0.5294117647058824
 40
0.5882352941176471
 40
0.5882352941176471
 40
0.5882352941176471
 40
0.5882352941176471
 40
0.6470588235294118
 40
0.6470588235294118
 40
0.6470588235294118
 40
0.6470588235294118
 40
0.7058823529411765
 40
0.7058823529411765
 40
0.7058823529411765
 40
0.7058823529411765
 40
0.7647058823529411
 40
0.7647058823529411
 40
0.7647058823529411
 40
0.7647058823529411
 40
0.8235294117647058
 40
0.8235294117647058
 40
0.8235294117647058
 40
0.8235294117647058
 40
0.8823529411764706
 40
0.8823529411764706
 40
0.8823529411764706
 40
0.8823529411764706
 40
1.0
 40
1.0
 40
1.0
 40
1.0
 10
-65.5829
 20
-105.9015
 30
0.0
 10
-66.2651
 20
-111.6059
 30
0.0
 10
-70.7891
 20
-116.1293
 30
0.0
 10
-76.4936
 20
-116.8116
 30
0.0
 10
-76.4936
 20
-116.8116
 30
0.0
 10
-76.4936
 20
-116.8116
 30
0.0
 10
-76.4936
 20
-112.1871
 30
0.0
 10
-76.4936
 20
-112.1871
 30
0.0
 10
-76.4936
 20
-112.1871
 30
0.0
 10
-76.4936
 20
-112.1871
 30
0.0
 10
-79.4936
 20
-112.1871
 30
0.0
 10
-79.4936
 20
-112.1871
 30
0.0
 10
-79.4936
 20
-112.1871
 30
0.0
 10
-79.4936
 20
-112.1871
 30
0.0
 10
-79.4936
 20
-116.8116
 30
0.0
 10
-79.4936
 20
-116.8116
 30
0.0
 10
-79.4936
 20
-116.8116
 30
0.0
 10
-85.1981
 20
-116.1293
 30
0.0
 10
-89.7221
 20
-111.6059
 30
0.0
 10
-90.4043
 20
-105.9015
 30
0.0
 10
-90.4043
 20
-105.9015
 30
0.0
 10
-90.4043
 20
-105.9015
 30
0.0
 10
-85.7792
 20
-105.9015
 30
0.0
 10
-85.7792
 20
-105.9015
 30
0.0
 10
-85.7792
 20
-105.9015
 30
0.0
 10
-85.7792
 20
-105.9015
 30
0.0
 10
-85.7792
 20
-102.9015
 30
0.0
 10
-85.7792
 20
-102.9015
 30
0.0
 10
-85.7792
 20
-102.9015
 30
0.0
 10
-85.7792
 20
-102.9015
 30
0.0
 10
-90.4043
 20
-102.9015
 30
0.0
 10
-90.4043
 20
-102.9015
 30
0.0
 10
-90.4043
 20
-102.9015
 30
0.0
 10
-89.7221
 20
-97.1971
 30
0.0
 10
-85.1981
 20
-92.6737
 30
0.0
 10
-79.4936
 20
-91.9914
 30
0.0
 10
-79.4936
 20
-91.9914
 30
0.0
 10
-79.4936
 20
-91.9914
 30
0.0
 10
-79.4936
 20
-96.6159
 30
0.0
 10
-79.4936
 20
-96.6159
 30
0.0
 10
-79.4936
 20
-96.6159
 30
0.0
 10
-79.4936
 20
-96.6159
 30
0.0
 10
-76.4936
 20
-96.6159
 30
0.0
 10
-76.4936
 20
-96.6159
 30
0.0
 10
-76.4936
 20
-96.6159
 30
0.0
 10
-76.4936
 20
-96.6159
 30
0.0
 10
-76.4936
 20
-91.9914
 30
0.0
 10
-76.4936
 20
-91.9914
 30
0.0
 10
-76.4936
 20
-91.9914
 30
0.0
 10
-70.7891
 20
-92.6737
 30
0.0
 10
-66.2651
 20
-97.1971
 30
0.0
 10
-65.5829
 20
-102.9015
 30
0.0
 10
-65.5829
 20
-102.9015
 30
0.0
 10
-65.5829
 20
-102.9015
 30
0.0
 10
-70.208
 20
-102.9015
 30
0.0
 10
-70.208
 20
-102.9015
 30
0.0
 10
-70.208
 20
-102.9015
 30
0.0
 10
-70.208
 20
-102.9015
 30
0.0
 10
-70.208
 20
-105.9015
 30
0.0
 10
-70.208
 20
-105.9015
 30
0.0
 10
-70.208
 20
-105.9015
 30
0.0
 10
-70.208
 20
-105.9015
 30
0.0
 10
-65.5829
 20
-105.9015
 30
0.0
 10
-65.5829
 20
-105.9015
 30
0.0
  0
SPLINE
  5
5E
330
1F
100
AcDbEntity
  8
Capa 1
 62
   250
370
     9
100
AcDbSpline
210
0.0
220
0.0
230
1.0
 70
    11
 71
     3
 72
    68
 73
    64
 74
     0
 42
0.0000000001
 43
0.0000000001
 40
0.0
 40
0.0
 40
0.0
 40
0.0
 40
0.0588235294117647
 40
0.0588235294117647
 40
0.0588235294117647
 40
0.0588235294117647
 40
0.1176470588235294
 40
0.1176470588235294
 40
0.1176470588235294
 40
0.1176470588235294
 40
0.1764705882352941
 40
0.1764705882352941
 40
0.1764705882352941
 40
0.1764705882352941
 40
0.2352941176470588
 40
0.2352941176470588
 40
0.2352941176470588
 40
0.2352941176470588
 40
0.2941176470588235
 40
0.2941176470588235
 40
0.2941176470588235
 40
0.2941176470588235
 40
0.3529411764705883
 40
0.3529411764705883
 40
0.3529411764705883
 40
0.3529411764705883
 40
0.4117647058823529
 40
0.4117647058823529
 40
0.4117647058823529
 40
0.4117647058823529
 40
0.4705882352941176
 40
0.4705882352941176
 40
0.4705882352941176
 40
0.4705882352941176
 40
0.5294117647058824
 40
0.5294117647058824
 40
0.5294117647058824
 40
0.5294117647058824
 40
0.5882352941176471
 40
0.5882352941176471
 40
0.5882352941176471
 40
0.5882352941176471
 40
0.6470588235294118
 40
0.6470588235294118
 40
0.6470588235294118
 40
0.6470588235294118
 40
0.7058823529411765
 40
0.7058823529411765
 40
0.7058823529411765
 40
0.7058823529411765
 40
0.7647058823529411
 40
0.7647058823529411
 40
0.7647058823529411
 40
0.7647058823529411
 40
0.8235294117647058
 40
0.8235294117647058
 40
0.8235294117647058
 40
0.8235294117647058
 40
0.8823529411764706
 40
0.8823529411764706
 40
0.8823529411764706
 40
0.8823529411764706
 40
1.0
 40
1.0
 40
1.0
 40
1.0
 10
39.1921
 20
-105.9015
 30
0.0
 10
38.5099
 20
-111.6059
 30
0.0
 10
33.9859
 20
-116.1293
 30
0.0
 10
28.2814
 20
-116.8116
 30
0.0
 10
28.2814
 20
-116.8116
 30
0.0
 10
28.2814
 20
-116.8116
 30
0.0
 10
28.2814
 20
-112.1871
 30
0.0
 10
28.2814
 20
-112.1871
 30
0.0
 10
28.2814
 20
-112.1871
 30
0.0
 10
28.2814
 20
-112.1871
 30
0.0
 10
25.2814
 20
-112.1871
 30
0.0
 10
25.2814
 20
-112.1871
 30
0.0
 10
25.2814
 20
-112.1871
 30
0.0
 10
25.2814
 20
-112.1871
 30
0.0
 10
25.2814
 20
-116.8116
 30
0.0
 10
25.2814
 20
-116.8116
 30
0.0
 10
25.2814
 20
-116.8116
 30
0.0
 10
19.5769
 20
-116.1293
 30
0.0
 10
15.0529
 20
-111.6059
 30
0.0
 10
14.3707
 20
-105.9015
 30
0.0
 10
14.3707
 20
-105.9015
 30
0.0
 10
14.3707
 20
-105.9015
 30
0.0
 10
18.9958
 20
-105.9015
 30
0.0
 10
18.9958
 20
-105.9015
 30
0.0
 10
18.9958
 20
-105.9015
 30
0.0
 10
18.9958
 20
-105.9015
 30
0.0
 10
18.9958
 20
-102.9015
 30
0.0
 10
18.9958
 20
-102.9015
 30
0.0
 10
18.9958
 20
-102.9015
 30
0.0
 10
18.9958
 20
-102.9015
 30
0.0
 10
14.3707
 20
-102.9015
 30
0.0
 10
14.3707
 20
-102.9015
 30
0.0
 10
14.3707
 20
-102.9015
 30
0.0
 10
15.0529
 20
-97.1971
 30
0.0
 10
19.5769
 20
-92.6737
 30
0.0
 10
25.2814
 20
-91.9914
 30
0.0
 10
25.2814
 20
-91.9914
 30
0.0
 10
25.2814
 20
-91.9914
 30
0.0
 10
25.2814
 20
-96.6159
 30
0.0
 10
25.2814
 20
-96.6159
 30
0.0
 10
25.2814
 20
-96.6159
 30
0.0
 10
25.2814
 20
-96.6159
 30
0.0
 10
28.2814
 20
-96.6159
 30
0.0
 10
28.2814
 20
-96.6159
 30
0.0
 10
28.2814
 20
-96.6159
 30
0.0
 10
28.2814
 20
-96.6159
 30
0.0
 10
28.2814
 20
-91.9914
 30
0.0
 10
28.2814
 20
-91.9914
 30
0.0
 10
28.2814
 20
-91.9914
 30
0.0
 10
33.9859
 20
-92.6737
 30
0.0
 10
38.5099
 20
-97.1971
 30
0.0
 10
39.1921
 20
-102.9015
 30
0.0
 10
39.1921
 20
-102.9015
 30
0.0
 10
39.1921
 20
-102.9015
 30
0.0
 10
34.567
 20
-102.9015
 30
0.0
 10
34.567
 20
-102.9015
 30
0.0
 10
34.567
 20
-102.9015
 30
0.0
 10
34.567
 20
-102.9015
 30
0.0
 10
34.567
 20
-105.9015
 30
0.0
 10
34.567
 20
-105.9015
 30
0.0
 10
34.567
 20
-105.9015
 30
0.0
 10
34.567
 20
-105.9015
 30
0.0
 10
39.1921
 20
-105.9015
 30
0.0
 10
39.1921
 20
-105.9015
 30
0.0
  0
SPLINE
  5
5F
330
1F
100
AcDbEntity
  8
Capa 1
 62
   250
370
     9
100
AcDbSpline
210
0.0
220
0.0
230
1.0
 70
    11
 71
     3
 72
   164
 73
   160
 74
     0
 42
0.0000000001
 43
0.0000000001
 40
0.0
 40
0.0
 40
0.0
 40
0.0
 40
0.024390243902439
 40
0.024390243902439
 40
0.024390243902439
 40
0.024390243902439
 40
0.0487804878048781
 40
0.0487804878048781
 40
0.0487804878048781
 40
0.0487804878048781
 40
0.0731707317073171
 40
0.0731707317073171
 40
0.0731707317073171
 40
0.0731707317073171
 40
0.0975609756097561
 40
0.0975609756097561
 40
0.0975609756097561
 40
0.0975609756097561
 40
0.1219512195121951
 40
0.1219512195121951
 40
0.1219512195121951
 40
0.1219512195121951
 40
0.1463414634146341
 40
0.1463414634146341
 40
0.1463414634146341
 40
0.1463414634146341
 40
0.1707317073170732
 40
0.1707317073170732
 40
0.1707317073170732
 40
0.1707317073170732
 40
0.1951219512195122
 40
0.1951219512195122
 40
0.1951219512195122
 40
0.1951219512195122
 40
0.2195121951219512
 40
0.2195121951219512
 40
0.2195121951219512
 40
0.2195121951219512
 40
0.2439024390243902
 40
0.2439024390243902
 40
0.2439024390243902
 40
0.2439024390243902
 40
0.2682926829268293
 40
0.2682926829268293
 40
0.2682926829268293
 40
0.2682926829268293
 40
0.2926829268292683
 40
0.2926829268292683
 40
0.2926829268292683
 40
0.2926829268292683
 40
0.3170731707317073
 40
0.3170731707317073
 40
0.3170731707317073
 40
0.3170731707317073
 40
0.3414634146341464
 40
0.3414634146341464
 40
0.3414634146341464
 40
0.3414634146341464
 40
0.3658536585365854
 40
0.3658536585365854
 40
0.3658536585365854
 40
0.3658536585365854
 40
0.3902439024390244
 40
0.3902439024390244
 40
0.3902439024390244
 40
0.3902439024390244
 40
0.4146341463414634
 40
0.4146341463414634
 40
0.4146341463414634
 40
0.4146341463414634
 40
0.4390243902439024
 40
0.4390243902439024
 40
0.4390243902439024
 40
0.4390243902439024
 40
0.4634146341463415
 40
0.4634146341463415
 40
0.4634146341463415
 40
0.4634146341463415
 40
0.4878048780487805
 40
0.4878048780487805
 40
0.4878048780487805
 40
0.4878048780487805
 40
0.5121951219512195
 40
0.5121951219512195
 40
0.5121951219512195
 40
0.5121951219512195
 40
0.5365853658536586
 40
0.5365853658536586
 40
0.5365853658536586
 40
0.5365853658536586
 40
0.5609756097560976
 40
0.5609756097560976
 40
0.5609756097560976
 40
0.5609756097560976
 40
0.5853658536585366
 40
0.5853658536585366
 40
0.5853658536585366
 40
0.5853658536585366
 40
0.6097560975609756
 40
0.6097560975609756
 40
0.6097560975609756
 40
0.6097560975609756
 40
0.6341463414634146
 40
0.6341463414634146
 40
0.6341463414634146
 40
0.6341463414634146
 40
0.6585365853658537
 40
0.6585365853658537
 40
0.6585365853658537
 40
0.6585365853658537
 40
0.6829268292682927
 40
0.6829268292682927
 40
0.6829268292682927
 40
0.6829268292682927
 40
0.7073170731707317
 40
0.7073170731707317
 40
0.7073170731707317
 40
0.7073170731707317
 40
0.7317073170731707
 40
0.7317073170731707
 40
0.7317073170731707
 40
0.7317073170731707
 40
0.7560975609756098
 40
0.7560975609756098
 40
0.7560975609756098
 40
0.7560975609756098
 40
0.7804878048780488
 40
0.7804878048780488
 40
0.7804878048780488
 40
0.7804878048780488
 40
0.8048780487804879
 40
0.8048780487804879
 40
0.8048780487804879
 40
0.8048780487804879
 40
0.8292682926829268
 40
0.8292682926829268
 40
0.8292682926829268
 40
0.8292682926829268
 40
0.8536585365853658
 40
0.8536585365853658
 40
0.8536585365853658
 40
0.8536585365853658
 40
0.8780487804878049
 40
0.8780487804878049
 40
0.8780487804878049
 40
0.8780487804878049
 40
0.9024390243902439
 40
0.9024390243902439
 40
0.9024390243902439
 40
0.9024390243902439
 40
0.926829268292683
 40
0.926829268292683
 40
0.926829268292683
 40
0.926829268292683
 40
0.9512195121951219
 40
0.9512195121951219
 40
0.9512195121951219
 40
0.9512195121951219
 40
1.0
 40
1.0
 40
1.0
 40
1.0
 10
79.1003
 20
130.6777
 30
0.0
 10
79.1003
 20
130.6777
 30
0.0
 10
86.5531
 20
127.5907
 30
0.0
 10
86.5531
 20
127.5907
 30
0.0
 10
86.5531
 20
127.5907
 30
0.0
 10
86.5531
 20
127.5907
 30
0.0
 10
84.749
 20
123.2352
 30
0.0
 10
84.749
 20
123.2352
 30
0.0
 10
84.749
 20
123.2352
 30
0.0
 10
84.749
 20
123.2352
 30
0.0
 10
87.5207
 20
122.0871
 30
0.0
 10
87.5207
 20
122.0871
 30
0.0
 10
87.5207
 20
122.0871
 30
0.0
 10
87.5207
 20
122.0871
 30
0.0
 10
89.3248
 20
126.4426
 30
0.0
 10
89.3248
 20
126.4426
 30
0.0
 10
89.3248
 20
126.4426
 30
0.0
 10
89.3248
 20
126.4426
 30
0.0
 10
96.7779
 20
123.3554
 30
0.0
 10
96.7779
 20
123.3554
 30
0.0
 10
96.7779
 20
123.3554
 30
0.0
 10
96.7779
 20
123.3554
 30
0.0
 10
99.8651
 20
115.9024
 30
0.0
 10
99.8651
 20
115.9024
 30
0.0
 10
99.8651
 20
115.9024
 30
0.0
 10
99.8651
 20
115.9024
 30
0.0
 10
95.5094
 20
114.0982
 30
0.0
 10
95.5094
 20
114.0982
 30
0.0
 10
95.5094
 20
114.0982
 30
0.0
 10
95.5094
 20
114.0982
 30
0.0
 10
96.6575
 20
111.3266
 30
0.0
 10
96.6575
 20
111.3266
 30
0.0
 10
96.6575
 20
111.3266
 30
0.0
 10
96.6575
 20
111.3266
 30
0.0
 10
101.0131
 20
113.1307
 30
0.0
 10
101.0131
 20
113.1307
 30
0.0
 10
101.0131
 20
113.1307
 30
0.0
 10
101.0131
 20
113.1307
 30
0.0
 10
104.1003
 20
105.6777
 30
0.0
 10
104.1003
 20
105.6777
 30
0.0
 10
104.1003
 20
105.6777
 30
0.0
 10
104.1003
 20
105.6777
 30
0.0
 10
101.0131
 20
98.2246
 30
0.0
 10
101.0131
 20
98.2246
 30
0.0
 10
101.0131
 20
98.2246
 30
0.0
 10
101.0131
 20
98.2246
 30
0.0
 10
96.6574
 20
100.0288
 30
0.0
 10
96.6574
 20
100.0288
 30
0.0
 10
96.6574
 20
100.0288
 30
0.0
 10
96.6574
 20
100.0288
 30
0.0
 10
95.5093
 20
97.2572
 30
0.0
 10
95.5093
 20
97.2572
 30
0.0
 10
95.5093
 20
97.2572
 30
0.0
 10
95.5093
 20
97.2572
 30
0.0
 10
99.865
 20
95.453
 30
0.0
 10
99.865
 20
95.453
 30
0.0
 10
99.865
 20
95.453
 30
0.0
 10
99.865
 20
95.453
 30
0.0
 10
96.7779
 20
88.0
 30
0.0
 10
96.7779
 20
88.0
 30
0.0
 10
96.7779
 20
88.0
 30
0.0
 10
96.7779
 20
88.0
 30
0.0
 10
89.3247
 20
84.9128
 30
0.0
 10
89.3247
 20
84.9128
 30
0.0
 10
89.3247
 20
84.9128
 30
0.0
 10
89.3247
 20
84.9128
 30
0.0
 10
87.5206
 20
89.2683
 30
0.0
 10
87.5206
 20
89.2683
 30
0.0
 10
87.5206
 20
89.2683
 30
0.0
 10
87.5206
 20
89.2683
 30
0.0
 10
84.7489
 20
88.1203
 30
0.0
 10
84.7489
 20
88.1203
 30
0.0
 10
84.7489
 20
88.1203
 30
0.0
 10
84.7489
 20
88.1203
 30
0.0
 10
86.553
 20
83.7647
 30
0.0
 10
86.553
 20
83.7647
 30
0.0
 10
86.553
 20
83.7647
 30
0.0
 10
86.553
 20
83.7647
 30
0.0
 10
79.1003
 20
80.6777
 30
0.0
 10
79.1003
 20
80.6777
 30
0.0
 10
79.1003
 20
80.6777
 30
0.0
 10
79.1003
 20
80.6777
 30
0.0
 10
71.6472
 20
83.7648
 30
0.0
 10
71.6472
 20
83.7648
 30
0.0
 10
71.6472
 20
83.7648
 30
0.0
 10
71.6472
 20
83.7648
 30
0.0
 10
73.4513
 20
88.1203
 30
0.0
 10
73.4513
 20
88.1203
 30
0.0
 10
73.4513
 20
88.1203
 30
0.0
 10
73.4513
 20
88.1203
 30
0.0
 10
70.6796
 20
89.2683
 30
0.0
 10
70.6796
 20
89.2683
 30
0.0
 10
70.6796
 20
89.2683
 30
0.0
 10
70.6796
 20
89.2683
 30
0.0
 10
68.8755
 20
84.9129
 30
0.0
 10
68.8755
 20
84.9129
 30
0.0
 10
68.8755
 20
84.9129
 30
0.0
 10
68.8755
 20
84.9129
 30
0.0
 10
61.4227
 20
88.0
 30
0.0
 10
61.4227
 20
88.0
 30
0.0
 10
61.4227
 20
88.0
 30
0.0
 10
61.4227
 20
88.0
 30
0.0
 10
58.3355
 20
95.4531
 30
0.0
 10
58.3355
 20
95.4531
 30
0.0
 10
58.3355
 20
95.4531
 30
0.0
 10
58.3355
 20
95.4531
 30
0.0
 10
62.6909
 20
97.2572
 30
0.0
 10
62.6909
 20
97.2572
 30
0.0
 10
62.6909
 20
97.2572
 30
0.0
 10
62.6909
 20
97.2572
 30
0.0
 10
61.5428
 20
100.0288
 30
0.0
 10
61.5428
 20
100.0288
 30
0.0
 10
61.5428
 20
100.0288
 30
0.0
 10
61.5428
 20
100.0288
 30
0.0
 10
57.1874
 20
98.2248
 30
0.0
 10
57.1874
 20
98.2248
 30
0.0
 10
57.1874
 20
98.2248
 30
0.0
 10
57.1874
 20
98.2248
 30
0.0
 10
54.1003
 20
105.6777
 30
0.0
 10
54.1003
 20
105.6777
 30
0.0
 10
54.1003
 20
105.6777
 30
0.0
 10
54.1003
 20
105.6777
 30
0.0
 10
57.1874
 20
113.1306
 30
0.0
 10
57.1874
 20
113.1306
 30
0.0
 10
57.1874
 20
113.1306
 30
0.0
 10
57.1874
 20
113.1306
 30
0.0
 10
61.5427
 20
111.3266
 30
0.0
 10
61.5427
 20
111.3266
 30
0.0
 10
61.5427
 20
111.3266
 30
0.0
 10
61.5427
 20
111.3266
 30
0.0
 10
62.6908
 20
114.0982
 30
0.0
 10
62.6908
 20
114.0982
 30
0.0
 10
62.6908
 20
114.0982
 30
0.0
 10
62.6908
 20
114.0982
 30
0.0
 10
58.3355
 20
115.9022
 30
0.0
 10
58.3355
 20
115.9022
 30
0.0
 10
58.3355
 20
115.9022
 30
0.0
 10
58.3355
 20
115.9022
 30
0.0
 10
61.4227
 20
123.3554
 30
0.0
 10
61.4227
 20
123.3554
 30
0.0
 10
61.4227
 20
123.3554
 30
0.0
 10
61.4227
 20
123.3554
 30
0.0
 10
68.8755
 20
126.4425
 30
0.0
 10
68.8755
 20
126.4425
 30
0.0
 10
68.8755
 20
126.4425
 30
0.0
 10
68.8755
 20
126.4425
 30
0.0
 10
70.6795
 20
122.0871
 30
0.0
 10
70.6795
 20
122.0871
 30
0.0
 10
70.6795
 20
122.0871
 30
0.0
 10
70.6795
 20
122.0871
 30
0.0
 10
73.4512
 20
123.2352
 30
0.0
 10
73.4512
 20
123.2352
 30
0.0
 10
73.4512
 20
123.2352
 30
0.0
 10
73.4512
 20
123.2352
 30
0.0
 10
71.6471
 20
127.5905
 30
0.0
 10
71.6471
 20
127.5905
 30
0.0
 10
71.6471
 20
127.5905
 30
0.0
 10
71.6471
 20
127.5905
 30
0.0
 10
79.1003
 20
130.6777
 30
0.0
 10
79.1003
 20
130.6777
 30
0.0
  0
SPLINE
  5
60
330
1F
100
AcDbEntity
  8
Capa 1
 62
   250
370
     9
100
AcDbSpline
210
0.0
220
0.0
230
1.0
 70
    11
 71
     3
 72
   164
 73
   160
 74
     0
 42
0.0000000001
 43
0.0000000001
 40
0.0
 40
0.0
 40
0.0
 40
0.0
 40
0.024390243902439
 40
0.024390243902439
 40
0.024390243902439
 40
0.024390243902439
 40
0.0487804878048781
 40
0.0487804878048781
 40
0.0487804878048781
 40
0.0487804878048781
 40
0.0731707317073171
 40
0.0731707317073171
 40
0.0731707317073171
 40
0.0731707317073171
 40
0.0975609756097561
 40
0.0975609756097561
 40
0.0975609756097561
 40
0.0975609756097561
 40
0.1219512195121951
 40
0.1219512195121951
 40
0.1219512195121951
 40
0.1219512195121951
 40
0.1463414634146341
 40
0.1463414634146341
 40
0.1463414634146341
 40
0.1463414634146341
 40
0.1707317073170732
 40
0.1707317073170732
 40
0.1707317073170732
 40
0.1707317073170732
 40
0.1951219512195122
 40
0.1951219512195122
 40
0.1951219512195122
 40
0.1951219512195122
 40
0.2195121951219512
 40
0.2195121951219512
 40
0.2195121951219512
 40
0.2195121951219512
 40
0.2439024390243902
 40
0.2439024390243902
 40
0.2439024390243902
 40
0.2439024390243902
 40
0.2682926829268293
 40
0.2682926829268293
 40
0.2682926829268293
 40
0.2682926829268293
 40
0.2926829268292683
 40
0.2926829268292683
 40
0.2926829268292683
 40
0.2926829268292683
 40
0.3170731707317073
 40
0.3170731707317073
 40
0.3170731707317073
 40
0.3170731707317073
 40
0.3414634146341464
 40
0.3414634146341464
 40
0.3414634146341464
 40
0.3414634146341464
 40
0.3658536585365854
 40
0.3658536585365854
 40
0.3658536585365854
 40
0.3658536585365854
 40
0.3902439024390244
 40
0.3902439024390244
 40
0.3902439024390244
 40
0.3902439024390244
 40
0.4146341463414634
 40
0.4146341463414634
 40
0.4146341463414634
 40
0.4146341463414634
 40
0.4390243902439024
 40
0.4390243902439024
 40
0.4390243902439024
 40
0.4390243902439024
 40
0.4634146341463415
 40
0.4634146341463415
 40
0.4634146341463415
 40
0.4634146341463415
 40
0.4878048780487805
 40
0.4878048780487805
 40
0.4878048780487805
 40
0.4878048780487805
 40
0.5121951219512195
 40
0.5121951219512195
 40
0.5121951219512195
 40
0.5121951219512195
 40
0.5365853658536586
 40
0.5365853658536586
 40
0.5365853658536586
 40
0.5365853658536586
 40
0.5609756097560976
 40
0.5609756097560976
 40
0.5609756097560976
 40
0.5609756097560976
 40
0.5853658536585366
 40
0.5853658536585366
 40
0.5853658536585366
 40
0.5853658536585366
 40
0.6097560975609756
 40
0.6097560975609756
 40
0.6097560975609756
 40
0.6097560975609756
 40
0.6341463414634146
 40
0.6341463414634146
 40
0.6341463414634146
 40
0.6341463414634146
 40
0.6585365853658537
 40
0.6585365853658537
 40
0.6585365853658537
 40
0.6585365853658537
 40
0.6829268292682927
 40
0.6829268292682927
 40
0.6829268292682927
 40
0.6829268292682927
 40
0.7073170731707317
 40
0.7073170731707317
 40
0.7073170731707317
 40
0.7073170731707317
 40
0.7317073170731707
 40
0.7317073170731707
 40
0.7317073170731707
 40
0.7317073170731707
 40
0.7560975609756098
 40
0.7560975609756098
 40
0.7560975609756098
 40
0.7560975609756098
 40
0.7804878048780488
 40
0.7804878048780488
 40
0.7804878048780488
 40
0.7804878048780488
 40
0.8048780487804879
 40
0.8048780487804879
 40
0.8048780487804879
 40
0.8048780487804879
 40
0.8292682926829268
 40
0.8292682926829268
 40
0.8292682926829268
 40
0.8292682926829268
 40
0.8536585365853658
 40
0.8536585365853658
 40
0.8536585365853658
 40
0.8536585365853658
 40
0.8780487804878049
 40
0.8780487804878049
 40
0.8780487804878049
 40
0.8780487804878049
 40
0.9024390243902439
 40
0.9024390243902439
 40
0.9024390243902439
 40
0.9024390243902439
 40
0.926829268292683
 40
0.926829268292683
 40
0.926829268292683
 40
0.926829268292683
 40
0.9512195121951219
 40
0.9512195121951219
 40
0.9512195121951219
 40
0.9512195121951219
 40
1.0
 40
1.0
 40
1.0
 40
1.0
 10
79.1003
 20
78.2902
 30
0.0
 10
79.1003
 20
78.2902
 30
0.0
 10
86.5531
 20
75.2032
 30
0.0
 10
86.5531
 20
75.2032
 30
0.0
 10
86.5531
 20
75.2032
 30
0.0
 10
86.5531
 20
75.2032
 30
0.0
 10
84.749
 20
70.8477
 30
0.0
 10
84.749
 20
70.8477
 30
0.0
 10
84.749
 20
70.8477
 30
0.0
 10
84.749
 20
70.8477
 30
0.0
 10
87.5207
 20
69.6996
 30
0.0
 10
87.5207
 20
69.6996
 30
0.0
 10
87.5207
 20
69.6996
 30
0.0
 10
87.5207
 20
69.6996
 30
0.0
 10
89.3248
 20
74.0551
 30
0.0
 10
89.3248
 20
74.0551
 30
0.0
 10
89.3248
 20
74.0551
 30
0.0
 10
89.3248
 20
74.0551
 30
0.0
 10
96.7779
 20
70.9679
 30
0.0
 10
96.7779
 20
70.9679
 30
0.0
 10
96.7779
 20
70.9679
 30
0.0
 10
96.7779
 20
70.9679
 30
0.0
 10
99.8651
 20
63.5149
 30
0.0
 10
99.8651
 20
63.5149
 30
0.0
 10
99.8651
 20
63.5149
 30
0.0
 10
99.8651
 20
63.5149
 30
0.0
 10
95.5094
 20
61.7107
 30
0.0
 10
95.5094
 20
61.7107
 30
0.0
 10
95.5094
 20
61.7107
 30
0.0
 10
95.5094
 20
61.7107
 30
0.0
 10
96.6575
 20
58.9391
 30
0.0
 10
96.6575
 20
58.9391
 30
0.0
 10
96.6575
 20
58.9391
 30
0.0
 10
96.6575
 20
58.9391
 30
0.0
 10
101.0131
 20
60.7432
 30
0.0
 10
101.0131
 20
60.7432
 30
0.0
 10
101.0131
 20
60.7432
 30
0.0
 10
101.0131
 20
60.7432
 30
0.0
 10
104.1003
 20
53.2902
 30
0.0
 10
104.1003
 20
53.2902
 30
0.0
 10
104.1003
 20
53.2902
 30
0.0
 10
104.1003
 20
53.2902
 30
0.0
 10
101.0131
 20
45.8371
 30
0.0
 10
101.0131
 20
45.8371
 30
0.0
 10
101.0131
 20
45.8371
 30
0.0
 10
101.0131
 20
45.8371
 30
0.0
 10
96.6574
 20
47.6413
 30
0.0
 10
96.6574
 20
47.6413
 30
0.0
 10
96.6574
 20
47.6413
 30
0.0
 10
96.6574
 20
47.6413
 30
0.0
 10
95.5093
 20
44.8697
 30
0.0
 10
95.5093
 20
44.8697
 30
0.0
 10
95.5093
 20
44.8697
 30
0.0
 10
95.5093
 20
44.8697
 30
0.0
 10
99.865
 20
43.0655
 30
0.0
 10
99.865
 20
43.0655
 30
0.0
 10
99.865
 20
43.0655
 30
0.0
 10
99.865
 20
43.0655
 30
0.0
 10
96.7779
 20
35.6125
 30
0.0
 10
96.7779
 20
35.6125
 30
0.0
 10
96.7779
 20
35.6125
 30
0.0
 10
96.7779
 20
35.6125
 30
0.0
 10
89.3247
 20
32.5253
 30
0.0
 10
89.3247
 20
32.5253
 30
0.0
 10
89.3247
 20
32.5253
 30
0.0
 10
89.3247
 20
32.5253
 30
0.0
 10
87.5206
 20
36.8808
 30
0.0
 10
87.5206
 20
36.8808
 30
0.0
 10
87.5206
 20
36.8808
 30
0.0
 10
87.5206
 20
36.8808
 30
0.0
 10
84.7489
 20
35.7328
 30
0.0
 10
84.7489
 20
35.7328
 30
0.0
 10
84.7489
 20
35.7328
 30
0.0
 10
84.7489
 20
35.7328
 30
0.0
 10
86.553
 20
31.3772
 30
0.0
 10
86.553
 20
31.3772
 30
0.0
 10
86.553
 20
31.3772
 30
0.0
 10
86.553
 20
31.3772
 30
0.0
 10
79.1003
 20
28.2902
 30
0.0
 10
79.1003
 20
28.2902
 30
0.0
 10
79.1003
 20
28.2902
 30
0.0
 10
79.1003
 20
28.2902
 30
0.0
 10
71.6472
 20
31.3773
 30
0.0
 10
71.6472
 20
31.3773
 30
0.0
 10
71.6472
 20
31.3773
 30
0.0
 10
71.6472
 20
31.3773
 30
0.0
 10
73.4513
 20
35.7328
 30
0.0
 10
73.4513
 20
35.7328
 30
0.0
 10
73.4513
 20
35.7328
 30
0.0
 10
73.4513
 20
35.7328
 30
0.0
 10
70.6796
 20
36.8808
 30
0.0
 10
70.6796
 20
36.8808
 30
0.0
 10
70.6796
 20
36.8808
 30
0.0
 10
70.6796
 20
36.8808
 30
0.0
 10
68.8755
 20
32.5254
 30
0.0
 10
68.8755
 20
32.5254
 30
0.0
 10
68.8755
 20
32.5254
 30
0.0
 10
68.8755
 20
32.5254
 30
0.0
 10
61.4227
 20
35.6125
 30
0.0
 10
61.4227
 20
35.6125
 30
0.0
 10
61.4227
 20
35.6125
 30
0.0
 10
61.4227
 20
35.6125
 30
0.0
 10
58.3355
 20
43.0656
 30
0.0
 10
58.3355
 20
43.0656
 30
0.0
 10
58.3355
 20
43.0656
 30
0.0
 10
58.3355
 20
43.0656
 30
0.0
 10
62.6909
 20
44.8697
 30
0.0
 10
62.6909
 20
44.8697
 30
0.0
 10
62.6909
 20
44.8697
 30
0.0
 10
62.6909
 20
44.8697
 30
0.0
 10
61.5428
 20
47.6413
 30
0.0
 10
61.5428
 20
47.6413
 30
0.0
 10
61.5428
 20
47.6413
 30
0.0
 10
61.5428
 20
47.6413
 30
0.0
 10
57.1874
 20
45.8373
 30
0.0
 10
57.1874
 20
45.8373
 30
0.0
 10
57.1874
 20
45.8373
 30
0.0
 10
57.1874
 20
45.8373
 30
0.0
 10
54.1003
 20
53.2902
 30
0.0
 10
54.1003
 20
53.2902
 30
0.0
 10
54.1003
 20
53.2902
 30
0.0
 10
54.1003
 20
53.2902
 30
0.0
 10
57.1874
 20
60.7431
 30
0.0
 10
57.1874
 20
60.7431
 30
0.0
 10
57.1874
 20
60.7431
 30
0.0
 10
57.1874
 20
60.7431
 30
0.0
 10
61.5427
 20
58.9391
 30
0.0
 10
61.5427
 20
58.9391
 30
0.0
 10
61.5427
 20
58.9391
 30
0.0
 10
61.5427
 20
58.9391
 30
0.0
 10
62.6908
 20
61.7107
 30
0.0
 10
62.6908
 20
61.7107
 30
0.0
 10
62.6908
 20
61.7107
 30
0.0
 10
62.6908
 20
61.7107
 30
0.0
 10
58.3355
 20
63.5147
 30
0.0
 10
58.3355
 20
63.5147
 30
0.0
 10
58.3355
 20
63.5147
 30
0.0
 10
58.3355
 20
63.5147
 30
0.0
 10
61.4227
 20
70.9679
 30
0.0
 10
61.4227
 20
70.9679
 30
0.0
 10
61.4227
 20
70.9679
 30
0.0
 10
61.4227
 20
70.9679
 30
0.0
 10
68.8755
 20
74.055
 30
0.0
 10
68.8755
 20
74.055
 30
0.0
 10
68.8755
 20
74.055
 30
0.0
 10
68.8755
 20
74.055
 30
0.0
 10
70.6795
 20
69.6996
 30
0.0
 10
70.6795
 20
69.6996
 30
0.0
 10
70.6795
 20
69.6996
 30
0.0
 10
70.6795
 20
69.6996
 30
0.0
 10
73.4512
 20
70.8477
 30
0.0
 10
73.4512
 20
70.8477
 30
0.0
 10
73.4512
 20
70.8477
 30
0.0
 10
73.4512
 20
70.8477
 30
0.0
 10
71.6471
 20
75.203
 30
0.0
 10
71.6471
 20
75.203
 30
0.0
 10
71.6471
 20
75.203
 30
0.0
 10
71.6471
 20
75.203
 30
0.0
 10
79.1003
 20
78.2902
 30
0.0
 10
79.1003
 20
78.2902
 30
0.0
  0
SPLINE
  5
61
330
1F
100
AcDbEntity
  8
Capa 1
 62
   250
370
     9
100
AcDbSpline
210
0.0
220
0.0
230
1.0
 70
    11
 71
     3
 72
   164
 73
   160
 74
     0
 42
0.0000000001
 43
0.0000000001
 40
0.0
 40
0.0
 40
0.0
 40
0.0
 40
0.024390243902439
 40
0.024390243902439
 40
0.024390243902439
 40
0.024390243902439
 40
0.0487804878048781
 40
0.0487804878048781
 40
0.0487804878048781
 40
0.0487804878048781
 40
0.0731707317073171
 40
0.0731707317073171
 40
0.0731707317073171
 40
0.0731707317073171
 40
0.0975609756097561
 40
0.0975609756097561
 40
0.0975609756097561
 40
0.0975609756097561
 40
0.1219512195121951
 40
0.1219512195121951
 40
0.1219512195121951
 40
0.1219512195121951
 40
0.1463414634146341
 40
0.1463414634146341
 40
0.1463414634146341
 40
0.1463414634146341
 40
0.1707317073170732
 40
0.1707317073170732
 40
0.1707317073170732
 40
0.1707317073170732
 40
0.1951219512195122
 40
0.1951219512195122
 40
0.1951219512195122
 40
0.1951219512195122
 40
0.2195121951219512
 40
0.2195121951219512
 40
0.2195121951219512
 40
0.2195121951219512
 40
0.2439024390243902
 40
0.2439024390243902
 40
0.2439024390243902
 40
0.2439024390243902
 40
0.2682926829268293
 40
0.2682926829268293
 40
0.2682926829268293
 40
0.2682926829268293
 40
0.2926829268292683
 40
0.2926829268292683
 40
0.2926829268292683
 40
0.2926829268292683
 40
0.3170731707317073
 40
0.3170731707317073
 40
0.3170731707317073
 40
0.3170731707317073
 40
0.3414634146341464
 40
0.3414634146341464
 40
0.3414634146341464
 40
0.3414634146341464
 40
0.3658536585365854
 40
0.3658536585365854
 40
0.3658536585365854
 40
0.3658536585365854
 40
0.3902439024390244
 40
0.3902439024390244
 40
0.3902439024390244
 40
0.3902439024390244
 40
0.4146341463414634
 40
0.4146341463414634
 40
0.4146341463414634
 40
0.4146341463414634
 40
0.4390243902439024
 40
0.4390243902439024
 40
0.4390243902439024
 40
0.4390243902439024
 40
0.4634146341463415
 40
0.4634146341463415
 40
0.4634146341463415
 40
0.4634146341463415
 40
0.4878048780487805
 40
0.4878048780487805
 40
0.4878048780487805
 40
0.4878048780487805
 40
0.5121951219512195
 40
0.5121951219512195
 40
0.5121951219512195
 40
0.5121951219512195
 40
0.5365853658536586
 40
0.5365853658536586
 40
0.5365853658536586
 40
0.5365853658536586
 40
0.5609756097560976
 40
0.5609756097560976
 40
0.5609756097560976
 40
0.5609756097560976
 40
0.5853658536585366
 40
0.5853658536585366
 40
0.5853658536585366
 40
0.5853658536585366
 40
0.6097560975609756
 40
0.6097560975609756
 40
0.6097560975609756
 40
0.6097560975609756
 40
0.6341463414634146
 40
0.6341463414634146
 40
0.6341463414634146
 40
0.6341463414634146
 40
0.6585365853658537
 40
0.6585365853658537
 40
0.6585365853658537
 40
0.6585365853658537
 40
0.6829268292682927
 40
0.6829268292682927
 40
0.6829268292682927
 40
0.6829268292682927
 40
0.7073170731707317
 40
0.7073170731707317
 40
0.7073170731707317
 40
0.7073170731707317
 40
0.7317073170731707
 40
0.7317073170731707
 40
0.7317073170731707
 40
0.7317073170731707
 40
0.7560975609756098
 40
0.7560975609756098
 40
0.7560975609756098
 40
0.7560975609756098
 40
0.7804878048780488
 40
0.7804878048780488
 40
0.7804878048780488
 40
0.7804878048780488
 40
0.8048780487804879
 40
0.8048780487804879
 40
0.8048780487804879
 40
0.8048780487804879
 40
0.8292682926829268
 40
0.8292682926829268
 40
0.8292682926829268
 40
0.8292682926829268
 40
0.8536585365853658
 40
0.8536585365853658
 40
0.8536585365853658
 40
0.8536585365853658
 40
0.8780487804878049
 40
0.8780487804878049
 40
0.8780487804878049
 40
0.8780487804878049
 40
0.9024390243902439
 40
0.9024390243902439
 40
0.9024390243902439
 40
0.9024390243902439
 40
0.926829268292683
 40
0.926829268292683
 40
0.926829268292683
 40
0.926829268292683
 40
0.9512195121951219
 40
0.9512195121951219
 40
0.9512195121951219
 40
0.9512195121951219
 40
1.0
 40
1.0
 40
1.0
 40
1.0
 10
79.1003
 20
25.7735
 30
0.0
 10
79.1003
 20
25.7735
 30
0.0
 10
86.5531
 20
22.6865
 30
0.0
 10
86.5531
 20
22.6865
 30
0.0
 10
86.5531
 20
22.6865
 30
0.0
 10
86.5531
 20
22.6865
 30
0.0
 10
84.749
 20
18.331
 30
0.0
 10
84.749
 20
18.331
 30
0.0
 10
84.749
 20
18.331
 30
0.0
 10
84.749
 20
18.331
 30
0.0
 10
87.5207
 20
17.1829
 30
0.0
 10
87.5207
 20
17.1829
 30
0.0
 10
87.5207
 20
17.1829
 30
0.0
 10
87.5207
 20
17.1829
 30
0.0
 10
89.3248
 20
21.5384
 30
0.0
 10
89.3248
 20
21.5384
 30
0.0
 10
89.3248
 20
21.5384
 30
0.0
 10
89.3248
 20
21.5384
 30
0.0
 10
96.7779
 20
18.4512
 30
0.0
 10
96.7779
 20
18.4512
 30
0.0
 10
96.7779
 20
18.4512
 30
0.0
 10
96.7779
 20
18.4512
 30
0.0
 10
99.8651
 20
10.9982
 30
0.0
 10
99.8651
 20
10.9982
 30
0.0
 10
99.8651
 20
10.9982
 30
0.0
 10
99.8651
 20
10.9982
 30
0.0
 10
95.5094
 20
9.194
 30
0.0
 10
95.5094
 20
9.194
 30
0.0
 10
95.5094
 20
9.194
 30
0.0
 10
95.5094
 20
9.194
 30
0.0
 10
96.6575
 20
6.4224
 30
0.0
 10
96.6575
 20
6.4224
 30
0.0
 10
96.6575
 20
6.4224
 30
0.0
 10
96.6575
 20
6.4224
 30
0.0
 10
101.0131
 20
8.2265
 30
0.0
 10
101.0131
 20
8.2265
 30
0.0
 10
101.0131
 20
8.2265
 30
0.0
 10
101.0131
 20
8.2265
 30
0.0
 10
104.1003
 20
0.7735
 30
0.0
 10
104.1003
 20
0.7735
 30
0.0
 10
104.1003
 20
0.7735
 30
0.0
 10
104.1003
 20
0.7735
 30
0.0
 10
101.0131
 20
-6.6796
 30
0.0
 10
101.0131
 20
-6.6796
 30
0.0
 10
101.0131
 20
-6.6796
 30
0.0
 10
101.0131
 20
-6.6796
 30
0.0
 10
96.6574
 20
-4.8754
 30
0.0
 10
96.6574
 20
-4.8754
 30
0.0
 10
96.6574
 20
-4.8754
 30
0.0
 10
96.6574
 20
-4.8754
 30
0.0
 10
95.5093
 20
-7.647
 30
0.0
 10
95.5093
 20
-7.647
 30
0.0
 10
95.5093
 20
-7.647
 30
0.0
 10
95.5093
 20
-7.647
 30
0.0
 10
99.865
 20
-9.4512
 30
0.0
 10
99.865
 20
-9.4512
 30
0.0
 10
99.865
 20
-9.4512
 30
0.0
 10
99.865
 20
-9.4512
 30
0.0
 10
96.7779
 20
-16.9042
 30
0.0
 10
96.7779
 20
-16.9042
 30
0.0
 10
96.7779
 20
-16.9042
 30
0.0
 10
96.7779
 20
-16.9042
 30
0.0
 10
89.3247
 20
-19.9914
 30
0.0
 10
89.3247
 20
-19.9914
 30
0.0
 10
89.3247
 20
-19.9914
 30
0.0
 10
89.3247
 20
-19.9914
 30
0.0
 10
87.5206
 20
-15.6359
 30
0.0
 10
87.5206
 20
-15.6359
 30
0.0
 10
87.5206
 20
-15.6359
 30
0.0
 10
87.5206
 20
-15.6359
 30
0.0
 10
84.7489
 20
-16.7839
 30
0.0
 10
84.7489
 20
-16.7839
 30
0.0
 10
84.7489
 20
-16.7839
 30
0.0
 10
84.7489
 20
-16.7839
 30
0.0
 10
86.553
 20
-21.1395
 30
0.0
 10
86.553
 20
-21.1395
 30
0.0
 10
86.553
 20
-21.1395
 30
0.0
 10
86.553
 20
-21.1395
 30
0.0
 10
79.1003
 20
-24.2265
 30
0.0
 10
79.1003
 20
-24.2265
 30
0.0
 10
79.1003
 20
-24.2265
 30
0.0
 10
79.1003
 20
-24.2265
 30
0.0
 10
71.6472
 20
-21.1394
 30
0.0
 10
71.6472
 20
-21.1394
 30
0.0
 10
71.6472
 20
-21.1394
 30
0.0
 10
71.6472
 20
-21.1394
 30
0.0
 10
73.4513
 20
-16.7839
 30
0.0
 10
73.4513
 20
-16.7839
 30
0.0
 10
73.4513
 20
-16.7839
 30
0.0
 10
73.4513
 20
-16.7839
 30
0.0
 10
70.6796
 20
-15.6359
 30
0.0
 10
70.6796
 20
-15.6359
 30
0.0
 10
70.6796
 20
-15.6359
 30
0.0
 10
70.6796
 20
-15.6359
 30
0.0
 10
68.8755
 20
-19.9913
 30
0.0
 10
68.8755
 20
-19.9913
 30
0.0
 10
68.8755
 20
-19.9913
 30
0.0
 10
68.8755
 20
-19.9913
 30
0.0
 10
61.4227
 20
-16.9042
 30
0.0
 10
61.4227
 20
-16.9042
 30
0.0
 10
61.4227
 20
-16.9042
 30
0.0
 10
61.4227
 20
-16.9042
 30
0.0
 10
58.3355
 20
-9.4511
 30
0.0
 10
58.3355
 20
-9.4511
 30
0.0
 10
58.3355
 20
-9.4511
 30
0.0
 10
58.3355
 20
-9.4511
 30
0.0
 10
62.6909
 20
-7.647
 30
0.0
 10
62.6909
 20
-7.647
 30
0.0
 10
62.6909
 20
-7.647
 30
0.0
 10
62.6909
 20
-7.647
 30
0.0
 10
61.5428
 20
-4.8754
 30
0.0
 10
61.5428
 20
-4.8754
 30
0.0
 10
61.5428
 20
-4.8754
 30
0.0
 10
61.5428
 20
-4.8754
 30
0.0
 10
57.1874
 20
-6.6794
 30
0.0
 10
57.1874
 20
-6.6794
 30
0.0
 10
57.1874
 20
-6.6794
 30
0.0
 10
57.1874
 20
-6.6794
 30
0.0
 10
54.1003
 20
0.7735
 30
0.0
 10
54.1003
 20
0.7735
 30
0.0
 10
54.1003
 20
0.7735
 30
0.0
 10
54.1003
 20
0.7735
 30
0.0
 10
57.1874
 20
8.2264
 30
0.0
 10
57.1874
 20
8.2264
 30
0.0
 10
57.1874
 20
8.2264
 30
0.0
 10
57.1874
 20
8.2264
 30
0.0
 10
61.5427
 20
6.4224
 30
0.0
 10
61.5427
 20
6.4224
 30
0.0
 10
61.5427
 20
6.4224
 30
0.0
 10
61.5427
 20
6.4224
 30
0.0
 10
62.6908
 20
9.194
 30
0.0
 10
62.6908
 20
9.194
 30
0.0
 10
62.6908
 20
9.194
 30
0.0
 10
62.6908
 20
9.194
 30
0.0
 10
58.3355
 20
10.998
 30
0.0
 10
58.3355
 20
10.998
 30
0.0
 10
58.3355
 20
10.998
 30
0.0
 10
58.3355
 20
10.998
 30
0.0
 10
61.4227
 20
18.4512
 30
0.0
 10
61.4227
 20
18.4512
 30
0.0
 10
61.4227
 20
18.4512
 30
0.0
 10
61.4227
 20
18.4512
 30
0.0
 10
68.8755
 20
21.5383
 30
0.0
 10
68.8755
 20
21.5383
 30
0.0
 10
68.8755
 20
21.5383
 30
0.0
 10
68.8755
 20
21.5383
 30
0.0
 10
70.6795
 20
17.1829
 30
0.0
 10
70.6795
 20
17.1829
 30
0.0
 10
70.6795
 20
17.1829
 30
0.0
 10
70.6795
 20
17.1829
 30
0.0
 10
73.4512
 20
18.331
 30
0.0
 10
73.4512
 20
18.331
 30
0.0
 10
73.4512
 20
18.331
 30
0.0
 10
73.4512
 20
18.331
 30
0.0
 10
71.6471
 20
22.6863
 30
0.0
 10
71.6471
 20
22.6863
 30
0.0
 10
71.6471
 20
22.6863
 30
0.0
 10
71.6471
 20
22.6863
 30
0.0
 10
79.1003
 20
25.7735
 30
0.0
 10
79.1003
 20
25.7735
 30
0.0
  0
SPLINE
  5
62
330
1F
100
AcDbEntity
  8
Capa 1
 62
   250
370
     9
100
AcDbSpline
210
0.0
220
0.0
230
1.0
 70
    11
 71
     3
 72
   164
 73
   160
 74
     0
 42
0.0000000001
 43
0.0000000001
 40
0.0
 40
0.0
 40
0.0
 40
0.0
 40
0.024390243902439
 40
0.024390243902439
 40
0.024390243902439
 40
0.024390243902439
 40
0.0487804878048781
 40
0.0487804878048781
 40
0.0487804878048781
 40
0.0487804878048781
 40
0.0731707317073171
 40
0.0731707317073171
 40
0.0731707317073171
 40
0.0731707317073171
 40
0.0975609756097561
 40
0.0975609756097561
 40
0.0975609756097561
 40
0.0975609756097561
 40
0.1219512195121951
 40
0.1219512195121951
 40
0.1219512195121951
 40
0.1219512195121951
 40
0.1463414634146341
 40
0.1463414634146341
 40
0.1463414634146341
 40
0.1463414634146341
 40
0.1707317073170732
 40
0.1707317073170732
 40
0.1707317073170732
 40
0.1707317073170732
 40
0.1951219512195122
 40
0.1951219512195122
 40
0.1951219512195122
 40
0.1951219512195122
 40
0.2195121951219512
 40
0.2195121951219512
 40
0.2195121951219512
 40
0.2195121951219512
 40
0.2439024390243902
 40
0.2439024390243902
 40
0.2439024390243902
 40
0.2439024390243902
 40
0.2682926829268293
 40
0.2682926829268293
 40
0.2682926829268293
 40
0.2682926829268293
 40
0.2926829268292683
 40
0.2926829268292683
 40
0.2926829268292683
 40
0.2926829268292683
 40
0.3170731707317073
 40
0.3170731707317073
 40
0.3170731707317073
 40
0.3170731707317073
 40
0.3414634146341464
 40
0.3414634146341464
 40
0.3414634146341464
 40
0.3414634146341464
 40
0.3658536585365854
 40
0.3658536585365854
 40
0.3658536585365854
 40
0.3658536585365854
 40
0.3902439024390244
 40
0.3902439024390244
 40
0.3902439024390244
 40
0.3902439024390244
 40
0.4146341463414634
 40
0.4146341463414634
 40
0.4146341463414634
 40
0.4146341463414634
 40
0.4390243902439024
 40
0.4390243902439024
 40
0.4390243902439024
 40
0.4390243902439024
 40
0.4634146341463415
 40
0.4634146341463415
 40
0.4634146341463415
 40
0.4634146341463415
 40
0.4878048780487805
 40
0.4878048780487805
 40
0.4878048780487805
 40
0.4878048780487805
 40
0.5121951219512195
 40
0.5121951219512195
 40
0.5121951219512195
 40
0.5121951219512195
 40
0.5365853658536586
 40
0.5365853658536586
 40
0.5365853658536586
 40
0.5365853658536586
 40
0.5609756097560976
 40
0.5609756097560976
 40
0.5609756097560976
 40
0.5609756097560976
 40
0.5853658536585366
 40
0.5853658536585366
 40
0.5853658536585366
 40
0.5853658536585366
 40
0.6097560975609756
 40
0.6097560975609756
 40
0.6097560975609756
 40
0.6097560975609756
 40
0.6341463414634146
 40
0.6341463414634146
 40
0.6341463414634146
 40
0.6341463414634146
 40
0.6585365853658537
 40
0.6585365853658537
 40
0.6585365853658537
 40
0.6585365853658537
 40
0.6829268292682927
 40
0.6829268292682927
 40
0.6829268292682927
 40
0.6829268292682927
 40
0.7073170731707317
 40
0.7073170731707317
 40
0.7073170731707317
 40
0.7073170731707317
 40
0.7317073170731707
 40
0.7317073170731707
 40
0.7317073170731707
 40
0.7317073170731707
 40
0.7560975609756098
 40
0.7560975609756098
 40
0.7560975609756098
 40
0.7560975609756098
 40
0.7804878048780488
 40
0.7804878048780488
 40
0.7804878048780488
 40
0.7804878048780488
 40
0.8048780487804879
 40
0.8048780487804879
 40
0.8048780487804879
 40
0.8048780487804879
 40
0.8292682926829268
 40
0.8292682926829268
 40
0.8292682926829268
 40
0.8292682926829268
 40
0.8536585365853658
 40
0.8536585365853658
 40
0.8536585365853658
 40
0.8536585365853658
 40
0.8780487804878049
 40
0.8780487804878049
 40
0.8780487804878049
 40
0.8780487804878049
 40
0.9024390243902439
 40
0.9024390243902439
 40
0.9024390243902439
 40
0.9024390243902439
 40
0.926829268292683
 40
0.926829268292683
 40
0.926829268292683
 40
0.926829268292683
 40
0.9512195121951219
 40
0.9512195121951219
 40
0.9512195121951219
 40
0.9512195121951219
 40
1.0
 40
1.0
 40
1.0
 40
1.0
 10
79.1003
 20
-26.614
 30
0.0
 10
79.1003
 20
-26.614
 30
0.0
 10
86.5531
 20
-29.701
 30
0.0
 10
86.5531
 20
-29.701
 30
0.0
 10
86.5531
 20
-29.701
 30
0.0
 10
86.5531
 20
-29.701
 30
0.0
 10
84.749
 20
-34.0565
 30
0.0
 10
84.749
 20
-34.0565
 30
0.0
 10
84.749
 20
-34.0565
 30
0.0
 10
84.749
 20
-34.0565
 30
0.0
 10
87.5207
 20
-35.2046
 30
0.0
 10
87.5207
 20
-35.2046
 30
0.0
 10
87.5207
 20
-35.2046
 30
0.0
 10
87.5207
 20
-35.2046
 30
0.0
 10
89.3248
 20
-30.8491
 30
0.0
 10
89.3248
 20
-30.8491
 30
0.0
 10
89.3248
 20
-30.8491
 30
0.0
 10
89.3248
 20
-30.8491
 30
0.0
 10
96.7779
 20
-33.9363
 30
0.0
 10
96.7779
 20
-33.9363
 30
0.0
 10
96.7779
 20
-33.9363
 30
0.0
 10
96.7779
 20
-33.9363
 30
0.0
 10
99.8651
 20
-41.3893
 30
0.0
 10
99.8651
 20
-41.3893
 30
0.0
 10
99.8651
 20
-41.3893
 30
0.0
 10
99.8651
 20
-41.3893
 30
0.0
 10
95.5094
 20
-43.1935
 30
0.0
 10
95.5094
 20
-43.1935
 30
0.0
 10
95.5094
 20
-43.1935
 30
0.0
 10
95.5094
 20
-43.1935
 30
0.0
 10
96.6575
 20
-45.9651
 30
0.0
 10
96.6575
 20
-45.9651
 30
0.0
 10
96.6575
 20
-45.9651
 30
0.0
 10
96.6575
 20
-45.9651
 30
0.0
 10
101.0131
 20
-44.161
 30
0.0
 10
101.0131
 20
-44.161
 30
0.0
 10
101.0131
 20
-44.161
 30
0.0
 10
101.0131
 20
-44.161
 30
0.0
 10
104.1003
 20
-51.614
 30
0.0
 10
104.1003
 20
-51.614
 30
0.0
 10
104.1003
 20
-51.614
 30
0.0
 10
104.1003
 20
-51.614
 30
0.0
 10
101.0131
 20
-59.0671
 30
0.0
 10
101.0131
 20
-59.0671
 30
0.0
 10
101.0131
 20
-59.0671
 30
0.0
 10
101.0131
 20
-59.0671
 30
0.0
 10
96.6574
 20
-57.2629
 30
0.0
 10
96.6574
 20
-57.2629
 30
0.0
 10
96.6574
 20
-57.2629
 30
0.0
 10
96.6574
 20
-57.2629
 30
0.0
 10
95.5093
 20
-60.0345
 30
0.0
 10
95.5093
 20
-60.0345
 30
0.0
 10
95.5093
 20
-60.0345
 30
0.0
 10
95.5093
 20
-60.0345
 30
0.0
 10
99.865
 20
-61.8387
 30
0.0
 10
99.865
 20
-61.8387
 30
0.0
 10
99.865
 20
-61.8387
 30
0.0
 10
99.865
 20
-61.8387
 30
0.0
 10
96.7779
 20
-69.2917
 30
0.0
 10
96.7779
 20
-69.2917
 30
0.0
 10
96.7779
 20
-69.2917
 30
0.0
 10
96.7779
 20
-69.2917
 30
0.0
 10
89.3247
 20
-72.3789
 30
0.0
 10
89.3247
 20
-72.3789
 30
0.0
 10
89.3247
 20
-72.3789
 30
0.0
 10
89.3247
 20
-72.3789
 30
0.0
 10
87.5206
 20
-68.0234
 30
0.0
 10
87.5206
 20
-68.0234
 30
0.0
 10
87.5206
 20
-68.0234
 30
0.0
 10
87.5206
 20
-68.0234
 30
0.0
 10
84.7489
 20
-69.1714
 30
0.0
 10
84.7489
 20
-69.1714
 30
0.0
 10
84.7489
 20
-69.1714
 30
0.0
 10
84.7489
 20
-69.1714
 30
0.0
 10
86.553
 20
-73.527
 30
0.0
 10
86.553
 20
-73.527
 30
0.0
 10
86.553
 20
-73.527
 30
0.0
 10
86.553
 20
-73.527
 30
0.0
 10
79.1003
 20
-76.614
 30
0.0
 10
79.1003
 20
-76.614
 30
0.0
 10
79.1003
 20
-76.614
 30
0.0
 10
79.1003
 20
-76.614
 30
0.0
 10
71.6472
 20
-73.5269
 30
0.0
 10
71.6472
 20
-73.5269
 30
0.0
 10
71.6472
 20
-73.5269
 30
0.0
 10
71.6472
 20
-73.5269
 30
0.0
 10
73.4513
 20
-69.1714
 30
0.0
 10
73.4513
 20
-69.1714
 30
0.0
 10
73.4513
 20
-69.1714
 30
0.0
 10
73.4513
 20
-69.1714
 30
0.0
 10
70.6796
 20
-68.0234
 30
0.0
 10
70.6796
 20
-68.0234
 30
0.0
 10
70.6796
 20
-68.0234
 30
0.0
 10
70.6796
 20
-68.0234
 30
0.0
 10
68.8755
 20
-72.3788
 30
0.0
 10
68.8755
 20
-72.3788
 30
0.0
 10
68.8755
 20
-72.3788
 30
0.0
 10
68.8755
 20
-72.3788
 30
0.0
 10
61.4227
 20
-69.2917
 30
0.0
 10
61.4227
 20
-69.2917
 30
0.0
 10
61.4227
 20
-69.2917
 30
0.0
 10
61.4227
 20
-69.2917
 30
0.0
 10
58.3355
 20
-61.8386
 30
0.0
 10
58.3355
 20
-61.8386
 30
0.0
 10
58.3355
 20
-61.8386
 30
0.0
 10
58.3355
 20
-61.8386
 30
0.0
 10
62.6909
 20
-60.0345
 30
0.0
 10
62.6909
 20
-60.0345
 30
0.0
 10
62.6909
 20
-60.0345
 30
0.0
 10
62.6909
 20
-60.0345
 30
0.0
 10
61.5428
 20
-57.2629
 30
0.0
 10
61.5428
 20
-57.2629
 30
0.0
 10
61.5428
 20
-57.2629
 30
0.0
 10
61.5428
 20
-57.2629
 30
0.0
 10
57.1874
 20
-59.0669
 30
0.0
 10
57.1874
 20
-59.0669
 30
0.0
 10
57.1874
 20
-59.0669
 30
0.0
 10
57.1874
 20
-59.0669
 30
0.0
 10
54.1003
 20
-51.614
 30
0.0
 10
54.1003
 20
-51.614
 30
0.0
 10
54.1003
 20
-51.614
 30
0.0
 10
54.1003
 20
-51.614
 30
0.0
 10
57.1874
 20
-44.1611
 30
0.0
 10
57.1874
 20
-44.1611
 30
0.0
 10
57.1874
 20
-44.1611
 30
0.0
 10
57.1874
 20
-44.1611
 30
0.0
 10
61.5427
 20
-45.9651
 30
0.0
 10
61.5427
 20
-45.9651
 30
0.0
 10
61.5427
 20
-45.9651
 30
0.0
 10
61.5427
 20
-45.9651
 30
0.0
 10
62.6908
 20
-43.1935
 30
0.0
 10
62.6908
 20
-43.1935
 30
0.0
 10
62.6908
 20
-43.1935
 30
0.0
 10
62.6908
 20
-43.1935
 30
0.0
 10
58.3355
 20
-41.3895
 30
0.0
 10
58.3355
 20
-41.3895
 30
0.0
 10
58.3355
 20
-41.3895
 30
0.0
 10
58.3355
 20
-41.3895
 30
0.0
 10
61.4227
 20
-33.9363
 30
0.0
 10
61.4227
 20
-33.9363
 30
0.0
 10
61.4227
 20
-33.9363
 30
0.0
 10
61.4227
 20
-33.9363
 30
0.0
 10
68.8755
 20
-30.8492
 30
0.0
 10
68.8755
 20
-30.8492
 30
0.0
 10
68.8755
 20
-30.8492
 30
0.0
 10
68.8755
 20
-30.8492
 30
0.0
 10
70.6795
 20
-35.2046
 30
0.0
 10
70.6795
 20
-35.2046
 30
0.0
 10
70.6795
 20
-35.2046
 30
0.0
 10
70.6795
 20
-35.2046
 30
0.0
 10
73.4512
 20
-34.0565
 30
0.0
 10
73.4512
 20
-34.0565
 30
0.0
 10
73.4512
 20
-34.0565
 30
0.0
 10
73.4512
 20
-34.0565
 30
0.0
 10
71.6471
 20
-29.7012
 30
0.0
 10
71.6471
 20
-29.7012
 30
0.0
 10
71.6471
 20
-29.7012
 30
0.0
 10
71.6471
 20
-29.7012
 30
0.0
 10
79.1003
 20
-26.614
 30
0.0
 10
79.1003
 20
-26.614
 30
0.0
  0
SPLINE
  5
63
330
1F
100
AcDbEntity
  8
Capa 1
 62
   250
370
     9
100
AcDbSpline
210
0.0
220
0.0
230
1.0
 70
    11
 71
     3
 72
   164
 73
   160
 74
     0
 42
0.0000000001
 43
0.0000000001
 40
0.0
 40
0.0
 40
0.0
 40
0.0
 40
0.024390243902439
 40
0.024390243902439
 40
0.024390243902439
 40
0.024390243902439
 40
0.0487804878048781
 40
0.0487804878048781
 40
0.0487804878048781
 40
0.0487804878048781
 40
0.0731707317073171
 40
0.0731707317073171
 40
0.0731707317073171
 40
0.0731707317073171
 40
0.0975609756097561
 40
0.0975609756097561
 40
0.0975609756097561
 40
0.0975609756097561
 40
0.1219512195121951
 40
0.1219512195121951
 40
0.1219512195121951
 40
0.1219512195121951
 40
0.1463414634146341
 40
0.1463414634146341
 40
0.1463414634146341
 40
0.1463414634146341
 40
0.1707317073170732
 40
0.1707317073170732
 40
0.1707317073170732
 40
0.1707317073170732
 40
0.1951219512195122
 40
0.1951219512195122
 40
0.1951219512195122
 40
0.1951219512195122
 40
0.2195121951219512
 40
0.2195121951219512
 40
0.2195121951219512
 40
0.2195121951219512
 40
0.2439024390243902
 40
0.2439024390243902
 40
0.2439024390243902
 40
0.2439024390243902
 40
0.2682926829268293
 40
0.2682926829268293
 40
0.2682926829268293
 40
0.2682926829268293
 40
0.2926829268292683
 40
0.2926829268292683
 40
0.2926829268292683
 40
0.2926829268292683
 40
0.3170731707317073
 40
0.3170731707317073
 40
0.3170731707317073
 40
0.3170731707317073
 40
0.3414634146341464
 40
0.3414634146341464
 40
0.3414634146341464
 40
0.3414634146341464
 40
0.3658536585365854
 40
0.3658536585365854
 40
0.3658536585365854
 40
0.3658536585365854
 40
0.3902439024390244
 40
0.3902439024390244
 40
0.3902439024390244
 40
0.3902439024390244
 40
0.4146341463414634
 40
0.4146341463414634
 40
0.4146341463414634
 40
0.4146341463414634
 40
0.4390243902439024
 40
0.4390243902439024
 40
0.4390243902439024
 40
0.4390243902439024
 40
0.4634146341463415
 40
0.4634146341463415
 40
0.4634146341463415
 40
0.4634146341463415
 40
0.4878048780487805
 40
0.4878048780487805
 40
0.4878048780487805
 40
0.4878048780487805
 40
0.5121951219512195
 40
0.5121951219512195
 40
0.5121951219512195
 40
0.5121951219512195
 40
0.5365853658536586
 40
0.5365853658536586
 40
0.5365853658536586
 40
0.5365853658536586
 40
0.5609756097560976
 40
0.5609756097560976
 40
0.5609756097560976
 40
0.5609756097560976
 40
0.5853658536585366
 40
0.5853658536585366
 40
0.5853658536585366
 40
0.5853658536585366
 40
0.6097560975609756
 40
0.6097560975609756
 40
0.6097560975609756
 40
0.6097560975609756
 40
0.6341463414634146
 40
0.6341463414634146
 40
0.6341463414634146
 40
0.6341463414634146
 40
0.6585365853658537
 40
0.6585365853658537
 40
0.6585365853658537
 40
0.6585365853658537
 40
0.6829268292682927
 40
0.6829268292682927
 40
0.6829268292682927
 40
0.6829268292682927
 40
0.7073170731707317
 40
0.7073170731707317
 40
0.7073170731707317
 40
0.7073170731707317
 40
0.7317073170731707
 40
0.7317073170731707
 40
0.7317073170731707
 40
0.7317073170731707
 40
0.7560975609756098
 40
0.7560975609756098
 40
0.7560975609756098
 40
0.7560975609756098
 40
0.7804878048780488
 40
0.7804878048780488
 40
0.7804878048780488
 40
0.7804878048780488
 40
0.8048780487804879
 40
0.8048780487804879
 40
0.8048780487804879
 40
0.8048780487804879
 40
0.8292682926829268
 40
0.8292682926829268
 40
0.8292682926829268
 40
0.8292682926829268
 40
0.8536585365853658
 40
0.8536585365853658
 40
0.8536585365853658
 40
0.8536585365853658
 40
0.8780487804878049
 40
0.8780487804878049
 40
0.8780487804878049
 40
0.8780487804878049
 40
0.9024390243902439
 40
0.9024390243902439
 40
0.9024390243902439
 40
0.9024390243902439
 40
0.926829268292683
 40
0.926829268292683
 40
0.926829268292683
 40
0.926829268292683
 40
0.9512195121951219
 40
0.9512195121951219
 40
0.9512195121951219
 40
0.9512195121951219
 40
1.0
 40
1.0
 40
1.0
 40
1.0
 10
79.1003
 20
-79.4015
 30
0.0
 10
79.1003
 20
-79.4015
 30
0.0
 10
86.5531
 20
-82.4885
 30
0.0
 10
86.5531
 20
-82.4885
 30
0.0
 10
86.5531
 20
-82.4885
 30
0.0
 10
86.5531
 20
-82.4885
 30
0.0
 10
84.749
 20
-86.844
 30
0.0
 10
84.749
 20
-86.844
 30
0.0
 10
84.749
 20
-86.844
 30
0.0
 10
84.749
 20
-86.844
 30
0.0
 10
87.5207
 20
-87.9921
 30
0.0
 10
87.5207
 20
-87.9921
 30
0.0
 10
87.5207
 20
-87.9921
 30
0.0
 10
87.5207
 20
-87.9921
 30
0.0
 10
89.3248
 20
-83.6366
 30
0.0
 10
89.3248
 20
-83.6366
 30
0.0
 10
89.3248
 20
-83.6366
 30
0.0
 10
89.3248
 20
-83.6366
 30
0.0
 10
96.7779
 20
-86.7238
 30
0.0
 10
96.7779
 20
-86.7238
 30
0.0
 10
96.7779
 20
-86.7238
 30
0.0
 10
96.7779
 20
-86.7238
 30
0.0
 10
99.8651
 20
-94.1768
 30
0.0
 10
99.8651
 20
-94.1768
 30
0.0
 10
99.8651
 20
-94.1768
 30
0.0
 10
99.8651
 20
-94.1768
 30
0.0
 10
95.5094
 20
-95.981
 30
0.0
 10
95.5094
 20
-95.981
 30
0.0
 10
95.5094
 20
-95.981
 30
0.0
 10
95.5094
 20
-95.981
 30
0.0
 10
96.6575
 20
-98.7526
 30
0.0
 10
96.6575
 20
-98.7526
 30
0.0
 10
96.6575
 20
-98.7526
 30
0.0
 10
96.6575
 20
-98.7526
 30
0.0
 10
101.0131
 20
-96.9485
 30
0.0
 10
101.0131
 20
-96.9485
 30
0.0
 10
101.0131
 20
-96.9485
 30
0.0
 10
101.0131
 20
-96.9485
 30
0.0
 10
104.1003
 20
-104.4015
 30
0.0
 10
104.1003
 20
-104.4015
 30
0.0
 10
104.1003
 20
-104.4015
 30
0.0
 10
104.1003
 20
-104.4015
 30
0.0
 10
101.0131
 20
-111.8546
 30
0.0
 10
101.0131
 20
-111.8546
 30
0.0
 10
101.0131
 20
-111.8546
 30
0.0
 10
101.0131
 20
-111.8546
 30
0.0
 10
96.6574
 20
-110.0504
 30
0.0
 10
96.6574
 20
-110.0504
 30
0.0
 10
96.6574
 20
-110.0504
 30
0.0
 10
96.6574
 20
-110.0504
 30
0.0
 10
95.5093
 20
-112.822
 30
0.0
 10
95.5093
 20
-112.822
 30
0.0
 10
95.5093
 20
-112.822
 30
0.0
 10
95.5093
 20
-112.822
 30
0.0
 10
99.865
 20
-114.6262
 30
0.0
 10
99.865
 20
-114.6262
 30
0.0
 10
99.865
 20
-114.6262
 30
0.0
 10
99.865
 20
-114.6262
 30
0.0
 10
96.7779
 20
-122.0792
 30
0.0
 10
96.7779
 20
-122.0792
 30
0.0
 10
96.7779
 20
-122.0792
 30
0.0
 10
96.7779
 20
-122.0792
 30
0.0
 10
89.3247
 20
-125.1664
 30
0.0
 10
89.3247
 20
-125.1664
 30
0.0
 10
89.3247
 20
-125.1664
 30
0.0
 10
89.3247
 20
-125.1664
 30
0.0
 10
87.5206
 20
-120.8109
 30
0.0
 10
87.5206
 20
-120.8109
 30
0.0
 10
87.5206
 20
-120.8109
 30
0.0
 10
87.5206
 20
-120.8109
 30
0.0
 10
84.7489
 20
-121.9589
 30
0.0
 10
84.7489
 20
-121.9589
 30
0.0
 10
84.7489
 20
-121.9589
 30
0.0
 10
84.7489
 20
-121.9589
 30
0.0
 10
86.553
 20
-126.3145
 30
0.0
 10
86.553
 20
-126.3145
 30
0.0
 10
86.553
 20
-126.3145
 30
0.0
 10
86.553
 20
-126.3145
 30
0.0
 10
79.1003
 20
-129.4015
 30
0.0
 10
79.1003
 20
-129.4015
 30
0.0
 10
79.1003
 20
-129.4015
 30
0.0
 10
79.1003
 20
-129.4015
 30
0.0
 10
71.6472
 20
-126.3144
 30
0.0
 10
71.6472
 20
-126.3144
 30
0.0
 10
71.6472
 20
-126.3144
 30
0.0
 10
71.6472
 20
-126.3144
 30
0.0
 10
73.4513
 20
-121.9589
 30
0.0
 10
73.4513
 20
-121.9589
 30
0.0
 10
73.4513
 20
-121.9589
 30
0.0
 10
73.4513
 20
-121.9589
 30
0.0
 10
70.6796
 20
-120.8109
 30
0.0
 10
70.6796
 20
-120.8109
 30
0.0
 10
70.6796
 20
-120.8109
 30
0.0
 10
70.6796
 20
-120.8109
 30
0.0
 10
68.8755
 20
-125.1663
 30
0.0
 10
68.8755
 20
-125.1663
 30
0.0
 10
68.8755
 20
-125.1663
 30
0.0
 10
68.8755
 20
-125.1663
 30
0.0
 10
61.4227
 20
-122.0792
 30
0.0
 10
61.4227
 20
-122.0792
 30
0.0
 10
61.4227
 20
-122.0792
 30
0.0
 10
61.4227
 20
-122.0792
 30
0.0
 10
58.3355
 20
-114.6261
 30
0.0
 10
58.3355
 20
-114.6261
 30
0.0
 10
58.3355
 20
-114.6261
 30
0.0
 10
58.3355
 20
-114.6261
 30
0.0
 10
62.6909
 20
-112.822
 30
0.0
 10
62.6909
 20
-112.822
 30
0.0
 10
62.6909
 20
-112.822
 30
0.0
 10
62.6909
 20
-112.822
 30
0.0
 10
61.5428
 20
-110.0504
 30
0.0
 10
61.5428
 20
-110.0504
 30
0.0
 10
61.5428
 20
-110.0504
 30
0.0
 10
61.5428
 20
-110.0504
 30
0.0
 10
57.1874
 20
-111.8544
 30
0.0
 10
57.1874
 20
-111.8544
 30
0.0
 10
57.1874
 20
-111.8544
 30
0.0
 10
57.1874
 20
-111.8544
 30
0.0
 10
54.1003
 20
-104.4015
 30
0.0
 10
54.1003
 20
-104.4015
 30
0.0
 10
54.1003
 20
-104.4015
 30
0.0
 10
54.1003
 20
-104.4015
 30
0.0
 10
57.1874
 20
-96.9486
 30
0.0
 10
57.1874
 20
-96.9486
 30
0.0
 10
57.1874
 20
-96.9486
 30
0.0
 10
57.1874
 20
-96.9486
 30
0.0
 10
61.5427
 20
-98.7526
 30
0.0
 10
61.5427
 20
-98.7526
 30
0.0
 10
61.5427
 20
-98.7526
 30
0.0
 10
61.5427
 20
-98.7526
 30
0.0
 10
62.6908
 20
-95.981
 30
0.0
 10
62.6908
 20
-95.981
 30
0.0
 10
62.6908
 20
-95.981
 30
0.0
 10
62.6908
 20
-95.981
 30
0.0
 10
58.3355
 20
-94.177
 30
0.0
 10
58.3355
 20
-94.177
 30
0.0
 10
58.3355
 20
-94.177
 30
0.0
 10
58.3355
 20
-94.177
 30
0.0
 10
61.4227
 20
-86.7238
 30
0.0
 10
61.4227
 20
-86.7238
 30
0.0
 10
61.4227
 20
-86.7238
 30
0.0
 10
61.4227
 20
-86.7238
 30
0.0
 10
68.8755
 20
-83.6367
 30
0.0
 10
68.8755
 20
-83.6367
 30
0.0
 10
68.8755
 20
-83.6367
 30
0.0
 10
68.8755
 20
-83.6367
 30
0.0
 10
70.6795
 20
-87.9921
 30
0.0
 10
70.6795
 20
-87.9921
 30
0.0
 10
70.6795
 20
-87.9921
 30
0.0
 10
70.6795
 20
-87.9921
 30
0.0
 10
73.4512
 20
-86.844
 30
0.0
 10
73.4512
 20
-86.844
 30
0.0
 10
73.4512
 20
-86.844
 30
0.0
 10
73.4512
 20
-86.844
 30
0.0
 10
71.6471
 20
-82.4887
 30
0.0
 10
71.6471
 20
-82.4887
 30
0.0
 10
71.6471
 20
-82.4887
 30
0.0
 10
71.6471
 20
-82.4887
 30
0.0
 10
79.1003
 20
-79.4015
 30
0.0
 10
79.1003
 20
-79.4015
 30
0.0
  0
SPLINE
  5
64
330
1F
100
AcDbEntity
  8
Capa 1
 62
   250
370
     9
100
AcDbSpline
210
0.0
220
0.0
230
1.0
 70
    11
 71
     3
 72
    68
 73
    64
 74
     0
 42
0.0000000001
 43
0.0000000001
 40
0.0
 40
0.0
 40
0.0
 40
0.0
 40
0.0588235294117647
 40
0.0588235294117647
 40
0.0588235294117647
 40
0.0588235294117647
 40
0.1176470588235294
 40
0.1176470588235294
 40
0.1176470588235294
 40
0.1176470588235294
 40
0.1764705882352941
 40
0.1764705882352941
 40
0.1764705882352941
 40
0.1764705882352941
 40
0.2352941176470588
 40
0.2352941176470588
 40
0.2352941176470588
 40
0.2352941176470588
 40
0.2941176470588235
 40
0.2941176470588235
 40
0.2941176470588235
 40
0.2941176470588235
 40
0.3529411764705883
 40
0.3529411764705883
 40
0.3529411764705883
 40
0.3529411764705883
 40
0.4117647058823529
 40
0.4117647058823529
 40
0.4117647058823529
 40
0.4117647058823529
 40
0.4705882352941176
 40
0.4705882352941176
 40
0.4705882352941176
 40
0.4705882352941176
 40
0.5294117647058824
 40
0.5294117647058824
 40
0.5294117647058824
 40
0.5294117647058824
 40
0.5882352941176471
 40
0.5882352941176471
 40
0.5882352941176471
 40
0.5882352941176471
 40
0.6470588235294118
 40
0.6470588235294118
 40
0.6470588235294118
 40
0.6470588235294118
 40
0.7058823529411765
 40
0.7058823529411765
 40
0.7058823529411765
 40
0.7058823529411765
 40
0.7647058823529411
 40
0.7647058823529411
 40
0.7647058823529411
 40
0.7647058823529411
 40
0.8235294117647058
 40
0.8235294117647058
 40
0.8235294117647058
 40
0.8235294117647058
 40
0.8823529411764706
 40
0.8823529411764706
 40
0.8823529411764706
 40
0.8823529411764706
 40
1.0
 40
1.0
 40
1.0
 40
1.0
 10
91.511
 20
-0.7265
 30
0.0
 10
90.8288
 20
-6.4309
 30
0.0
 10
86.3048
 20
-10.9543
 30
0.0
 10
80.6003
 20
-11.6366
 30
0.0
 10
80.6003
 20
-11.6366
 30
0.0
 10
80.6003
 20
-11.6366
 30
0.0
 10
80.6003
 20
-7.0121
 30
0.0
 10
80.6003
 20
-7.0121
 30
0.0
 10
80.6003
 20
-7.0121
 30
0.0
 10
80.6003
 20
-7.0121
 30
0.0
 10
77.6003
 20
-7.0121
 30
0.0
 10
77.6003
 20
-7.0121
 30
0.0
 10
77.6003
 20
-7.0121
 30
0.0
 10
77.6003
 20
-7.0121
 30
0.0
 10
77.6003
 20
-11.6366
 30
0.0
 10
77.6003
 20
-11.6366
 30
0.0
 10
77.6003
 20
-11.6366
 30
0.0
 10
71.8958
 20
-10.9543
 30
0.0
 10
67.3718
 20
-6.4309
 30
0.0
 10
66.6896
 20
-0.7265
 30
0.0
 10
66.6896
 20
-0.7265
 30
0.0
 10
66.6896
 20
-0.7265
 30
0.0
 10
71.3147
 20
-0.7265
 30
0.0
 10
71.3147
 20
-0.7265
 30
0.0
 10
71.3147
 20
-0.7265
 30
0.0
 10
71.3147
 20
-0.7265
 30
0.0
 10
71.3147
 20
2.2735
 30
0.0
 10
71.3147
 20
2.2735
 30
0.0
 10
71.3147
 20
2.2735
 30
0.0
 10
71.3147
 20
2.2735
 30
0.0
 10
66.6896
 20
2.2735
 30
0.0
 10
66.6896
 20
2.2735
 30
0.0
 10
66.6896
 20
2.2735
 30
0.0
 10
67.3718
 20
7.9779
 30
0.0
 10
71.8958
 20
12.5013
 30
0.0
 10
77.6003
 20
13.1836
 30
0.0
 10
77.6003
 20
13.1836
 30
0.0
 10
77.6003
 20
13.1836
 30
0.0
 10
77.6003
 20
8.5591
 30
0.0
 10
77.6003
 20
8.5591
 30
0.0
 10
77.6003
 20
8.5591
 30
0.0
 10
77.6003
 20
8.5591
 30
0.0
 10
80.6003
 20
8.5591
 30
0.0
 10
80.6003
 20
8.5591
 30
0.0
 10
80.6003
 20
8.5591
 30
0.0
 10
80.6003
 20
8.5591
 30
0.0
 10
80.6003
 20
13.1836
 30
0.0
 10
80.6003
 20
13.1836
 30
0.0
 10
80.6003
 20
13.1836
 30
0.0
 10
86.3048
 20
12.5013
 30
0.0
 10
90.8288
 20
7.9779
 30
0.0
 10
91.511
 20
2.2735
 30
0.0
 10
91.511
 20
2.2735
 30
0.0
 10
91.511
 20
2.2735
 30
0.0
 10
86.8859
 20
2.2735
 30
0.0
 10
86.8859
 20
2.2735
 30
0.0
 10
86.8859
 20
2.2735
 30
0.0
 10
86.8859
 20
2.2735
 30
0.0
 10
86.8859
 20
-0.7265
 30
0.0
 10
86.8859
 20
-0.7265
 30
0.0
 10
86.8859
 20
-0.7265
 30
0.0
 10
86.8859
 20
-0.7265
 30
0.0
 10
91.511
 20
-0.7265
 30
0.0
 10
91.511
 20
-0.7265
 30
0.0
  0
SPLINE
  5
65
330
1F
100
AcDbEntity
  8
Capa 1
 62
   250
370
     9
100
AcDbSpline
210
0.0
220
0.0
230
1.0
 70
    11
 71
     3
 72
    68
 73
    64
 74
     0
 42
0.0000000001
 43
0.0000000001
 40
0.0
 40
0.0
 40
0.0
 40
0.0
 40
0.0588235294117647
 40
0.0588235294117647
 40
0.0588235294117647
 40
0.0588235294117647
 40
0.1176470588235294
 40
0.1176470588235294
 40
0.1176470588235294
 40
0.1176470588235294
 40
0.1764705882352941
 40
0.1764705882352941
 40
0.1764705882352941
 40
0.1764705882352941
 40
0.2352941176470588
 40
0.2352941176470588
 40
0.2352941176470588
 40
0.2352941176470588
 40
0.2941176470588235
 40
0.2941176470588235
 40
0.2941176470588235
 40
0.2941176470588235
 40
0.3529411764705883
 40
0.3529411764705883
 40
0.3529411764705883
 40
0.3529411764705883
 40
0.4117647058823529
 40
0.4117647058823529
 40
0.4117647058823529
 40
0.4117647058823529
 40
0.4705882352941176
 40
0.4705882352941176
 40
0.4705882352941176
 40
0.4705882352941176
 40
0.5294117647058824
 40
0.5294117647058824
 40
0.5294117647058824
 40
0.5294117647058824
 40
0.5882352941176471
 40
0.5882352941176471
 40
0.5882352941176471
 40
0.5882352941176471
 40
0.6470588235294118
 40
0.6470588235294118
 40
0.6470588235294118
 40
0.6470588235294118
 40
0.7058823529411765
 40
0.7058823529411765
 40
0.7058823529411765
 40
0.7058823529411765
 40
0.7647058823529411
 40
0.7647058823529411
 40
0.7647058823529411
 40
0.7647058823529411
 40
0.8235294117647058
 40
0.8235294117647058
 40
0.8235294117647058
 40
0.8235294117647058
 40
0.8823529411764706
 40
0.8823529411764706
 40
0.8823529411764706
 40
0.8823529411764706
 40
1.0
 40
1.0
 40
1.0
 40
1.0
 10
91.511
 20
51.7902
 30
0.0
 10
90.8288
 20
46.0858
 30
0.0
 10
86.3048
 20
41.5624
 30
0.0
 10
80.6003
 20
40.8801
 30
0.0
 10
80.6003
 20
40.8801
 30
0.0
 10
80.6003
 20
40.8801
 30
0.0
 10
80.6003
 20
45.5046
 30
0.0
 10
80.6003
 20
45.5046
 30
0.0
 10
80.6003
 20
45.5046
 30
0.0
 10
80.6003
 20
45.5046
 30
0.0
 10
77.6003
 20
45.5046
 30
0.0
 10
77.6003
 20
45.5046
 30
0.0
 10
77.6003
 20
45.5046
 30
0.0
 10
77.6003
 20
45.5046
 30
0.0
 10
77.6003
 20
40.8801
 30
0.0
 10
77.6003
 20
40.8801
 30
0.0
 10
77.6003
 20
40.8801
 30
0.0
 10
71.8958
 20
41.5624
 30
0.0
 10
67.3718
 20
46.0858
 30
0.0
 10
66.6896
 20
51.7902
 30
0.0
 10
66.6896
 20
51.7902
 30
0.0
 10
66.6896
 20
51.7902
 30
0.0
 10
71.3147
 20
51.7902
 30
0.0
 10
71.3147
 20
51.7902
 30
0.0
 10
71.3147
 20
51.7902
 30
0.0
 10
71.3147
 20
51.7902
 30
0.0
 10
71.3147
 20
54.7902
 30
0.0
 10
71.3147
 20
54.7902
 30
0.0
 10
71.3147
 20
54.7902
 30
0.0
 10
71.3147
 20
54.7902
 30
0.0
 10
66.6896
 20
54.7902
 30
0.0
 10
66.6896
 20
54.7902
 30
0.0
 10
66.6896
 20
54.7902
 30
0.0
 10
67.3718
 20
60.4946
 30
0.0
 10
71.8958
 20
65.018
 30
0.0
 10
77.6003
 20
65.7003
 30
0.0
 10
77.6003
 20
65.7003
 30
0.0
 10
77.6003
 20
65.7003
 30
0.0
 10
77.6003
 20
61.0758
 30
0.0
 10
77.6003
 20
61.0758
 30
0.0
 10
77.6003
 20
61.0758
 30
0.0
 10
77.6003
 20
61.0758
 30
0.0
 10
80.6003
 20
61.0758
 30
0.0
 10
80.6003
 20
61.0758
 30
0.0
 10
80.6003
 20
61.0758
 30
0.0
 10
80.6003
 20
61.0758
 30
0.0
 10
80.6003
 20
65.7003
 30
0.0
 10
80.6003
 20
65.7003
 30
0.0
 10
80.6003
 20
65.7003
 30
0.0
 10
86.3048
 20
65.018
 30
0.0
 10
90.8288
 20
60.4946
 30
0.0
 10
91.511
 20
54.7902
 30
0.0
 10
91.511
 20
54.7902
 30
0.0
 10
91.511
 20
54.7902
 30
0.0
 10
86.8859
 20
54.7902
 30
0.0
 10
86.8859
 20
54.7902
 30
0.0
 10
86.8859
 20
54.7902
 30
0.0
 10
86.8859
 20
54.7902
 30
0.0
 10
86.8859
 20
51.7902
 30
0.0
 10
86.8859
 20
51.7902
 30
0.0
 10
86.8859
 20
51.7902
 30
0.0
 10
86.8859
 20
51.7902
 30
0.0
 10
91.511
 20
51.7902
 30
0.0
 10
91.511
 20
51.7902
 30
0.0
  0
SPLINE
  5
66
330
1F
100
AcDbEntity
  8
Capa 1
 62
   250
370
     9
100
AcDbSpline
210
0.0
220
0.0
230
1.0
 70
    11
 71
     3
 72
   132
 73
   128
 74
     0
 42
0.0000000001
 43
0.0000000001
 40
0.0
 40
0.0
 40
0.0
 40
0.0
 40
0.0303030303030303
 40
0.0303030303030303
 40
0.0303030303030303
 40
0.0303030303030303
 40
0.0606060606060606
 40
0.0606060606060606
 40
0.0606060606060606
 40
0.0606060606060606
 40
0.0909090909090909
 40
0.0909090909090909
 40
0.0909090909090909
 40
0.0909090909090909
 40
0.1212121212121212
 40
0.1212121212121212
 40
0.1212121212121212
 40
0.1212121212121212
 40
0.1515151515151515
 40
0.1515151515151515
 40
0.1515151515151515
 40
0.1515151515151515
 40
0.1818181818181818
 40
0.1818181818181818
 40
0.1818181818181818
 40
0.1818181818181818
 40
0.2121212121212121
 40
0.2121212121212121
 40
0.2121212121212121
 40
0.2121212121212121
 40
0.2424242424242424
 40
0.2424242424242424
 40
0.2424242424242424
 40
0.2424242424242424
 40
0.2727272727272727
 40
0.2727272727272727
 40
0.2727272727272727
 40
0.2727272727272727
 40
0.303030303030303
 40
0.303030303030303
 40
0.303030303030303
 40
0.303030303030303
 40
0.3333333333333333
 40
0.3333333333333333
 40
0.3333333333333333
 40
0.3333333333333333
 40
0.3636363636363636
 40
0.3636363636363636
 40
0.3636363636363636
 40
0.3636363636363636
 40
0.3939393939393939
 40
0.3939393939393939
 40
0.3939393939393939
 40
0.3939393939393939
 40
0.4242424242424243
 40
0.4242424242424243
 40
0.4242424242424243
 40
0.4242424242424243
 40
0.4545454545454545
 40
0.4545454545454545
 40
0.4545454545454545
 40
0.4545454545454545
 40
0.4848484848484849
 40
0.4848484848484849
 40
0.4848484848484849
 40
0.4848484848484849
 40
0.5151515151515151
 40
0.5151515151515151
 40
0.5151515151515151
 40
0.5151515151515151
 40
0.5454545454545454
 40
0.5454545454545454
 40
0.5454545454545454
 40
0.5454545454545454
 40
0.5757575757575758
 40
0.5757575757575758
 40
0.5757575757575758
 40
0.5757575757575758
 40
0.6060606060606061
 40
0.6060606060606061
 40
0.6060606060606061
 40
0.6060606060606061
 40
0.6363636363636364
 40
0.6363636363636364
 40
0.6363636363636364
 40
0.6363636363636364
 40
0.6666666666666666
 40
0.6666666666666666
 40
0.6666666666666666
 40
0.6666666666666666
 40
0.696969696969697
 40
0.696969696969697
 40
0.696969696969697
 40
0.696969696969697
 40
0.7272727272727273
 40
0.7272727272727273
 40
0.7272727272727273
 40
0.7272727272727273
 40
0.7575757575757576
 40
0.7575757575757576
 40
0.7575757575757576
 40
0.7575757575757576
 40
0.7878787878787878
 40
0.7878787878787878
 40
0.7878787878787878
 40
0.7878787878787878
 40
0.8181818181818182
 40
0.8181818181818182
 40
0.8181818181818182
 40
0.8181818181818182
 40
0.8484848484848485
 40
0.8484848484848485
 40
0.8484848484848485
 40
0.8484848484848485
 40
0.8787878787878788
 40
0.8787878787878788
 40
0.8787878787878788
 40
0.8787878787878788
 40
0.9090909090909091
 40
0.9090909090909091
 40
0.9090909090909091
 40
0.9090909090909091
 40
0.9393939393939394
 40
0.9393939393939394
 40
0.9393939393939394
 40
0.9393939393939394
 40
1.0
 40
1.0
 40
1.0
 40
1.0
 10
91.511
 20
104.1777
 30
0.0
 10
91.2325
 20
101.8491
 30
0.0
 10
90.3138
 20
99.7173
 30
0.0
 10
88.9359
 20
97.9634
 30
0.0
 10
88.9359
 20
97.9634
 30
0.0
 10
88.9359
 20
97.9634
 30
0.0
 10
85.6789
 20
101.2204
 30
0.0
 10
85.6789
 20
101.2204
 30
0.0
 10
85.6789
 20
101.2204
 30
0.0
 10
85.6789
 20
101.2204
 30
0.0
 10
83.5576
 20
99.0991
 30
0.0
 10
83.5576
 20
99.0991
 30
0.0
 10
83.5576
 20
99.0991
 30
0.0
 10
83.5576
 20
99.0991
 30
0.0
 10
86.8144
 20
95.8423
 30
0.0
 10
86.8144
 20
95.8423
 30
0.0
 10
86.8144
 20
95.8423
 30
0.0
 10
85.0603
 20
94.4648
 30
0.0
 10
82.9287
 20
93.5461
 30
0.0
 10
80.6003
 20
93.2676
 30
0.0
 10
80.6003
 20
93.2676
 30
0.0
 10
80.6003
 20
93.2676
 30
0.0
 10
80.6003
 20
97.8921
 30
0.0
 10
80.6003
 20
97.8921
 30
0.0
 10
80.6003
 20
97.8921
 30
0.0
 10
80.6003
 20
97.8921
 30
0.0
 10
77.6003
 20
97.8921
 30
0.0
 10
77.6003
 20
97.8921
 30
0.0
 10
77.6003
 20
97.8921
 30
0.0
 10
77.6003
 20
97.8921
 30
0.0
 10
77.6003
 20
93.2676
 30
0.0
 10
77.6003
 20
93.2676
 30
0.0
 10
77.6003
 20
93.2676
 30
0.0
 10
75.2718
 20
93.5461
 30
0.0
 10
73.1403
 20
94.4647
 30
0.0
 10
71.3862
 20
95.8423
 30
0.0
 10
71.3862
 20
95.8423
 30
0.0
 10
71.3862
 20
95.8423
 30
0.0
 10
74.643
 20
99.0991
 30
0.0
 10
74.643
 20
99.0991
 30
0.0
 10
74.643
 20
99.0991
 30
0.0
 10
74.643
 20
99.0991
 30
0.0
 10
72.5217
 20
101.2204
 30
0.0
 10
72.5217
 20
101.2204
 30
0.0
 10
72.5217
 20
101.2204
 30
0.0
 10
72.5217
 20
101.2204
 30
0.0
 10
69.2647
 20
97.9634
 30
0.0
 10
69.2647
 20
97.9634
 30
0.0
 10
69.2647
 20
97.9634
 30
0.0
 10
67.8869
 20
99.7174
 30
0.0
 10
66.9681
 20
101.8491
 30
0.0
 10
66.6896
 20
104.1777
 30
0.0
 10
66.6896
 20
104.1777
 30
0.0
 10
66.6896
 20
104.1777
 30
0.0
 10
71.3147
 20
104.1777
 30
0.0
 10
71.3147
 20
104.1777
 30
0.0
 10
71.3147
 20
104.1777
 30
0.0
 10
71.3147
 20
104.1777
 30
0.0
 10
71.3147
 20
107.1777
 30
0.0
 10
71.3147
 20
107.1777
 30
0.0
 10
71.3147
 20
107.1777
 30
0.0
 10
71.3147
 20
107.1777
 30
0.0
 10
66.6896
 20
107.1777
 30
0.0
 10
66.6896
 20
107.1777
 30
0.0
 10
66.6896
 20
107.1777
 30
0.0
 10
66.9681
 20
109.5063
 30
0.0
 10
67.8868
 20
111.6381
 30
0.0
 10
69.2647
 20
113.392
 30
0.0
 10
69.2647
 20
113.392
 30
0.0
 10
69.2647
 20
113.392
 30
0.0
 10
72.5217
 20
110.135
 30
0.0
 10
72.5217
 20
110.135
 30
0.0
 10
72.5217
 20
110.135
 30
0.0
 10
72.5217
 20
110.135
 30
0.0
 10
74.643
 20
112.2563
 30
0.0
 10
74.643
 20
112.2563
 30
0.0
 10
74.643
 20
112.2563
 30
0.0
 10
74.643
 20
112.2563
 30
0.0
 10
71.3862
 20
115.5131
 30
0.0
 10
71.3862
 20
115.5131
 30
0.0
 10
71.3862
 20
115.5131
 30
0.0
 10
73.1403
 20
116.8906
 30
0.0
 10
75.2719
 20
117.8093
 30
0.0
 10
77.6003
 20
118.0878
 30
0.0
 10
77.6003
 20
118.0878
 30
0.0
 10
77.6003
 20
118.0878
 30
0.0
 10
77.6003
 20
113.4633
 30
0.0
 10
77.6003
 20
113.4633
 30
0.0
 10
77.6003
 20
113.4633
 30
0.0
 10
77.6003
 20
113.4633
 30
0.0
 10
80.6003
 20
113.4633
 30
0.0
 10
80.6003
 20
113.4633
 30
0.0
 10
80.6003
 20
113.4633
 30
0.0
 10
80.6003
 20
113.4633
 30
0.0
 10
80.6003
 20
118.0878
 30
0.0
 10
80.6003
 20
118.0878
 30
0.0
 10
80.6003
 20
118.0878
 30
0.0
 10
82.9288
 20
117.8093
 30
0.0
 10
85.0603
 20
116.8907
 30
0.0
 10
86.8144
 20
115.5131
 30
0.0
 10
86.8144
 20
115.5131
 30
0.0
 10
86.8144
 20
115.5131
 30
0.0
 10
83.5576
 20
112.2563
 30
0.0
 10
83.5576
 20
112.2563
 30
0.0
 10
83.5576
 20
112.2563
 30
0.0
 10
83.5576
 20
112.2563
 30
0.0
 10
85.6789
 20
110.135
 30
0.0
 10
85.6789
 20
110.135
 30
0.0
 10
85.6789
 20
110.135
 30
0.0
 10
85.6789
 20
110.135
 30
0.0
 10
88.9359
 20
113.392
 30
0.0
 10
88.9359
 20
113.392
 30
0.0
 10
88.9359
 20
113.392
 30
0.0
 10
90.3137
 20
111.638
 30
0.0
 10
91.2325
 20
109.5063
 30
0.0
 10
91.511
 20
107.1777
 30
0.0
 10
91.511
 20
107.1777
 30
0.0
 10
91.511
 20
107.1777
 30
0.0
 10
86.8859
 20
107.1777
 30
0.0
 10
86.8859
 20
107.1777
 30
0.0
 10
86.8859
 20
107.1777
 30
0.0
 10
86.8859
 20
107.1777
 30
0.0
 10
86.8859
 20
104.1777
 30
0.0
 10
86.8859
 20
104.1777
 30
0.0
 10
86.8859
 20
104.1777
 30
0.0
 10
86.8859
 20
104.1777
 30
0.0
 10
91.511
 20
104.1777
 30
0.0
 10
91.511
 20
104.1777
 30
0.0
  0
SPLINE
  5
67
330
1F
100
AcDbEntity
  8
Capa 1
 62
   250
370
     9
100
AcDbSpline
210
0.0
220
0.0
230
1.0
 70
    11
 71
     3
 72
   132
 73
   128
 74
     0
 42
0.0000000001
 43
0.0000000001
 40
0.0
 40
0.0
 40
0.0
 40
0.0
 40
0.0303030303030303
 40
0.0303030303030303
 40
0.0303030303030303
 40
0.0303030303030303
 40
0.0606060606060606
 40
0.0606060606060606
 40
0.0606060606060606
 40
0.0606060606060606
 40
0.0909090909090909
 40
0.0909090909090909
 40
0.0909090909090909
 40
0.0909090909090909
 40
0.1212121212121212
 40
0.1212121212121212
 40
0.1212121212121212
 40
0.1212121212121212
 40
0.1515151515151515
 40
0.1515151515151515
 40
0.1515151515151515
 40
0.1515151515151515
 40
0.1818181818181818
 40
0.1818181818181818
 40
0.1818181818181818
 40
0.1818181818181818
 40
0.2121212121212121
 40
0.2121212121212121
 40
0.2121212121212121
 40
0.2121212121212121
 40
0.2424242424242424
 40
0.2424242424242424
 40
0.2424242424242424
 40
0.2424242424242424
 40
0.2727272727272727
 40
0.2727272727272727
 40
0.2727272727272727
 40
0.2727272727272727
 40
0.303030303030303
 40
0.303030303030303
 40
0.303030303030303
 40
0.303030303030303
 40
0.3333333333333333
 40
0.3333333333333333
 40
0.3333333333333333
 40
0.3333333333333333
 40
0.3636363636363636
 40
0.3636363636363636
 40
0.3636363636363636
 40
0.3636363636363636
 40
0.3939393939393939
 40
0.3939393939393939
 40
0.3939393939393939
 40
0.3939393939393939
 40
0.4242424242424243
 40
0.4242424242424243
 40
0.4242424242424243
 40
0.4242424242424243
 40
0.4545454545454545
 40
0.4545454545454545
 40
0.4545454545454545
 40
0.4545454545454545
 40
0.4848484848484849
 40
0.4848484848484849
 40
0.4848484848484849
 40
0.4848484848484849
 40
0.5151515151515151
 40
0.5151515151515151
 40
0.5151515151515151
 40
0.5151515151515151
 40
0.5454545454545454
 40
0.5454545454545454
 40
0.5454545454545454
 40
0.5454545454545454
 40
0.5757575757575758
 40
0.5757575757575758
 40
0.5757575757575758
 40
0.5757575757575758
 40
0.6060606060606061
 40
0.6060606060606061
 40
0.6060606060606061
 40
0.6060606060606061
 40
0.6363636363636364
 40
0.6363636363636364
 40
0.6363636363636364
 40
0.6363636363636364
 40
0.6666666666666666
 40
0.6666666666666666
 40
0.6666666666666666
 40
0.6666666666666666
 40
0.696969696969697
 40
0.696969696969697
 40
0.696969696969697
 40
0.696969696969697
 40
0.7272727272727273
 40
0.7272727272727273
 40
0.7272727272727273
 40
0.7272727272727273
 40
0.7575757575757576
 40
0.7575757575757576
 40
0.7575757575757576
 40
0.7575757575757576
 40
0.7878787878787878
 40
0.7878787878787878
 40
0.7878787878787878
 40
0.7878787878787878
 40
0.8181818181818182
 40
0.8181818181818182
 40
0.8181818181818182
 40
0.8181818181818182
 40
0.8484848484848485
 40
0.8484848484848485
 40
0.8484848484848485
 40
0.8484848484848485
 40
0.8787878787878788
 40
0.8787878787878788
 40
0.8787878787878788
 40
0.8787878787878788
 40
0.9090909090909091
 40
0.9090909090909091
 40
0.9090909090909091
 40
0.9090909090909091
 40
0.9393939393939394
 40
0.9393939393939394
 40
0.9393939393939394
 40
0.9393939393939394
 40
1.0
 40
1.0
 40
1.0
 40
1.0
 10
91.511
 20
-53.114
 30
0.0
 10
91.2325
 20
-55.4426
 30
0.0
 10
90.3138
 20
-57.5744
 30
0.0
 10
88.9359
 20
-59.3283
 30
0.0
 10
88.9359
 20
-59.3283
 30
0.0
 10
88.9359
 20
-59.3283
 30
0.0
 10
85.6789
 20
-56.0713
 30
0.0
 10
85.6789
 20
-56.0713
 30
0.0
 10
85.6789
 20
-56.0713
 30
0.0
 10
85.6789
 20
-56.0713
 30
0.0
 10
83.5576
 20
-58.1926
 30
0.0
 10
83.5576
 20
-58.1926
 30
0.0
 10
83.5576
 20
-58.1926
 30
0.0
 10
83.5576
 20
-58.1926
 30
0.0
 10
86.8144
 20
-61.4494
 30
0.0
 10
86.8144
 20
-61.4494
 30
0.0
 10
86.8144
 20
-61.4494
 30
0.0
 10
85.0603
 20
-62.8269
 30
0.0
 10
82.9287
 20
-63.7456
 30
0.0
 10
80.6003
 20
-64.0241
 30
0.0
 10
80.6003
 20
-64.0241
 30
0.0
 10
80.6003
 20
-64.0241
 30
0.0
 10
80.6003
 20
-59.3996
 30
0.0
 10
80.6003
 20
-59.3996
 30
0.0
 10
80.6003
 20
-59.3996
 30
0.0
 10
80.6003
 20
-59.3996
 30
0.0
 10
77.6003
 20
-59.3996
 30
0.0
 10
77.6003
 20
-59.3996
 30
0.0
 10
77.6003
 20
-59.3996
 30
0.0
 10
77.6003
 20
-59.3996
 30
0.0
 10
77.6003
 20
-64.0241
 30
0.0
 10
77.6003
 20
-64.0241
 30
0.0
 10
77.6003
 20
-64.0241
 30
0.0
 10
75.2718
 20
-63.7456
 30
0.0
 10
73.1403
 20
-62.827
 30
0.0
 10
71.3862
 20
-61.4494
 30
0.0
 10
71.3862
 20
-61.4494
 30
0.0
 10
71.3862
 20
-61.4494
 30
0.0
 10
74.643
 20
-58.1926
 30
0.0
 10
74.643
 20
-58.1926
 30
0.0
 10
74.643
 20
-58.1926
 30
0.0
 10
74.643
 20
-58.1926
 30
0.0
 10
72.5217
 20
-56.0713
 30
0.0
 10
72.5217
 20
-56.0713
 30
0.0
 10
72.5217
 20
-56.0713
 30
0.0
 10
72.5217
 20
-56.0713
 30
0.0
 10
69.2647
 20
-59.3283
 30
0.0
 10
69.2647
 20
-59.3283
 30
0.0
 10
69.2647
 20
-59.3283
 30
0.0
 10
67.8869
 20
-57.5743
 30
0.0
 10
66.9681
 20
-55.4426
 30
0.0
 10
66.6896
 20
-53.114
 30
0.0
 10
66.6896
 20
-53.114
 30
0.0
 10
66.6896
 20
-53.114
 30
0.0
 10
71.3147
 20
-53.114
 30
0.0
 10
71.3147
 20
-53.114
 30
0.0
 10
71.3147
 20
-53.114
 30
0.0
 10
71.3147
 20
-53.114
 30
0.0
 10
71.3147
 20
-50.114
 30
0.0
 10
71.3147
 20
-50.114
 30
0.0
 10
71.3147
 20
-50.114
 30
0.0
 10
71.3147
 20
-50.114
 30
0.0
 10
66.6896
 20
-50.114
 30
0.0
 10
66.6896
 20
-50.114
 30
0.0
 10
66.6896
 20
-50.114
 30
0.0
 10
66.9681
 20
-47.7854
 30
0.0
 10
67.8868
 20
-45.6536
 30
0.0
 10
69.2647
 20
-43.8997
 30
0.0
 10
69.2647
 20
-43.8997
 30
0.0
 10
69.2647
 20
-43.8997
 30
0.0
 10
72.5217
 20
-47.1567
 30
0.0
 10
72.5217
 20
-47.1567
 30
0.0
 10
72.5217
 20
-47.1567
 30
0.0
 10
72.5217
 20
-47.1567
 30
0.0
 10
74.643
 20
-45.0354
 30
0.0
 10
74.643
 20
-45.0354
 30
0.0
 10
74.643
 20
-45.0354
 30
0.0
 10
74.643
 20
-45.0354
 30
0.0
 10
71.3862
 20
-41.7786
 30
0.0
 10
71.3862
 20
-41.7786
 30
0.0
 10
71.3862
 20
-41.7786
 30
0.0
 10
73.1403
 20
-40.4011
 30
0.0
 10
75.2719
 20
-39.4824
 30
0.0
 10
77.6003
 20
-39.2039
 30
0.0
 10
77.6003
 20
-39.2039
 30
0.0
 10
77.6003
 20
-39.2039
 30
0.0
 10
77.6003
 20
-43.8284
 30
0.0
 10
77.6003
 20
-43.8284
 30
0.0
 10
77.6003
 20
-43.8284
 30
0.0
 10
77.6003
 20
-43.8284
 30
0.0
 10
80.6003
 20
-43.8284
 30
0.0
 10
80.6003
 20
-43.8284
 30
0.0
 10
80.6003
 20
-43.8284
 30
0.0
 10
80.6003
 20
-43.8284
 30
0.0
 10
80.6003
 20
-39.2039
 30
0.0
 10
80.6003
 20
-39.2039
 30
0.0
 10
80.6003
 20
-39.2039
 30
0.0
 10
82.9288
 20
-39.4824
 30
0.0
 10
85.0603
 20
-40.401
 30
0.0
 10
86.8144
 20
-41.7786
 30
0.0
 10
86.8144
 20
-41.7786
 30
0.0
 10
86.8144
 20
-41.7786
 30
0.0
 10
83.5576
 20
-45.0354
 30
0.0
 10
83.5576
 20
-45.0354
 30
0.0
 10
83.5576
 20
-45.0354
 30
0.0
 10
83.5576
 20
-45.0354
 30
0.0
 10
85.6789
 20
-47.1567
 30
0.0
 10
85.6789
 20
-47.1567
 30
0.0
 10
85.6789
 20
-47.1567
 30
0.0
 10
85.6789
 20
-47.1567
 30
0.0
 10
88.9359
 20
-43.8997
 30
0.0
 10
88.9359
 20
-43.8997
 30
0.0
 10
88.9359
 20
-43.8997
 30
0.0
 10
90.3137
 20
-45.6537
 30
0.0
 10
91.2325
 20
-47.7854
 30
0.0
 10
91.511
 20
-50.114
 30
0.0
 10
91.511
 20
-50.114
 30
0.0
 10
91.511
 20
-50.114
 30
0.0
 10
86.8859
 20
-50.114
 30
0.0
 10
86.8859
 20
-50.114
 30
0.0
 10
86.8859
 20
-50.114
 30
0.0
 10
86.8859
 20
-50.114
 30
0.0
 10
86.8859
 20
-53.114
 30
0.0
 10
86.8859
 20
-53.114
 30
0.0
 10
86.8859
 20
-53.114
 30
0.0
 10
86.8859
 20
-53.114
 30
0.0
 10
91.511
 20
-53.114
 30
0.0
 10
91.511
 20
-53.114
 30
0.0
  0
SPLINE
  5
68
330
1F
100
AcDbEntity
  8
Capa 1
 62
   250
370
     9
100
AcDbSpline
210
0.0
220
0.0
230
1.0
 70
    11
 71
     3
 72
    68
 73
    64
 74
     0
 42
0.0000000001
 43
0.0000000001
 40
0.0
 40
0.0
 40
0.0
 40
0.0
 40
0.0588235294117647
 40
0.0588235294117647
 40
0.0588235294117647
 40
0.0588235294117647
 40
0.1176470588235294
 40
0.1176470588235294
 40
0.1176470588235294
 40
0.1176470588235294
 40
0.1764705882352941
 40
0.1764705882352941
 40
0.1764705882352941
 40
0.1764705882352941
 40
0.2352941176470588
 40
0.2352941176470588
 40
0.2352941176470588
 40
0.2352941176470588
 40
0.2941176470588235
 40
0.2941176470588235
 40
0.2941176470588235
 40
0.2941176470588235
 40
0.3529411764705883
 40
0.3529411764705883
 40
0.3529411764705883
 40
0.3529411764705883
 40
0.4117647058823529
 40
0.4117647058823529
 40
0.4117647058823529
 40
0.4117647058823529
 40
0.4705882352941176
 40
0.4705882352941176
 40
0.4705882352941176
 40
0.4705882352941176
 40
0.5294117647058824
 40
0.5294117647058824
 40
0.5294117647058824
 40
0.5294117647058824
 40
0.5882352941176471
 40
0.5882352941176471
 40
0.5882352941176471
 40
0.5882352941176471
 40
0.6470588235294118
 40
0.6470588235294118
 40
0.6470588235294118
 40
0.6470588235294118
 40
0.7058823529411765
 40
0.7058823529411765
 40
0.7058823529411765
 40
0.7058823529411765
 40
0.7647058823529411
 40
0.7647058823529411
 40
0.7647058823529411
 40
0.7647058823529411
 40
0.8235294117647058
 40
0.8235294117647058
 40
0.8235294117647058
 40
0.8235294117647058
 40
0.8823529411764706
 40
0.8823529411764706
 40
0.8823529411764706
 40
0.8823529411764706
 40
1.0
 40
1.0
 40
1.0
 40
1.0
 10
91.511
 20
-105.9015
 30
0.0
 10
90.8288
 20
-111.6059
 30
0.0
 10
86.3048
 20
-116.1293
 30
0.0
 10
80.6003
 20
-116.8116
 30
0.0
 10
80.6003
 20
-116.8116
 30
0.0
 10
80.6003
 20
-116.8116
 30
0.0
 10
80.6003
 20
-112.1871
 30
0.0
 10
80.6003
 20
-112.1871
 30
0.0
 10
80.6003
 20
-112.1871
 30
0.0
 10
80.6003
 20
-112.1871
 30
0.0
 10
77.6003
 20
-112.1871
 30
0.0
 10
77.6003
 20
-112.1871
 30
0.0
 10
77.6003
 20
-112.1871
 30
0.0
 10
77.6003
 20
-112.1871
 30
0.0
 10
77.6003
 20
-116.8116
 30
0.0
 10
77.6003
 20
-116.8116
 30
0.0
 10
77.6003
 20
-116.8116
 30
0.0
 10
71.8958
 20
-116.1293
 30
0.0
 10
67.3718
 20
-111.6059
 30
0.0
 10
66.6896
 20
-105.9015
 30
0.0
 10
66.6896
 20
-105.9015
 30
0.0
 10
66.6896
 20
-105.9015
 30
0.0
 10
71.3147
 20
-105.9015
 30
0.0
 10
71.3147
 20
-105.9015
 30
0.0
 10
71.3147
 20
-105.9015
 30
0.0
 10
71.3147
 20
-105.9015
 30
0.0
 10
71.3147
 20
-102.9015
 30
0.0
 10
71.3147
 20
-102.9015
 30
0.0
 10
71.3147
 20
-102.9015
 30
0.0
 10
71.3147
 20
-102.9015
 30
0.0
 10
66.6896
 20
-102.9015
 30
0.0
 10
66.6896
 20
-102.9015
 30
0.0
 10
66.6896
 20
-102.9015
 30
0.0
 10
67.3718
 20
-97.1971
 30
0.0
 10
71.8958
 20
-92.6737
 30
0.0
 10
77.6003
 20
-91.9914
 30
0.0
 10
77.6003
 20
-91.9914
 30
0.0
 10
77.6003
 20
-91.9914
 30
0.0
 10
77.6003
 20
-96.6159
 30
0.0
 10
77.6003
 20
-96.6159
 30
0.0
 10
77.6003
 20
-96.6159
 30
0.0
 10
77.6003
 20
-96.6159
 30
0.0
 10
80.6003
 20
-96.6159
 30
0.0
 10
80.6003
 20
-96.6159
 30
0.0
 10
80.6003
 20
-96.6159
 30
0.0
 10
80.6003
 20
-96.6159
 30
0.0
 10
80.6003
 20
-91.9914
 30
0.0
 10
80.6003
 20
-91.9914
 30
0.0
 10
80.6003
 20
-91.9914
 30
0.0
 10
86.3048
 20
-92.6737
 30
0.0
 10
90.8288
 20
-97.1971
 30
0.0
 10
91.511
 20
-102.9015
 30
0.0
 10
91.511
 20
-102.9015
 30
0.0
 10
91.511
 20
-102.9015
 30
0.0
 10
86.8859
 20
-102.9015
 30
0.0
 10
86.8859
 20
-102.9015
 30
0.0
 10
86.8859
 20
-102.9015
 30
0.0
 10
86.8859
 20
-102.9015
 30
0.0
 10
86.8859
 20
-105.9015
 30
0.0
 10
86.8859
 20
-105.9015
 30
0.0
 10
86.8859
 20
-105.9015
 30
0.0
 10
86.8859
 20
-105.9015
 30
0.0
 10
91.511
 20
-105.9015
 30
0.0
 10
91.511
 20
-105.9015
 30
0.0
  0
ENDSEC
  0
SECTION
  2
OBJECTS
  0
DICTIONARY
  5
C
330
0
100
AcDbDictionary
281
     1
  3
ACAD_GROUP
350
D
  3
ACAD_LAYOUT
350
1A
  3
ACAD_MATERIAL
350
3B
  3
ACAD_MLEADERSTYLE
350
8A
  3
ACAD_MLINESTYLE
350
17
  3
ACAD_PLOTSETTINGS
350
19
  3
ACAD_PLOTSTYLENAME
350
E
  3
ACAD_TABLESTYLE
350
89
  3
ACAD_VISUALSTYLE
350
2A
  0
DICTIONARY
  5
D
102
{ACAD_REACTORS
330
C
102
}
330
C
100
AcDbDictionary
281
     1
  0
DICTIONARY
  5
1A
102
{ACAD_REACTORS
330
C
102
}
330
C
100
AcDbDictionary
281
     1
  3
Layout1
350
1E
  3
Layout2
350
26
  3
Model
350
22
  0
DICTIONARY
  5
3B
102
{ACAD_REACTORS
330
C
102
}
330
C
100
AcDbDictionary
281
     1
  3
ByBlock
350
3D
  3
ByLayer
350
3C
  3
Global
350
3E
  0
DICTIONARY
  5
8A
102
{ACAD_REACTORS
330
C
102
}
330
C
100
AcDbDictionary
281
     1
  0
DICTIONARY
  5
17
102
{ACAD_REACTORS
330
C
102
}
330
C
100
AcDbDictionary
281
     1
  3
Standard
350
18
  0
DICTIONARY
  5
19
102
{ACAD_REACTORS
330
C
102
}
330
C
100
AcDbDictionary
281
     1
  0
ACDBDICTIONARYWDFLT
  5
E
102
{ACAD_REACTORS
330
C
102
}
330
C
100
AcDbDictionary
281
     1
  3
Normal
350
F
100
AcDbDictionaryWithDefault
340
F
  0
DICTIONARY
  5
89
102
{ACAD_REACTORS
330
C
102
}
330
C
100
AcDbDictionary
281
     1
  0
DICTIONARY
  5
2A
102
{ACAD_REACTORS
330
C
102
}
330
C
100
AcDbDictionary
281
     1
  3
2dWireframe
350
2F
  3
3D Hidden
350
31
  3
3dWireframe
350
30
  3
Basic
350
32
  3
Brighten
350
36
  3
ColorChange
350
3A
  3
Conceptual
350
34
  3
Dim
350
35
  3
Facepattern
350
39
  3
Flat
350
2B
  3
FlatWithEdges
350
2C
  3
Gouraud
350
2D
  3
GouraudWithEdges
350
2E
  3
Linepattern
350
38
  3
Realistic
350
33
  3
Thicken
350
37
  0
LAYOUT
  5
1E
102
{ACAD_REACTORS
330
1A
102
}
330
1A
100
AcDbPlotSettings
  1

  2
none_device
  4

  6

 40
0.0
 41
0.0
 42
0.0
 43
0.0
 44
0.0
 45
0.0
 46
0.0
 47
0.0
 48
0.0
 49
0.0
140
0.0
141
0.0
142
1.0
143
1.0
 70
   688
 72
     0
 73
     0
 74
     5
  7

 75
    16
 76
     0
 77
     2
 78
   300
147
1.0
148
0.0
149
0.0
100
AcDbLayout
  1
Layout1
 70
     1
 71
     1
 10
0.0
 20
0.0
 11
12.0
 21
9.0
 12
0.0
 22
0.0
 32
0.0
 14
1.000000000000000E+20
 24
1.000000000000000E+20
 34
1.000000000000000E+20
 15
-1.000000000000000E+20
 25
-1.000000000000000E+20
 35
-1.000000000000000E+20
146
0.0
 13
0.0
 23
0.0
 33
0.0
 16
1.0
 26
0.0
 36
0.0
 17
0.0
 27
1.0
 37
0.0
 76
     0
330
1B
  0
LAYOUT
  5
26
102
{ACAD_REACTORS
330
1A
102
}
330
1A
100
AcDbPlotSettings
  1

  2
none_device
  4

  6

 40
0.0
 41
0.0
 42
0.0
 43
0.0
 44
0.0
 45
0.0
 46
0.0
 47
0.0
 48
0.0
 49
0.0
140
0.0
141
0.0
142
1.0
143
1.0
 70
   688
 72
     0
 73
     0
 74
     5
  7

 75
    16
 76
     0
 77
     2
 78
   300
147
1.0
148
0.0
149
0.0
100
AcDbLayout
  1
Layout2
 70
     1
 71
     2
 10
0.0
 20
0.0
 11
0.0
 21
0.0
 12
0.0
 22
0.0
 32
0.0
 14
0.0
 24
0.0
 34
0.0
 15
0.0
 25
0.0
 35
0.0
146
0.0
 13
0.0
 23
0.0
 33
0.0
 16
1.0
 26
0.0
 36
0.0
 17
0.0
 27
1.0
 37
0.0
 76
     0
330
23
  0
LAYOUT
  5
22
102
{ACAD_REACTORS
330
1A
102
}
330
1A
100
AcDbPlotSettings
  1

  2
none_device
  4

  6

 40
0.0
 41
0.0
 42
0.0
 43
0.0
 44
0.0
 45
0.0
 46
0.0
 47
0.0
 48
0.0
 49
0.0
140
0.0
141
0.0
142
1.0
143
1.0
 70
  1712
 72
     0
 73
     0
 74
     0
  7

 75
     0
 76
     0
 77
     2
 78
   300
147
1.0
148
0.0
149
0.0
100
AcDbLayout
  1
Model
 70
     1
 71
     0
 10
0.0
 20
0.0
 11
12.0
 21
9.0
 12
0.0
 22
0.0
 32
0.0
 14
-103.0348
 24
-129.4427
 34
0.0
 15
104.1415
 25
130.7189
 35
0.0
146
0.0
 13
0.0
 23
0.0
 33
0.0
 16
1.0
 26
0.0
 36
0.0
 17
0.0
 27
1.0
 37
0.0
 76
     0
330
1F
331
29
  0
MATERIAL
  5
3D
102
{ACAD_REACTORS
330
3B
102
}
330
3B
100
AcDbMaterial
  1
ByBlock
 72
     1
 94
      127
  0
MATERIAL
  5
3C
102
{ACAD_REACTORS
330
3B
102
}
330
3B
100
AcDbMaterial
  1
ByLayer
 72
     1
 94
      127
  0
MATERIAL
  5
3E
102
{ACAD_REACTORS
330
3B
102
}
330
3B
100
AcDbMaterial
  1
Global
 72
     1
 94
      127
  0
MLINESTYLE
  5
18
102
{ACAD_REACTORS
330
17
102
}
330
17
100
AcDbMlineStyle
  2
Standard
 70
     0
  3

 62
   256
 51
90.0
 52
90.0
 71
     2
 49
0.5
 62
   256
  6
BYLAYER
 49
-0.5
 62
   256
  6
BYLAYER
  0
ACDBPLACEHOLDER
  5
F
102
{ACAD_REACTORS
330
E
102
}
330
E
  0
VISUALSTYLE
  5
2F
102
{ACAD_REACTORS
330
2A
102
}
102
{ACAD_XDICTIONARY
360
71
102
}
330
2A
100
AcDbVisualStyle
  2
2dWireframe
 70
     4
 71
     0
 72
     2
 73
     0
 90
        0
 40
-0.6
 41
-30.0
 62
     5
 63
     7
421
 16777215
 74
     1
 91
        4
 64
     7
 65
   257
 75
     1
175
     1
 42
1.0
 92
        0
 66
   257
 43
1.0
 76
     1
 77
     6
 78
     2
 67
     7
 79
     5
170
     0
171
     0
290
     0
174
     0
 93
        1
 44
0.0
173
     0
291
     0
 45
0.0
  0
VISUALSTYLE
  5
31
102
{ACAD_REACTORS
330
2A
102
}
102
{ACAD_XDICTIONARY
360
75
102
}
330
2A
100
AcDbVisualStyle
  2
3D Hidden
 70
     6
 71
     1
 72
     2
 73
     2
 90
        0
 40
-0.6
 41
-30.0
 62
     5
 63
     7
421
 16777215
 74
     2
 91
        2
 64
     7
 65
   257
 75
     2
175
     1
 42
40.0
 92
        0
 66
   257
 43
1.0
 76
     1
 77
     6
 78
     2
 67
     7
 79
     3
170
     0
171
     0
290
     0
174
     0
 93
        1
 44
0.0
173
     0
291
     0
 45
0.0
  0
VISUALSTYLE
  5
30
102
{ACAD_REACTORS
330
2A
102
}
102
{ACAD_XDICTIONARY
360
73
102
}
330
2A
100
AcDbVisualStyle
  2
3dWireframe
 70
     5
 71
     0
 72
     2
 73
     0
 90
        0
 40
-0.6
 41
-30.0
 62
     5
 63
     7
421
 16777215
 74
     1
 91
        4
 64
     7
 65
   257
 75
     1
175
     1
 42
1.0
 92
        0
 66
   257
 43
1.0
 76
     1
 77
     6
 78
     2
 67
     7
 79
     5
170
     0
171
     0
290
     0
174
     0
 93
        1
 44
0.0
173
     0
291
     0
 45
0.0
  0
VISUALSTYLE
  5
32
102
{ACAD_REACTORS
330
2A
102
}
102
{ACAD_XDICTIONARY
360
77
102
}
330
2A
100
AcDbVisualStyle
  2
Basic
 70
     7
 71
     1
 72
     0
 73
     1
 90
        0
 40
-0.6
 41
-30.0
 62
     5
 63
     7
421
 16777215
 74
     0
 91
        4
 64
     7
 65
   257
 75
     1
175
     1
 42
1.0
 92
        8
 66
     7
 43
1.0
 76
     1
 77
     6
 78
     2
 67
     7
 79
     5
170
     0
171
     0
290
     0
174
     0
 93
        1
 44
0.0
173
     0
291
     1
 45
0.0
  0
VISUALSTYLE
  5
36
102
{ACAD_REACTORS
330
2A
102
}
102
{ACAD_XDICTIONARY
360
7F
102
}
330
2A
100
AcDbVisualStyle
  2
Brighten
 70
    12
 71
     2
 72
     2
 73
     0
 90
        0
 40
-0.6
 41
-30.0
 62
     5
 63
     7
421
 16777215
 74
     1
 91
        4
 64
     7
 65
   257
 75
     1
175
     1
 42
1.0
 92
        8
 66
     7
 43
1.0
 76
     1
 77
     6
 78
     2
 67
     7
 79
     5
170
     0
171
     0
290
     0
174
     0
 93
        1
 44
50.0
173
     0
291
     1
 45
0.0
  0
VISUALSTYLE
  5
3A
102
{ACAD_REACTORS
330
2A
102
}
102
{ACAD_XDICTIONARY
360
87
102
}
330
2A
100
AcDbVisualStyle
  2
ColorChange
 70
    16
 71
     2
 72
     2
 73
     3
 90
        0
 40
-0.6
 41
-30.0
 62
     5
 63
     8
421
  8421504
 74
     1
 91
        4
 64
     7
 65
   257
 75
     1
175
     1
 42
1.0
 92
        8
 66
     8
424
  8421504
 43
1.0
 76
     1
 77
     6
 78
     2
 67
     7
 79
     5
170
     0
171
     0
290
     0
174
     0
 93
        1
 44
0.0
173
     0
291
     1
 45
0.0
  0
VISUALSTYLE
  5
34
102
{ACAD_REACTORS
330
2A
102
}
102
{ACAD_XDICTIONARY
360
7B
102
}
330
2A
100
AcDbVisualStyle
  2
Conceptual
 70
     9
 71
     3
 72
     2
 73
     0
 90
        0
 40
-0.6
 41
-30.0
 62
     5
 63
     7
421
 16777215
 74
     2
 91
        2
 64
     7
 65
   257
 75
     1
175
     1
 42
40.0
 92
        8
 66
     7
 43
1.0
 76
     1
 77
     6
 78
     2
 67
     7
 79
     3
170
     0
171
     0
290
     0
174
     0
 93
        1
 44
0.0
173
     0
291
     0
 45
0.0
  0
VISUALSTYLE
  5
35
102
{ACAD_REACTORS
330
2A
102
}
102
{ACAD_XDICTIONARY
360
7D
102
}
330
2A
100
AcDbVisualStyle
  2
Dim
 70
    11
 71
     2
 72
     2
 73
     0
 90
        0
 40
-0.6
 41
-30.0
 62
     5
 63
     7
421
 16777215
 74
     1
 91
        4
 64
     7
 65
   257
 75
     1
175
     1
 42
1.0
 92
        8
 66
     7
 43
1.0
 76
     1
 77
     6
 78
     2
 67
     7
 79
     5
170
     0
171
     0
290
     0
174
     0
 93
        1
 44
-50.0
173
     0
291
     1
 45
0.0
  0
VISUALSTYLE
  5
39
102
{ACAD_REACTORS
330
2A
102
}
102
{ACAD_XDICTIONARY
360
85
102
}
330
2A
100
AcDbVisualStyle
  2
Facepattern
 70
    15
 71
     2
 72
     2
 73
     0
 90
        0
 40
-0.6
 41
-30.0
 62
     5
 63
     7
421
 16777215
 74
     1
 91
        4
 64
     7
 65
   257
 75
     1
175
     1
 42
1.0
 92
        8
 66
     7
 43
1.0
 76
     1
 77
     6
 78
     2
 67
     7
 79
     5
170
     0
171
     0
290
     0
174
     0
 93
        1
 44
0.0
173
     0
291
     1
 45
0.0
  0
VISUALSTYLE
  5
2B
102
{ACAD_REACTORS
330
2A
102
}
102
{ACAD_XDICTIONARY
360
69
102
}
330
2A
100
AcDbVisualStyle
  2
Flat
 70
     0
 71
     2
 72
     1
 73
     1
 90
        2
 40
-0.6
 41
30.0
 62
     5
 63
     7
421
 16777215
 74
     0
 91
        4
 64
     7
 65
   257
 75
     1
175
     1
 42
1.0
 92
        8
 66
     7
 43
1.0
 76
     1
 77
     6
 78
     2
 67
     7
 79
     5
170
     0
171
     0
290
     0
174
     0
 93
       13
 44
0.0
173
     0
291
     1
 45
0.0
  0
VISUALSTYLE
  5
2C
102
{ACAD_REACTORS
330
2A
102
}
102
{ACAD_XDICTIONARY
360
6B
102
}
330
2A
100
AcDbVisualStyle
  2
FlatWithEdges
 70
     1
 71
     2
 72
     1
 73
     1
 90
        2
 40
-0.6
 41
30.0
 62
     5
 63
     7
421
 16777215
 74
     1
 91
        4
 64
     7
 65
   257
 75
     1
175
     1
 42
1.0
 92
        0
 66
   257
 43
1.0
 76
     1
 77
     6
 78
     2
 67
     7
 79
     5
170
     0
171
     0
290
     0
174
     0
 93
       13
 44
0.0
173
     0
291
     1
 45
0.0
  0
VISUALSTYLE
  5
2D
102
{ACAD_REACTORS
330
2A
102
}
102
{ACAD_XDICTIONARY
360
6D
102
}
330
2A
100
AcDbVisualStyle
  2
Gouraud
 70
     2
 71
     2
 72
     2
 73
     1
 90
        2
 40
-0.6
 41
30.0
 62
     5
 63
     7
421
 16777215
 74
     0
 91
        4
 64
     7
 65
   257
 75
     1
175
     1
 42
1.0
 92
        0
 66
     7
 43
1.0
 76
     1
 77
     6
 78
     2
 67
     7
 79
     5
170
     0
171
     0
290
     0
174
     0
 93
       13
 44
0.0
173
     0
291
     1
 45
0.0
  0
VISUALSTYLE
  5
2E
102
{ACAD_REACTORS
330
2A
102
}
102
{ACAD_XDICTIONARY
360
6F
102
}
330
2A
100
AcDbVisualStyle
  2
GouraudWithEdges
 70
     3
 71
     2
 72
     2
 73
     1
 90
        2
 40
-0.6
 41
30.0
 62
     5
 63
     7
421
 16777215
 74
     1
 91
        4
 64
     7
 65
   257
 75
     1
175
     1
 42
1.0
 92
        0
 66
   257
 43
1.0
 76
     1
 77
     6
 78
     2
 67
     7
 79
     5
170
     0
171
     0
290
     0
174
     0
 93
       13
 44
0.0
173
     0
291
     1
 45
0.0
  0
VISUALSTYLE
  5
38
102
{ACAD_REACTORS
330
2A
102
}
102
{ACAD_XDICTIONARY
360
83
102
}
330
2A
100
AcDbVisualStyle
  2
Linepattern
 70
    14
 71
     2
 72
     2
 73
     0
 90
        0
 40
-0.6
 41
-30.0
 62
     5
 63
     7
421
 16777215
 74
     1
 91
        4
 64
     7
 65
   257
 75
     7
175
     7
 42
1.0
 92
        8
 66
     7
 43
1.0
 76
     1
 77
     6
 78
     2
 67
     7
 79
     5
170
     0
171
     0
290
     0
174
     0
 93
        1
 44
0.0
173
     0
291
     1
 45
0.0
  0
VISUALSTYLE
  5
33
102
{ACAD_REACTORS
330
2A
102
}
102
{ACAD_XDICTIONARY
360
79
102
}
330
2A
100
AcDbVisualStyle
  2
Realistic
 70
     8
 71
     2
 72
     2
 73
     0
 90
        0
 40
-0.6
 41
-30.0
 62
     5
 63
     7
421
 16777215
 74
     1
 91
        0
 64
     7
 65
   257
 75
     1
175
     1
 42
1.0
 92
        8
 66
     8
424
  7895160
 43
1.0
 76
     1
 77
     6
 78
     2
 67
     7
 79
     5
170
     0
171
     0
290
     0
174
     0
 93
       13
 44
0.0
173
     0
291
     0
 45
0.0
  0
VISUALSTYLE
  5
37
102
{ACAD_REACTORS
330
2A
102
}
102
{ACAD_XDICTIONARY
360
81
102
}
330
2A
100
AcDbVisualStyle
  2
Thicken
 70
    13
 71
     2
 72
     2
 73
     0
 90
        0
 40
-0.6
 41
-30.0
 62
     5
 63
     7
421
 16777215
 74
     1
 91
        4
 64
     7
 65
   257
 75
     1
175
     1
 42
1.0
 92
       12
 66
     7
 43
1.0
 76
     1
 77
     6
 78
     2
 67
     7
 79
     5
170
     0
171
     0
290
     0
174
     0
 93
        1
 44
0.0
173
     0
291
     1
 45
0.0
  0
DICTIONARY
  5
71
330
2F
100
AcDbDictionary
280
     1
281
     1
  3
ACAD_XREC_ROUNDTRIP
360
72
  0
DICTIONARY
  5
75
330
31
100
AcDbDictionary
280
     1
281
     1
  3
ACAD_XREC_ROUNDTRIP
360
76
  0
DICTIONARY
  5
73
330
30
100
AcDbDictionary
280
     1
281
     1
  3
ACAD_XREC_ROUNDTRIP
360
74
  0
DICTIONARY
  5
77
330
32
100
AcDbDictionary
280
     1
281
     1
  3
ACAD_XREC_ROUNDTRIP
360
78
  0
DICTIONARY
  5
7F
330
36
100
AcDbDictionary
280
     1
281
     1
  3
ACAD_XREC_ROUNDTRIP
360
80
  0
DICTIONARY
  5
87
330
3A
100
AcDbDictionary
280
     1
281
     1
  3
ACAD_XREC_ROUNDTRIP
360
88
  0
DICTIONARY
  5
7B
330
34
100
AcDbDictionary
280
     1
281
     1
  3
ACAD_XREC_ROUNDTRIP
360
7C
  0
DICTIONARY
  5
7D
330
35
100
AcDbDictionary
280
     1
281
     1
  3
ACAD_XREC_ROUNDTRIP
360
7E
  0
DICTIONARY
  5
85
330
39
100
AcDbDictionary
280
     1
281
     1
  3
ACAD_XREC_ROUNDTRIP
360
86
  0
DICTIONARY
  5
69
330
2B
100
AcDbDictionary
280
     1
281
     1
  3
ACAD_XREC_ROUNDTRIP
360
6A
  0
DICTIONARY
  5
6B
330
2C
100
AcDbDictionary
280
     1
281
     1
  3
ACAD_XREC_ROUNDTRIP
360
6C
  0
DICTIONARY
  5
6D
330
2D
100
AcDbDictionary
280
     1
281
     1
  3
ACAD_XREC_ROUNDTRIP
360
6E
  0
DICTIONARY
  5
6F
330
2E
100
AcDbDictionary
280
     1
281
     1
  3
ACAD_XREC_ROUNDTRIP
360
70
  0
DICTIONARY
  5
83
330
38
100
AcDbDictionary
280
     1
281
     1
  3
ACAD_XREC_ROUNDTRIP
360
84
  0
DICTIONARY
  5
79
330
33
100
AcDbDictionary
280
     1
281
     1
  3
ACAD_XREC_ROUNDTRIP
360
7A
  0
DICTIONARY
  5
81
330
37
100
AcDbDictionary
280
     1
281
     1
  3
ACAD_XREC_ROUNDTRIP
360
82
  0
XRECORD
  5
72
102
{ACAD_REACTORS
330
71
102
}
330
71
100
AcDbXrecord
280
     1
102
RTVSPropertyOp0
 70
     1
102
RTVSPropertyOp1
 70
     1
102
RTVSPropertyOp2
 70
     1
102
RTVSPropertyOp3
 70
     1
102
RTVSPropertyOp4
 70
     1
102
RTVSPropertyOp5
 70
     1
102
RTVSPropertyOp6
 70
     1
102
RTVSPropertyOp7
 70
     1
102
RTVSPropertyOp8
 70
     1
102
RTVSPropertyOp9
 70
     1
102
RTVSPropertyOp10
 70
     1
102
RTVSPropertyOp11
 70
     1
102
RTVSPropertyOp12
 70
     1
102
RTVSPropertyOp13
 70
     1
102
RTVSPropertyOp14
 70
     1
102
RTVSPropertyOp15
 70
     1
102
RTVSPropertyOp16
 70
     1
102
RTVSPropertyOp17
 70
     1
102
RTVSPropertyOp18
 70
     1
102
RTVSPropertyOp19
 70
     1
102
RTVSPropertyOp20
 70
     1
102
RTVSPropertyOp21
 70
     1
102
RTVSPropertyOp22
 70
     1
102
RTVSPropertyOp23
 70
     1
102
RTVSPropertyOp24
 70
     1
102
RTVSPropertyOp25
 70
     1
102
RTVSPropertyOp26
 70
     1
102
RTVSPropertyOp27
 70
     1
  0
XRECORD
  5
76
102
{ACAD_REACTORS
330
75
102
}
330
75
100
AcDbXrecord
280
     1
102
RTVSPropertyOp0
 70
     1
102
RTVSPropertyOp1
 70
     1
102
RTVSPropertyOp2
 70
     1
102
RTVSPropertyOp3
 70
     1
102
RTVSPropertyOp4
 70
     1
102
RTVSPropertyOp5
 70
     1
102
RTVSPropertyOp6
 70
     1
102
RTVSPropertyOp7
 70
     1
102
RTVSPropertyOp8
 70
     1
102
RTVSPropertyOp9
 70
     1
102
RTVSPropertyOp10
 70
     1
102
RTVSPropertyOp11
 70
     1
102
RTVSPropertyOp12
 70
     1
102
RTVSPropertyOp13
 70
     1
102
RTVSPropertyOp14
 70
     1
102
RTVSPropertyOp15
 70
     1
102
RTVSPropertyOp16
 70
     1
102
RTVSPropertyOp17
 70
     1
102
RTVSPropertyOp18
 70
     1
102
RTVSPropertyOp19
 70
     1
102
RTVSPropertyOp20
 70
     1
102
RTVSPropertyOp21
 70
     1
102
RTVSPropertyOp22
 70
     1
102
RTVSPropertyOp23
 70
     1
102
RTVSPropertyOp24
 70
     1
102
RTVSPropertyOp25
 70
     1
102
RTVSPropertyOp26
 70
     1
102
RTVSPropertyOp27
 70
     1
  0
XRECORD
  5
74
102
{ACAD_REACTORS
330
73
102
}
330
73
100
AcDbXrecord
280
     1
102
RTVSPropertyOp0
 70
     1
102
RTVSPropertyOp1
 70
     1
102
RTVSPropertyOp2
 70
     1
102
RTVSPropertyOp3
 70
     1
102
RTVSPropertyOp4
 70
     1
102
RTVSPropertyOp5
 70
     1
102
RTVSPropertyOp6
 70
     1
102
RTVSPropertyOp7
 70
     1
102
RTVSPropertyOp8
 70
     1
102
RTVSPropertyOp9
 70
     1
102
RTVSPropertyOp10
 70
     1
102
RTVSPropertyOp11
 70
     1
102
RTVSPropertyOp12
 70
     1
102
RTVSPropertyOp13
 70
     1
102
RTVSPropertyOp14
 70
     1
102
RTVSPropertyOp15
 70
     1
102
RTVSPropertyOp16
 70
     1
102
RTVSPropertyOp17
 70
     1
102
RTVSPropertyOp18
 70
     1
102
RTVSPropertyOp19
 70
     1
102
RTVSPropertyOp20
 70
     1
102
RTVSPropertyOp21
 70
     1
102
RTVSPropertyOp22
 70
     1
102
RTVSPropertyOp23
 70
     1
102
RTVSPropertyOp24
 70
     1
102
RTVSPropertyOp25
 70
     1
102
RTVSPropertyOp26
 70
     1
102
RTVSPropertyOp27
 70
     1
  0
XRECORD
  5
78
102
{ACAD_REACTORS
330
77
102
}
330
77
100
AcDbXrecord
280
     1
102
RTVSPropertyOp0
 70
     1
102
RTVSPropertyOp1
 70
     1
102
RTVSPropertyOp2
 70
     1
102
RTVSPropertyOp3
 70
     1
102
RTVSPropertyOp4
 70
     1
102
RTVSPropertyOp5
 70
     1
102
RTVSPropertyOp6
 70
     1
102
RTVSPropertyOp7
 70
     1
102
RTVSPropertyOp8
 70
     1
102
RTVSPropertyOp9
 70
     1
102
RTVSPropertyOp10
 70
     1
102
RTVSPropertyOp11
 70
     1
102
RTVSPropertyOp12
 70
     1
102
RTVSPropertyOp13
 70
     1
102
RTVSPropertyOp14
 70
     1
102
RTVSPropertyOp15
 70
     1
102
RTVSPropertyOp16
 70
     1
102
RTVSPropertyOp17
 70
     1
102
RTVSPropertyOp18
 70
     1
102
RTVSPropertyOp19
 70
     1
102
RTVSPropertyOp20
 70
     1
102
RTVSPropertyOp21
 70
     1
102
RTVSPropertyOp22
 70
     1
102
RTVSPropertyOp23
 70
     1
102
RTVSPropertyOp24
 70
     1
102
RTVSPropertyOp25
 70
     1
102
RTVSPropertyOp26
 70
     1
102
RTVSPropertyOp27
 70
     1
  0
XRECORD
  5
80
102
{ACAD_REACTORS
330
7F
102
}
330
7F
100
AcDbXrecord
280
     1
102
RTVSPropertyOp0
 70
     1
102
RTVSPropertyOp1
 70
     1
102
RTVSPropertyOp2
 70
     1
102
RTVSPropertyOp3
 70
     1
102
RTVSPropertyOp4
 70
     1
102
RTVSPropertyOp5
 70
     1
102
RTVSPropertyOp6
 70
     1
102
RTVSPropertyOp7
 70
     1
102
RTVSPropertyOp8
 70
     1
102
RTVSPropertyOp9
 70
     1
102
RTVSPropertyOp10
 70
     1
102
RTVSPropertyOp11
 70
     1
102
RTVSPropertyOp12
 70
     1
102
RTVSPropertyOp13
 70
     1
102
RTVSPropertyOp14
 70
     1
102
RTVSPropertyOp15
 70
     1
102
RTVSPropertyOp16
 70
     1
102
RTVSPropertyOp17
 70
     1
102
RTVSPropertyOp18
 70
     1
102
RTVSPropertyOp19
 70
     1
102
RTVSPropertyOp20
 70
     1
102
RTVSPropertyOp21
 70
     1
102
RTVSPropertyOp22
 70
     1
102
RTVSPropertyOp23
 70
     1
102
RTVSPropertyOp24
 70
     1
102
RTVSPropertyOp25
 70
     1
102
RTVSPropertyOp26
 70
     1
102
RTVSPropertyOp27
 70
     1
  0
XRECORD
  5
88
102
{ACAD_REACTORS
330
87
102
}
330
87
100
AcDbXrecord
280
     1
102
RTVSPropertyOp0
 70
     1
102
RTVSPropertyOp1
 70
     1
102
RTVSPropertyOp2
 70
     1
102
RTVSPropertyOp3
 70
     1
102
RTVSPropertyOp4
 70
     1
102
RTVSPropertyOp5
 70
     1
102
RTVSPropertyOp6
 70
     1
102
RTVSPropertyOp7
 70
     1
102
RTVSPropertyOp8
 70
     1
102
RTVSPropertyOp9
 70
     1
102
RTVSPropertyOp10
 70
     1
102
RTVSPropertyOp11
 70
     1
102
RTVSPropertyOp12
 70
     1
102
RTVSPropertyOp13
 70
     1
102
RTVSPropertyOp14
 70
     1
102
RTVSPropertyOp15
 70
     1
102
RTVSPropertyOp16
 70
     1
102
RTVSPropertyOp17
 70
     1
102
RTVSPropertyOp18
 70
     1
102
RTVSPropertyOp19
 70
     1
102
RTVSPropertyOp20
 70
     1
102
RTVSPropertyOp21
 70
     1
102
RTVSPropertyOp22
 70
     1
102
RTVSPropertyOp23
 70
     1
102
RTVSPropertyOp24
 70
     1
102
RTVSPropertyOp25
 70
     1
102
RTVSPropertyOp26
 70
     1
102
RTVSPropertyOp27
 70
     1
  0
XRECORD
  5
7C
102
{ACAD_REACTORS
330
7B
102
}
330
7B
100
AcDbXrecord
280
     1
102
RTVSPropertyOp0
 70
     1
102
RTVSPropertyOp1
 70
     1
102
RTVSPropertyOp2
 70
     1
102
RTVSPropertyOp3
 70
     1
102
RTVSPropertyOp4
 70
     1
102
RTVSPropertyOp5
 70
     1
102
RTVSPropertyOp6
 70
     1
102
RTVSPropertyOp7
 70
     1
102
RTVSPropertyOp8
 70
     1
102
RTVSPropertyOp9
 70
     1
102
RTVSPropertyOp10
 70
     1
102
RTVSPropertyOp11
 70
     1
102
RTVSPropertyOp12
 70
     1
102
RTVSPropertyOp13
 70
     1
102
RTVSPropertyOp14
 70
     1
102
RTVSPropertyOp15
 70
     1
102
RTVSPropertyOp16
 70
     1
102
RTVSPropertyOp17
 70
     1
102
RTVSPropertyOp18
 70
     1
102
RTVSPropertyOp19
 70
     1
102
RTVSPropertyOp20
 70
     1
102
RTVSPropertyOp21
 70
     1
102
RTVSPropertyOp22
 70
     1
102
RTVSPropertyOp23
 70
     1
102
RTVSPropertyOp24
 70
     1
102
RTVSPropertyOp25
 70
     1
102
RTVSPropertyOp26
 70
     1
102
RTVSPropertyOp27
 70
     1
  0
XRECORD
  5
7E
102
{ACAD_REACTORS
330
7D
102
}
330
7D
100
AcDbXrecord
280
     1
102
RTVSPropertyOp0
 70
     1
102
RTVSPropertyOp1
 70
     1
102
RTVSPropertyOp2
 70
     1
102
RTVSPropertyOp3
 70
     1
102
RTVSPropertyOp4
 70
     1
102
RTVSPropertyOp5
 70
     1
102
RTVSPropertyOp6
 70
     1
102
RTVSPropertyOp7
 70
     1
102
RTVSPropertyOp8
 70
     1
102
RTVSPropertyOp9
 70
     1
102
RTVSPropertyOp10
 70
     1
102
RTVSPropertyOp11
 70
     1
102
RTVSPropertyOp12
 70
     1
102
RTVSPropertyOp13
 70
     1
102
RTVSPropertyOp14
 70
     1
102
RTVSPropertyOp15
 70
     1
102
RTVSPropertyOp16
 70
     1
102
RTVSPropertyOp17
 70
     1
102
RTVSPropertyOp18
 70
     1
102
RTVSPropertyOp19
 70
     1
102
RTVSPropertyOp20
 70
     1
102
RTVSPropertyOp21
 70
     1
102
RTVSPropertyOp22
 70
     1
102
RTVSPropertyOp23
 70
     1
102
RTVSPropertyOp24
 70
     1
102
RTVSPropertyOp25
 70
     1
102
RTVSPropertyOp26
 70
     1
102
RTVSPropertyOp27
 70
     1
  0
XRECORD
  5
86
102
{ACAD_REACTORS
330
85
102
}
330
85
100
AcDbXrecord
280
     1
102
RTVSPropertyOp0
 70
     1
102
RTVSPropertyOp1
 70
     1
102
RTVSPropertyOp2
 70
     1
102
RTVSPropertyOp3
 70
     1
102
RTVSPropertyOp4
 70
     1
102
RTVSPropertyOp5
 70
     1
102
RTVSPropertyOp6
 70
     1
102
RTVSPropertyOp7
 70
     1
102
RTVSPropertyOp8
 70
     1
102
RTVSPropertyOp9
 70
     1
102
RTVSPropertyOp10
 70
     1
102
RTVSPropertyOp11
 70
     1
102
RTVSPropertyOp12
 70
     1
102
RTVSPropertyOp13
 70
     1
102
RTVSPropertyOp14
 70
     1
102
RTVSPropertyOp15
 70
     1
102
RTVSPropertyOp16
 70
     1
102
RTVSPropertyOp17
 70
     1
102
RTVSPropertyOp18
 70
     1
102
RTVSPropertyOp19
 70
     1
102
RTVSPropertyOp20
 70
     1
102
RTVSPropertyOp21
 70
     1
102
RTVSPropertyOp22
 70
     1
102
RTVSPropertyOp23
 70
     1
102
RTVSPropertyOp24
 70
     1
102
RTVSPropertyOp25
 70
     1
102
RTVSPropertyOp26
 70
     1
102
RTVSPropertyOp27
 70
     1
  0
XRECORD
  5
6A
102
{ACAD_REACTORS
330
69
102
}
330
69
100
AcDbXrecord
280
     1
102
RTVSPropertyOp0
 70
     1
102
RTVSPropertyOp1
 70
     1
102
RTVSPropertyOp2
 70
     1
102
RTVSPropertyOp3
 70
     1
102
RTVSPropertyOp4
 70
     1
102
RTVSPropertyOp5
 70
     1
102
RTVSPropertyOp6
 70
     1
102
RTVSPropertyOp7
 70
     1
102
RTVSPropertyOp8
 70
     1
102
RTVSPropertyOp9
 70
     1
102
RTVSPropertyOp10
 70
     1
102
RTVSPropertyOp11
 70
     1
102
RTVSPropertyOp12
 70
     1
102
RTVSPropertyOp13
 70
     1
102
RTVSPropertyOp14
 70
     1
102
RTVSPropertyOp15
 70
     1
102
RTVSPropertyOp16
 70
     1
102
RTVSPropertyOp17
 70
     1
102
RTVSPropertyOp18
 70
     1
102
RTVSPropertyOp19
 70
     1
102
RTVSPropertyOp20
 70
     1
102
RTVSPropertyOp21
 70
     1
102
RTVSPropertyOp22
 70
     1
102
RTVSPropertyOp23
 70
     1
102
RTVSPropertyOp24
 70
     1
102
RTVSPropertyOp25
 70
     1
102
RTVSPropertyOp26
 70
     1
102
RTVSPropertyOp27
 70
     1
  0
XRECORD
  5
6C
102
{ACAD_REACTORS
330
6B
102
}
330
6B
100
AcDbXrecord
280
     1
102
RTVSPropertyOp0
 70
     1
102
RTVSPropertyOp1
 70
     1
102
RTVSPropertyOp2
 70
     1
102
RTVSPropertyOp3
 70
     1
102
RTVSPropertyOp4
 70
     1
102
RTVSPropertyOp5
 70
     1
102
RTVSPropertyOp6
 70
     1
102
RTVSPropertyOp7
 70
     1
102
RTVSPropertyOp8
 70
     1
102
RTVSPropertyOp9
 70
     1
102
RTVSPropertyOp10
 70
     1
102
RTVSPropertyOp11
 70
     1
102
RTVSPropertyOp12
 70
     1
102
RTVSPropertyOp13
 70
     1
102
RTVSPropertyOp14
 70
     1
102
RTVSPropertyOp15
 70
     1
102
RTVSPropertyOp16
 70
     1
102
RTVSPropertyOp17
 70
     1
102
RTVSPropertyOp18
 70
     1
102
RTVSPropertyOp19
 70
     1
102
RTVSPropertyOp20
 70
     1
102
RTVSPropertyOp21
 70
     1
102
RTVSPropertyOp22
 70
     1
102
RTVSPropertyOp23
 70
     1
102
RTVSPropertyOp24
 70
     1
102
RTVSPropertyOp25
 70
     1
102
RTVSPropertyOp26
 70
     1
102
RTVSPropertyOp27
 70
     1
  0
XRECORD
  5
6E
102
{ACAD_REACTORS
330
6D
102
}
330
6D
100
AcDbXrecord
280
     1
102
RTVSPropertyOp0
 70
     1
102
RTVSPropertyOp1
 70
     1
102
RTVSPropertyOp2
 70
     1
102
RTVSPropertyOp3
 70
     1
102
RTVSPropertyOp4
 70
     1
102
RTVSPropertyOp5
 70
     1
102
RTVSPropertyOp6
 70
     1
102
RTVSPropertyOp7
 70
     1
102
RTVSPropertyOp8
 70
     1
102
RTVSPropertyOp9
 70
     1
102
RTVSPropertyOp10
 70
     1
102
RTVSPropertyOp11
 70
     1
102
RTVSPropertyOp12
 70
     1
102
RTVSPropertyOp13
 70
     1
102
RTVSPropertyOp14
 70
     1
102
RTVSPropertyOp15
 70
     1
102
RTVSPropertyOp16
 70
     1
102
RTVSPropertyOp17
 70
     1
102
RTVSPropertyOp18
 70
     1
102
RTVSPropertyOp19
 70
     1
102
RTVSPropertyOp20
 70
     1
102
RTVSPropertyOp21
 70
     1
102
RTVSPropertyOp22
 70
     1
102
RTVSPropertyOp23
 70
     1
102
RTVSPropertyOp24
 70
     1
102
RTVSPropertyOp25
 70
     1
102
RTVSPropertyOp26
 70
     1
102
RTVSPropertyOp27
 70
     1
  0
XRECORD
  5
70
102
{ACAD_REACTORS
330
6F
102
}
330
6F
100
AcDbXrecord
280
     1
102
RTVSPropertyOp0
 70
     1
102
RTVSPropertyOp1
 70
     1
102
RTVSPropertyOp2
 70
     1
102
RTVSPropertyOp3
 70
     1
102
RTVSPropertyOp4
 70
     1
102
RTVSPropertyOp5
 70
     1
102
RTVSPropertyOp6
 70
     1
102
RTVSPropertyOp7
 70
     1
102
RTVSPropertyOp8
 70
     1
102
RTVSPropertyOp9
 70
     1
102
RTVSPropertyOp10
 70
     1
102
RTVSPropertyOp11
 70
     1
102
RTVSPropertyOp12
 70
     1
102
RTVSPropertyOp13
 70
     1
102
RTVSPropertyOp14
 70
     1
102
RTVSPropertyOp15
 70
     1
102
RTVSPropertyOp16
 70
     1
102
RTVSPropertyOp17
 70
     1
102
RTVSPropertyOp18
 70
     1
102
RTVSPropertyOp19
 70
     1
102
RTVSPropertyOp20
 70
     1
102
RTVSPropertyOp21
 70
     1
102
RTVSPropertyOp22
 70
     1
102
RTVSPropertyOp23
 70
     1
102
RTVSPropertyOp24
 70
     1
102
RTVSPropertyOp25
 70
     1
102
RTVSPropertyOp26
 70
     1
102
RTVSPropertyOp27
 70
     1
  0
XRECORD
  5
84
102
{ACAD_REACTORS
330
83
102
}
330
83
100
AcDbXrecord
280
     1
102
RTVSPropertyOp0
 70
     1
102
RTVSPropertyOp1
 70
     1
102
RTVSPropertyOp2
 70
     1
102
RTVSPropertyOp3
 70
     1
102
RTVSPropertyOp4
 70
     1
102
RTVSPropertyOp5
 70
     1
102
RTVSPropertyOp6
 70
     1
102
RTVSPropertyOp7
 70
     1
102
RTVSPropertyOp8
 70
     1
102
RTVSPropertyOp9
 70
     1
102
RTVSPropertyOp10
 70
     1
102
RTVSPropertyOp11
 70
     1
102
RTVSPropertyOp12
 70
     1
102
RTVSPropertyOp13
 70
     1
102
RTVSPropertyOp14
 70
     1
102
RTVSPropertyOp15
 70
     1
102
RTVSPropertyOp16
 70
     1
102
RTVSPropertyOp17
 70
     1
102
RTVSPropertyOp18
 70
     1
102
RTVSPropertyOp19
 70
     1
102
RTVSPropertyOp20
 70
     1
102
RTVSPropertyOp21
 70
     1
102
RTVSPropertyOp22
 70
     1
102
RTVSPropertyOp23
 70
     1
102
RTVSPropertyOp24
 70
     1
102
RTVSPropertyOp25
 70
     1
102
RTVSPropertyOp26
 70
     1
102
RTVSPropertyOp27
 70
     1
  0
XRECORD
  5
7A
102
{ACAD_REACTORS
330
79
102
}
330
79
100
AcDbXrecord
280
     1
102
RTVSPropertyOp0
 70
     1
102
RTVSPropertyOp1
 70
     1
102
RTVSPropertyOp2
 70
     1
102
RTVSPropertyOp3
 70
     1
102
RTVSPropertyOp4
 70
     1
102
RTVSPropertyOp5
 70
     1
102
RTVSPropertyOp6
 70
     1
102
RTVSPropertyOp7
 70
     1
102
RTVSPropertyOp8
 70
     1
102
RTVSPropertyOp9
 70
     1
102
RTVSPropertyOp10
 70
     1
102
RTVSPropertyOp11
 70
     1
102
RTVSPropertyOp12
 70
     1
102
RTVSPropertyOp13
 70
     1
102
RTVSPropertyOp14
 70
     1
102
RTVSPropertyOp15
 70
     1
102
RTVSPropertyOp16
 70
     1
102
RTVSPropertyOp17
 70
     1
102
RTVSPropertyOp18
 70
     1
102
RTVSPropertyOp19
 70
     1
102
RTVSPropertyOp20
 70
     1
102
RTVSPropertyOp21
 70
     1
102
RTVSPropertyOp22
 70
     1
102
RTVSPropertyOp23
 70
     1
102
RTVSPropertyOp24
 70
     1
102
RTVSPropertyOp25
 70
     1
102
RTVSPropertyOp26
 70
     1
102
RTVSPropertyOp27
 70
     1
  0
XRECORD
  5
82
102
{ACAD_REACTORS
330
81
102
}
330
81
100
AcDbXrecord
280
     1
102
RTVSPropertyOp0
 70
     1
102
RTVSPropertyOp1
 70
     1
102
RTVSPropertyOp2
 70
     1
102
RTVSPropertyOp3
 70
     1
102
RTVSPropertyOp4
 70
     1
102
RTVSPropertyOp5
 70
     1
102
RTVSPropertyOp6
 70
     1
102
RTVSPropertyOp7
 70
     1
102
RTVSPropertyOp8
 70
     1
102
RTVSPropertyOp9
 70
     1
102
RTVSPropertyOp10
 70
     1
102
RTVSPropertyOp11
 70
     1
102
RTVSPropertyOp12
 70
     1
102
RTVSPropertyOp13
 70
     1
102
RTVSPropertyOp14
 70
     1
102
RTVSPropertyOp15
 70
     1
102
RTVSPropertyOp16
 70
     1
102
RTVSPropertyOp17
 70
     1
102
RTVSPropertyOp18
 70
     1
102
RTVSPropertyOp19
 70
     1
102
RTVSPropertyOp20
 70
     1
102
RTVSPropertyOp21
 70
     1
102
RTVSPropertyOp22
 70
     1
102
RTVSPropertyOp23
 70
     1
102
RTVSPropertyOp24
 70
     1
102
RTVSPropertyOp25
 70
     1
102
RTVSPropertyOp26
 70
     1
102
RTVSPropertyOp27
 70
     1
  0
ENDSEC
  0
EOF
