  0
SECTION
  2
HEADER
  9
$ACADVER
  1
AC1021
  9
$ACADMAINTVER
 70
    25
  9
$DWGCODEPAGE
  3
ANSI_1252
  9
$INSBASE
 10
0.0
 20
0.0
 30
0.0
  9
$EXTMIN
 10
-103.0348
 20
-130.9228
 30
0.0
  9
$EXTMAX
 10
100.706
 20
132.0918
 30
0.0
  9
$LIMMIN
 10
0.0
 20
0.0
  9
$LIMMAX
 10
12.0
 20
9.0
  9
$ORTHOMODE
 70
     0
  9
$REGENMODE
 70
     1
  9
$FILLMODE
 70
     1
  9
$QTEXTMODE
 70
     0
  9
$MIRRTEXT
 70
     1
  9
$LTSCALE
 40
1.0
  9
$ATTMODE
 70
     1
  9
$TEXTSIZE
 40
0.2
  9
$TRACEWID
 40
0.05
  9
$TEXTSTYLE
  7
Standard
  9
$CLAYER
  8
0
  9
$CELTYPE
  6
ByLayer
  9
$CECOLOR
 62
   256
  9
$CELTSCALE
 40
1.0
  9
$DISPSILH
 70
     0
  9
$DIMSCALE
 40
1.0
  9
$DIMASZ
 40
0.18
  9
$DIMEXO
 40
0.0625
  9
$DIMDLI
 40
0.38
  9
$DIMRND
 40
0.0
  9
$DIMDLE
 40
0.0
  9
$DIMEXE
 40
0.18
  9
$DIMTP
 40
0.0
  9
$DIMTM
 40
0.0
  9
$DIMTXT
 40
0.18
  9
$DIMCEN
 40
0.09
  9
$DIMTSZ
 40
0.0
  9
$DIMTOL
 70
     0
  9
$DIMLIM
 70
     0
  9
$DIMTIH
 70
     1
  9
$DIMTOH
 70
     1
  9
$DIMSE1
 70
     0
  9
$DIMSE2
 70
     0
  9
$DIMTAD
 70
     0
  9
$DIMZIN
 70
     0
  9
$DIMBLK
  1

  9
$DIMASO
 70
     1
  9
$DIMSHO
 70
     1
  9
$DIMPOST
  1

  9
$DIMAPOST
  1

  9
$DIMALT
 70
     0
  9
$DIMALTD
 70
     2
  9
$DIMALTF
 40
25.4
  9
$DIMLFAC
 40
1.0
  9
$DIMTOFL
 70
     0
  9
$DIMTVP
 40
0.0
  9
$DIMTIX
 70
     0
  9
$DIMSOXD
 70
     0
  9
$DIMSAH
 70
     0
  9
$DIMBLK1
  1

  9
$DIMBLK2
  1

  9
$DIMSTYLE
  2
Standard
  9
$DIMCLRD
 70
     0
  9
$DIMCLRE
 70
     0
  9
$DIMCLRT
 70
     0
  9
$DIMTFAC
 40
1.0
  9
$DIMGAP
 40
0.09
  9
$DIMJUST
 70
     0
  9
$DIMSD1
 70
     0
  9
$DIMSD2
 70
     0
  9
$DIMTOLJ
 70
     1
  9
$DIMTZIN
 70
     0
  9
$DIMALTZ
 70
     0
  9
$DIMALTTZ
 70
     0
  9
$DIMUPT
 70
     0
  9
$DIMDEC
 70
     4
  9
$DIMTDEC
 70
     4
  9
$DIMALTU
 70
     2
  9
$DIMALTTD
 70
     2
  9
$DIMTXSTY
  7
Standard
  9
$DIMAUNIT
 70
     0
  9
$DIMADEC
 70
     0
  9
$DIMALTRND
 40
0.0
  9
$DIMAZIN
 70
     0
  9
$DIMDSEP
 70
    46
  9
$DIMATFIT
 70
     3
  9
$DIMFRAC
 70
     0
  9
$DIMLDRBLK
  1

  9
$DIMLUNIT
 70
     2
  9
$DIMLWD
 70
    -2
  9
$DIMLWE
 70
    -2
  9
$DIMTMOVE
 70
     0
  9
$DIMFXL
 40
1.0
  9
$DIMFXLON
 70
     0
  9
$DIMJOGANG
 40
0.7853981633974483
  9
$DIMTFILL
 70
     0
  9
$DIMTFILLCLR
 70
     0
  9
$DIMARCSYM
 70
     0
  9
$DIMLTYPE
  6

  9
$DIMLTEX1
  6

  9
$DIMLTEX2
  6

  9
$LUNITS
 70
     2
  9
$LUPREC
 70
     4
  9
$SKETCHINC
 40
0.1
  9
$FILLETRAD
 40
0.5
  9
$AUNITS
 70
     0
  9
$AUPREC
 70
     0
  9
$MENU
  1
.
  9
$ELEVATION
 40
0.0
  9
$PELEVATION
 40
0.0
  9
$THICKNESS
 40
0.0
  9
$LIMCHECK
 70
     0
  9
$CHAMFERA
 40
0.5
  9
$CHAMFERB
 40
0.5
  9
$CHAMFERC
 40
1.0
  9
$CHAMFERD
 40
0.0
  9
$SKPOLY
 70
     0
  9
$TDCREATE
 40
2457066.028960035
  9
$TDUCREATE
 40
2457065.987293368
  9
$TDUPDATE
 40
2457066.028960046
  9
$TDUUPDATE
 40
2457065.98729338
  9
$TDINDWG
 40
0.0000000116
  9
$TDUSRTIMER
 40
0.0000000116
  9
$USRTIMER
 70
     1
  9
$ANGBASE
 50
0.0
  9
$ANGDIR
 70
     0
  9
$PDMODE
 70
     0
  9
$PDSIZE
 40
0.0
  9
$PLINEWID
 40
0.0
  9
$SPLFRAME
 70
     0
  9
$SPLINETYPE
 70
     6
  9
$SPLINESEGS
 70
     8
  9
$HANDSEED
  5
86
  9
$SURFTAB1
 70
     6
  9
$SURFTAB2
 70
     6
  9
$SURFTYPE
 70
     6
  9
$SURFU
 70
     6
  9
$SURFV
 70
     6
  9
$UCSBASE
  2

  9
$UCSNAME
  2

  9
$UCSORG
 10
0.0
 20
0.0
 30
0.0
  9
$UCSXDIR
 10
1.0
 20
0.0
 30
0.0
  9
$UCSYDIR
 10
0.0
 20
1.0
 30
0.0
  9
$UCSORTHOREF
  2

  9
$UCSORTHOVIEW
 70
     0
  9
$UCSORGTOP
 10
0.0
 20
0.0
 30
0.0
  9
$UCSORGBOTTOM
 10
0.0
 20
0.0
 30
0.0
  9
$UCSORGLEFT
 10
0.0
 20
0.0
 30
0.0
  9
$UCSORGRIGHT
 10
0.0
 20
0.0
 30
0.0
  9
$UCSORGFRONT
 10
0.0
 20
0.0
 30
0.0
  9
$UCSORGBACK
 10
0.0
 20
0.0
 30
0.0
  9
$PUCSBASE
  2

  9
$PUCSNAME
  2

  9
$PUCSORG
 10
0.0
 20
0.0
 30
0.0
  9
$PUCSXDIR
 10
1.0
 20
0.0
 30
0.0
  9
$PUCSYDIR
 10
0.0
 20
1.0
 30
0.0
  9
$PUCSORTHOREF
  2

  9
$PUCSORTHOVIEW
 70
     0
  9
$PUCSORGTOP
 10
0.0
 20
0.0
 30
0.0
  9
$PUCSORGBOTTOM
 10
0.0
 20
0.0
 30
0.0
  9
$PUCSORGLEFT
 10
0.0
 20
0.0
 30
0.0
  9
$PUCSORGRIGHT
 10
0.0
 20
0.0
 30
0.0
  9
$PUCSORGFRONT
 10
0.0
 20
0.0
 30
0.0
  9
$PUCSORGBACK
 10
0.0
 20
0.0
 30
0.0
  9
$USERI1
 70
     0
  9
$USERI2
 70
     0
  9
$USERI3
 70
     0
  9
$USERI4
 70
     0
  9
$USERI5
 70
     0
  9
$USERR1
 40
0.0
  9
$USERR2
 40
0.0
  9
$USERR3
 40
0.0
  9
$USERR4
 40
0.0
  9
$USERR5
 40
0.0
  9
$WORLDVIEW
 70
     1
  9
$SHADEDGE
 70
     3
  9
$SHADEDIF
 70
    70
  9
$TILEMODE
 70
     1
  9
$MAXACTVP
 70
    64
  9
$PINSBASE
 10
0.0
 20
0.0
 30
0.0
  9
$PLIMCHECK
 70
     0
  9
$PEXTMIN
 10
1.000000000000000E+20
 20
1.000000000000000E+20
 30
1.000000000000000E+20
  9
$PEXTMAX
 10
-1.000000000000000E+20
 20
-1.000000000000000E+20
 30
-1.000000000000000E+20
  9
$PLIMMIN
 10
0.0
 20
0.0
  9
$PLIMMAX
 10
12.0
 20
9.0
  9
$UNITMODE
 70
     0
  9
$VISRETAIN
 70
     1
  9
$PLINEGEN
 70
     0
  9
$PSLTSCALE
 70
     1
  9
$TREEDEPTH
 70
  3020
  9
$CMLSTYLE
  2
Standard
  9
$CMLJUST
 70
     0
  9
$CMLSCALE
 40
1.0
  9
$PROXYGRAPHICS
 70
     1
  9
$MEASUREMENT
 70
     0
  9
$CELWEIGHT
370
    -1
  9
$ENDCAPS
280
     0
  9
$JOINSTYLE
280
     0
  9
$LWDISPLAY
290
     0
  9
$INSUNITS
 70
     4
  9
$HYPERLINKBASE
  1

  9
$STYLESHEET
  1

  9
$XEDIT
290
     1
  9
$CEPSNTYPE
380
     0
  9
$PSTYLEMODE
290
     1
  9
$FINGERPRINTGUID
  2
{DE7AFE86-781A-4AFC-8A2E-93FB5685974A}
  9
$VERSIONGUID
  2
{FAEB1C32-E019-11D5-929B-00C0DF256EC4}
  9
$EXTNAMES
290
     1
  9
$PSVPSCALE
 40
0.0
  9
$OLESTARTUP
290
     0
  9
$SORTENTS
280
   127
  9
$INDEXCTL
280
     0
  9
$HIDETEXT
280
     1
  9
$XCLIPFRAME
290
     0
  9
$HALOGAP
280
     0
  9
$OBSCOLOR
 70
   257
  9
$OBSLTYPE
280
     0
  9
$INTERSECTIONDISPLAY
280
     0
  9
$INTERSECTIONCOLOR
 70
   257
  9
$DIMASSOC
280
     2
  9
$PROJECTNAME
  1

  9
$CAMERADISPLAY
290
     0
  9
$LENSLENGTH
 40
50.0
  9
$CAMERAHEIGHT
 40
0.0
  9
$STEPSPERSEC
 40
2.0
  9
$STEPSIZE
 40
6.0
  9
$3DDWFPREC
 40
2.0
  9
$PSOLWIDTH
 40
0.25
  9
$PSOLHEIGHT
 40
4.0
  9
$LOFTANG1
 40
1.570796326794897
  9
$LOFTANG2
 40
1.570796326794897
  9
$LOFTMAG1
 40
0.0
  9
$LOFTMAG2
 40
0.0
  9
$LOFTPARAM
 70
     7
  9
$LOFTNORMALS
280
     1
  9
$LATITUDE
 40
37.795
  9
$LONGITUDE
 40
-122.394
  9
$NORTHDIRECTION
 40
0.0
  9
$TIMEZONE
 70
 -8000
  9
$LIGHTGLYPHDISPLAY
280
     1
  9
$TILEMODELIGHTSYNCH
280
     1
  9
$SOLIDHIST
280
     1
  9
$SHOWHIST
280
     1
  9
$DWFFRAME
280
     2
  9
$DGNFRAME
280
     2
  9
$REALWORLDSCALE
290
     1
  9
$INTERFERECOLOR
 62
   256
  9
$CSHADOW
280
     0
  9
$SHADOWPLANELOCATION
 40
0.0
  0
ENDSEC
  0
SECTION
  2
CLASSES
  0
CLASS
  1
ACDBDICTIONARYWDFLT
  2
AcDbDictionaryWithDefault
  3
ObjectDBX Classes
 90
        0
 91
        4
280
     0
281
     0
  0
CLASS
  1
VISUALSTYLE
  2
AcDbVisualStyle
  3
ObjectDBX Classes
 90
     4095
 91
        4
280
     0
281
     0
  0
CLASS
  1
MATERIAL
  2
AcDbMaterial
  3
ObjectDBX Classes
 90
     1153
 91
        4
280
     0
281
     0
  0
ENDSEC
  0
SECTION
  2
TABLES
  0
TABLE
  2
VPORT
  5
8
330
0
100
AcDbSymbolTable
 70
     1
  0
VPORT
  5
29
330
8
100
AcDbSymbolTableRecord
100
AcDbViewportTableRecord
  2
*Active
 70
     0
 10
0.0
 20
0.0
 11
1.0
 21
1.0
 12
10.42990654205607
 22
4.5
 13
0.0
 23
0.0
 14
0.5
 24
0.5
 15
0.5
 25
0.5
 16
0.0
 26
0.0
 36
1.0
 17
0.0
 27
0.0
 37
0.0
 40
9.0
 41
1.972972972850329
 42
50.0
 43
0.0
 44
0.0
 50
0.0
 51
0.0
 71
     0
 72
   100
 73
     1
 74
     3
 75
     0
 76
     0
 77
     0
 78
     0
281
     0
 65
     1
110
0.0
120
0.0
130
0.0
111
1.0
121
0.0
131
0.0
112
0.0
122
1.0
132
0.0
 79
     0
146
0.0
 60
     3
 61
     5
292
     1
282
     1
141
0.0
142
0.0
 63
   250
  0
ENDTAB
  0
TABLE
  2
LTYPE
  5
5
330
0
100
AcDbSymbolTable
 70
     1
  0
LTYPE
  5
14
330
5
100
AcDbSymbolTableRecord
100
AcDbLinetypeTableRecord
  2
ByBlock
 70
     0
  3

 72
    65
 73
     0
 40
0.0
  0
LTYPE
  5
15
330
5
100
AcDbSymbolTableRecord
100
AcDbLinetypeTableRecord
  2
ByLayer
 70
     0
  3

 72
    65
 73
     0
 40
0.0
  0
LTYPE
  5
16
330
5
100
AcDbSymbolTableRecord
100
AcDbLinetypeTableRecord
  2
Continuous
 70
     0
  3
Solid line
 72
    65
 73
     0
 40
0.0
  0
ENDTAB
  0
TABLE
  2
LAYER
  5
2
330
0
100
AcDbSymbolTable
 70
     2
  0
LAYER
  5
10
330
2
100
AcDbSymbolTableRecord
100
AcDbLayerTableRecord
  2
0
 70
     0
 62
     7
  6
Continuous
370
    -3
390
F
347
3E
  0
LAYER
  5
40
330
2
100
AcDbSymbolTableRecord
100
AcDbLayerTableRecord
  2
Capa 1
 70
     0
 62
     7
  6
Continuous
370
    -3
390
F
347
3E
  0
ENDTAB
  0
TABLE
  2
STYLE
  5
3
330
0
100
AcDbSymbolTable
 70
     1
  0
STYLE
  5
11
330
3
100
AcDbSymbolTableRecord
100
AcDbTextStyleTableRecord
  2
Standard
 70
     0
 40
0.0
 41
1.0
 50
0.0
 71
     0
 42
0.2
  3
txt
  4

  0
ENDTAB
  0
TABLE
  2
VIEW
  5
6
330
0
100
AcDbSymbolTable
 70
     0
  0
ENDTAB
  0
TABLE
  2
UCS
  5
7
330
0
100
AcDbSymbolTable
 70
     0
  0
ENDTAB
  0
TABLE
  2
APPID
  5
9
330
0
100
AcDbSymbolTable
 70
     2
  0
APPID
  5
12
330
9
100
AcDbSymbolTableRecord
100
AcDbRegAppTableRecord
  2
ACAD
 70
     0
  0
APPID
  5
3F
330
9
100
AcDbSymbolTableRecord
100
AcDbRegAppTableRecord
  2
ODA
 70
     0
  0
ENDTAB
  0
TABLE
  2
DIMSTYLE
  5
A
330
0
100
AcDbSymbolTable
 70
     1
100
AcDbDimStyleTable
  0
DIMSTYLE
105
27
330
A
100
AcDbSymbolTableRecord
100
AcDbDimStyleTableRecord
  2
Standard
 70
     0
340
11
  0
ENDTAB
  0
TABLE
  2
BLOCK_RECORD
  5
1
330
0
100
AcDbSymbolTable
 70
     1
  0
BLOCK_RECORD
  5
1F
330
1
100
AcDbSymbolTableRecord
100
AcDbBlockTableRecord
  2
*Model_Space
340
22
 70
     0
280
     1
281
     0
  0
BLOCK_RECORD
  5
1B
330
1
100
AcDbSymbolTableRecord
100
AcDbBlockTableRecord
  2
*Paper_Space
340
1E
 70
     0
280
     1
281
     0
  0
BLOCK_RECORD
  5
23
330
1
100
AcDbSymbolTableRecord
100
AcDbBlockTableRecord
  2
*Paper_Space0
340
26
 70
     0
280
     1
281
     0
  0
ENDTAB
  0
ENDSEC
  0
SECTION
  2
BLOCKS
  0
BLOCK
  5
20
330
1F
100
AcDbEntity
  8
0
100
AcDbBlockBegin
  2
*Model_Space
 70
     0
 10
0.0
 20
0.0
 30
0.0
  3
*Model_Space
  1

  0
ENDBLK
  5
21
330
1F
100
AcDbEntity
  8
0
100
AcDbBlockEnd
  0
BLOCK
  5
1C
330
1B
100
AcDbEntity
 67
     1
  8
0
100
AcDbBlockBegin
  2
*Paper_Space
 70
     0
 10
0.0
 20
0.0
 30
0.0
  3
*Paper_Space
  1

  0
ENDBLK
  5
1D
330
1B
100
AcDbEntity
 67
     1
  8
0
100
AcDbBlockEnd
  0
BLOCK
  5
24
330
23
100
AcDbEntity
  8
0
100
AcDbBlockBegin
  2
*Paper_Space0
 70
     0
 10
0.0
 20
0.0
 30
0.0
  3
*Paper_Space0
  1

  0
ENDBLK
  5
25
330
23
100
AcDbEntity
  8
0
100
AcDbBlockEnd
  0
ENDSEC
  0
SECTION
  2
ENTITIES
  0
SPLINE
  5
41
330
1F
100
AcDbEntity
  8
Capa 1
 62
   142
370
     9
100
AcDbSpline
210
0.0
220
0.0
230
1.0
 70
    11
 71
     3
 72
   164
 73
   160
 74
     0
 42
0.0000000001
 43
0.0000000001
 40
0.0
 40
0.0
 40
0.0
 40
0.0
 40
0.024390243902439
 40
0.024390243902439
 40
0.024390243902439
 40
0.024390243902439
 40
0.0487804878048781
 40
0.0487804878048781
 40
0.0487804878048781
 40
0.0487804878048781
 40
0.0731707317073171
 40
0.0731707317073171
 40
0.0731707317073171
 40
0.0731707317073171
 40
0.0975609756097561
 40
0.0975609756097561
 40
0.0975609756097561
 40
0.0975609756097561
 40
0.1219512195121951
 40
0.1219512195121951
 40
0.1219512195121951
 40
0.1219512195121951
 40
0.1463414634146341
 40
0.1463414634146341
 40
0.1463414634146341
 40
0.1463414634146341
 40
0.1707317073170732
 40
0.1707317073170732
 40
0.1707317073170732
 40
0.1707317073170732
 40
0.1951219512195122
 40
0.1951219512195122
 40
0.1951219512195122
 40
0.1951219512195122
 40
0.2195121951219512
 40
0.2195121951219512
 40
0.2195121951219512
 40
0.2195121951219512
 40
0.2439024390243902
 40
0.2439024390243902
 40
0.2439024390243902
 40
0.2439024390243902
 40
0.2682926829268293
 40
0.2682926829268293
 40
0.2682926829268293
 40
0.2682926829268293
 40
0.2926829268292683
 40
0.2926829268292683
 40
0.2926829268292683
 40
0.2926829268292683
 40
0.3170731707317073
 40
0.3170731707317073
 40
0.3170731707317073
 40
0.3170731707317073
 40
0.3414634146341464
 40
0.3414634146341464
 40
0.3414634146341464
 40
0.3414634146341464
 40
0.3658536585365854
 40
0.3658536585365854
 40
0.3658536585365854
 40
0.3658536585365854
 40
0.3902439024390244
 40
0.3902439024390244
 40
0.3902439024390244
 40
0.3902439024390244
 40
0.4146341463414634
 40
0.4146341463414634
 40
0.4146341463414634
 40
0.4146341463414634
 40
0.4390243902439024
 40
0.4390243902439024
 40
0.4390243902439024
 40
0.4390243902439024
 40
0.4634146341463415
 40
0.4634146341463415
 40
0.4634146341463415
 40
0.4634146341463415
 40
0.4878048780487805
 40
0.4878048780487805
 40
0.4878048780487805
 40
0.4878048780487805
 40
0.5121951219512195
 40
0.5121951219512195
 40
0.5121951219512195
 40
0.5121951219512195
 40
0.5365853658536586
 40
0.5365853658536586
 40
0.5365853658536586
 40
0.5365853658536586
 40
0.5609756097560976
 40
0.5609756097560976
 40
0.5609756097560976
 40
0.5609756097560976
 40
0.5853658536585366
 40
0.5853658536585366
 40
0.5853658536585366
 40
0.5853658536585366
 40
0.6097560975609756
 40
0.6097560975609756
 40
0.6097560975609756
 40
0.6097560975609756
 40
0.6341463414634146
 40
0.6341463414634146
 40
0.6341463414634146
 40
0.6341463414634146
 40
0.6585365853658537
 40
0.6585365853658537
 40
0.6585365853658537
 40
0.6585365853658537
 40
0.6829268292682927
 40
0.6829268292682927
 40
0.6829268292682927
 40
0.6829268292682927
 40
0.7073170731707317
 40
0.7073170731707317
 40
0.7073170731707317
 40
0.7073170731707317
 40
0.7317073170731707
 40
0.7317073170731707
 40
0.7317073170731707
 40
0.7317073170731707
 40
0.7560975609756098
 40
0.7560975609756098
 40
0.7560975609756098
 40
0.7560975609756098
 40
0.7804878048780488
 40
0.7804878048780488
 40
0.7804878048780488
 40
0.7804878048780488
 40
0.8048780487804879
 40
0.8048780487804879
 40
0.8048780487804879
 40
0.8048780487804879
 40
0.8292682926829268
 40
0.8292682926829268
 40
0.8292682926829268
 40
0.8292682926829268
 40
0.8536585365853658
 40
0.8536585365853658
 40
0.8536585365853658
 40
0.8536585365853658
 40
0.8780487804878049
 40
0.8780487804878049
 40
0.8780487804878049
 40
0.8780487804878049
 40
0.9024390243902439
 40
0.9024390243902439
 40
0.9024390243902439
 40
0.9024390243902439
 40
0.926829268292683
 40
0.926829268292683
 40
0.926829268292683
 40
0.926829268292683
 40
0.9512195121951219
 40
0.9512195121951219
 40
0.9512195121951219
 40
0.9512195121951219
 40
1.0
 40
1.0
 40
1.0
 40
1.0
 10
-77.9936
 20
130.6777
 30
0.0
 10
-77.9936
 20
130.6777
 30
0.0
 10
-70.5408
 20
127.5907
 30
0.0
 10
-70.5408
 20
127.5907
 30
0.0
 10
-70.5408
 20
127.5907
 30
0.0
 10
-70.5408
 20
127.5907
 30
0.0
 10
-72.3449
 20
123.2352
 30
0.0
 10
-72.3449
 20
123.2352
 30
0.0
 10
-72.3449
 20
123.2352
 30
0.0
 10
-72.3449
 20
123.2352
 30
0.0
 10
-69.5732
 20
122.0871
 30
0.0
 10
-69.5732
 20
122.0871
 30
0.0
 10
-69.5732
 20
122.0871
 30
0.0
 10
-69.5732
 20
122.0871
 30
0.0
 10
-67.7691
 20
126.4426
 30
0.0
 10
-67.7691
 20
126.4426
 30
0.0
 10
-67.7691
 20
126.4426
 30
0.0
 10
-67.7691
 20
126.4426
 30
0.0
 10
-60.316
 20
123.3554
 30
0.0
 10
-60.316
 20
123.3554
 30
0.0
 10
-60.316
 20
123.3554
 30
0.0
 10
-60.316
 20
123.3554
 30
0.0
 10
-57.2288
 20
115.9024
 30
0.0
 10
-57.2288
 20
115.9024
 30
0.0
 10
-57.2288
 20
115.9024
 30
0.0
 10
-57.2288
 20
115.9024
 30
0.0
 10
-61.5845
 20
114.0982
 30
0.0
 10
-61.5845
 20
114.0982
 30
0.0
 10
-61.5845
 20
114.0982
 30
0.0
 10
-61.5845
 20
114.0982
 30
0.0
 10
-60.4364
 20
111.3266
 30
0.0
 10
-60.4364
 20
111.3266
 30
0.0
 10
-60.4364
 20
111.3266
 30
0.0
 10
-60.4364
 20
111.3266
 30
0.0
 10
-56.0808
 20
113.1307
 30
0.0
 10
-56.0808
 20
113.1307
 30
0.0
 10
-56.0808
 20
113.1307
 30
0.0
 10
-56.0808
 20
113.1307
 30
0.0
 10
-52.9936
 20
105.6777
 30
0.0
 10
-52.9936
 20
105.6777
 30
0.0
 10
-52.9936
 20
105.6777
 30
0.0
 10
-52.9936
 20
105.6777
 30
0.0
 10
-56.0808
 20
98.2246
 30
0.0
 10
-56.0808
 20
98.2246
 30
0.0
 10
-56.0808
 20
98.2246
 30
0.0
 10
-56.0808
 20
98.2246
 30
0.0
 10
-60.4365
 20
100.0288
 30
0.0
 10
-60.4365
 20
100.0288
 30
0.0
 10
-60.4365
 20
100.0288
 30
0.0
 10
-60.4365
 20
100.0288
 30
0.0
 10
-61.5846
 20
97.2572
 30
0.0
 10
-61.5846
 20
97.2572
 30
0.0
 10
-61.5846
 20
97.2572
 30
0.0
 10
-61.5846
 20
97.2572
 30
0.0
 10
-57.2289
 20
95.453
 30
0.0
 10
-57.2289
 20
95.453
 30
0.0
 10
-57.2289
 20
95.453
 30
0.0
 10
-57.2289
 20
95.453
 30
0.0
 10
-60.316
 20
88.0
 30
0.0
 10
-60.316
 20
88.0
 30
0.0
 10
-60.316
 20
88.0
 30
0.0
 10
-60.316
 20
88.0
 30
0.0
 10
-67.7692
 20
84.9128
 30
0.0
 10
-67.7692
 20
84.9128
 30
0.0
 10
-67.7692
 20
84.9128
 30
0.0
 10
-67.7692
 20
84.9128
 30
0.0
 10
-69.5733
 20
89.2683
 30
0.0
 10
-69.5733
 20
89.2683
 30
0.0
 10
-69.5733
 20
89.2683
 30
0.0
 10
-69.5733
 20
89.2683
 30
0.0
 10
-72.345
 20
88.1203
 30
0.0
 10
-72.345
 20
88.1203
 30
0.0
 10
-72.345
 20
88.1203
 30
0.0
 10
-72.345
 20
88.1203
 30
0.0
 10
-70.5409
 20
83.7647
 30
0.0
 10
-70.5409
 20
83.7647
 30
0.0
 10
-70.5409
 20
83.7647
 30
0.0
 10
-70.5409
 20
83.7647
 30
0.0
 10
-77.9936
 20
80.6777
 30
0.0
 10
-77.9936
 20
80.6777
 30
0.0
 10
-77.9936
 20
80.6777
 30
0.0
 10
-77.9936
 20
80.6777
 30
0.0
 10
-85.4467
 20
83.7648
 30
0.0
 10
-85.4467
 20
83.7648
 30
0.0
 10
-85.4467
 20
83.7648
 30
0.0
 10
-85.4467
 20
83.7648
 30
0.0
 10
-83.6426
 20
88.1203
 30
0.0
 10
-83.6426
 20
88.1203
 30
0.0
 10
-83.6426
 20
88.1203
 30
0.0
 10
-83.6426
 20
88.1203
 30
0.0
 10
-86.4143
 20
89.2683
 30
0.0
 10
-86.4143
 20
89.2683
 30
0.0
 10
-86.4143
 20
89.2683
 30
0.0
 10
-86.4143
 20
89.2683
 30
0.0
 10
-88.2184
 20
84.9129
 30
0.0
 10
-88.2184
 20
84.9129
 30
0.0
 10
-88.2184
 20
84.9129
 30
0.0
 10
-88.2184
 20
84.9129
 30
0.0
 10
-95.6712
 20
88.0
 30
0.0
 10
-95.6712
 20
88.0
 30
0.0
 10
-95.6712
 20
88.0
 30
0.0
 10
-95.6712
 20
88.0
 30
0.0
 10
-98.7584
 20
95.4531
 30
0.0
 10
-98.7584
 20
95.4531
 30
0.0
 10
-98.7584
 20
95.4531
 30
0.0
 10
-98.7584
 20
95.4531
 30
0.0
 10
-94.403
 20
97.2572
 30
0.0
 10
-94.403
 20
97.2572
 30
0.0
 10
-94.403
 20
97.2572
 30
0.0
 10
-94.403
 20
97.2572
 30
0.0
 10
-95.5511
 20
100.0288
 30
0.0
 10
-95.5511
 20
100.0288
 30
0.0
 10
-95.5511
 20
100.0288
 30
0.0
 10
-95.5511
 20
100.0288
 30
0.0
 10
-99.9065
 20
98.2248
 30
0.0
 10
-99.9065
 20
98.2248
 30
0.0
 10
-99.9065
 20
98.2248
 30
0.0
 10
-99.9065
 20
98.2248
 30
0.0
 10
-102.9936
 20
105.6777
 30
0.0
 10
-102.9936
 20
105.6777
 30
0.0
 10
-102.9936
 20
105.6777
 30
0.0
 10
-102.9936
 20
105.6777
 30
0.0
 10
-99.9065
 20
113.1306
 30
0.0
 10
-99.9065
 20
113.1306
 30
0.0
 10
-99.9065
 20
113.1306
 30
0.0
 10
-99.9065
 20
113.1306
 30
0.0
 10
-95.5512
 20
111.3266
 30
0.0
 10
-95.5512
 20
111.3266
 30
0.0
 10
-95.5512
 20
111.3266
 30
0.0
 10
-95.5512
 20
111.3266
 30
0.0
 10
-94.4031
 20
114.0982
 30
0.0
 10
-94.4031
 20
114.0982
 30
0.0
 10
-94.4031
 20
114.0982
 30
0.0
 10
-94.4031
 20
114.0982
 30
0.0
 10
-98.7584
 20
115.9022
 30
0.0
 10
-98.7584
 20
115.9022
 30
0.0
 10
-98.7584
 20
115.9022
 30
0.0
 10
-98.7584
 20
115.9022
 30
0.0
 10
-95.6712
 20
123.3554
 30
0.0
 10
-95.6712
 20
123.3554
 30
0.0
 10
-95.6712
 20
123.3554
 30
0.0
 10
-95.6712
 20
123.3554
 30
0.0
 10
-88.2184
 20
126.4425
 30
0.0
 10
-88.2184
 20
126.4425
 30
0.0
 10
-88.2184
 20
126.4425
 30
0.0
 10
-88.2184
 20
126.4425
 30
0.0
 10
-86.4144
 20
122.0871
 30
0.0
 10
-86.4144
 20
122.0871
 30
0.0
 10
-86.4144
 20
122.0871
 30
0.0
 10
-86.4144
 20
122.0871
 30
0.0
 10
-83.6427
 20
123.2352
 30
0.0
 10
-83.6427
 20
123.2352
 30
0.0
 10
-83.6427
 20
123.2352
 30
0.0
 10
-83.6427
 20
123.2352
 30
0.0
 10
-85.4468
 20
127.5905
 30
0.0
 10
-85.4468
 20
127.5905
 30
0.0
 10
-85.4468
 20
127.5905
 30
0.0
 10
-85.4468
 20
127.5905
 30
0.0
 10
-77.9936
 20
130.6777
 30
0.0
 10
-77.9936
 20
130.6777
 30
0.0
  0
SPLINE
  5
42
330
1F
100
AcDbEntity
  8
Capa 1
 62
   142
370
     9
100
AcDbSpline
210
0.0
220
0.0
230
1.0
 70
    11
 71
     3
 72
   164
 73
   160
 74
     0
 42
0.0000000001
 43
0.0000000001
 40
0.0
 40
0.0
 40
0.0
 40
0.0
 40
0.024390243902439
 40
0.024390243902439
 40
0.024390243902439
 40
0.024390243902439
 40
0.0487804878048781
 40
0.0487804878048781
 40
0.0487804878048781
 40
0.0487804878048781
 40
0.0731707317073171
 40
0.0731707317073171
 40
0.0731707317073171
 40
0.0731707317073171
 40
0.0975609756097561
 40
0.0975609756097561
 40
0.0975609756097561
 40
0.0975609756097561
 40
0.1219512195121951
 40
0.1219512195121951
 40
0.1219512195121951
 40
0.1219512195121951
 40
0.1463414634146341
 40
0.1463414634146341
 40
0.1463414634146341
 40
0.1463414634146341
 40
0.1707317073170732
 40
0.1707317073170732
 40
0.1707317073170732
 40
0.1707317073170732
 40
0.1951219512195122
 40
0.1951219512195122
 40
0.1951219512195122
 40
0.1951219512195122
 40
0.2195121951219512
 40
0.2195121951219512
 40
0.2195121951219512
 40
0.2195121951219512
 40
0.2439024390243902
 40
0.2439024390243902
 40
0.2439024390243902
 40
0.2439024390243902
 40
0.2682926829268293
 40
0.2682926829268293
 40
0.2682926829268293
 40
0.2682926829268293
 40
0.2926829268292683
 40
0.2926829268292683
 40
0.2926829268292683
 40
0.2926829268292683
 40
0.3170731707317073
 40
0.3170731707317073
 40
0.3170731707317073
 40
0.3170731707317073
 40
0.3414634146341464
 40
0.3414634146341464
 40
0.3414634146341464
 40
0.3414634146341464
 40
0.3658536585365854
 40
0.3658536585365854
 40
0.3658536585365854
 40
0.3658536585365854
 40
0.3902439024390244
 40
0.3902439024390244
 40
0.3902439024390244
 40
0.3902439024390244
 40
0.4146341463414634
 40
0.4146341463414634
 40
0.4146341463414634
 40
0.4146341463414634
 40
0.4390243902439024
 40
0.4390243902439024
 40
0.4390243902439024
 40
0.4390243902439024
 40
0.4634146341463415
 40
0.4634146341463415
 40
0.4634146341463415
 40
0.4634146341463415
 40
0.4878048780487805
 40
0.4878048780487805
 40
0.4878048780487805
 40
0.4878048780487805
 40
0.5121951219512195
 40
0.5121951219512195
 40
0.5121951219512195
 40
0.5121951219512195
 40
0.5365853658536586
 40
0.5365853658536586
 40
0.5365853658536586
 40
0.5365853658536586
 40
0.5609756097560976
 40
0.5609756097560976
 40
0.5609756097560976
 40
0.5609756097560976
 40
0.5853658536585366
 40
0.5853658536585366
 40
0.5853658536585366
 40
0.5853658536585366
 40
0.6097560975609756
 40
0.6097560975609756
 40
0.6097560975609756
 40
0.6097560975609756
 40
0.6341463414634146
 40
0.6341463414634146
 40
0.6341463414634146
 40
0.6341463414634146
 40
0.6585365853658537
 40
0.6585365853658537
 40
0.6585365853658537
 40
0.6585365853658537
 40
0.6829268292682927
 40
0.6829268292682927
 40
0.6829268292682927
 40
0.6829268292682927
 40
0.7073170731707317
 40
0.7073170731707317
 40
0.7073170731707317
 40
0.7073170731707317
 40
0.7317073170731707
 40
0.7317073170731707
 40
0.7317073170731707
 40
0.7317073170731707
 40
0.7560975609756098
 40
0.7560975609756098
 40
0.7560975609756098
 40
0.7560975609756098
 40
0.7804878048780488
 40
0.7804878048780488
 40
0.7804878048780488
 40
0.7804878048780488
 40
0.8048780487804879
 40
0.8048780487804879
 40
0.8048780487804879
 40
0.8048780487804879
 40
0.8292682926829268
 40
0.8292682926829268
 40
0.8292682926829268
 40
0.8292682926829268
 40
0.8536585365853658
 40
0.8536585365853658
 40
0.8536585365853658
 40
0.8536585365853658
 40
0.8780487804878049
 40
0.8780487804878049
 40
0.8780487804878049
 40
0.8780487804878049
 40
0.9024390243902439
 40
0.9024390243902439
 40
0.9024390243902439
 40
0.9024390243902439
 40
0.926829268292683
 40
0.926829268292683
 40
0.926829268292683
 40
0.926829268292683
 40
0.9512195121951219
 40
0.9512195121951219
 40
0.9512195121951219
 40
0.9512195121951219
 40
1.0
 40
1.0
 40
1.0
 40
1.0
 10
-25.6061
 20
130.6777
 30
0.0
 10
-25.6061
 20
130.6777
 30
0.0
 10
-18.1533
 20
127.5907
 30
0.0
 10
-18.1533
 20
127.5907
 30
0.0
 10
-18.1533
 20
127.5907
 30
0.0
 10
-18.1533
 20
127.5907
 30
0.0
 10
-19.9574
 20
123.2352
 30
0.0
 10
-19.9574
 20
123.2352
 30
0.0
 10
-19.9574
 20
123.2352
 30
0.0
 10
-19.9574
 20
123.2352
 30
0.0
 10
-17.1857
 20
122.0871
 30
0.0
 10
-17.1857
 20
122.0871
 30
0.0
 10
-17.1857
 20
122.0871
 30
0.0
 10
-17.1857
 20
122.0871
 30
0.0
 10
-15.3816
 20
126.4426
 30
0.0
 10
-15.3816
 20
126.4426
 30
0.0
 10
-15.3816
 20
126.4426
 30
0.0
 10
-15.3816
 20
126.4426
 30
0.0
 10
-7.9285
 20
123.3554
 30
0.0
 10
-7.9285
 20
123.3554
 30
0.0
 10
-7.9285
 20
123.3554
 30
0.0
 10
-7.9285
 20
123.3554
 30
0.0
 10
-4.8413
 20
115.9024
 30
0.0
 10
-4.8413
 20
115.9024
 30
0.0
 10
-4.8413
 20
115.9024
 30
0.0
 10
-4.8413
 20
115.9024
 30
0.0
 10
-9.197
 20
114.0982
 30
0.0
 10
-9.197
 20
114.0982
 30
0.0
 10
-9.197
 20
114.0982
 30
0.0
 10
-9.197
 20
114.0982
 30
0.0
 10
-8.0489
 20
111.3266
 30
0.0
 10
-8.0489
 20
111.3266
 30
0.0
 10
-8.0489
 20
111.3266
 30
0.0
 10
-8.0489
 20
111.3266
 30
0.0
 10
-3.6933
 20
113.1307
 30
0.0
 10
-3.6933
 20
113.1307
 30
0.0
 10
-3.6933
 20
113.1307
 30
0.0
 10
-3.6933
 20
113.1307
 30
0.0
 10
-0.6061
 20
105.6777
 30
0.0
 10
-0.6061
 20
105.6777
 30
0.0
 10
-0.6061
 20
105.6777
 30
0.0
 10
-0.6061
 20
105.6777
 30
0.0
 10
-3.6933
 20
98.2246
 30
0.0
 10
-3.6933
 20
98.2246
 30
0.0
 10
-3.6933
 20
98.2246
 30
0.0
 10
-3.6933
 20
98.2246
 30
0.0
 10
-8.049
 20
100.0288
 30
0.0
 10
-8.049
 20
100.0288
 30
0.0
 10
-8.049
 20
100.0288
 30
0.0
 10
-8.049
 20
100.0288
 30
0.0
 10
-9.1971
 20
97.2572
 30
0.0
 10
-9.1971
 20
97.2572
 30
0.0
 10
-9.1971
 20
97.2572
 30
0.0
 10
-9.1971
 20
97.2572
 30
0.0
 10
-4.8414
 20
95.453
 30
0.0
 10
-4.8414
 20
95.453
 30
0.0
 10
-4.8414
 20
95.453
 30
0.0
 10
-4.8414
 20
95.453
 30
0.0
 10
-7.9285
 20
88.0
 30
0.0
 10
-7.9285
 20
88.0
 30
0.0
 10
-7.9285
 20
88.0
 30
0.0
 10
-7.9285
 20
88.0
 30
0.0
 10
-15.3817
 20
84.9128
 30
0.0
 10
-15.3817
 20
84.9128
 30
0.0
 10
-15.3817
 20
84.9128
 30
0.0
 10
-15.3817
 20
84.9128
 30
0.0
 10
-17.1858
 20
89.2683
 30
0.0
 10
-17.1858
 20
89.2683
 30
0.0
 10
-17.1858
 20
89.2683
 30
0.0
 10
-17.1858
 20
89.2683
 30
0.0
 10
-19.9575
 20
88.1203
 30
0.0
 10
-19.9575
 20
88.1203
 30
0.0
 10
-19.9575
 20
88.1203
 30
0.0
 10
-19.9575
 20
88.1203
 30
0.0
 10
-18.1534
 20
83.7647
 30
0.0
 10
-18.1534
 20
83.7647
 30
0.0
 10
-18.1534
 20
83.7647
 30
0.0
 10
-18.1534
 20
83.7647
 30
0.0
 10
-25.6061
 20
80.6777
 30
0.0
 10
-25.6061
 20
80.6777
 30
0.0
 10
-25.6061
 20
80.6777
 30
0.0
 10
-25.6061
 20
80.6777
 30
0.0
 10
-33.0592
 20
83.7648
 30
0.0
 10
-33.0592
 20
83.7648
 30
0.0
 10
-33.0592
 20
83.7648
 30
0.0
 10
-33.0592
 20
83.7648
 30
0.0
 10
-31.2551
 20
88.1203
 30
0.0
 10
-31.2551
 20
88.1203
 30
0.0
 10
-31.2551
 20
88.1203
 30
0.0
 10
-31.2551
 20
88.1203
 30
0.0
 10
-34.0268
 20
89.2683
 30
0.0
 10
-34.0268
 20
89.2683
 30
0.0
 10
-34.0268
 20
89.2683
 30
0.0
 10
-34.0268
 20
89.2683
 30
0.0
 10
-35.8309
 20
84.9129
 30
0.0
 10
-35.8309
 20
84.9129
 30
0.0
 10
-35.8309
 20
84.9129
 30
0.0
 10
-35.8309
 20
84.9129
 30
0.0
 10
-43.2837
 20
88.0
 30
0.0
 10
-43.2837
 20
88.0
 30
0.0
 10
-43.2837
 20
88.0
 30
0.0
 10
-43.2837
 20
88.0
 30
0.0
 10
-46.3709
 20
95.4531
 30
0.0
 10
-46.3709
 20
95.4531
 30
0.0
 10
-46.3709
 20
95.4531
 30
0.0
 10
-46.3709
 20
95.4531
 30
0.0
 10
-42.0155
 20
97.2572
 30
0.0
 10
-42.0155
 20
97.2572
 30
0.0
 10
-42.0155
 20
97.2572
 30
0.0
 10
-42.0155
 20
97.2572
 30
0.0
 10
-43.1636
 20
100.0288
 30
0.0
 10
-43.1636
 20
100.0288
 30
0.0
 10
-43.1636
 20
100.0288
 30
0.0
 10
-43.1636
 20
100.0288
 30
0.0
 10
-47.519
 20
98.2248
 30
0.0
 10
-47.519
 20
98.2248
 30
0.0
 10
-47.519
 20
98.2248
 30
0.0
 10
-47.519
 20
98.2248
 30
0.0
 10
-50.6061
 20
105.6777
 30
0.0
 10
-50.6061
 20
105.6777
 30
0.0
 10
-50.6061
 20
105.6777
 30
0.0
 10
-50.6061
 20
105.6777
 30
0.0
 10
-47.519
 20
113.1306
 30
0.0
 10
-47.519
 20
113.1306
 30
0.0
 10
-47.519
 20
113.1306
 30
0.0
 10
-47.519
 20
113.1306
 30
0.0
 10
-43.1637
 20
111.3266
 30
0.0
 10
-43.1637
 20
111.3266
 30
0.0
 10
-43.1637
 20
111.3266
 30
0.0
 10
-43.1637
 20
111.3266
 30
0.0
 10
-42.0156
 20
114.0982
 30
0.0
 10
-42.0156
 20
114.0982
 30
0.0
 10
-42.0156
 20
114.0982
 30
0.0
 10
-42.0156
 20
114.0982
 30
0.0
 10
-46.3709
 20
115.9022
 30
0.0
 10
-46.3709
 20
115.9022
 30
0.0
 10
-46.3709
 20
115.9022
 30
0.0
 10
-46.3709
 20
115.9022
 30
0.0
 10
-43.2837
 20
123.3554
 30
0.0
 10
-43.2837
 20
123.3554
 30
0.0
 10
-43.2837
 20
123.3554
 30
0.0
 10
-43.2837
 20
123.3554
 30
0.0
 10
-35.8309
 20
126.4425
 30
0.0
 10
-35.8309
 20
126.4425
 30
0.0
 10
-35.8309
 20
126.4425
 30
0.0
 10
-35.8309
 20
126.4425
 30
0.0
 10
-34.0269
 20
122.0871
 30
0.0
 10
-34.0269
 20
122.0871
 30
0.0
 10
-34.0269
 20
122.0871
 30
0.0
 10
-34.0269
 20
122.0871
 30
0.0
 10
-31.2552
 20
123.2352
 30
0.0
 10
-31.2552
 20
123.2352
 30
0.0
 10
-31.2552
 20
123.2352
 30
0.0
 10
-31.2552
 20
123.2352
 30
0.0
 10
-33.0593
 20
127.5905
 30
0.0
 10
-33.0593
 20
127.5905
 30
0.0
 10
-33.0593
 20
127.5905
 30
0.0
 10
-33.0593
 20
127.5905
 30
0.0
 10
-25.6061
 20
130.6777
 30
0.0
 10
-25.6061
 20
130.6777
 30
0.0
  0
SPLINE
  5
43
330
1F
100
AcDbEntity
  8
Capa 1
 62
   142
370
     9
100
AcDbSpline
210
0.0
220
0.0
230
1.0
 70
    11
 71
     3
 72
   164
 73
   160
 74
     0
 42
0.0000000001
 43
0.0000000001
 40
0.0
 40
0.0
 40
0.0
 40
0.0
 40
0.024390243902439
 40
0.024390243902439
 40
0.024390243902439
 40
0.024390243902439
 40
0.0487804878048781
 40
0.0487804878048781
 40
0.0487804878048781
 40
0.0487804878048781
 40
0.0731707317073171
 40
0.0731707317073171
 40
0.0731707317073171
 40
0.0731707317073171
 40
0.0975609756097561
 40
0.0975609756097561
 40
0.0975609756097561
 40
0.0975609756097561
 40
0.1219512195121951
 40
0.1219512195121951
 40
0.1219512195121951
 40
0.1219512195121951
 40
0.1463414634146341
 40
0.1463414634146341
 40
0.1463414634146341
 40
0.1463414634146341
 40
0.1707317073170732
 40
0.1707317073170732
 40
0.1707317073170732
 40
0.1707317073170732
 40
0.1951219512195122
 40
0.1951219512195122
 40
0.1951219512195122
 40
0.1951219512195122
 40
0.2195121951219512
 40
0.2195121951219512
 40
0.2195121951219512
 40
0.2195121951219512
 40
0.2439024390243902
 40
0.2439024390243902
 40
0.2439024390243902
 40
0.2439024390243902
 40
0.2682926829268293
 40
0.2682926829268293
 40
0.2682926829268293
 40
0.2682926829268293
 40
0.2926829268292683
 40
0.2926829268292683
 40
0.2926829268292683
 40
0.2926829268292683
 40
0.3170731707317073
 40
0.3170731707317073
 40
0.3170731707317073
 40
0.3170731707317073
 40
0.3414634146341464
 40
0.3414634146341464
 40
0.3414634146341464
 40
0.3414634146341464
 40
0.3658536585365854
 40
0.3658536585365854
 40
0.3658536585365854
 40
0.3658536585365854
 40
0.3902439024390244
 40
0.3902439024390244
 40
0.3902439024390244
 40
0.3902439024390244
 40
0.4146341463414634
 40
0.4146341463414634
 40
0.4146341463414634
 40
0.4146341463414634
 40
0.4390243902439024
 40
0.4390243902439024
 40
0.4390243902439024
 40
0.4390243902439024
 40
0.4634146341463415
 40
0.4634146341463415
 40
0.4634146341463415
 40
0.4634146341463415
 40
0.4878048780487805
 40
0.4878048780487805
 40
0.4878048780487805
 40
0.4878048780487805
 40
0.5121951219512195
 40
0.5121951219512195
 40
0.5121951219512195
 40
0.5121951219512195
 40
0.5365853658536586
 40
0.5365853658536586
 40
0.5365853658536586
 40
0.5365853658536586
 40
0.5609756097560976
 40
0.5609756097560976
 40
0.5609756097560976
 40
0.5609756097560976
 40
0.5853658536585366
 40
0.5853658536585366
 40
0.5853658536585366
 40
0.5853658536585366
 40
0.6097560975609756
 40
0.6097560975609756
 40
0.6097560975609756
 40
0.6097560975609756
 40
0.6341463414634146
 40
0.6341463414634146
 40
0.6341463414634146
 40
0.6341463414634146
 40
0.6585365853658537
 40
0.6585365853658537
 40
0.6585365853658537
 40
0.6585365853658537
 40
0.6829268292682927
 40
0.6829268292682927
 40
0.6829268292682927
 40
0.6829268292682927
 40
0.7073170731707317
 40
0.7073170731707317
 40
0.7073170731707317
 40
0.7073170731707317
 40
0.7317073170731707
 40
0.7317073170731707
 40
0.7317073170731707
 40
0.7317073170731707
 40
0.7560975609756098
 40
0.7560975609756098
 40
0.7560975609756098
 40
0.7560975609756098
 40
0.7804878048780488
 40
0.7804878048780488
 40
0.7804878048780488
 40
0.7804878048780488
 40
0.8048780487804879
 40
0.8048780487804879
 40
0.8048780487804879
 40
0.8048780487804879
 40
0.8292682926829268
 40
0.8292682926829268
 40
0.8292682926829268
 40
0.8292682926829268
 40
0.8536585365853658
 40
0.8536585365853658
 40
0.8536585365853658
 40
0.8536585365853658
 40
0.8780487804878049
 40
0.8780487804878049
 40
0.8780487804878049
 40
0.8780487804878049
 40
0.9024390243902439
 40
0.9024390243902439
 40
0.9024390243902439
 40
0.9024390243902439
 40
0.926829268292683
 40
0.926829268292683
 40
0.926829268292683
 40
0.926829268292683
 40
0.9512195121951219
 40
0.9512195121951219
 40
0.9512195121951219
 40
0.9512195121951219
 40
1.0
 40
1.0
 40
1.0
 40
1.0
 10
26.7814
 20
130.6777
 30
0.0
 10
26.7814
 20
130.6777
 30
0.0
 10
34.2342
 20
127.5907
 30
0.0
 10
34.2342
 20
127.5907
 30
0.0
 10
34.2342
 20
127.5907
 30
0.0
 10
34.2342
 20
127.5907
 30
0.0
 10
32.4301
 20
123.2352
 30
0.0
 10
32.4301
 20
123.2352
 30
0.0
 10
32.4301
 20
123.2352
 30
0.0
 10
32.4301
 20
123.2352
 30
0.0
 10
35.2018
 20
122.0871
 30
0.0
 10
35.2018
 20
122.0871
 30
0.0
 10
35.2018
 20
122.0871
 30
0.0
 10
35.2018
 20
122.0871
 30
0.0
 10
37.0059
 20
126.4426
 30
0.0
 10
37.0059
 20
126.4426
 30
0.0
 10
37.0059
 20
126.4426
 30
0.0
 10
37.0059
 20
126.4426
 30
0.0
 10
44.459
 20
123.3554
 30
0.0
 10
44.459
 20
123.3554
 30
0.0
 10
44.459
 20
123.3554
 30
0.0
 10
44.459
 20
123.3554
 30
0.0
 10
47.5462
 20
115.9024
 30
0.0
 10
47.5462
 20
115.9024
 30
0.0
 10
47.5462
 20
115.9024
 30
0.0
 10
47.5462
 20
115.9024
 30
0.0
 10
43.1905
 20
114.0982
 30
0.0
 10
43.1905
 20
114.0982
 30
0.0
 10
43.1905
 20
114.0982
 30
0.0
 10
43.1905
 20
114.0982
 30
0.0
 10
44.3386
 20
111.3266
 30
0.0
 10
44.3386
 20
111.3266
 30
0.0
 10
44.3386
 20
111.3266
 30
0.0
 10
44.3386
 20
111.3266
 30
0.0
 10
48.6942
 20
113.1307
 30
0.0
 10
48.6942
 20
113.1307
 30
0.0
 10
48.6942
 20
113.1307
 30
0.0
 10
48.6942
 20
113.1307
 30
0.0
 10
51.7814
 20
105.6777
 30
0.0
 10
51.7814
 20
105.6777
 30
0.0
 10
51.7814
 20
105.6777
 30
0.0
 10
51.7814
 20
105.6777
 30
0.0
 10
48.6942
 20
98.2246
 30
0.0
 10
48.6942
 20
98.2246
 30
0.0
 10
48.6942
 20
98.2246
 30
0.0
 10
48.6942
 20
98.2246
 30
0.0
 10
44.3385
 20
100.0288
 30
0.0
 10
44.3385
 20
100.0288
 30
0.0
 10
44.3385
 20
100.0288
 30
0.0
 10
44.3385
 20
100.0288
 30
0.0
 10
43.1904
 20
97.2572
 30
0.0
 10
43.1904
 20
97.2572
 30
0.0
 10
43.1904
 20
97.2572
 30
0.0
 10
43.1904
 20
97.2572
 30
0.0
 10
47.5461
 20
95.453
 30
0.0
 10
47.5461
 20
95.453
 30
0.0
 10
47.5461
 20
95.453
 30
0.0
 10
47.5461
 20
95.453
 30
0.0
 10
44.459
 20
88.0
 30
0.0
 10
44.459
 20
88.0
 30
0.0
 10
44.459
 20
88.0
 30
0.0
 10
44.459
 20
88.0
 30
0.0
 10
37.0058
 20
84.9128
 30
0.0
 10
37.0058
 20
84.9128
 30
0.0
 10
37.0058
 20
84.9128
 30
0.0
 10
37.0058
 20
84.9128
 30
0.0
 10
35.2017
 20
89.2683
 30
0.0
 10
35.2017
 20
89.2683
 30
0.0
 10
35.2017
 20
89.2683
 30
0.0
 10
35.2017
 20
89.2683
 30
0.0
 10
32.43
 20
88.1203
 30
0.0
 10
32.43
 20
88.1203
 30
0.0
 10
32.43
 20
88.1203
 30
0.0
 10
32.43
 20
88.1203
 30
0.0
 10
34.2341
 20
83.7647
 30
0.0
 10
34.2341
 20
83.7647
 30
0.0
 10
34.2341
 20
83.7647
 30
0.0
 10
34.2341
 20
83.7647
 30
0.0
 10
26.7814
 20
80.6777
 30
0.0
 10
26.7814
 20
80.6777
 30
0.0
 10
26.7814
 20
80.6777
 30
0.0
 10
26.7814
 20
80.6777
 30
0.0
 10
19.3283
 20
83.7648
 30
0.0
 10
19.3283
 20
83.7648
 30
0.0
 10
19.3283
 20
83.7648
 30
0.0
 10
19.3283
 20
83.7648
 30
0.0
 10
21.1324
 20
88.1203
 30
0.0
 10
21.1324
 20
88.1203
 30
0.0
 10
21.1324
 20
88.1203
 30
0.0
 10
21.1324
 20
88.1203
 30
0.0
 10
18.3607
 20
89.2683
 30
0.0
 10
18.3607
 20
89.2683
 30
0.0
 10
18.3607
 20
89.2683
 30
0.0
 10
18.3607
 20
89.2683
 30
0.0
 10
16.5566
 20
84.9129
 30
0.0
 10
16.5566
 20
84.9129
 30
0.0
 10
16.5566
 20
84.9129
 30
0.0
 10
16.5566
 20
84.9129
 30
0.0
 10
9.1038
 20
88.0
 30
0.0
 10
9.1038
 20
88.0
 30
0.0
 10
9.1038
 20
88.0
 30
0.0
 10
9.1038
 20
88.0
 30
0.0
 10
6.0166
 20
95.4531
 30
0.0
 10
6.0166
 20
95.4531
 30
0.0
 10
6.0166
 20
95.4531
 30
0.0
 10
6.0166
 20
95.4531
 30
0.0
 10
10.372
 20
97.2572
 30
0.0
 10
10.372
 20
97.2572
 30
0.0
 10
10.372
 20
97.2572
 30
0.0
 10
10.372
 20
97.2572
 30
0.0
 10
9.2239
 20
100.0288
 30
0.0
 10
9.2239
 20
100.0288
 30
0.0
 10
9.2239
 20
100.0288
 30
0.0
 10
9.2239
 20
100.0288
 30
0.0
 10
4.8685
 20
98.2248
 30
0.0
 10
4.8685
 20
98.2248
 30
0.0
 10
4.8685
 20
98.2248
 30
0.0
 10
4.8685
 20
98.2248
 30
0.0
 10
1.7814
 20
105.6777
 30
0.0
 10
1.7814
 20
105.6777
 30
0.0
 10
1.7814
 20
105.6777
 30
0.0
 10
1.7814
 20
105.6777
 30
0.0
 10
4.8685
 20
113.1306
 30
0.0
 10
4.8685
 20
113.1306
 30
0.0
 10
4.8685
 20
113.1306
 30
0.0
 10
4.8685
 20
113.1306
 30
0.0
 10
9.2238
 20
111.3266
 30
0.0
 10
9.2238
 20
111.3266
 30
0.0
 10
9.2238
 20
111.3266
 30
0.0
 10
9.2238
 20
111.3266
 30
0.0
 10
10.3719
 20
114.0982
 30
0.0
 10
10.3719
 20
114.0982
 30
0.0
 10
10.3719
 20
114.0982
 30
0.0
 10
10.3719
 20
114.0982
 30
0.0
 10
6.0166
 20
115.9022
 30
0.0
 10
6.0166
 20
115.9022
 30
0.0
 10
6.0166
 20
115.9022
 30
0.0
 10
6.0166
 20
115.9022
 30
0.0
 10
9.1038
 20
123.3554
 30
0.0
 10
9.1038
 20
123.3554
 30
0.0
 10
9.1038
 20
123.3554
 30
0.0
 10
9.1038
 20
123.3554
 30
0.0
 10
16.5566
 20
126.4425
 30
0.0
 10
16.5566
 20
126.4425
 30
0.0
 10
16.5566
 20
126.4425
 30
0.0
 10
16.5566
 20
126.4425
 30
0.0
 10
18.3606
 20
122.0871
 30
0.0
 10
18.3606
 20
122.0871
 30
0.0
 10
18.3606
 20
122.0871
 30
0.0
 10
18.3606
 20
122.0871
 30
0.0
 10
21.1323
 20
123.2352
 30
0.0
 10
21.1323
 20
123.2352
 30
0.0
 10
21.1323
 20
123.2352
 30
0.0
 10
21.1323
 20
123.2352
 30
0.0
 10
19.3282
 20
127.5905
 30
0.0
 10
19.3282
 20
127.5905
 30
0.0
 10
19.3282
 20
127.5905
 30
0.0
 10
19.3282
 20
127.5905
 30
0.0
 10
26.7814
 20
130.6777
 30
0.0
 10
26.7814
 20
130.6777
 30
0.0
  0
SPLINE
  5
44
330
1F
100
AcDbEntity
  8
Capa 1
 62
   142
370
     9
100
AcDbSpline
210
0.0
220
0.0
230
1.0
 70
    11
 71
     3
 72
   164
 73
   160
 74
     0
 42
0.0000000001
 43
0.0000000001
 40
0.0
 40
0.0
 40
0.0
 40
0.0
 40
0.024390243902439
 40
0.024390243902439
 40
0.024390243902439
 40
0.024390243902439
 40
0.0487804878048781
 40
0.0487804878048781
 40
0.0487804878048781
 40
0.0487804878048781
 40
0.0731707317073171
 40
0.0731707317073171
 40
0.0731707317073171
 40
0.0731707317073171
 40
0.0975609756097561
 40
0.0975609756097561
 40
0.0975609756097561
 40
0.0975609756097561
 40
0.1219512195121951
 40
0.1219512195121951
 40
0.1219512195121951
 40
0.1219512195121951
 40
0.1463414634146341
 40
0.1463414634146341
 40
0.1463414634146341
 40
0.1463414634146341
 40
0.1707317073170732
 40
0.1707317073170732
 40
0.1707317073170732
 40
0.1707317073170732
 40
0.1951219512195122
 40
0.1951219512195122
 40
0.1951219512195122
 40
0.1951219512195122
 40
0.2195121951219512
 40
0.2195121951219512
 40
0.2195121951219512
 40
0.2195121951219512
 40
0.2439024390243902
 40
0.2439024390243902
 40
0.2439024390243902
 40
0.2439024390243902
 40
0.2682926829268293
 40
0.2682926829268293
 40
0.2682926829268293
 40
0.2682926829268293
 40
0.2926829268292683
 40
0.2926829268292683
 40
0.2926829268292683
 40
0.2926829268292683
 40
0.3170731707317073
 40
0.3170731707317073
 40
0.3170731707317073
 40
0.3170731707317073
 40
0.3414634146341464
 40
0.3414634146341464
 40
0.3414634146341464
 40
0.3414634146341464
 40
0.3658536585365854
 40
0.3658536585365854
 40
0.3658536585365854
 40
0.3658536585365854
 40
0.3902439024390244
 40
0.3902439024390244
 40
0.3902439024390244
 40
0.3902439024390244
 40
0.4146341463414634
 40
0.4146341463414634
 40
0.4146341463414634
 40
0.4146341463414634
 40
0.4390243902439024
 40
0.4390243902439024
 40
0.4390243902439024
 40
0.4390243902439024
 40
0.4634146341463415
 40
0.4634146341463415
 40
0.4634146341463415
 40
0.4634146341463415
 40
0.4878048780487805
 40
0.4878048780487805
 40
0.4878048780487805
 40
0.4878048780487805
 40
0.5121951219512195
 40
0.5121951219512195
 40
0.5121951219512195
 40
0.5121951219512195
 40
0.5365853658536586
 40
0.5365853658536586
 40
0.5365853658536586
 40
0.5365853658536586
 40
0.5609756097560976
 40
0.5609756097560976
 40
0.5609756097560976
 40
0.5609756097560976
 40
0.5853658536585366
 40
0.5853658536585366
 40
0.5853658536585366
 40
0.5853658536585366
 40
0.6097560975609756
 40
0.6097560975609756
 40
0.6097560975609756
 40
0.6097560975609756
 40
0.6341463414634146
 40
0.6341463414634146
 40
0.6341463414634146
 40
0.6341463414634146
 40
0.6585365853658537
 40
0.6585365853658537
 40
0.6585365853658537
 40
0.6585365853658537
 40
0.6829268292682927
 40
0.6829268292682927
 40
0.6829268292682927
 40
0.6829268292682927
 40
0.7073170731707317
 40
0.7073170731707317
 40
0.7073170731707317
 40
0.7073170731707317
 40
0.7317073170731707
 40
0.7317073170731707
 40
0.7317073170731707
 40
0.7317073170731707
 40
0.7560975609756098
 40
0.7560975609756098
 40
0.7560975609756098
 40
0.7560975609756098
 40
0.7804878048780488
 40
0.7804878048780488
 40
0.7804878048780488
 40
0.7804878048780488
 40
0.8048780487804879
 40
0.8048780487804879
 40
0.8048780487804879
 40
0.8048780487804879
 40
0.8292682926829268
 40
0.8292682926829268
 40
0.8292682926829268
 40
0.8292682926829268
 40
0.8536585365853658
 40
0.8536585365853658
 40
0.8536585365853658
 40
0.8536585365853658
 40
0.8780487804878049
 40
0.8780487804878049
 40
0.8780487804878049
 40
0.8780487804878049
 40
0.9024390243902439
 40
0.9024390243902439
 40
0.9024390243902439
 40
0.9024390243902439
 40
0.926829268292683
 40
0.926829268292683
 40
0.926829268292683
 40
0.926829268292683
 40
0.9512195121951219
 40
0.9512195121951219
 40
0.9512195121951219
 40
0.9512195121951219
 40
1.0
 40
1.0
 40
1.0
 40
1.0
 10
-77.9936
 20
78.2902
 30
0.0
 10
-77.9936
 20
78.2902
 30
0.0
 10
-70.5408
 20
75.2032
 30
0.0
 10
-70.5408
 20
75.2032
 30
0.0
 10
-70.5408
 20
75.2032
 30
0.0
 10
-70.5408
 20
75.2032
 30
0.0
 10
-72.3449
 20
70.8477
 30
0.0
 10
-72.3449
 20
70.8477
 30
0.0
 10
-72.3449
 20
70.8477
 30
0.0
 10
-72.3449
 20
70.8477
 30
0.0
 10
-69.5732
 20
69.6996
 30
0.0
 10
-69.5732
 20
69.6996
 30
0.0
 10
-69.5732
 20
69.6996
 30
0.0
 10
-69.5732
 20
69.6996
 30
0.0
 10
-67.7691
 20
74.0551
 30
0.0
 10
-67.7691
 20
74.0551
 30
0.0
 10
-67.7691
 20
74.0551
 30
0.0
 10
-67.7691
 20
74.0551
 30
0.0
 10
-60.316
 20
70.9679
 30
0.0
 10
-60.316
 20
70.9679
 30
0.0
 10
-60.316
 20
70.9679
 30
0.0
 10
-60.316
 20
70.9679
 30
0.0
 10
-57.2288
 20
63.5149
 30
0.0
 10
-57.2288
 20
63.5149
 30
0.0
 10
-57.2288
 20
63.5149
 30
0.0
 10
-57.2288
 20
63.5149
 30
0.0
 10
-61.5845
 20
61.7107
 30
0.0
 10
-61.5845
 20
61.7107
 30
0.0
 10
-61.5845
 20
61.7107
 30
0.0
 10
-61.5845
 20
61.7107
 30
0.0
 10
-60.4364
 20
58.9391
 30
0.0
 10
-60.4364
 20
58.9391
 30
0.0
 10
-60.4364
 20
58.9391
 30
0.0
 10
-60.4364
 20
58.9391
 30
0.0
 10
-56.0808
 20
60.7432
 30
0.0
 10
-56.0808
 20
60.7432
 30
0.0
 10
-56.0808
 20
60.7432
 30
0.0
 10
-56.0808
 20
60.7432
 30
0.0
 10
-52.9936
 20
53.2902
 30
0.0
 10
-52.9936
 20
53.2902
 30
0.0
 10
-52.9936
 20
53.2902
 30
0.0
 10
-52.9936
 20
53.2902
 30
0.0
 10
-56.0808
 20
45.8371
 30
0.0
 10
-56.0808
 20
45.8371
 30
0.0
 10
-56.0808
 20
45.8371
 30
0.0
 10
-56.0808
 20
45.8371
 30
0.0
 10
-60.4365
 20
47.6413
 30
0.0
 10
-60.4365
 20
47.6413
 30
0.0
 10
-60.4365
 20
47.6413
 30
0.0
 10
-60.4365
 20
47.6413
 30
0.0
 10
-61.5846
 20
44.8697
 30
0.0
 10
-61.5846
 20
44.8697
 30
0.0
 10
-61.5846
 20
44.8697
 30
0.0
 10
-61.5846
 20
44.8697
 30
0.0
 10
-57.2289
 20
43.0655
 30
0.0
 10
-57.2289
 20
43.0655
 30
0.0
 10
-57.2289
 20
43.0655
 30
0.0
 10
-57.2289
 20
43.0655
 30
0.0
 10
-60.316
 20
35.6125
 30
0.0
 10
-60.316
 20
35.6125
 30
0.0
 10
-60.316
 20
35.6125
 30
0.0
 10
-60.316
 20
35.6125
 30
0.0
 10
-67.7692
 20
32.5253
 30
0.0
 10
-67.7692
 20
32.5253
 30
0.0
 10
-67.7692
 20
32.5253
 30
0.0
 10
-67.7692
 20
32.5253
 30
0.0
 10
-69.5733
 20
36.8808
 30
0.0
 10
-69.5733
 20
36.8808
 30
0.0
 10
-69.5733
 20
36.8808
 30
0.0
 10
-69.5733
 20
36.8808
 30
0.0
 10
-72.345
 20
35.7328
 30
0.0
 10
-72.345
 20
35.7328
 30
0.0
 10
-72.345
 20
35.7328
 30
0.0
 10
-72.345
 20
35.7328
 30
0.0
 10
-70.5409
 20
31.3772
 30
0.0
 10
-70.5409
 20
31.3772
 30
0.0
 10
-70.5409
 20
31.3772
 30
0.0
 10
-70.5409
 20
31.3772
 30
0.0
 10
-77.9936
 20
28.2902
 30
0.0
 10
-77.9936
 20
28.2902
 30
0.0
 10
-77.9936
 20
28.2902
 30
0.0
 10
-77.9936
 20
28.2902
 30
0.0
 10
-85.4467
 20
31.3773
 30
0.0
 10
-85.4467
 20
31.3773
 30
0.0
 10
-85.4467
 20
31.3773
 30
0.0
 10
-85.4467
 20
31.3773
 30
0.0
 10
-83.6426
 20
35.7328
 30
0.0
 10
-83.6426
 20
35.7328
 30
0.0
 10
-83.6426
 20
35.7328
 30
0.0
 10
-83.6426
 20
35.7328
 30
0.0
 10
-86.4143
 20
36.8808
 30
0.0
 10
-86.4143
 20
36.8808
 30
0.0
 10
-86.4143
 20
36.8808
 30
0.0
 10
-86.4143
 20
36.8808
 30
0.0
 10
-88.2184
 20
32.5254
 30
0.0
 10
-88.2184
 20
32.5254
 30
0.0
 10
-88.2184
 20
32.5254
 30
0.0
 10
-88.2184
 20
32.5254
 30
0.0
 10
-95.6712
 20
35.6125
 30
0.0
 10
-95.6712
 20
35.6125
 30
0.0
 10
-95.6712
 20
35.6125
 30
0.0
 10
-95.6712
 20
35.6125
 30
0.0
 10
-98.7584
 20
43.0656
 30
0.0
 10
-98.7584
 20
43.0656
 30
0.0
 10
-98.7584
 20
43.0656
 30
0.0
 10
-98.7584
 20
43.0656
 30
0.0
 10
-94.403
 20
44.8697
 30
0.0
 10
-94.403
 20
44.8697
 30
0.0
 10
-94.403
 20
44.8697
 30
0.0
 10
-94.403
 20
44.8697
 30
0.0
 10
-95.5511
 20
47.6413
 30
0.0
 10
-95.5511
 20
47.6413
 30
0.0
 10
-95.5511
 20
47.6413
 30
0.0
 10
-95.5511
 20
47.6413
 30
0.0
 10
-99.9065
 20
45.8373
 30
0.0
 10
-99.9065
 20
45.8373
 30
0.0
 10
-99.9065
 20
45.8373
 30
0.0
 10
-99.9065
 20
45.8373
 30
0.0
 10
-102.9936
 20
53.2902
 30
0.0
 10
-102.9936
 20
53.2902
 30
0.0
 10
-102.9936
 20
53.2902
 30
0.0
 10
-102.9936
 20
53.2902
 30
0.0
 10
-99.9065
 20
60.7431
 30
0.0
 10
-99.9065
 20
60.7431
 30
0.0
 10
-99.9065
 20
60.7431
 30
0.0
 10
-99.9065
 20
60.7431
 30
0.0
 10
-95.5512
 20
58.9391
 30
0.0
 10
-95.5512
 20
58.9391
 30
0.0
 10
-95.5512
 20
58.9391
 30
0.0
 10
-95.5512
 20
58.9391
 30
0.0
 10
-94.4031
 20
61.7107
 30
0.0
 10
-94.4031
 20
61.7107
 30
0.0
 10
-94.4031
 20
61.7107
 30
0.0
 10
-94.4031
 20
61.7107
 30
0.0
 10
-98.7584
 20
63.5147
 30
0.0
 10
-98.7584
 20
63.5147
 30
0.0
 10
-98.7584
 20
63.5147
 30
0.0
 10
-98.7584
 20
63.5147
 30
0.0
 10
-95.6712
 20
70.9679
 30
0.0
 10
-95.6712
 20
70.9679
 30
0.0
 10
-95.6712
 20
70.9679
 30
0.0
 10
-95.6712
 20
70.9679
 30
0.0
 10
-88.2184
 20
74.055
 30
0.0
 10
-88.2184
 20
74.055
 30
0.0
 10
-88.2184
 20
74.055
 30
0.0
 10
-88.2184
 20
74.055
 30
0.0
 10
-86.4144
 20
69.6996
 30
0.0
 10
-86.4144
 20
69.6996
 30
0.0
 10
-86.4144
 20
69.6996
 30
0.0
 10
-86.4144
 20
69.6996
 30
0.0
 10
-83.6427
 20
70.8477
 30
0.0
 10
-83.6427
 20
70.8477
 30
0.0
 10
-83.6427
 20
70.8477
 30
0.0
 10
-83.6427
 20
70.8477
 30
0.0
 10
-85.4468
 20
75.203
 30
0.0
 10
-85.4468
 20
75.203
 30
0.0
 10
-85.4468
 20
75.203
 30
0.0
 10
-85.4468
 20
75.203
 30
0.0
 10
-77.9936
 20
78.2902
 30
0.0
 10
-77.9936
 20
78.2902
 30
0.0
  0
SPLINE
  5
45
330
1F
100
AcDbEntity
  8
Capa 1
 62
   142
370
     9
100
AcDbSpline
210
0.0
220
0.0
230
1.0
 70
    11
 71
     3
 72
   164
 73
   160
 74
     0
 42
0.0000000001
 43
0.0000000001
 40
0.0
 40
0.0
 40
0.0
 40
0.0
 40
0.024390243902439
 40
0.024390243902439
 40
0.024390243902439
 40
0.024390243902439
 40
0.0487804878048781
 40
0.0487804878048781
 40
0.0487804878048781
 40
0.0487804878048781
 40
0.0731707317073171
 40
0.0731707317073171
 40
0.0731707317073171
 40
0.0731707317073171
 40
0.0975609756097561
 40
0.0975609756097561
 40
0.0975609756097561
 40
0.0975609756097561
 40
0.1219512195121951
 40
0.1219512195121951
 40
0.1219512195121951
 40
0.1219512195121951
 40
0.1463414634146341
 40
0.1463414634146341
 40
0.1463414634146341
 40
0.1463414634146341
 40
0.1707317073170732
 40
0.1707317073170732
 40
0.1707317073170732
 40
0.1707317073170732
 40
0.1951219512195122
 40
0.1951219512195122
 40
0.1951219512195122
 40
0.1951219512195122
 40
0.2195121951219512
 40
0.2195121951219512
 40
0.2195121951219512
 40
0.2195121951219512
 40
0.2439024390243902
 40
0.2439024390243902
 40
0.2439024390243902
 40
0.2439024390243902
 40
0.2682926829268293
 40
0.2682926829268293
 40
0.2682926829268293
 40
0.2682926829268293
 40
0.2926829268292683
 40
0.2926829268292683
 40
0.2926829268292683
 40
0.2926829268292683
 40
0.3170731707317073
 40
0.3170731707317073
 40
0.3170731707317073
 40
0.3170731707317073
 40
0.3414634146341464
 40
0.3414634146341464
 40
0.3414634146341464
 40
0.3414634146341464
 40
0.3658536585365854
 40
0.3658536585365854
 40
0.3658536585365854
 40
0.3658536585365854
 40
0.3902439024390244
 40
0.3902439024390244
 40
0.3902439024390244
 40
0.3902439024390244
 40
0.4146341463414634
 40
0.4146341463414634
 40
0.4146341463414634
 40
0.4146341463414634
 40
0.4390243902439024
 40
0.4390243902439024
 40
0.4390243902439024
 40
0.4390243902439024
 40
0.4634146341463415
 40
0.4634146341463415
 40
0.4634146341463415
 40
0.4634146341463415
 40
0.4878048780487805
 40
0.4878048780487805
 40
0.4878048780487805
 40
0.4878048780487805
 40
0.5121951219512195
 40
0.5121951219512195
 40
0.5121951219512195
 40
0.5121951219512195
 40
0.5365853658536586
 40
0.5365853658536586
 40
0.5365853658536586
 40
0.5365853658536586
 40
0.5609756097560976
 40
0.5609756097560976
 40
0.5609756097560976
 40
0.5609756097560976
 40
0.5853658536585366
 40
0.5853658536585366
 40
0.5853658536585366
 40
0.5853658536585366
 40
0.6097560975609756
 40
0.6097560975609756
 40
0.6097560975609756
 40
0.6097560975609756
 40
0.6341463414634146
 40
0.6341463414634146
 40
0.6341463414634146
 40
0.6341463414634146
 40
0.6585365853658537
 40
0.6585365853658537
 40
0.6585365853658537
 40
0.6585365853658537
 40
0.6829268292682927
 40
0.6829268292682927
 40
0.6829268292682927
 40
0.6829268292682927
 40
0.7073170731707317
 40
0.7073170731707317
 40
0.7073170731707317
 40
0.7073170731707317
 40
0.7317073170731707
 40
0.7317073170731707
 40
0.7317073170731707
 40
0.7317073170731707
 40
0.7560975609756098
 40
0.7560975609756098
 40
0.7560975609756098
 40
0.7560975609756098
 40
0.7804878048780488
 40
0.7804878048780488
 40
0.7804878048780488
 40
0.7804878048780488
 40
0.8048780487804879
 40
0.8048780487804879
 40
0.8048780487804879
 40
0.8048780487804879
 40
0.8292682926829268
 40
0.8292682926829268
 40
0.8292682926829268
 40
0.8292682926829268
 40
0.8536585365853658
 40
0.8536585365853658
 40
0.8536585365853658
 40
0.8536585365853658
 40
0.8780487804878049
 40
0.8780487804878049
 40
0.8780487804878049
 40
0.8780487804878049
 40
0.9024390243902439
 40
0.9024390243902439
 40
0.9024390243902439
 40
0.9024390243902439
 40
0.926829268292683
 40
0.926829268292683
 40
0.926829268292683
 40
0.926829268292683
 40
0.9512195121951219
 40
0.9512195121951219
 40
0.9512195121951219
 40
0.9512195121951219
 40
1.0
 40
1.0
 40
1.0
 40
1.0
 10
-25.6061
 20
78.2902
 30
0.0
 10
-25.6061
 20
78.2902
 30
0.0
 10
-18.1533
 20
75.2032
 30
0.0
 10
-18.1533
 20
75.2032
 30
0.0
 10
-18.1533
 20
75.2032
 30
0.0
 10
-18.1533
 20
75.2032
 30
0.0
 10
-19.9574
 20
70.8477
 30
0.0
 10
-19.9574
 20
70.8477
 30
0.0
 10
-19.9574
 20
70.8477
 30
0.0
 10
-19.9574
 20
70.8477
 30
0.0
 10
-17.1857
 20
69.6996
 30
0.0
 10
-17.1857
 20
69.6996
 30
0.0
 10
-17.1857
 20
69.6996
 30
0.0
 10
-17.1857
 20
69.6996
 30
0.0
 10
-15.3816
 20
74.0551
 30
0.0
 10
-15.3816
 20
74.0551
 30
0.0
 10
-15.3816
 20
74.0551
 30
0.0
 10
-15.3816
 20
74.0551
 30
0.0
 10
-7.9285
 20
70.9679
 30
0.0
 10
-7.9285
 20
70.9679
 30
0.0
 10
-7.9285
 20
70.9679
 30
0.0
 10
-7.9285
 20
70.9679
 30
0.0
 10
-4.8413
 20
63.5149
 30
0.0
 10
-4.8413
 20
63.5149
 30
0.0
 10
-4.8413
 20
63.5149
 30
0.0
 10
-4.8413
 20
63.5149
 30
0.0
 10
-9.197
 20
61.7107
 30
0.0
 10
-9.197
 20
61.7107
 30
0.0
 10
-9.197
 20
61.7107
 30
0.0
 10
-9.197
 20
61.7107
 30
0.0
 10
-8.0489
 20
58.9391
 30
0.0
 10
-8.0489
 20
58.9391
 30
0.0
 10
-8.0489
 20
58.9391
 30
0.0
 10
-8.0489
 20
58.9391
 30
0.0
 10
-3.6933
 20
60.7432
 30
0.0
 10
-3.6933
 20
60.7432
 30
0.0
 10
-3.6933
 20
60.7432
 30
0.0
 10
-3.6933
 20
60.7432
 30
0.0
 10
-0.6061
 20
53.2902
 30
0.0
 10
-0.6061
 20
53.2902
 30
0.0
 10
-0.6061
 20
53.2902
 30
0.0
 10
-0.6061
 20
53.2902
 30
0.0
 10
-3.6933
 20
45.8371
 30
0.0
 10
-3.6933
 20
45.8371
 30
0.0
 10
-3.6933
 20
45.8371
 30
0.0
 10
-3.6933
 20
45.8371
 30
0.0
 10
-8.049
 20
47.6413
 30
0.0
 10
-8.049
 20
47.6413
 30
0.0
 10
-8.049
 20
47.6413
 30
0.0
 10
-8.049
 20
47.6413
 30
0.0
 10
-9.1971
 20
44.8697
 30
0.0
 10
-9.1971
 20
44.8697
 30
0.0
 10
-9.1971
 20
44.8697
 30
0.0
 10
-9.1971
 20
44.8697
 30
0.0
 10
-4.8414
 20
43.0655
 30
0.0
 10
-4.8414
 20
43.0655
 30
0.0
 10
-4.8414
 20
43.0655
 30
0.0
 10
-4.8414
 20
43.0655
 30
0.0
 10
-7.9285
 20
35.6125
 30
0.0
 10
-7.9285
 20
35.6125
 30
0.0
 10
-7.9285
 20
35.6125
 30
0.0
 10
-7.9285
 20
35.6125
 30
0.0
 10
-15.3817
 20
32.5253
 30
0.0
 10
-15.3817
 20
32.5253
 30
0.0
 10
-15.3817
 20
32.5253
 30
0.0
 10
-15.3817
 20
32.5253
 30
0.0
 10
-17.1858
 20
36.8808
 30
0.0
 10
-17.1858
 20
36.8808
 30
0.0
 10
-17.1858
 20
36.8808
 30
0.0
 10
-17.1858
 20
36.8808
 30
0.0
 10
-19.9575
 20
35.7328
 30
0.0
 10
-19.9575
 20
35.7328
 30
0.0
 10
-19.9575
 20
35.7328
 30
0.0
 10
-19.9575
 20
35.7328
 30
0.0
 10
-18.1534
 20
31.3772
 30
0.0
 10
-18.1534
 20
31.3772
 30
0.0
 10
-18.1534
 20
31.3772
 30
0.0
 10
-18.1534
 20
31.3772
 30
0.0
 10
-25.6061
 20
28.2902
 30
0.0
 10
-25.6061
 20
28.2902
 30
0.0
 10
-25.6061
 20
28.2902
 30
0.0
 10
-25.6061
 20
28.2902
 30
0.0
 10
-33.0592
 20
31.3773
 30
0.0
 10
-33.0592
 20
31.3773
 30
0.0
 10
-33.0592
 20
31.3773
 30
0.0
 10
-33.0592
 20
31.3773
 30
0.0
 10
-31.2551
 20
35.7328
 30
0.0
 10
-31.2551
 20
35.7328
 30
0.0
 10
-31.2551
 20
35.7328
 30
0.0
 10
-31.2551
 20
35.7328
 30
0.0
 10
-34.0268
 20
36.8808
 30
0.0
 10
-34.0268
 20
36.8808
 30
0.0
 10
-34.0268
 20
36.8808
 30
0.0
 10
-34.0268
 20
36.8808
 30
0.0
 10
-35.8309
 20
32.5254
 30
0.0
 10
-35.8309
 20
32.5254
 30
0.0
 10
-35.8309
 20
32.5254
 30
0.0
 10
-35.8309
 20
32.5254
 30
0.0
 10
-43.2837
 20
35.6125
 30
0.0
 10
-43.2837
 20
35.6125
 30
0.0
 10
-43.2837
 20
35.6125
 30
0.0
 10
-43.2837
 20
35.6125
 30
0.0
 10
-46.3709
 20
43.0656
 30
0.0
 10
-46.3709
 20
43.0656
 30
0.0
 10
-46.3709
 20
43.0656
 30
0.0
 10
-46.3709
 20
43.0656
 30
0.0
 10
-42.0155
 20
44.8697
 30
0.0
 10
-42.0155
 20
44.8697
 30
0.0
 10
-42.0155
 20
44.8697
 30
0.0
 10
-42.0155
 20
44.8697
 30
0.0
 10
-43.1636
 20
47.6413
 30
0.0
 10
-43.1636
 20
47.6413
 30
0.0
 10
-43.1636
 20
47.6413
 30
0.0
 10
-43.1636
 20
47.6413
 30
0.0
 10
-47.519
 20
45.8373
 30
0.0
 10
-47.519
 20
45.8373
 30
0.0
 10
-47.519
 20
45.8373
 30
0.0
 10
-47.519
 20
45.8373
 30
0.0
 10
-50.6061
 20
53.2902
 30
0.0
 10
-50.6061
 20
53.2902
 30
0.0
 10
-50.6061
 20
53.2902
 30
0.0
 10
-50.6061
 20
53.2902
 30
0.0
 10
-47.519
 20
60.7431
 30
0.0
 10
-47.519
 20
60.7431
 30
0.0
 10
-47.519
 20
60.7431
 30
0.0
 10
-47.519
 20
60.7431
 30
0.0
 10
-43.1637
 20
58.9391
 30
0.0
 10
-43.1637
 20
58.9391
 30
0.0
 10
-43.1637
 20
58.9391
 30
0.0
 10
-43.1637
 20
58.9391
 30
0.0
 10
-42.0156
 20
61.7107
 30
0.0
 10
-42.0156
 20
61.7107
 30
0.0
 10
-42.0156
 20
61.7107
 30
0.0
 10
-42.0156
 20
61.7107
 30
0.0
 10
-46.3709
 20
63.5147
 30
0.0
 10
-46.3709
 20
63.5147
 30
0.0
 10
-46.3709
 20
63.5147
 30
0.0
 10
-46.3709
 20
63.5147
 30
0.0
 10
-43.2837
 20
70.9679
 30
0.0
 10
-43.2837
 20
70.9679
 30
0.0
 10
-43.2837
 20
70.9679
 30
0.0
 10
-43.2837
 20
70.9679
 30
0.0
 10
-35.8309
 20
74.055
 30
0.0
 10
-35.8309
 20
74.055
 30
0.0
 10
-35.8309
 20
74.055
 30
0.0
 10
-35.8309
 20
74.055
 30
0.0
 10
-34.0269
 20
69.6996
 30
0.0
 10
-34.0269
 20
69.6996
 30
0.0
 10
-34.0269
 20
69.6996
 30
0.0
 10
-34.0269
 20
69.6996
 30
0.0
 10
-31.2552
 20
70.8477
 30
0.0
 10
-31.2552
 20
70.8477
 30
0.0
 10
-31.2552
 20
70.8477
 30
0.0
 10
-31.2552
 20
70.8477
 30
0.0
 10
-33.0593
 20
75.203
 30
0.0
 10
-33.0593
 20
75.203
 30
0.0
 10
-33.0593
 20
75.203
 30
0.0
 10
-33.0593
 20
75.203
 30
0.0
 10
-25.6061
 20
78.2902
 30
0.0
 10
-25.6061
 20
78.2902
 30
0.0
  0
SPLINE
  5
46
330
1F
100
AcDbEntity
  8
Capa 1
 62
   142
370
     9
100
AcDbSpline
210
0.0
220
0.0
230
1.0
 70
    11
 71
     3
 72
   164
 73
   160
 74
     0
 42
0.0000000001
 43
0.0000000001
 40
0.0
 40
0.0
 40
0.0
 40
0.0
 40
0.024390243902439
 40
0.024390243902439
 40
0.024390243902439
 40
0.024390243902439
 40
0.0487804878048781
 40
0.0487804878048781
 40
0.0487804878048781
 40
0.0487804878048781
 40
0.0731707317073171
 40
0.0731707317073171
 40
0.0731707317073171
 40
0.0731707317073171
 40
0.0975609756097561
 40
0.0975609756097561
 40
0.0975609756097561
 40
0.0975609756097561
 40
0.1219512195121951
 40
0.1219512195121951
 40
0.1219512195121951
 40
0.1219512195121951
 40
0.1463414634146341
 40
0.1463414634146341
 40
0.1463414634146341
 40
0.1463414634146341
 40
0.1707317073170732
 40
0.1707317073170732
 40
0.1707317073170732
 40
0.1707317073170732
 40
0.1951219512195122
 40
0.1951219512195122
 40
0.1951219512195122
 40
0.1951219512195122
 40
0.2195121951219512
 40
0.2195121951219512
 40
0.2195121951219512
 40
0.2195121951219512
 40
0.2439024390243902
 40
0.2439024390243902
 40
0.2439024390243902
 40
0.2439024390243902
 40
0.2682926829268293
 40
0.2682926829268293
 40
0.2682926829268293
 40
0.2682926829268293
 40
0.2926829268292683
 40
0.2926829268292683
 40
0.2926829268292683
 40
0.2926829268292683
 40
0.3170731707317073
 40
0.3170731707317073
 40
0.3170731707317073
 40
0.3170731707317073
 40
0.3414634146341464
 40
0.3414634146341464
 40
0.3414634146341464
 40
0.3414634146341464
 40
0.3658536585365854
 40
0.3658536585365854
 40
0.3658536585365854
 40
0.3658536585365854
 40
0.3902439024390244
 40
0.3902439024390244
 40
0.3902439024390244
 40
0.3902439024390244
 40
0.4146341463414634
 40
0.4146341463414634
 40
0.4146341463414634
 40
0.4146341463414634
 40
0.4390243902439024
 40
0.4390243902439024
 40
0.4390243902439024
 40
0.4390243902439024
 40
0.4634146341463415
 40
0.4634146341463415
 40
0.4634146341463415
 40
0.4634146341463415
 40
0.4878048780487805
 40
0.4878048780487805
 40
0.4878048780487805
 40
0.4878048780487805
 40
0.5121951219512195
 40
0.5121951219512195
 40
0.5121951219512195
 40
0.5121951219512195
 40
0.5365853658536586
 40
0.5365853658536586
 40
0.5365853658536586
 40
0.5365853658536586
 40
0.5609756097560976
 40
0.5609756097560976
 40
0.5609756097560976
 40
0.5609756097560976
 40
0.5853658536585366
 40
0.5853658536585366
 40
0.5853658536585366
 40
0.5853658536585366
 40
0.6097560975609756
 40
0.6097560975609756
 40
0.6097560975609756
 40
0.6097560975609756
 40
0.6341463414634146
 40
0.6341463414634146
 40
0.6341463414634146
 40
0.6341463414634146
 40
0.6585365853658537
 40
0.6585365853658537
 40
0.6585365853658537
 40
0.6585365853658537
 40
0.6829268292682927
 40
0.6829268292682927
 40
0.6829268292682927
 40
0.6829268292682927
 40
0.7073170731707317
 40
0.7073170731707317
 40
0.7073170731707317
 40
0.7073170731707317
 40
0.7317073170731707
 40
0.7317073170731707
 40
0.7317073170731707
 40
0.7317073170731707
 40
0.7560975609756098
 40
0.7560975609756098
 40
0.7560975609756098
 40
0.7560975609756098
 40
0.7804878048780488
 40
0.7804878048780488
 40
0.7804878048780488
 40
0.7804878048780488
 40
0.8048780487804879
 40
0.8048780487804879
 40
0.8048780487804879
 40
0.8048780487804879
 40
0.8292682926829268
 40
0.8292682926829268
 40
0.8292682926829268
 40
0.8292682926829268
 40
0.8536585365853658
 40
0.8536585365853658
 40
0.8536585365853658
 40
0.8536585365853658
 40
0.8780487804878049
 40
0.8780487804878049
 40
0.8780487804878049
 40
0.8780487804878049
 40
0.9024390243902439
 40
0.9024390243902439
 40
0.9024390243902439
 40
0.9024390243902439
 40
0.926829268292683
 40
0.926829268292683
 40
0.926829268292683
 40
0.926829268292683
 40
0.9512195121951219
 40
0.9512195121951219
 40
0.9512195121951219
 40
0.9512195121951219
 40
1.0
 40
1.0
 40
1.0
 40
1.0
 10
26.7814
 20
78.2902
 30
0.0
 10
26.7814
 20
78.2902
 30
0.0
 10
34.2342
 20
75.2032
 30
0.0
 10
34.2342
 20
75.2032
 30
0.0
 10
34.2342
 20
75.2032
 30
0.0
 10
34.2342
 20
75.2032
 30
0.0
 10
32.4301
 20
70.8477
 30
0.0
 10
32.4301
 20
70.8477
 30
0.0
 10
32.4301
 20
70.8477
 30
0.0
 10
32.4301
 20
70.8477
 30
0.0
 10
35.2018
 20
69.6996
 30
0.0
 10
35.2018
 20
69.6996
 30
0.0
 10
35.2018
 20
69.6996
 30
0.0
 10
35.2018
 20
69.6996
 30
0.0
 10
37.0059
 20
74.0551
 30
0.0
 10
37.0059
 20
74.0551
 30
0.0
 10
37.0059
 20
74.0551
 30
0.0
 10
37.0059
 20
74.0551
 30
0.0
 10
44.459
 20
70.9679
 30
0.0
 10
44.459
 20
70.9679
 30
0.0
 10
44.459
 20
70.9679
 30
0.0
 10
44.459
 20
70.9679
 30
0.0
 10
47.5462
 20
63.5149
 30
0.0
 10
47.5462
 20
63.5149
 30
0.0
 10
47.5462
 20
63.5149
 30
0.0
 10
47.5462
 20
63.5149
 30
0.0
 10
43.1905
 20
61.7107
 30
0.0
 10
43.1905
 20
61.7107
 30
0.0
 10
43.1905
 20
61.7107
 30
0.0
 10
43.1905
 20
61.7107
 30
0.0
 10
44.3386
 20
58.9391
 30
0.0
 10
44.3386
 20
58.9391
 30
0.0
 10
44.3386
 20
58.9391
 30
0.0
 10
44.3386
 20
58.9391
 30
0.0
 10
48.6942
 20
60.7432
 30
0.0
 10
48.6942
 20
60.7432
 30
0.0
 10
48.6942
 20
60.7432
 30
0.0
 10
48.6942
 20
60.7432
 30
0.0
 10
51.7814
 20
53.2902
 30
0.0
 10
51.7814
 20
53.2902
 30
0.0
 10
51.7814
 20
53.2902
 30
0.0
 10
51.7814
 20
53.2902
 30
0.0
 10
48.6942
 20
45.8371
 30
0.0
 10
48.6942
 20
45.8371
 30
0.0
 10
48.6942
 20
45.8371
 30
0.0
 10
48.6942
 20
45.8371
 30
0.0
 10
44.3385
 20
47.6413
 30
0.0
 10
44.3385
 20
47.6413
 30
0.0
 10
44.3385
 20
47.6413
 30
0.0
 10
44.3385
 20
47.6413
 30
0.0
 10
43.1904
 20
44.8697
 30
0.0
 10
43.1904
 20
44.8697
 30
0.0
 10
43.1904
 20
44.8697
 30
0.0
 10
43.1904
 20
44.8697
 30
0.0
 10
47.5461
 20
43.0655
 30
0.0
 10
47.5461
 20
43.0655
 30
0.0
 10
47.5461
 20
43.0655
 30
0.0
 10
47.5461
 20
43.0655
 30
0.0
 10
44.459
 20
35.6125
 30
0.0
 10
44.459
 20
35.6125
 30
0.0
 10
44.459
 20
35.6125
 30
0.0
 10
44.459
 20
35.6125
 30
0.0
 10
37.0058
 20
32.5253
 30
0.0
 10
37.0058
 20
32.5253
 30
0.0
 10
37.0058
 20
32.5253
 30
0.0
 10
37.0058
 20
32.5253
 30
0.0
 10
35.2017
 20
36.8808
 30
0.0
 10
35.2017
 20
36.8808
 30
0.0
 10
35.2017
 20
36.8808
 30
0.0
 10
35.2017
 20
36.8808
 30
0.0
 10
32.43
 20
35.7328
 30
0.0
 10
32.43
 20
35.7328
 30
0.0
 10
32.43
 20
35.7328
 30
0.0
 10
32.43
 20
35.7328
 30
0.0
 10
34.2341
 20
31.3772
 30
0.0
 10
34.2341
 20
31.3772
 30
0.0
 10
34.2341
 20
31.3772
 30
0.0
 10
34.2341
 20
31.3772
 30
0.0
 10
26.7814
 20
28.2902
 30
0.0
 10
26.7814
 20
28.2902
 30
0.0
 10
26.7814
 20
28.2902
 30
0.0
 10
26.7814
 20
28.2902
 30
0.0
 10
19.3283
 20
31.3773
 30
0.0
 10
19.3283
 20
31.3773
 30
0.0
 10
19.3283
 20
31.3773
 30
0.0
 10
19.3283
 20
31.3773
 30
0.0
 10
21.1324
 20
35.7328
 30
0.0
 10
21.1324
 20
35.7328
 30
0.0
 10
21.1324
 20
35.7328
 30
0.0
 10
21.1324
 20
35.7328
 30
0.0
 10
18.3607
 20
36.8808
 30
0.0
 10
18.3607
 20
36.8808
 30
0.0
 10
18.3607
 20
36.8808
 30
0.0
 10
18.3607
 20
36.8808
 30
0.0
 10
16.5566
 20
32.5254
 30
0.0
 10
16.5566
 20
32.5254
 30
0.0
 10
16.5566
 20
32.5254
 30
0.0
 10
16.5566
 20
32.5254
 30
0.0
 10
9.1038
 20
35.6125
 30
0.0
 10
9.1038
 20
35.6125
 30
0.0
 10
9.1038
 20
35.6125
 30
0.0
 10
9.1038
 20
35.6125
 30
0.0
 10
6.0166
 20
43.0656
 30
0.0
 10
6.0166
 20
43.0656
 30
0.0
 10
6.0166
 20
43.0656
 30
0.0
 10
6.0166
 20
43.0656
 30
0.0
 10
10.372
 20
44.8697
 30
0.0
 10
10.372
 20
44.8697
 30
0.0
 10
10.372
 20
44.8697
 30
0.0
 10
10.372
 20
44.8697
 30
0.0
 10
9.2239
 20
47.6413
 30
0.0
 10
9.2239
 20
47.6413
 30
0.0
 10
9.2239
 20
47.6413
 30
0.0
 10
9.2239
 20
47.6413
 30
0.0
 10
4.8685
 20
45.8373
 30
0.0
 10
4.8685
 20
45.8373
 30
0.0
 10
4.8685
 20
45.8373
 30
0.0
 10
4.8685
 20
45.8373
 30
0.0
 10
1.7814
 20
53.2902
 30
0.0
 10
1.7814
 20
53.2902
 30
0.0
 10
1.7814
 20
53.2902
 30
0.0
 10
1.7814
 20
53.2902
 30
0.0
 10
4.8685
 20
60.7431
 30
0.0
 10
4.8685
 20
60.7431
 30
0.0
 10
4.8685
 20
60.7431
 30
0.0
 10
4.8685
 20
60.7431
 30
0.0
 10
9.2238
 20
58.9391
 30
0.0
 10
9.2238
 20
58.9391
 30
0.0
 10
9.2238
 20
58.9391
 30
0.0
 10
9.2238
 20
58.9391
 30
0.0
 10
10.3719
 20
61.7107
 30
0.0
 10
10.3719
 20
61.7107
 30
0.0
 10
10.3719
 20
61.7107
 30
0.0
 10
10.3719
 20
61.7107
 30
0.0
 10
6.0166
 20
63.5147
 30
0.0
 10
6.0166
 20
63.5147
 30
0.0
 10
6.0166
 20
63.5147
 30
0.0
 10
6.0166
 20
63.5147
 30
0.0
 10
9.1038
 20
70.9679
 30
0.0
 10
9.1038
 20
70.9679
 30
0.0
 10
9.1038
 20
70.9679
 30
0.0
 10
9.1038
 20
70.9679
 30
0.0
 10
16.5566
 20
74.055
 30
0.0
 10
16.5566
 20
74.055
 30
0.0
 10
16.5566
 20
74.055
 30
0.0
 10
16.5566
 20
74.055
 30
0.0
 10
18.3606
 20
69.6996
 30
0.0
 10
18.3606
 20
69.6996
 30
0.0
 10
18.3606
 20
69.6996
 30
0.0
 10
18.3606
 20
69.6996
 30
0.0
 10
21.1323
 20
70.8477
 30
0.0
 10
21.1323
 20
70.8477
 30
0.0
 10
21.1323
 20
70.8477
 30
0.0
 10
21.1323
 20
70.8477
 30
0.0
 10
19.3282
 20
75.203
 30
0.0
 10
19.3282
 20
75.203
 30
0.0
 10
19.3282
 20
75.203
 30
0.0
 10
19.3282
 20
75.203
 30
0.0
 10
26.7814
 20
78.2902
 30
0.0
 10
26.7814
 20
78.2902
 30
0.0
  0
SPLINE
  5
47
330
1F
100
AcDbEntity
  8
Capa 1
 62
   142
370
     9
100
AcDbSpline
210
0.0
220
0.0
230
1.0
 70
    11
 71
     3
 72
   164
 73
   160
 74
     0
 42
0.0000000001
 43
0.0000000001
 40
0.0
 40
0.0
 40
0.0
 40
0.0
 40
0.024390243902439
 40
0.024390243902439
 40
0.024390243902439
 40
0.024390243902439
 40
0.0487804878048781
 40
0.0487804878048781
 40
0.0487804878048781
 40
0.0487804878048781
 40
0.0731707317073171
 40
0.0731707317073171
 40
0.0731707317073171
 40
0.0731707317073171
 40
0.0975609756097561
 40
0.0975609756097561
 40
0.0975609756097561
 40
0.0975609756097561
 40
0.1219512195121951
 40
0.1219512195121951
 40
0.1219512195121951
 40
0.1219512195121951
 40
0.1463414634146341
 40
0.1463414634146341
 40
0.1463414634146341
 40
0.1463414634146341
 40
0.1707317073170732
 40
0.1707317073170732
 40
0.1707317073170732
 40
0.1707317073170732
 40
0.1951219512195122
 40
0.1951219512195122
 40
0.1951219512195122
 40
0.1951219512195122
 40
0.2195121951219512
 40
0.2195121951219512
 40
0.2195121951219512
 40
0.2195121951219512
 40
0.2439024390243902
 40
0.2439024390243902
 40
0.2439024390243902
 40
0.2439024390243902
 40
0.2682926829268293
 40
0.2682926829268293
 40
0.2682926829268293
 40
0.2682926829268293
 40
0.2926829268292683
 40
0.2926829268292683
 40
0.2926829268292683
 40
0.2926829268292683
 40
0.3170731707317073
 40
0.3170731707317073
 40
0.3170731707317073
 40
0.3170731707317073
 40
0.3414634146341464
 40
0.3414634146341464
 40
0.3414634146341464
 40
0.3414634146341464
 40
0.3658536585365854
 40
0.3658536585365854
 40
0.3658536585365854
 40
0.3658536585365854
 40
0.3902439024390244
 40
0.3902439024390244
 40
0.3902439024390244
 40
0.3902439024390244
 40
0.4146341463414634
 40
0.4146341463414634
 40
0.4146341463414634
 40
0.4146341463414634
 40
0.4390243902439024
 40
0.4390243902439024
 40
0.4390243902439024
 40
0.4390243902439024
 40
0.4634146341463415
 40
0.4634146341463415
 40
0.4634146341463415
 40
0.4634146341463415
 40
0.4878048780487805
 40
0.4878048780487805
 40
0.4878048780487805
 40
0.4878048780487805
 40
0.5121951219512195
 40
0.5121951219512195
 40
0.5121951219512195
 40
0.5121951219512195
 40
0.5365853658536586
 40
0.5365853658536586
 40
0.5365853658536586
 40
0.5365853658536586
 40
0.5609756097560976
 40
0.5609756097560976
 40
0.5609756097560976
 40
0.5609756097560976
 40
0.5853658536585366
 40
0.5853658536585366
 40
0.5853658536585366
 40
0.5853658536585366
 40
0.6097560975609756
 40
0.6097560975609756
 40
0.6097560975609756
 40
0.6097560975609756
 40
0.6341463414634146
 40
0.6341463414634146
 40
0.6341463414634146
 40
0.6341463414634146
 40
0.6585365853658537
 40
0.6585365853658537
 40
0.6585365853658537
 40
0.6585365853658537
 40
0.6829268292682927
 40
0.6829268292682927
 40
0.6829268292682927
 40
0.6829268292682927
 40
0.7073170731707317
 40
0.7073170731707317
 40
0.7073170731707317
 40
0.7073170731707317
 40
0.7317073170731707
 40
0.7317073170731707
 40
0.7317073170731707
 40
0.7317073170731707
 40
0.7560975609756098
 40
0.7560975609756098
 40
0.7560975609756098
 40
0.7560975609756098
 40
0.7804878048780488
 40
0.7804878048780488
 40
0.7804878048780488
 40
0.7804878048780488
 40
0.8048780487804879
 40
0.8048780487804879
 40
0.8048780487804879
 40
0.8048780487804879
 40
0.8292682926829268
 40
0.8292682926829268
 40
0.8292682926829268
 40
0.8292682926829268
 40
0.8536585365853658
 40
0.8536585365853658
 40
0.8536585365853658
 40
0.8536585365853658
 40
0.8780487804878049
 40
0.8780487804878049
 40
0.8780487804878049
 40
0.8780487804878049
 40
0.9024390243902439
 40
0.9024390243902439
 40
0.9024390243902439
 40
0.9024390243902439
 40
0.926829268292683
 40
0.926829268292683
 40
0.926829268292683
 40
0.926829268292683
 40
0.9512195121951219
 40
0.9512195121951219
 40
0.9512195121951219
 40
0.9512195121951219
 40
1.0
 40
1.0
 40
1.0
 40
1.0
 10
-77.9936
 20
25.7735
 30
0.0
 10
-77.9936
 20
25.7735
 30
0.0
 10
-70.5408
 20
22.6865
 30
0.0
 10
-70.5408
 20
22.6865
 30
0.0
 10
-70.5408
 20
22.6865
 30
0.0
 10
-70.5408
 20
22.6865
 30
0.0
 10
-72.3449
 20
18.331
 30
0.0
 10
-72.3449
 20
18.331
 30
0.0
 10
-72.3449
 20
18.331
 30
0.0
 10
-72.3449
 20
18.331
 30
0.0
 10
-69.5732
 20
17.1829
 30
0.0
 10
-69.5732
 20
17.1829
 30
0.0
 10
-69.5732
 20
17.1829
 30
0.0
 10
-69.5732
 20
17.1829
 30
0.0
 10
-67.7691
 20
21.5384
 30
0.0
 10
-67.7691
 20
21.5384
 30
0.0
 10
-67.7691
 20
21.5384
 30
0.0
 10
-67.7691
 20
21.5384
 30
0.0
 10
-60.316
 20
18.4512
 30
0.0
 10
-60.316
 20
18.4512
 30
0.0
 10
-60.316
 20
18.4512
 30
0.0
 10
-60.316
 20
18.4512
 30
0.0
 10
-57.2288
 20
10.9982
 30
0.0
 10
-57.2288
 20
10.9982
 30
0.0
 10
-57.2288
 20
10.9982
 30
0.0
 10
-57.2288
 20
10.9982
 30
0.0
 10
-61.5845
 20
9.194
 30
0.0
 10
-61.5845
 20
9.194
 30
0.0
 10
-61.5845
 20
9.194
 30
0.0
 10
-61.5845
 20
9.194
 30
0.0
 10
-60.4364
 20
6.4224
 30
0.0
 10
-60.4364
 20
6.4224
 30
0.0
 10
-60.4364
 20
6.4224
 30
0.0
 10
-60.4364
 20
6.4224
 30
0.0
 10
-56.0808
 20
8.2265
 30
0.0
 10
-56.0808
 20
8.2265
 30
0.0
 10
-56.0808
 20
8.2265
 30
0.0
 10
-56.0808
 20
8.2265
 30
0.0
 10
-52.9936
 20
0.7735
 30
0.0
 10
-52.9936
 20
0.7735
 30
0.0
 10
-52.9936
 20
0.7735
 30
0.0
 10
-52.9936
 20
0.7735
 30
0.0
 10
-56.0808
 20
-6.6796
 30
0.0
 10
-56.0808
 20
-6.6796
 30
0.0
 10
-56.0808
 20
-6.6796
 30
0.0
 10
-56.0808
 20
-6.6796
 30
0.0
 10
-60.4365
 20
-4.8754
 30
0.0
 10
-60.4365
 20
-4.8754
 30
0.0
 10
-60.4365
 20
-4.8754
 30
0.0
 10
-60.4365
 20
-4.8754
 30
0.0
 10
-61.5846
 20
-7.647
 30
0.0
 10
-61.5846
 20
-7.647
 30
0.0
 10
-61.5846
 20
-7.647
 30
0.0
 10
-61.5846
 20
-7.647
 30
0.0
 10
-57.2289
 20
-9.4512
 30
0.0
 10
-57.2289
 20
-9.4512
 30
0.0
 10
-57.2289
 20
-9.4512
 30
0.0
 10
-57.2289
 20
-9.4512
 30
0.0
 10
-60.316
 20
-16.9042
 30
0.0
 10
-60.316
 20
-16.9042
 30
0.0
 10
-60.316
 20
-16.9042
 30
0.0
 10
-60.316
 20
-16.9042
 30
0.0
 10
-67.7692
 20
-19.9914
 30
0.0
 10
-67.7692
 20
-19.9914
 30
0.0
 10
-67.7692
 20
-19.9914
 30
0.0
 10
-67.7692
 20
-19.9914
 30
0.0
 10
-69.5733
 20
-15.6359
 30
0.0
 10
-69.5733
 20
-15.6359
 30
0.0
 10
-69.5733
 20
-15.6359
 30
0.0
 10
-69.5733
 20
-15.6359
 30
0.0
 10
-72.345
 20
-16.7839
 30
0.0
 10
-72.345
 20
-16.7839
 30
0.0
 10
-72.345
 20
-16.7839
 30
0.0
 10
-72.345
 20
-16.7839
 30
0.0
 10
-70.5409
 20
-21.1395
 30
0.0
 10
-70.5409
 20
-21.1395
 30
0.0
 10
-70.5409
 20
-21.1395
 30
0.0
 10
-70.5409
 20
-21.1395
 30
0.0
 10
-77.9936
 20
-24.2265
 30
0.0
 10
-77.9936
 20
-24.2265
 30
0.0
 10
-77.9936
 20
-24.2265
 30
0.0
 10
-77.9936
 20
-24.2265
 30
0.0
 10
-85.4467
 20
-21.1394
 30
0.0
 10
-85.4467
 20
-21.1394
 30
0.0
 10
-85.4467
 20
-21.1394
 30
0.0
 10
-85.4467
 20
-21.1394
 30
0.0
 10
-83.6426
 20
-16.7839
 30
0.0
 10
-83.6426
 20
-16.7839
 30
0.0
 10
-83.6426
 20
-16.7839
 30
0.0
 10
-83.6426
 20
-16.7839
 30
0.0
 10
-86.4143
 20
-15.6359
 30
0.0
 10
-86.4143
 20
-15.6359
 30
0.0
 10
-86.4143
 20
-15.6359
 30
0.0
 10
-86.4143
 20
-15.6359
 30
0.0
 10
-88.2184
 20
-19.9913
 30
0.0
 10
-88.2184
 20
-19.9913
 30
0.0
 10
-88.2184
 20
-19.9913
 30
0.0
 10
-88.2184
 20
-19.9913
 30
0.0
 10
-95.6712
 20
-16.9042
 30
0.0
 10
-95.6712
 20
-16.9042
 30
0.0
 10
-95.6712
 20
-16.9042
 30
0.0
 10
-95.6712
 20
-16.9042
 30
0.0
 10
-98.7584
 20
-9.4511
 30
0.0
 10
-98.7584
 20
-9.4511
 30
0.0
 10
-98.7584
 20
-9.4511
 30
0.0
 10
-98.7584
 20
-9.4511
 30
0.0
 10
-94.403
 20
-7.647
 30
0.0
 10
-94.403
 20
-7.647
 30
0.0
 10
-94.403
 20
-7.647
 30
0.0
 10
-94.403
 20
-7.647
 30
0.0
 10
-95.5511
 20
-4.8754
 30
0.0
 10
-95.5511
 20
-4.8754
 30
0.0
 10
-95.5511
 20
-4.8754
 30
0.0
 10
-95.5511
 20
-4.8754
 30
0.0
 10
-99.9065
 20
-6.6794
 30
0.0
 10
-99.9065
 20
-6.6794
 30
0.0
 10
-99.9065
 20
-6.6794
 30
0.0
 10
-99.9065
 20
-6.6794
 30
0.0
 10
-102.9936
 20
0.7735
 30
0.0
 10
-102.9936
 20
0.7735
 30
0.0
 10
-102.9936
 20
0.7735
 30
0.0
 10
-102.9936
 20
0.7735
 30
0.0
 10
-99.9065
 20
8.2264
 30
0.0
 10
-99.9065
 20
8.2264
 30
0.0
 10
-99.9065
 20
8.2264
 30
0.0
 10
-99.9065
 20
8.2264
 30
0.0
 10
-95.5512
 20
6.4224
 30
0.0
 10
-95.5512
 20
6.4224
 30
0.0
 10
-95.5512
 20
6.4224
 30
0.0
 10
-95.5512
 20
6.4224
 30
0.0
 10
-94.4031
 20
9.194
 30
0.0
 10
-94.4031
 20
9.194
 30
0.0
 10
-94.4031
 20
9.194
 30
0.0
 10
-94.4031
 20
9.194
 30
0.0
 10
-98.7584
 20
10.998
 30
0.0
 10
-98.7584
 20
10.998
 30
0.0
 10
-98.7584
 20
10.998
 30
0.0
 10
-98.7584
 20
10.998
 30
0.0
 10
-95.6712
 20
18.4512
 30
0.0
 10
-95.6712
 20
18.4512
 30
0.0
 10
-95.6712
 20
18.4512
 30
0.0
 10
-95.6712
 20
18.4512
 30
0.0
 10
-88.2184
 20
21.5383
 30
0.0
 10
-88.2184
 20
21.5383
 30
0.0
 10
-88.2184
 20
21.5383
 30
0.0
 10
-88.2184
 20
21.5383
 30
0.0
 10
-86.4144
 20
17.1829
 30
0.0
 10
-86.4144
 20
17.1829
 30
0.0
 10
-86.4144
 20
17.1829
 30
0.0
 10
-86.4144
 20
17.1829
 30
0.0
 10
-83.6427
 20
18.331
 30
0.0
 10
-83.6427
 20
18.331
 30
0.0
 10
-83.6427
 20
18.331
 30
0.0
 10
-83.6427
 20
18.331
 30
0.0
 10
-85.4468
 20
22.6863
 30
0.0
 10
-85.4468
 20
22.6863
 30
0.0
 10
-85.4468
 20
22.6863
 30
0.0
 10
-85.4468
 20
22.6863
 30
0.0
 10
-77.9936
 20
25.7735
 30
0.0
 10
-77.9936
 20
25.7735
 30
0.0
  0
SPLINE
  5
48
330
1F
100
AcDbEntity
  8
Capa 1
 62
   142
370
     9
100
AcDbSpline
210
0.0
220
0.0
230
1.0
 70
    11
 71
     3
 72
   164
 73
   160
 74
     0
 42
0.0000000001
 43
0.0000000001
 40
0.0
 40
0.0
 40
0.0
 40
0.0
 40
0.024390243902439
 40
0.024390243902439
 40
0.024390243902439
 40
0.024390243902439
 40
0.0487804878048781
 40
0.0487804878048781
 40
0.0487804878048781
 40
0.0487804878048781
 40
0.0731707317073171
 40
0.0731707317073171
 40
0.0731707317073171
 40
0.0731707317073171
 40
0.0975609756097561
 40
0.0975609756097561
 40
0.0975609756097561
 40
0.0975609756097561
 40
0.1219512195121951
 40
0.1219512195121951
 40
0.1219512195121951
 40
0.1219512195121951
 40
0.1463414634146341
 40
0.1463414634146341
 40
0.1463414634146341
 40
0.1463414634146341
 40
0.1707317073170732
 40
0.1707317073170732
 40
0.1707317073170732
 40
0.1707317073170732
 40
0.1951219512195122
 40
0.1951219512195122
 40
0.1951219512195122
 40
0.1951219512195122
 40
0.2195121951219512
 40
0.2195121951219512
 40
0.2195121951219512
 40
0.2195121951219512
 40
0.2439024390243902
 40
0.2439024390243902
 40
0.2439024390243902
 40
0.2439024390243902
 40
0.2682926829268293
 40
0.2682926829268293
 40
0.2682926829268293
 40
0.2682926829268293
 40
0.2926829268292683
 40
0.2926829268292683
 40
0.2926829268292683
 40
0.2926829268292683
 40
0.3170731707317073
 40
0.3170731707317073
 40
0.3170731707317073
 40
0.3170731707317073
 40
0.3414634146341464
 40
0.3414634146341464
 40
0.3414634146341464
 40
0.3414634146341464
 40
0.3658536585365854
 40
0.3658536585365854
 40
0.3658536585365854
 40
0.3658536585365854
 40
0.3902439024390244
 40
0.3902439024390244
 40
0.3902439024390244
 40
0.3902439024390244
 40
0.4146341463414634
 40
0.4146341463414634
 40
0.4146341463414634
 40
0.4146341463414634
 40
0.4390243902439024
 40
0.4390243902439024
 40
0.4390243902439024
 40
0.4390243902439024
 40
0.4634146341463415
 40
0.4634146341463415
 40
0.4634146341463415
 40
0.4634146341463415
 40
0.4878048780487805
 40
0.4878048780487805
 40
0.4878048780487805
 40
0.4878048780487805
 40
0.5121951219512195
 40
0.5121951219512195
 40
0.5121951219512195
 40
0.5121951219512195
 40
0.5365853658536586
 40
0.5365853658536586
 40
0.5365853658536586
 40
0.5365853658536586
 40
0.5609756097560976
 40
0.5609756097560976
 40
0.5609756097560976
 40
0.5609756097560976
 40
0.5853658536585366
 40
0.5853658536585366
 40
0.5853658536585366
 40
0.5853658536585366
 40
0.6097560975609756
 40
0.6097560975609756
 40
0.6097560975609756
 40
0.6097560975609756
 40
0.6341463414634146
 40
0.6341463414634146
 40
0.6341463414634146
 40
0.6341463414634146
 40
0.6585365853658537
 40
0.6585365853658537
 40
0.6585365853658537
 40
0.6585365853658537
 40
0.6829268292682927
 40
0.6829268292682927
 40
0.6829268292682927
 40
0.6829268292682927
 40
0.7073170731707317
 40
0.7073170731707317
 40
0.7073170731707317
 40
0.7073170731707317
 40
0.7317073170731707
 40
0.7317073170731707
 40
0.7317073170731707
 40
0.7317073170731707
 40
0.7560975609756098
 40
0.7560975609756098
 40
0.7560975609756098
 40
0.7560975609756098
 40
0.7804878048780488
 40
0.7804878048780488
 40
0.7804878048780488
 40
0.7804878048780488
 40
0.8048780487804879
 40
0.8048780487804879
 40
0.8048780487804879
 40
0.8048780487804879
 40
0.8292682926829268
 40
0.8292682926829268
 40
0.8292682926829268
 40
0.8292682926829268
 40
0.8536585365853658
 40
0.8536585365853658
 40
0.8536585365853658
 40
0.8536585365853658
 40
0.8780487804878049
 40
0.8780487804878049
 40
0.8780487804878049
 40
0.8780487804878049
 40
0.9024390243902439
 40
0.9024390243902439
 40
0.9024390243902439
 40
0.9024390243902439
 40
0.926829268292683
 40
0.926829268292683
 40
0.926829268292683
 40
0.926829268292683
 40
0.9512195121951219
 40
0.9512195121951219
 40
0.9512195121951219
 40
0.9512195121951219
 40
1.0
 40
1.0
 40
1.0
 40
1.0
 10
-25.6061
 20
25.7735
 30
0.0
 10
-25.6061
 20
25.7735
 30
0.0
 10
-18.1533
 20
22.6865
 30
0.0
 10
-18.1533
 20
22.6865
 30
0.0
 10
-18.1533
 20
22.6865
 30
0.0
 10
-18.1533
 20
22.6865
 30
0.0
 10
-19.9574
 20
18.331
 30
0.0
 10
-19.9574
 20
18.331
 30
0.0
 10
-19.9574
 20
18.331
 30
0.0
 10
-19.9574
 20
18.331
 30
0.0
 10
-17.1857
 20
17.1829
 30
0.0
 10
-17.1857
 20
17.1829
 30
0.0
 10
-17.1857
 20
17.1829
 30
0.0
 10
-17.1857
 20
17.1829
 30
0.0
 10
-15.3816
 20
21.5384
 30
0.0
 10
-15.3816
 20
21.5384
 30
0.0
 10
-15.3816
 20
21.5384
 30
0.0
 10
-15.3816
 20
21.5384
 30
0.0
 10
-7.9285
 20
18.4512
 30
0.0
 10
-7.9285
 20
18.4512
 30
0.0
 10
-7.9285
 20
18.4512
 30
0.0
 10
-7.9285
 20
18.4512
 30
0.0
 10
-4.8413
 20
10.9982
 30
0.0
 10
-4.8413
 20
10.9982
 30
0.0
 10
-4.8413
 20
10.9982
 30
0.0
 10
-4.8413
 20
10.9982
 30
0.0
 10
-9.197
 20
9.194
 30
0.0
 10
-9.197
 20
9.194
 30
0.0
 10
-9.197
 20
9.194
 30
0.0
 10
-9.197
 20
9.194
 30
0.0
 10
-8.0489
 20
6.4224
 30
0.0
 10
-8.0489
 20
6.4224
 30
0.0
 10
-8.0489
 20
6.4224
 30
0.0
 10
-8.0489
 20
6.4224
 30
0.0
 10
-3.6933
 20
8.2265
 30
0.0
 10
-3.6933
 20
8.2265
 30
0.0
 10
-3.6933
 20
8.2265
 30
0.0
 10
-3.6933
 20
8.2265
 30
0.0
 10
-0.6061
 20
0.7735
 30
0.0
 10
-0.6061
 20
0.7735
 30
0.0
 10
-0.6061
 20
0.7735
 30
0.0
 10
-0.6061
 20
0.7735
 30
0.0
 10
-3.6933
 20
-6.6796
 30
0.0
 10
-3.6933
 20
-6.6796
 30
0.0
 10
-3.6933
 20
-6.6796
 30
0.0
 10
-3.6933
 20
-6.6796
 30
0.0
 10
-8.049
 20
-4.8754
 30
0.0
 10
-8.049
 20
-4.8754
 30
0.0
 10
-8.049
 20
-4.8754
 30
0.0
 10
-8.049
 20
-4.8754
 30
0.0
 10
-9.1971
 20
-7.647
 30
0.0
 10
-9.1971
 20
-7.647
 30
0.0
 10
-9.1971
 20
-7.647
 30
0.0
 10
-9.1971
 20
-7.647
 30
0.0
 10
-4.8414
 20
-9.4512
 30
0.0
 10
-4.8414
 20
-9.4512
 30
0.0
 10
-4.8414
 20
-9.4512
 30
0.0
 10
-4.8414
 20
-9.4512
 30
0.0
 10
-7.9285
 20
-16.9042
 30
0.0
 10
-7.9285
 20
-16.9042
 30
0.0
 10
-7.9285
 20
-16.9042
 30
0.0
 10
-7.9285
 20
-16.9042
 30
0.0
 10
-15.3817
 20
-19.9914
 30
0.0
 10
-15.3817
 20
-19.9914
 30
0.0
 10
-15.3817
 20
-19.9914
 30
0.0
 10
-15.3817
 20
-19.9914
 30
0.0
 10
-17.1858
 20
-15.6359
 30
0.0
 10
-17.1858
 20
-15.6359
 30
0.0
 10
-17.1858
 20
-15.6359
 30
0.0
 10
-17.1858
 20
-15.6359
 30
0.0
 10
-19.9575
 20
-16.7839
 30
0.0
 10
-19.9575
 20
-16.7839
 30
0.0
 10
-19.9575
 20
-16.7839
 30
0.0
 10
-19.9575
 20
-16.7839
 30
0.0
 10
-18.1534
 20
-21.1395
 30
0.0
 10
-18.1534
 20
-21.1395
 30
0.0
 10
-18.1534
 20
-21.1395
 30
0.0
 10
-18.1534
 20
-21.1395
 30
0.0
 10
-25.6061
 20
-24.2265
 30
0.0
 10
-25.6061
 20
-24.2265
 30
0.0
 10
-25.6061
 20
-24.2265
 30
0.0
 10
-25.6061
 20
-24.2265
 30
0.0
 10
-33.0592
 20
-21.1394
 30
0.0
 10
-33.0592
 20
-21.1394
 30
0.0
 10
-33.0592
 20
-21.1394
 30
0.0
 10
-33.0592
 20
-21.1394
 30
0.0
 10
-31.2551
 20
-16.7839
 30
0.0
 10
-31.2551
 20
-16.7839
 30
0.0
 10
-31.2551
 20
-16.7839
 30
0.0
 10
-31.2551
 20
-16.7839
 30
0.0
 10
-34.0268
 20
-15.6359
 30
0.0
 10
-34.0268
 20
-15.6359
 30
0.0
 10
-34.0268
 20
-15.6359
 30
0.0
 10
-34.0268
 20
-15.6359
 30
0.0
 10
-35.8309
 20
-19.9913
 30
0.0
 10
-35.8309
 20
-19.9913
 30
0.0
 10
-35.8309
 20
-19.9913
 30
0.0
 10
-35.8309
 20
-19.9913
 30
0.0
 10
-43.2837
 20
-16.9042
 30
0.0
 10
-43.2837
 20
-16.9042
 30
0.0
 10
-43.2837
 20
-16.9042
 30
0.0
 10
-43.2837
 20
-16.9042
 30
0.0
 10
-46.3709
 20
-9.4511
 30
0.0
 10
-46.3709
 20
-9.4511
 30
0.0
 10
-46.3709
 20
-9.4511
 30
0.0
 10
-46.3709
 20
-9.4511
 30
0.0
 10
-42.0155
 20
-7.647
 30
0.0
 10
-42.0155
 20
-7.647
 30
0.0
 10
-42.0155
 20
-7.647
 30
0.0
 10
-42.0155
 20
-7.647
 30
0.0
 10
-43.1636
 20
-4.8754
 30
0.0
 10
-43.1636
 20
-4.8754
 30
0.0
 10
-43.1636
 20
-4.8754
 30
0.0
 10
-43.1636
 20
-4.8754
 30
0.0
 10
-47.519
 20
-6.6794
 30
0.0
 10
-47.519
 20
-6.6794
 30
0.0
 10
-47.519
 20
-6.6794
 30
0.0
 10
-47.519
 20
-6.6794
 30
0.0
 10
-50.6061
 20
0.7735
 30
0.0
 10
-50.6061
 20
0.7735
 30
0.0
 10
-50.6061
 20
0.7735
 30
0.0
 10
-50.6061
 20
0.7735
 30
0.0
 10
-47.519
 20
8.2264
 30
0.0
 10
-47.519
 20
8.2264
 30
0.0
 10
-47.519
 20
8.2264
 30
0.0
 10
-47.519
 20
8.2264
 30
0.0
 10
-43.1637
 20
6.4224
 30
0.0
 10
-43.1637
 20
6.4224
 30
0.0
 10
-43.1637
 20
6.4224
 30
0.0
 10
-43.1637
 20
6.4224
 30
0.0
 10
-42.0156
 20
9.194
 30
0.0
 10
-42.0156
 20
9.194
 30
0.0
 10
-42.0156
 20
9.194
 30
0.0
 10
-42.0156
 20
9.194
 30
0.0
 10
-46.3709
 20
10.998
 30
0.0
 10
-46.3709
 20
10.998
 30
0.0
 10
-46.3709
 20
10.998
 30
0.0
 10
-46.3709
 20
10.998
 30
0.0
 10
-43.2837
 20
18.4512
 30
0.0
 10
-43.2837
 20
18.4512
 30
0.0
 10
-43.2837
 20
18.4512
 30
0.0
 10
-43.2837
 20
18.4512
 30
0.0
 10
-35.8309
 20
21.5383
 30
0.0
 10
-35.8309
 20
21.5383
 30
0.0
 10
-35.8309
 20
21.5383
 30
0.0
 10
-35.8309
 20
21.5383
 30
0.0
 10
-34.0269
 20
17.1829
 30
0.0
 10
-34.0269
 20
17.1829
 30
0.0
 10
-34.0269
 20
17.1829
 30
0.0
 10
-34.0269
 20
17.1829
 30
0.0
 10
-31.2552
 20
18.331
 30
0.0
 10
-31.2552
 20
18.331
 30
0.0
 10
-31.2552
 20
18.331
 30
0.0
 10
-31.2552
 20
18.331
 30
0.0
 10
-33.0593
 20
22.6863
 30
0.0
 10
-33.0593
 20
22.6863
 30
0.0
 10
-33.0593
 20
22.6863
 30
0.0
 10
-33.0593
 20
22.6863
 30
0.0
 10
-25.6061
 20
25.7735
 30
0.0
 10
-25.6061
 20
25.7735
 30
0.0
  0
SPLINE
  5
49
330
1F
100
AcDbEntity
  8
Capa 1
 62
   142
370
     9
100
AcDbSpline
210
0.0
220
0.0
230
1.0
 70
    11
 71
     3
 72
   164
 73
   160
 74
     0
 42
0.0000000001
 43
0.0000000001
 40
0.0
 40
0.0
 40
0.0
 40
0.0
 40
0.024390243902439
 40
0.024390243902439
 40
0.024390243902439
 40
0.024390243902439
 40
0.0487804878048781
 40
0.0487804878048781
 40
0.0487804878048781
 40
0.0487804878048781
 40
0.0731707317073171
 40
0.0731707317073171
 40
0.0731707317073171
 40
0.0731707317073171
 40
0.0975609756097561
 40
0.0975609756097561
 40
0.0975609756097561
 40
0.0975609756097561
 40
0.1219512195121951
 40
0.1219512195121951
 40
0.1219512195121951
 40
0.1219512195121951
 40
0.1463414634146341
 40
0.1463414634146341
 40
0.1463414634146341
 40
0.1463414634146341
 40
0.1707317073170732
 40
0.1707317073170732
 40
0.1707317073170732
 40
0.1707317073170732
 40
0.1951219512195122
 40
0.1951219512195122
 40
0.1951219512195122
 40
0.1951219512195122
 40
0.2195121951219512
 40
0.2195121951219512
 40
0.2195121951219512
 40
0.2195121951219512
 40
0.2439024390243902
 40
0.2439024390243902
 40
0.2439024390243902
 40
0.2439024390243902
 40
0.2682926829268293
 40
0.2682926829268293
 40
0.2682926829268293
 40
0.2682926829268293
 40
0.2926829268292683
 40
0.2926829268292683
 40
0.2926829268292683
 40
0.2926829268292683
 40
0.3170731707317073
 40
0.3170731707317073
 40
0.3170731707317073
 40
0.3170731707317073
 40
0.3414634146341464
 40
0.3414634146341464
 40
0.3414634146341464
 40
0.3414634146341464
 40
0.3658536585365854
 40
0.3658536585365854
 40
0.3658536585365854
 40
0.3658536585365854
 40
0.3902439024390244
 40
0.3902439024390244
 40
0.3902439024390244
 40
0.3902439024390244
 40
0.4146341463414634
 40
0.4146341463414634
 40
0.4146341463414634
 40
0.4146341463414634
 40
0.4390243902439024
 40
0.4390243902439024
 40
0.4390243902439024
 40
0.4390243902439024
 40
0.4634146341463415
 40
0.4634146341463415
 40
0.4634146341463415
 40
0.4634146341463415
 40
0.4878048780487805
 40
0.4878048780487805
 40
0.4878048780487805
 40
0.4878048780487805
 40
0.5121951219512195
 40
0.5121951219512195
 40
0.5121951219512195
 40
0.5121951219512195
 40
0.5365853658536586
 40
0.5365853658536586
 40
0.5365853658536586
 40
0.5365853658536586
 40
0.5609756097560976
 40
0.5609756097560976
 40
0.5609756097560976
 40
0.5609756097560976
 40
0.5853658536585366
 40
0.5853658536585366
 40
0.5853658536585366
 40
0.5853658536585366
 40
0.6097560975609756
 40
0.6097560975609756
 40
0.6097560975609756
 40
0.6097560975609756
 40
0.6341463414634146
 40
0.6341463414634146
 40
0.6341463414634146
 40
0.6341463414634146
 40
0.6585365853658537
 40
0.6585365853658537
 40
0.6585365853658537
 40
0.6585365853658537
 40
0.6829268292682927
 40
0.6829268292682927
 40
0.6829268292682927
 40
0.6829268292682927
 40
0.7073170731707317
 40
0.7073170731707317
 40
0.7073170731707317
 40
0.7073170731707317
 40
0.7317073170731707
 40
0.7317073170731707
 40
0.7317073170731707
 40
0.7317073170731707
 40
0.7560975609756098
 40
0.7560975609756098
 40
0.7560975609756098
 40
0.7560975609756098
 40
0.7804878048780488
 40
0.7804878048780488
 40
0.7804878048780488
 40
0.7804878048780488
 40
0.8048780487804879
 40
0.8048780487804879
 40
0.8048780487804879
 40
0.8048780487804879
 40
0.8292682926829268
 40
0.8292682926829268
 40
0.8292682926829268
 40
0.8292682926829268
 40
0.8536585365853658
 40
0.8536585365853658
 40
0.8536585365853658
 40
0.8536585365853658
 40
0.8780487804878049
 40
0.8780487804878049
 40
0.8780487804878049
 40
0.8780487804878049
 40
0.9024390243902439
 40
0.9024390243902439
 40
0.9024390243902439
 40
0.9024390243902439
 40
0.926829268292683
 40
0.926829268292683
 40
0.926829268292683
 40
0.926829268292683
 40
0.9512195121951219
 40
0.9512195121951219
 40
0.9512195121951219
 40
0.9512195121951219
 40
1.0
 40
1.0
 40
1.0
 40
1.0
 10
26.7814
 20
25.7735
 30
0.0
 10
26.7814
 20
25.7735
 30
0.0
 10
34.2342
 20
22.6865
 30
0.0
 10
34.2342
 20
22.6865
 30
0.0
 10
34.2342
 20
22.6865
 30
0.0
 10
34.2342
 20
22.6865
 30
0.0
 10
32.4301
 20
18.331
 30
0.0
 10
32.4301
 20
18.331
 30
0.0
 10
32.4301
 20
18.331
 30
0.0
 10
32.4301
 20
18.331
 30
0.0
 10
35.2018
 20
17.1829
 30
0.0
 10
35.2018
 20
17.1829
 30
0.0
 10
35.2018
 20
17.1829
 30
0.0
 10
35.2018
 20
17.1829
 30
0.0
 10
37.0059
 20
21.5384
 30
0.0
 10
37.0059
 20
21.5384
 30
0.0
 10
37.0059
 20
21.5384
 30
0.0
 10
37.0059
 20
21.5384
 30
0.0
 10
44.459
 20
18.4512
 30
0.0
 10
44.459
 20
18.4512
 30
0.0
 10
44.459
 20
18.4512
 30
0.0
 10
44.459
 20
18.4512
 30
0.0
 10
47.5462
 20
10.9982
 30
0.0
 10
47.5462
 20
10.9982
 30
0.0
 10
47.5462
 20
10.9982
 30
0.0
 10
47.5462
 20
10.9982
 30
0.0
 10
43.1905
 20
9.194
 30
0.0
 10
43.1905
 20
9.194
 30
0.0
 10
43.1905
 20
9.194
 30
0.0
 10
43.1905
 20
9.194
 30
0.0
 10
44.3386
 20
6.4224
 30
0.0
 10
44.3386
 20
6.4224
 30
0.0
 10
44.3386
 20
6.4224
 30
0.0
 10
44.3386
 20
6.4224
 30
0.0
 10
48.6942
 20
8.2265
 30
0.0
 10
48.6942
 20
8.2265
 30
0.0
 10
48.6942
 20
8.2265
 30
0.0
 10
48.6942
 20
8.2265
 30
0.0
 10
51.7814
 20
0.7735
 30
0.0
 10
51.7814
 20
0.7735
 30
0.0
 10
51.7814
 20
0.7735
 30
0.0
 10
51.7814
 20
0.7735
 30
0.0
 10
48.6942
 20
-6.6796
 30
0.0
 10
48.6942
 20
-6.6796
 30
0.0
 10
48.6942
 20
-6.6796
 30
0.0
 10
48.6942
 20
-6.6796
 30
0.0
 10
44.3385
 20
-4.8754
 30
0.0
 10
44.3385
 20
-4.8754
 30
0.0
 10
44.3385
 20
-4.8754
 30
0.0
 10
44.3385
 20
-4.8754
 30
0.0
 10
43.1904
 20
-7.647
 30
0.0
 10
43.1904
 20
-7.647
 30
0.0
 10
43.1904
 20
-7.647
 30
0.0
 10
43.1904
 20
-7.647
 30
0.0
 10
47.5461
 20
-9.4512
 30
0.0
 10
47.5461
 20
-9.4512
 30
0.0
 10
47.5461
 20
-9.4512
 30
0.0
 10
47.5461
 20
-9.4512
 30
0.0
 10
44.459
 20
-16.9042
 30
0.0
 10
44.459
 20
-16.9042
 30
0.0
 10
44.459
 20
-16.9042
 30
0.0
 10
44.459
 20
-16.9042
 30
0.0
 10
37.0058
 20
-19.9914
 30
0.0
 10
37.0058
 20
-19.9914
 30
0.0
 10
37.0058
 20
-19.9914
 30
0.0
 10
37.0058
 20
-19.9914
 30
0.0
 10
35.2017
 20
-15.6359
 30
0.0
 10
35.2017
 20
-15.6359
 30
0.0
 10
35.2017
 20
-15.6359
 30
0.0
 10
35.2017
 20
-15.6359
 30
0.0
 10
32.43
 20
-16.7839
 30
0.0
 10
32.43
 20
-16.7839
 30
0.0
 10
32.43
 20
-16.7839
 30
0.0
 10
32.43
 20
-16.7839
 30
0.0
 10
34.2341
 20
-21.1395
 30
0.0
 10
34.2341
 20
-21.1395
 30
0.0
 10
34.2341
 20
-21.1395
 30
0.0
 10
34.2341
 20
-21.1395
 30
0.0
 10
26.7814
 20
-24.2265
 30
0.0
 10
26.7814
 20
-24.2265
 30
0.0
 10
26.7814
 20
-24.2265
 30
0.0
 10
26.7814
 20
-24.2265
 30
0.0
 10
19.3283
 20
-21.1394
 30
0.0
 10
19.3283
 20
-21.1394
 30
0.0
 10
19.3283
 20
-21.1394
 30
0.0
 10
19.3283
 20
-21.1394
 30
0.0
 10
21.1324
 20
-16.7839
 30
0.0
 10
21.1324
 20
-16.7839
 30
0.0
 10
21.1324
 20
-16.7839
 30
0.0
 10
21.1324
 20
-16.7839
 30
0.0
 10
18.3607
 20
-15.6359
 30
0.0
 10
18.3607
 20
-15.6359
 30
0.0
 10
18.3607
 20
-15.6359
 30
0.0
 10
18.3607
 20
-15.6359
 30
0.0
 10
16.5566
 20
-19.9913
 30
0.0
 10
16.5566
 20
-19.9913
 30
0.0
 10
16.5566
 20
-19.9913
 30
0.0
 10
16.5566
 20
-19.9913
 30
0.0
 10
9.1038
 20
-16.9042
 30
0.0
 10
9.1038
 20
-16.9042
 30
0.0
 10
9.1038
 20
-16.9042
 30
0.0
 10
9.1038
 20
-16.9042
 30
0.0
 10
6.0166
 20
-9.4511
 30
0.0
 10
6.0166
 20
-9.4511
 30
0.0
 10
6.0166
 20
-9.4511
 30
0.0
 10
6.0166
 20
-9.4511
 30
0.0
 10
10.372
 20
-7.647
 30
0.0
 10
10.372
 20
-7.647
 30
0.0
 10
10.372
 20
-7.647
 30
0.0
 10
10.372
 20
-7.647
 30
0.0
 10
9.2239
 20
-4.8754
 30
0.0
 10
9.2239
 20
-4.8754
 30
0.0
 10
9.2239
 20
-4.8754
 30
0.0
 10
9.2239
 20
-4.8754
 30
0.0
 10
4.8685
 20
-6.6794
 30
0.0
 10
4.8685
 20
-6.6794
 30
0.0
 10
4.8685
 20
-6.6794
 30
0.0
 10
4.8685
 20
-6.6794
 30
0.0
 10
1.7814
 20
0.7735
 30
0.0
 10
1.7814
 20
0.7735
 30
0.0
 10
1.7814
 20
0.7735
 30
0.0
 10
1.7814
 20
0.7735
 30
0.0
 10
4.8685
 20
8.2264
 30
0.0
 10
4.8685
 20
8.2264
 30
0.0
 10
4.8685
 20
8.2264
 30
0.0
 10
4.8685
 20
8.2264
 30
0.0
 10
9.2238
 20
6.4224
 30
0.0
 10
9.2238
 20
6.4224
 30
0.0
 10
9.2238
 20
6.4224
 30
0.0
 10
9.2238
 20
6.4224
 30
0.0
 10
10.3719
 20
9.194
 30
0.0
 10
10.3719
 20
9.194
 30
0.0
 10
10.3719
 20
9.194
 30
0.0
 10
10.3719
 20
9.194
 30
0.0
 10
6.0166
 20
10.998
 30
0.0
 10
6.0166
 20
10.998
 30
0.0
 10
6.0166
 20
10.998
 30
0.0
 10
6.0166
 20
10.998
 30
0.0
 10
9.1038
 20
18.4512
 30
0.0
 10
9.1038
 20
18.4512
 30
0.0
 10
9.1038
 20
18.4512
 30
0.0
 10
9.1038
 20
18.4512
 30
0.0
 10
16.5566
 20
21.5383
 30
0.0
 10
16.5566
 20
21.5383
 30
0.0
 10
16.5566
 20
21.5383
 30
0.0
 10
16.5566
 20
21.5383
 30
0.0
 10
18.3606
 20
17.1829
 30
0.0
 10
18.3606
 20
17.1829
 30
0.0
 10
18.3606
 20
17.1829
 30
0.0
 10
18.3606
 20
17.1829
 30
0.0
 10
21.1323
 20
18.331
 30
0.0
 10
21.1323
 20
18.331
 30
0.0
 10
21.1323
 20
18.331
 30
0.0
 10
21.1323
 20
18.331
 30
0.0
 10
19.3282
 20
22.6863
 30
0.0
 10
19.3282
 20
22.6863
 30
0.0
 10
19.3282
 20
22.6863
 30
0.0
 10
19.3282
 20
22.6863
 30
0.0
 10
26.7814
 20
25.7735
 30
0.0
 10
26.7814
 20
25.7735
 30
0.0
  0
SPLINE
  5
4A
330
1F
100
AcDbEntity
  8
Capa 1
 62
   142
370
     9
100
AcDbSpline
210
0.0
220
0.0
230
1.0
 70
    11
 71
     3
 72
   164
 73
   160
 74
     0
 42
0.0000000001
 43
0.0000000001
 40
0.0
 40
0.0
 40
0.0
 40
0.0
 40
0.024390243902439
 40
0.024390243902439
 40
0.024390243902439
 40
0.024390243902439
 40
0.0487804878048781
 40
0.0487804878048781
 40
0.0487804878048781
 40
0.0487804878048781
 40
0.0731707317073171
 40
0.0731707317073171
 40
0.0731707317073171
 40
0.0731707317073171
 40
0.0975609756097561
 40
0.0975609756097561
 40
0.0975609756097561
 40
0.0975609756097561
 40
0.1219512195121951
 40
0.1219512195121951
 40
0.1219512195121951
 40
0.1219512195121951
 40
0.1463414634146341
 40
0.1463414634146341
 40
0.1463414634146341
 40
0.1463414634146341
 40
0.1707317073170732
 40
0.1707317073170732
 40
0.1707317073170732
 40
0.1707317073170732
 40
0.1951219512195122
 40
0.1951219512195122
 40
0.1951219512195122
 40
0.1951219512195122
 40
0.2195121951219512
 40
0.2195121951219512
 40
0.2195121951219512
 40
0.2195121951219512
 40
0.2439024390243902
 40
0.2439024390243902
 40
0.2439024390243902
 40
0.2439024390243902
 40
0.2682926829268293
 40
0.2682926829268293
 40
0.2682926829268293
 40
0.2682926829268293
 40
0.2926829268292683
 40
0.2926829268292683
 40
0.2926829268292683
 40
0.2926829268292683
 40
0.3170731707317073
 40
0.3170731707317073
 40
0.3170731707317073
 40
0.3170731707317073
 40
0.3414634146341464
 40
0.3414634146341464
 40
0.3414634146341464
 40
0.3414634146341464
 40
0.3658536585365854
 40
0.3658536585365854
 40
0.3658536585365854
 40
0.3658536585365854
 40
0.3902439024390244
 40
0.3902439024390244
 40
0.3902439024390244
 40
0.3902439024390244
 40
0.4146341463414634
 40
0.4146341463414634
 40
0.4146341463414634
 40
0.4146341463414634
 40
0.4390243902439024
 40
0.4390243902439024
 40
0.4390243902439024
 40
0.4390243902439024
 40
0.4634146341463415
 40
0.4634146341463415
 40
0.4634146341463415
 40
0.4634146341463415
 40
0.4878048780487805
 40
0.4878048780487805
 40
0.4878048780487805
 40
0.4878048780487805
 40
0.5121951219512195
 40
0.5121951219512195
 40
0.5121951219512195
 40
0.5121951219512195
 40
0.5365853658536586
 40
0.5365853658536586
 40
0.5365853658536586
 40
0.5365853658536586
 40
0.5609756097560976
 40
0.5609756097560976
 40
0.5609756097560976
 40
0.5609756097560976
 40
0.5853658536585366
 40
0.5853658536585366
 40
0.5853658536585366
 40
0.5853658536585366
 40
0.6097560975609756
 40
0.6097560975609756
 40
0.6097560975609756
 40
0.6097560975609756
 40
0.6341463414634146
 40
0.6341463414634146
 40
0.6341463414634146
 40
0.6341463414634146
 40
0.6585365853658537
 40
0.6585365853658537
 40
0.6585365853658537
 40
0.6585365853658537
 40
0.6829268292682927
 40
0.6829268292682927
 40
0.6829268292682927
 40
0.6829268292682927
 40
0.7073170731707317
 40
0.7073170731707317
 40
0.7073170731707317
 40
0.7073170731707317
 40
0.7317073170731707
 40
0.7317073170731707
 40
0.7317073170731707
 40
0.7317073170731707
 40
0.7560975609756098
 40
0.7560975609756098
 40
0.7560975609756098
 40
0.7560975609756098
 40
0.7804878048780488
 40
0.7804878048780488
 40
0.7804878048780488
 40
0.7804878048780488
 40
0.8048780487804879
 40
0.8048780487804879
 40
0.8048780487804879
 40
0.8048780487804879
 40
0.8292682926829268
 40
0.8292682926829268
 40
0.8292682926829268
 40
0.8292682926829268
 40
0.8536585365853658
 40
0.8536585365853658
 40
0.8536585365853658
 40
0.8536585365853658
 40
0.8780487804878049
 40
0.8780487804878049
 40
0.8780487804878049
 40
0.8780487804878049
 40
0.9024390243902439
 40
0.9024390243902439
 40
0.9024390243902439
 40
0.9024390243902439
 40
0.926829268292683
 40
0.926829268292683
 40
0.926829268292683
 40
0.926829268292683
 40
0.9512195121951219
 40
0.9512195121951219
 40
0.9512195121951219
 40
0.9512195121951219
 40
1.0
 40
1.0
 40
1.0
 40
1.0
 10
-77.9936
 20
-26.614
 30
0.0
 10
-77.9936
 20
-26.614
 30
0.0
 10
-70.5408
 20
-29.701
 30
0.0
 10
-70.5408
 20
-29.701
 30
0.0
 10
-70.5408
 20
-29.701
 30
0.0
 10
-70.5408
 20
-29.701
 30
0.0
 10
-72.3449
 20
-34.0565
 30
0.0
 10
-72.3449
 20
-34.0565
 30
0.0
 10
-72.3449
 20
-34.0565
 30
0.0
 10
-72.3449
 20
-34.0565
 30
0.0
 10
-69.5732
 20
-35.2046
 30
0.0
 10
-69.5732
 20
-35.2046
 30
0.0
 10
-69.5732
 20
-35.2046
 30
0.0
 10
-69.5732
 20
-35.2046
 30
0.0
 10
-67.7691
 20
-30.8491
 30
0.0
 10
-67.7691
 20
-30.8491
 30
0.0
 10
-67.7691
 20
-30.8491
 30
0.0
 10
-67.7691
 20
-30.8491
 30
0.0
 10
-60.316
 20
-33.9363
 30
0.0
 10
-60.316
 20
-33.9363
 30
0.0
 10
-60.316
 20
-33.9363
 30
0.0
 10
-60.316
 20
-33.9363
 30
0.0
 10
-57.2288
 20
-41.3893
 30
0.0
 10
-57.2288
 20
-41.3893
 30
0.0
 10
-57.2288
 20
-41.3893
 30
0.0
 10
-57.2288
 20
-41.3893
 30
0.0
 10
-61.5845
 20
-43.1935
 30
0.0
 10
-61.5845
 20
-43.1935
 30
0.0
 10
-61.5845
 20
-43.1935
 30
0.0
 10
-61.5845
 20
-43.1935
 30
0.0
 10
-60.4364
 20
-45.9651
 30
0.0
 10
-60.4364
 20
-45.9651
 30
0.0
 10
-60.4364
 20
-45.9651
 30
0.0
 10
-60.4364
 20
-45.9651
 30
0.0
 10
-56.0808
 20
-44.161
 30
0.0
 10
-56.0808
 20
-44.161
 30
0.0
 10
-56.0808
 20
-44.161
 30
0.0
 10
-56.0808
 20
-44.161
 30
0.0
 10
-52.9936
 20
-51.614
 30
0.0
 10
-52.9936
 20
-51.614
 30
0.0
 10
-52.9936
 20
-51.614
 30
0.0
 10
-52.9936
 20
-51.614
 30
0.0
 10
-56.0808
 20
-59.0671
 30
0.0
 10
-56.0808
 20
-59.0671
 30
0.0
 10
-56.0808
 20
-59.0671
 30
0.0
 10
-56.0808
 20
-59.0671
 30
0.0
 10
-60.4365
 20
-57.2629
 30
0.0
 10
-60.4365
 20
-57.2629
 30
0.0
 10
-60.4365
 20
-57.2629
 30
0.0
 10
-60.4365
 20
-57.2629
 30
0.0
 10
-61.5846
 20
-60.0345
 30
0.0
 10
-61.5846
 20
-60.0345
 30
0.0
 10
-61.5846
 20
-60.0345
 30
0.0
 10
-61.5846
 20
-60.0345
 30
0.0
 10
-57.2289
 20
-61.8387
 30
0.0
 10
-57.2289
 20
-61.8387
 30
0.0
 10
-57.2289
 20
-61.8387
 30
0.0
 10
-57.2289
 20
-61.8387
 30
0.0
 10
-60.316
 20
-69.2917
 30
0.0
 10
-60.316
 20
-69.2917
 30
0.0
 10
-60.316
 20
-69.2917
 30
0.0
 10
-60.316
 20
-69.2917
 30
0.0
 10
-67.7692
 20
-72.3789
 30
0.0
 10
-67.7692
 20
-72.3789
 30
0.0
 10
-67.7692
 20
-72.3789
 30
0.0
 10
-67.7692
 20
-72.3789
 30
0.0
 10
-69.5733
 20
-68.0234
 30
0.0
 10
-69.5733
 20
-68.0234
 30
0.0
 10
-69.5733
 20
-68.0234
 30
0.0
 10
-69.5733
 20
-68.0234
 30
0.0
 10
-72.345
 20
-69.1714
 30
0.0
 10
-72.345
 20
-69.1714
 30
0.0
 10
-72.345
 20
-69.1714
 30
0.0
 10
-72.345
 20
-69.1714
 30
0.0
 10
-70.5409
 20
-73.527
 30
0.0
 10
-70.5409
 20
-73.527
 30
0.0
 10
-70.5409
 20
-73.527
 30
0.0
 10
-70.5409
 20
-73.527
 30
0.0
 10
-77.9936
 20
-76.614
 30
0.0
 10
-77.9936
 20
-76.614
 30
0.0
 10
-77.9936
 20
-76.614
 30
0.0
 10
-77.9936
 20
-76.614
 30
0.0
 10
-85.4467
 20
-73.5269
 30
0.0
 10
-85.4467
 20
-73.5269
 30
0.0
 10
-85.4467
 20
-73.5269
 30
0.0
 10
-85.4467
 20
-73.5269
 30
0.0
 10
-83.6426
 20
-69.1714
 30
0.0
 10
-83.6426
 20
-69.1714
 30
0.0
 10
-83.6426
 20
-69.1714
 30
0.0
 10
-83.6426
 20
-69.1714
 30
0.0
 10
-86.4143
 20
-68.0234
 30
0.0
 10
-86.4143
 20
-68.0234
 30
0.0
 10
-86.4143
 20
-68.0234
 30
0.0
 10
-86.4143
 20
-68.0234
 30
0.0
 10
-88.2184
 20
-72.3788
 30
0.0
 10
-88.2184
 20
-72.3788
 30
0.0
 10
-88.2184
 20
-72.3788
 30
0.0
 10
-88.2184
 20
-72.3788
 30
0.0
 10
-95.6712
 20
-69.2917
 30
0.0
 10
-95.6712
 20
-69.2917
 30
0.0
 10
-95.6712
 20
-69.2917
 30
0.0
 10
-95.6712
 20
-69.2917
 30
0.0
 10
-98.7584
 20
-61.8386
 30
0.0
 10
-98.7584
 20
-61.8386
 30
0.0
 10
-98.7584
 20
-61.8386
 30
0.0
 10
-98.7584
 20
-61.8386
 30
0.0
 10
-94.403
 20
-60.0345
 30
0.0
 10
-94.403
 20
-60.0345
 30
0.0
 10
-94.403
 20
-60.0345
 30
0.0
 10
-94.403
 20
-60.0345
 30
0.0
 10
-95.5511
 20
-57.2629
 30
0.0
 10
-95.5511
 20
-57.2629
 30
0.0
 10
-95.5511
 20
-57.2629
 30
0.0
 10
-95.5511
 20
-57.2629
 30
0.0
 10
-99.9065
 20
-59.0669
 30
0.0
 10
-99.9065
 20
-59.0669
 30
0.0
 10
-99.9065
 20
-59.0669
 30
0.0
 10
-99.9065
 20
-59.0669
 30
0.0
 10
-102.9936
 20
-51.614
 30
0.0
 10
-102.9936
 20
-51.614
 30
0.0
 10
-102.9936
 20
-51.614
 30
0.0
 10
-102.9936
 20
-51.614
 30
0.0
 10
-99.9065
 20
-44.1611
 30
0.0
 10
-99.9065
 20
-44.1611
 30
0.0
 10
-99.9065
 20
-44.1611
 30
0.0
 10
-99.9065
 20
-44.1611
 30
0.0
 10
-95.5512
 20
-45.9651
 30
0.0
 10
-95.5512
 20
-45.9651
 30
0.0
 10
-95.5512
 20
-45.9651
 30
0.0
 10
-95.5512
 20
-45.9651
 30
0.0
 10
-94.4031
 20
-43.1935
 30
0.0
 10
-94.4031
 20
-43.1935
 30
0.0
 10
-94.4031
 20
-43.1935
 30
0.0
 10
-94.4031
 20
-43.1935
 30
0.0
 10
-98.7584
 20
-41.3895
 30
0.0
 10
-98.7584
 20
-41.3895
 30
0.0
 10
-98.7584
 20
-41.3895
 30
0.0
 10
-98.7584
 20
-41.3895
 30
0.0
 10
-95.6712
 20
-33.9363
 30
0.0
 10
-95.6712
 20
-33.9363
 30
0.0
 10
-95.6712
 20
-33.9363
 30
0.0
 10
-95.6712
 20
-33.9363
 30
0.0
 10
-88.2184
 20
-30.8492
 30
0.0
 10
-88.2184
 20
-30.8492
 30
0.0
 10
-88.2184
 20
-30.8492
 30
0.0
 10
-88.2184
 20
-30.8492
 30
0.0
 10
-86.4144
 20
-35.2046
 30
0.0
 10
-86.4144
 20
-35.2046
 30
0.0
 10
-86.4144
 20
-35.2046
 30
0.0
 10
-86.4144
 20
-35.2046
 30
0.0
 10
-83.6427
 20
-34.0565
 30
0.0
 10
-83.6427
 20
-34.0565
 30
0.0
 10
-83.6427
 20
-34.0565
 30
0.0
 10
-83.6427
 20
-34.0565
 30
0.0
 10
-85.4468
 20
-29.7012
 30
0.0
 10
-85.4468
 20
-29.7012
 30
0.0
 10
-85.4468
 20
-29.7012
 30
0.0
 10
-85.4468
 20
-29.7012
 30
0.0
 10
-77.9936
 20
-26.614
 30
0.0
 10
-77.9936
 20
-26.614
 30
0.0
  0
SPLINE
  5
4B
330
1F
100
AcDbEntity
  8
Capa 1
 62
   142
370
     9
100
AcDbSpline
210
0.0
220
0.0
230
1.0
 70
    11
 71
     3
 72
   164
 73
   160
 74
     0
 42
0.0000000001
 43
0.0000000001
 40
0.0
 40
0.0
 40
0.0
 40
0.0
 40
0.024390243902439
 40
0.024390243902439
 40
0.024390243902439
 40
0.024390243902439
 40
0.0487804878048781
 40
0.0487804878048781
 40
0.0487804878048781
 40
0.0487804878048781
 40
0.0731707317073171
 40
0.0731707317073171
 40
0.0731707317073171
 40
0.0731707317073171
 40
0.0975609756097561
 40
0.0975609756097561
 40
0.0975609756097561
 40
0.0975609756097561
 40
0.1219512195121951
 40
0.1219512195121951
 40
0.1219512195121951
 40
0.1219512195121951
 40
0.1463414634146341
 40
0.1463414634146341
 40
0.1463414634146341
 40
0.1463414634146341
 40
0.1707317073170732
 40
0.1707317073170732
 40
0.1707317073170732
 40
0.1707317073170732
 40
0.1951219512195122
 40
0.1951219512195122
 40
0.1951219512195122
 40
0.1951219512195122
 40
0.2195121951219512
 40
0.2195121951219512
 40
0.2195121951219512
 40
0.2195121951219512
 40
0.2439024390243902
 40
0.2439024390243902
 40
0.2439024390243902
 40
0.2439024390243902
 40
0.2682926829268293
 40
0.2682926829268293
 40
0.2682926829268293
 40
0.2682926829268293
 40
0.2926829268292683
 40
0.2926829268292683
 40
0.2926829268292683
 40
0.2926829268292683
 40
0.3170731707317073
 40
0.3170731707317073
 40
0.3170731707317073
 40
0.3170731707317073
 40
0.3414634146341464
 40
0.3414634146341464
 40
0.3414634146341464
 40
0.3414634146341464
 40
0.3658536585365854
 40
0.3658536585365854
 40
0.3658536585365854
 40
0.3658536585365854
 40
0.3902439024390244
 40
0.3902439024390244
 40
0.3902439024390244
 40
0.3902439024390244
 40
0.4146341463414634
 40
0.4146341463414634
 40
0.4146341463414634
 40
0.4146341463414634
 40
0.4390243902439024
 40
0.4390243902439024
 40
0.4390243902439024
 40
0.4390243902439024
 40
0.4634146341463415
 40
0.4634146341463415
 40
0.4634146341463415
 40
0.4634146341463415
 40
0.4878048780487805
 40
0.4878048780487805
 40
0.4878048780487805
 40
0.4878048780487805
 40
0.5121951219512195
 40
0.5121951219512195
 40
0.5121951219512195
 40
0.5121951219512195
 40
0.5365853658536586
 40
0.5365853658536586
 40
0.5365853658536586
 40
0.5365853658536586
 40
0.5609756097560976
 40
0.5609756097560976
 40
0.5609756097560976
 40
0.5609756097560976
 40
0.5853658536585366
 40
0.5853658536585366
 40
0.5853658536585366
 40
0.5853658536585366
 40
0.6097560975609756
 40
0.6097560975609756
 40
0.6097560975609756
 40
0.6097560975609756
 40
0.6341463414634146
 40
0.6341463414634146
 40
0.6341463414634146
 40
0.6341463414634146
 40
0.6585365853658537
 40
0.6585365853658537
 40
0.6585365853658537
 40
0.6585365853658537
 40
0.6829268292682927
 40
0.6829268292682927
 40
0.6829268292682927
 40
0.6829268292682927
 40
0.7073170731707317
 40
0.7073170731707317
 40
0.7073170731707317
 40
0.7073170731707317
 40
0.7317073170731707
 40
0.7317073170731707
 40
0.7317073170731707
 40
0.7317073170731707
 40
0.7560975609756098
 40
0.7560975609756098
 40
0.7560975609756098
 40
0.7560975609756098
 40
0.7804878048780488
 40
0.7804878048780488
 40
0.7804878048780488
 40
0.7804878048780488
 40
0.8048780487804879
 40
0.8048780487804879
 40
0.8048780487804879
 40
0.8048780487804879
 40
0.8292682926829268
 40
0.8292682926829268
 40
0.8292682926829268
 40
0.8292682926829268
 40
0.8536585365853658
 40
0.8536585365853658
 40
0.8536585365853658
 40
0.8536585365853658
 40
0.8780487804878049
 40
0.8780487804878049
 40
0.8780487804878049
 40
0.8780487804878049
 40
0.9024390243902439
 40
0.9024390243902439
 40
0.9024390243902439
 40
0.9024390243902439
 40
0.926829268292683
 40
0.926829268292683
 40
0.926829268292683
 40
0.926829268292683
 40
0.9512195121951219
 40
0.9512195121951219
 40
0.9512195121951219
 40
0.9512195121951219
 40
1.0
 40
1.0
 40
1.0
 40
1.0
 10
-25.6061
 20
-26.614
 30
0.0
 10
-25.6061
 20
-26.614
 30
0.0
 10
-18.1533
 20
-29.701
 30
0.0
 10
-18.1533
 20
-29.701
 30
0.0
 10
-18.1533
 20
-29.701
 30
0.0
 10
-18.1533
 20
-29.701
 30
0.0
 10
-19.9574
 20
-34.0565
 30
0.0
 10
-19.9574
 20
-34.0565
 30
0.0
 10
-19.9574
 20
-34.0565
 30
0.0
 10
-19.9574
 20
-34.0565
 30
0.0
 10
-17.1857
 20
-35.2046
 30
0.0
 10
-17.1857
 20
-35.2046
 30
0.0
 10
-17.1857
 20
-35.2046
 30
0.0
 10
-17.1857
 20
-35.2046
 30
0.0
 10
-15.3816
 20
-30.8491
 30
0.0
 10
-15.3816
 20
-30.8491
 30
0.0
 10
-15.3816
 20
-30.8491
 30
0.0
 10
-15.3816
 20
-30.8491
 30
0.0
 10
-7.9285
 20
-33.9363
 30
0.0
 10
-7.9285
 20
-33.9363
 30
0.0
 10
-7.9285
 20
-33.9363
 30
0.0
 10
-7.9285
 20
-33.9363
 30
0.0
 10
-4.8413
 20
-41.3893
 30
0.0
 10
-4.8413
 20
-41.3893
 30
0.0
 10
-4.8413
 20
-41.3893
 30
0.0
 10
-4.8413
 20
-41.3893
 30
0.0
 10
-9.197
 20
-43.1935
 30
0.0
 10
-9.197
 20
-43.1935
 30
0.0
 10
-9.197
 20
-43.1935
 30
0.0
 10
-9.197
 20
-43.1935
 30
0.0
 10
-8.0489
 20
-45.9651
 30
0.0
 10
-8.0489
 20
-45.9651
 30
0.0
 10
-8.0489
 20
-45.9651
 30
0.0
 10
-8.0489
 20
-45.9651
 30
0.0
 10
-3.6933
 20
-44.161
 30
0.0
 10
-3.6933
 20
-44.161
 30
0.0
 10
-3.6933
 20
-44.161
 30
0.0
 10
-3.6933
 20
-44.161
 30
0.0
 10
-0.6061
 20
-51.614
 30
0.0
 10
-0.6061
 20
-51.614
 30
0.0
 10
-0.6061
 20
-51.614
 30
0.0
 10
-0.6061
 20
-51.614
 30
0.0
 10
-3.6933
 20
-59.0671
 30
0.0
 10
-3.6933
 20
-59.0671
 30
0.0
 10
-3.6933
 20
-59.0671
 30
0.0
 10
-3.6933
 20
-59.0671
 30
0.0
 10
-8.049
 20
-57.2629
 30
0.0
 10
-8.049
 20
-57.2629
 30
0.0
 10
-8.049
 20
-57.2629
 30
0.0
 10
-8.049
 20
-57.2629
 30
0.0
 10
-9.1971
 20
-60.0345
 30
0.0
 10
-9.1971
 20
-60.0345
 30
0.0
 10
-9.1971
 20
-60.0345
 30
0.0
 10
-9.1971
 20
-60.0345
 30
0.0
 10
-4.8414
 20
-61.8387
 30
0.0
 10
-4.8414
 20
-61.8387
 30
0.0
 10
-4.8414
 20
-61.8387
 30
0.0
 10
-4.8414
 20
-61.8387
 30
0.0
 10
-7.9285
 20
-69.2917
 30
0.0
 10
-7.9285
 20
-69.2917
 30
0.0
 10
-7.9285
 20
-69.2917
 30
0.0
 10
-7.9285
 20
-69.2917
 30
0.0
 10
-15.3817
 20
-72.3789
 30
0.0
 10
-15.3817
 20
-72.3789
 30
0.0
 10
-15.3817
 20
-72.3789
 30
0.0
 10
-15.3817
 20
-72.3789
 30
0.0
 10
-17.1858
 20
-68.0234
 30
0.0
 10
-17.1858
 20
-68.0234
 30
0.0
 10
-17.1858
 20
-68.0234
 30
0.0
 10
-17.1858
 20
-68.0234
 30
0.0
 10
-19.9575
 20
-69.1714
 30
0.0
 10
-19.9575
 20
-69.1714
 30
0.0
 10
-19.9575
 20
-69.1714
 30
0.0
 10
-19.9575
 20
-69.1714
 30
0.0
 10
-18.1534
 20
-73.527
 30
0.0
 10
-18.1534
 20
-73.527
 30
0.0
 10
-18.1534
 20
-73.527
 30
0.0
 10
-18.1534
 20
-73.527
 30
0.0
 10
-25.6061
 20
-76.614
 30
0.0
 10
-25.6061
 20
-76.614
 30
0.0
 10
-25.6061
 20
-76.614
 30
0.0
 10
-25.6061
 20
-76.614
 30
0.0
 10
-33.0592
 20
-73.5269
 30
0.0
 10
-33.0592
 20
-73.5269
 30
0.0
 10
-33.0592
 20
-73.5269
 30
0.0
 10
-33.0592
 20
-73.5269
 30
0.0
 10
-31.2551
 20
-69.1714
 30
0.0
 10
-31.2551
 20
-69.1714
 30
0.0
 10
-31.2551
 20
-69.1714
 30
0.0
 10
-31.2551
 20
-69.1714
 30
0.0
 10
-34.0268
 20
-68.0234
 30
0.0
 10
-34.0268
 20
-68.0234
 30
0.0
 10
-34.0268
 20
-68.0234
 30
0.0
 10
-34.0268
 20
-68.0234
 30
0.0
 10
-35.8309
 20
-72.3788
 30
0.0
 10
-35.8309
 20
-72.3788
 30
0.0
 10
-35.8309
 20
-72.3788
 30
0.0
 10
-35.8309
 20
-72.3788
 30
0.0
 10
-43.2837
 20
-69.2917
 30
0.0
 10
-43.2837
 20
-69.2917
 30
0.0
 10
-43.2837
 20
-69.2917
 30
0.0
 10
-43.2837
 20
-69.2917
 30
0.0
 10
-46.3709
 20
-61.8386
 30
0.0
 10
-46.3709
 20
-61.8386
 30
0.0
 10
-46.3709
 20
-61.8386
 30
0.0
 10
-46.3709
 20
-61.8386
 30
0.0
 10
-42.0155
 20
-60.0345
 30
0.0
 10
-42.0155
 20
-60.0345
 30
0.0
 10
-42.0155
 20
-60.0345
 30
0.0
 10
-42.0155
 20
-60.0345
 30
0.0
 10
-43.1636
 20
-57.2629
 30
0.0
 10
-43.1636
 20
-57.2629
 30
0.0
 10
-43.1636
 20
-57.2629
 30
0.0
 10
-43.1636
 20
-57.2629
 30
0.0
 10
-47.519
 20
-59.0669
 30
0.0
 10
-47.519
 20
-59.0669
 30
0.0
 10
-47.519
 20
-59.0669
 30
0.0
 10
-47.519
 20
-59.0669
 30
0.0
 10
-50.6061
 20
-51.614
 30
0.0
 10
-50.6061
 20
-51.614
 30
0.0
 10
-50.6061
 20
-51.614
 30
0.0
 10
-50.6061
 20
-51.614
 30
0.0
 10
-47.519
 20
-44.1611
 30
0.0
 10
-47.519
 20
-44.1611
 30
0.0
 10
-47.519
 20
-44.1611
 30
0.0
 10
-47.519
 20
-44.1611
 30
0.0
 10
-43.1637
 20
-45.9651
 30
0.0
 10
-43.1637
 20
-45.9651
 30
0.0
 10
-43.1637
 20
-45.9651
 30
0.0
 10
-43.1637
 20
-45.9651
 30
0.0
 10
-42.0156
 20
-43.1935
 30
0.0
 10
-42.0156
 20
-43.1935
 30
0.0
 10
-42.0156
 20
-43.1935
 30
0.0
 10
-42.0156
 20
-43.1935
 30
0.0
 10
-46.3709
 20
-41.3895
 30
0.0
 10
-46.3709
 20
-41.3895
 30
0.0
 10
-46.3709
 20
-41.3895
 30
0.0
 10
-46.3709
 20
-41.3895
 30
0.0
 10
-43.2837
 20
-33.9363
 30
0.0
 10
-43.2837
 20
-33.9363
 30
0.0
 10
-43.2837
 20
-33.9363
 30
0.0
 10
-43.2837
 20
-33.9363
 30
0.0
 10
-35.8309
 20
-30.8492
 30
0.0
 10
-35.8309
 20
-30.8492
 30
0.0
 10
-35.8309
 20
-30.8492
 30
0.0
 10
-35.8309
 20
-30.8492
 30
0.0
 10
-34.0269
 20
-35.2046
 30
0.0
 10
-34.0269
 20
-35.2046
 30
0.0
 10
-34.0269
 20
-35.2046
 30
0.0
 10
-34.0269
 20
-35.2046
 30
0.0
 10
-31.2552
 20
-34.0565
 30
0.0
 10
-31.2552
 20
-34.0565
 30
0.0
 10
-31.2552
 20
-34.0565
 30
0.0
 10
-31.2552
 20
-34.0565
 30
0.0
 10
-33.0593
 20
-29.7012
 30
0.0
 10
-33.0593
 20
-29.7012
 30
0.0
 10
-33.0593
 20
-29.7012
 30
0.0
 10
-33.0593
 20
-29.7012
 30
0.0
 10
-25.6061
 20
-26.614
 30
0.0
 10
-25.6061
 20
-26.614
 30
0.0
  0
SPLINE
  5
4C
330
1F
100
AcDbEntity
  8
Capa 1
 62
   142
370
     9
100
AcDbSpline
210
0.0
220
0.0
230
1.0
 70
    11
 71
     3
 72
   164
 73
   160
 74
     0
 42
0.0000000001
 43
0.0000000001
 40
0.0
 40
0.0
 40
0.0
 40
0.0
 40
0.024390243902439
 40
0.024390243902439
 40
0.024390243902439
 40
0.024390243902439
 40
0.0487804878048781
 40
0.0487804878048781
 40
0.0487804878048781
 40
0.0487804878048781
 40
0.0731707317073171
 40
0.0731707317073171
 40
0.0731707317073171
 40
0.0731707317073171
 40
0.0975609756097561
 40
0.0975609756097561
 40
0.0975609756097561
 40
0.0975609756097561
 40
0.1219512195121951
 40
0.1219512195121951
 40
0.1219512195121951
 40
0.1219512195121951
 40
0.1463414634146341
 40
0.1463414634146341
 40
0.1463414634146341
 40
0.1463414634146341
 40
0.1707317073170732
 40
0.1707317073170732
 40
0.1707317073170732
 40
0.1707317073170732
 40
0.1951219512195122
 40
0.1951219512195122
 40
0.1951219512195122
 40
0.1951219512195122
 40
0.2195121951219512
 40
0.2195121951219512
 40
0.2195121951219512
 40
0.2195121951219512
 40
0.2439024390243902
 40
0.2439024390243902
 40
0.2439024390243902
 40
0.2439024390243902
 40
0.2682926829268293
 40
0.2682926829268293
 40
0.2682926829268293
 40
0.2682926829268293
 40
0.2926829268292683
 40
0.2926829268292683
 40
0.2926829268292683
 40
0.2926829268292683
 40
0.3170731707317073
 40
0.3170731707317073
 40
0.3170731707317073
 40
0.3170731707317073
 40
0.3414634146341464
 40
0.3414634146341464
 40
0.3414634146341464
 40
0.3414634146341464
 40
0.3658536585365854
 40
0.3658536585365854
 40
0.3658536585365854
 40
0.3658536585365854
 40
0.3902439024390244
 40
0.3902439024390244
 40
0.3902439024390244
 40
0.3902439024390244
 40
0.4146341463414634
 40
0.4146341463414634
 40
0.4146341463414634
 40
0.4146341463414634
 40
0.4390243902439024
 40
0.4390243902439024
 40
0.4390243902439024
 40
0.4390243902439024
 40
0.4634146341463415
 40
0.4634146341463415
 40
0.4634146341463415
 40
0.4634146341463415
 40
0.4878048780487805
 40
0.4878048780487805
 40
0.4878048780487805
 40
0.4878048780487805
 40
0.5121951219512195
 40
0.5121951219512195
 40
0.5121951219512195
 40
0.5121951219512195
 40
0.5365853658536586
 40
0.5365853658536586
 40
0.5365853658536586
 40
0.5365853658536586
 40
0.5609756097560976
 40
0.5609756097560976
 40
0.5609756097560976
 40
0.5609756097560976
 40
0.5853658536585366
 40
0.5853658536585366
 40
0.5853658536585366
 40
0.5853658536585366
 40
0.6097560975609756
 40
0.6097560975609756
 40
0.6097560975609756
 40
0.6097560975609756
 40
0.6341463414634146
 40
0.6341463414634146
 40
0.6341463414634146
 40
0.6341463414634146
 40
0.6585365853658537
 40
0.6585365853658537
 40
0.6585365853658537
 40
0.6585365853658537
 40
0.6829268292682927
 40
0.6829268292682927
 40
0.6829268292682927
 40
0.6829268292682927
 40
0.7073170731707317
 40
0.7073170731707317
 40
0.7073170731707317
 40
0.7073170731707317
 40
0.7317073170731707
 40
0.7317073170731707
 40
0.7317073170731707
 40
0.7317073170731707
 40
0.7560975609756098
 40
0.7560975609756098
 40
0.7560975609756098
 40
0.7560975609756098
 40
0.7804878048780488
 40
0.7804878048780488
 40
0.7804878048780488
 40
0.7804878048780488
 40
0.8048780487804879
 40
0.8048780487804879
 40
0.8048780487804879
 40
0.8048780487804879
 40
0.8292682926829268
 40
0.8292682926829268
 40
0.8292682926829268
 40
0.8292682926829268
 40
0.8536585365853658
 40
0.8536585365853658
 40
0.8536585365853658
 40
0.8536585365853658
 40
0.8780487804878049
 40
0.8780487804878049
 40
0.8780487804878049
 40
0.8780487804878049
 40
0.9024390243902439
 40
0.9024390243902439
 40
0.9024390243902439
 40
0.9024390243902439
 40
0.926829268292683
 40
0.926829268292683
 40
0.926829268292683
 40
0.926829268292683
 40
0.9512195121951219
 40
0.9512195121951219
 40
0.9512195121951219
 40
0.9512195121951219
 40
1.0
 40
1.0
 40
1.0
 40
1.0
 10
26.7814
 20
-26.614
 30
0.0
 10
26.7814
 20
-26.614
 30
0.0
 10
34.2342
 20
-29.701
 30
0.0
 10
34.2342
 20
-29.701
 30
0.0
 10
34.2342
 20
-29.701
 30
0.0
 10
34.2342
 20
-29.701
 30
0.0
 10
32.4301
 20
-34.0565
 30
0.0
 10
32.4301
 20
-34.0565
 30
0.0
 10
32.4301
 20
-34.0565
 30
0.0
 10
32.4301
 20
-34.0565
 30
0.0
 10
35.2018
 20
-35.2046
 30
0.0
 10
35.2018
 20
-35.2046
 30
0.0
 10
35.2018
 20
-35.2046
 30
0.0
 10
35.2018
 20
-35.2046
 30
0.0
 10
37.0059
 20
-30.8491
 30
0.0
 10
37.0059
 20
-30.8491
 30
0.0
 10
37.0059
 20
-30.8491
 30
0.0
 10
37.0059
 20
-30.8491
 30
0.0
 10
44.459
 20
-33.9363
 30
0.0
 10
44.459
 20
-33.9363
 30
0.0
 10
44.459
 20
-33.9363
 30
0.0
 10
44.459
 20
-33.9363
 30
0.0
 10
47.5462
 20
-41.3893
 30
0.0
 10
47.5462
 20
-41.3893
 30
0.0
 10
47.5462
 20
-41.3893
 30
0.0
 10
47.5462
 20
-41.3893
 30
0.0
 10
43.1905
 20
-43.1935
 30
0.0
 10
43.1905
 20
-43.1935
 30
0.0
 10
43.1905
 20
-43.1935
 30
0.0
 10
43.1905
 20
-43.1935
 30
0.0
 10
44.3386
 20
-45.9651
 30
0.0
 10
44.3386
 20
-45.9651
 30
0.0
 10
44.3386
 20
-45.9651
 30
0.0
 10
44.3386
 20
-45.9651
 30
0.0
 10
48.6942
 20
-44.161
 30
0.0
 10
48.6942
 20
-44.161
 30
0.0
 10
48.6942
 20
-44.161
 30
0.0
 10
48.6942
 20
-44.161
 30
0.0
 10
51.7814
 20
-51.614
 30
0.0
 10
51.7814
 20
-51.614
 30
0.0
 10
51.7814
 20
-51.614
 30
0.0
 10
51.7814
 20
-51.614
 30
0.0
 10
48.6942
 20
-59.0671
 30
0.0
 10
48.6942
 20
-59.0671
 30
0.0
 10
48.6942
 20
-59.0671
 30
0.0
 10
48.6942
 20
-59.0671
 30
0.0
 10
44.3385
 20
-57.2629
 30
0.0
 10
44.3385
 20
-57.2629
 30
0.0
 10
44.3385
 20
-57.2629
 30
0.0
 10
44.3385
 20
-57.2629
 30
0.0
 10
43.1904
 20
-60.0345
 30
0.0
 10
43.1904
 20
-60.0345
 30
0.0
 10
43.1904
 20
-60.0345
 30
0.0
 10
43.1904
 20
-60.0345
 30
0.0
 10
47.5461
 20
-61.8387
 30
0.0
 10
47.5461
 20
-61.8387
 30
0.0
 10
47.5461
 20
-61.8387
 30
0.0
 10
47.5461
 20
-61.8387
 30
0.0
 10
44.459
 20
-69.2917
 30
0.0
 10
44.459
 20
-69.2917
 30
0.0
 10
44.459
 20
-69.2917
 30
0.0
 10
44.459
 20
-69.2917
 30
0.0
 10
37.0058
 20
-72.3789
 30
0.0
 10
37.0058
 20
-72.3789
 30
0.0
 10
37.0058
 20
-72.3789
 30
0.0
 10
37.0058
 20
-72.3789
 30
0.0
 10
35.2017
 20
-68.0234
 30
0.0
 10
35.2017
 20
-68.0234
 30
0.0
 10
35.2017
 20
-68.0234
 30
0.0
 10
35.2017
 20
-68.0234
 30
0.0
 10
32.43
 20
-69.1714
 30
0.0
 10
32.43
 20
-69.1714
 30
0.0
 10
32.43
 20
-69.1714
 30
0.0
 10
32.43
 20
-69.1714
 30
0.0
 10
34.2341
 20
-73.527
 30
0.0
 10
34.2341
 20
-73.527
 30
0.0
 10
34.2341
 20
-73.527
 30
0.0
 10
34.2341
 20
-73.527
 30
0.0
 10
26.7814
 20
-76.614
 30
0.0
 10
26.7814
 20
-76.614
 30
0.0
 10
26.7814
 20
-76.614
 30
0.0
 10
26.7814
 20
-76.614
 30
0.0
 10
19.3283
 20
-73.5269
 30
0.0
 10
19.3283
 20
-73.5269
 30
0.0
 10
19.3283
 20
-73.5269
 30
0.0
 10
19.3283
 20
-73.5269
 30
0.0
 10
21.1324
 20
-69.1714
 30
0.0
 10
21.1324
 20
-69.1714
 30
0.0
 10
21.1324
 20
-69.1714
 30
0.0
 10
21.1324
 20
-69.1714
 30
0.0
 10
18.3607
 20
-68.0234
 30
0.0
 10
18.3607
 20
-68.0234
 30
0.0
 10
18.3607
 20
-68.0234
 30
0.0
 10
18.3607
 20
-68.0234
 30
0.0
 10
16.5566
 20
-72.3788
 30
0.0
 10
16.5566
 20
-72.3788
 30
0.0
 10
16.5566
 20
-72.3788
 30
0.0
 10
16.5566
 20
-72.3788
 30
0.0
 10
9.1038
 20
-69.2917
 30
0.0
 10
9.1038
 20
-69.2917
 30
0.0
 10
9.1038
 20
-69.2917
 30
0.0
 10
9.1038
 20
-69.2917
 30
0.0
 10
6.0166
 20
-61.8386
 30
0.0
 10
6.0166
 20
-61.8386
 30
0.0
 10
6.0166
 20
-61.8386
 30
0.0
 10
6.0166
 20
-61.8386
 30
0.0
 10
10.372
 20
-60.0345
 30
0.0
 10
10.372
 20
-60.0345
 30
0.0
 10
10.372
 20
-60.0345
 30
0.0
 10
10.372
 20
-60.0345
 30
0.0
 10
9.2239
 20
-57.2629
 30
0.0
 10
9.2239
 20
-57.2629
 30
0.0
 10
9.2239
 20
-57.2629
 30
0.0
 10
9.2239
 20
-57.2629
 30
0.0
 10
4.8685
 20
-59.0669
 30
0.0
 10
4.8685
 20
-59.0669
 30
0.0
 10
4.8685
 20
-59.0669
 30
0.0
 10
4.8685
 20
-59.0669
 30
0.0
 10
1.7814
 20
-51.614
 30
0.0
 10
1.7814
 20
-51.614
 30
0.0
 10
1.7814
 20
-51.614
 30
0.0
 10
1.7814
 20
-51.614
 30
0.0
 10
4.8685
 20
-44.1611
 30
0.0
 10
4.8685
 20
-44.1611
 30
0.0
 10
4.8685
 20
-44.1611
 30
0.0
 10
4.8685
 20
-44.1611
 30
0.0
 10
9.2238
 20
-45.9651
 30
0.0
 10
9.2238
 20
-45.9651
 30
0.0
 10
9.2238
 20
-45.9651
 30
0.0
 10
9.2238
 20
-45.9651
 30
0.0
 10
10.3719
 20
-43.1935
 30
0.0
 10
10.3719
 20
-43.1935
 30
0.0
 10
10.3719
 20
-43.1935
 30
0.0
 10
10.3719
 20
-43.1935
 30
0.0
 10
6.0166
 20
-41.3895
 30
0.0
 10
6.0166
 20
-41.3895
 30
0.0
 10
6.0166
 20
-41.3895
 30
0.0
 10
6.0166
 20
-41.3895
 30
0.0
 10
9.1038
 20
-33.9363
 30
0.0
 10
9.1038
 20
-33.9363
 30
0.0
 10
9.1038
 20
-33.9363
 30
0.0
 10
9.1038
 20
-33.9363
 30
0.0
 10
16.5566
 20
-30.8492
 30
0.0
 10
16.5566
 20
-30.8492
 30
0.0
 10
16.5566
 20
-30.8492
 30
0.0
 10
16.5566
 20
-30.8492
 30
0.0
 10
18.3606
 20
-35.2046
 30
0.0
 10
18.3606
 20
-35.2046
 30
0.0
 10
18.3606
 20
-35.2046
 30
0.0
 10
18.3606
 20
-35.2046
 30
0.0
 10
21.1323
 20
-34.0565
 30
0.0
 10
21.1323
 20
-34.0565
 30
0.0
 10
21.1323
 20
-34.0565
 30
0.0
 10
21.1323
 20
-34.0565
 30
0.0
 10
19.3282
 20
-29.7012
 30
0.0
 10
19.3282
 20
-29.7012
 30
0.0
 10
19.3282
 20
-29.7012
 30
0.0
 10
19.3282
 20
-29.7012
 30
0.0
 10
26.7814
 20
-26.614
 30
0.0
 10
26.7814
 20
-26.614
 30
0.0
  0
SPLINE
  5
4D
330
1F
100
AcDbEntity
  8
Capa 1
 62
   142
370
     9
100
AcDbSpline
210
0.0
220
0.0
230
1.0
 70
    11
 71
     3
 72
   164
 73
   160
 74
     0
 42
0.0000000001
 43
0.0000000001
 40
0.0
 40
0.0
 40
0.0
 40
0.0
 40
0.024390243902439
 40
0.024390243902439
 40
0.024390243902439
 40
0.024390243902439
 40
0.0487804878048781
 40
0.0487804878048781
 40
0.0487804878048781
 40
0.0487804878048781
 40
0.0731707317073171
 40
0.0731707317073171
 40
0.0731707317073171
 40
0.0731707317073171
 40
0.0975609756097561
 40
0.0975609756097561
 40
0.0975609756097561
 40
0.0975609756097561
 40
0.1219512195121951
 40
0.1219512195121951
 40
0.1219512195121951
 40
0.1219512195121951
 40
0.1463414634146341
 40
0.1463414634146341
 40
0.1463414634146341
 40
0.1463414634146341
 40
0.1707317073170732
 40
0.1707317073170732
 40
0.1707317073170732
 40
0.1707317073170732
 40
0.1951219512195122
 40
0.1951219512195122
 40
0.1951219512195122
 40
0.1951219512195122
 40
0.2195121951219512
 40
0.2195121951219512
 40
0.2195121951219512
 40
0.2195121951219512
 40
0.2439024390243902
 40
0.2439024390243902
 40
0.2439024390243902
 40
0.2439024390243902
 40
0.2682926829268293
 40
0.2682926829268293
 40
0.2682926829268293
 40
0.2682926829268293
 40
0.2926829268292683
 40
0.2926829268292683
 40
0.2926829268292683
 40
0.2926829268292683
 40
0.3170731707317073
 40
0.3170731707317073
 40
0.3170731707317073
 40
0.3170731707317073
 40
0.3414634146341464
 40
0.3414634146341464
 40
0.3414634146341464
 40
0.3414634146341464
 40
0.3658536585365854
 40
0.3658536585365854
 40
0.3658536585365854
 40
0.3658536585365854
 40
0.3902439024390244
 40
0.3902439024390244
 40
0.3902439024390244
 40
0.3902439024390244
 40
0.4146341463414634
 40
0.4146341463414634
 40
0.4146341463414634
 40
0.4146341463414634
 40
0.4390243902439024
 40
0.4390243902439024
 40
0.4390243902439024
 40
0.4390243902439024
 40
0.4634146341463415
 40
0.4634146341463415
 40
0.4634146341463415
 40
0.4634146341463415
 40
0.4878048780487805
 40
0.4878048780487805
 40
0.4878048780487805
 40
0.4878048780487805
 40
0.5121951219512195
 40
0.5121951219512195
 40
0.5121951219512195
 40
0.5121951219512195
 40
0.5365853658536586
 40
0.5365853658536586
 40
0.5365853658536586
 40
0.5365853658536586
 40
0.5609756097560976
 40
0.5609756097560976
 40
0.5609756097560976
 40
0.5609756097560976
 40
0.5853658536585366
 40
0.5853658536585366
 40
0.5853658536585366
 40
0.5853658536585366
 40
0.6097560975609756
 40
0.6097560975609756
 40
0.6097560975609756
 40
0.6097560975609756
 40
0.6341463414634146
 40
0.6341463414634146
 40
0.6341463414634146
 40
0.6341463414634146
 40
0.6585365853658537
 40
0.6585365853658537
 40
0.6585365853658537
 40
0.6585365853658537
 40
0.6829268292682927
 40
0.6829268292682927
 40
0.6829268292682927
 40
0.6829268292682927
 40
0.7073170731707317
 40
0.7073170731707317
 40
0.7073170731707317
 40
0.7073170731707317
 40
0.7317073170731707
 40
0.7317073170731707
 40
0.7317073170731707
 40
0.7317073170731707
 40
0.7560975609756098
 40
0.7560975609756098
 40
0.7560975609756098
 40
0.7560975609756098
 40
0.7804878048780488
 40
0.7804878048780488
 40
0.7804878048780488
 40
0.7804878048780488
 40
0.8048780487804879
 40
0.8048780487804879
 40
0.8048780487804879
 40
0.8048780487804879
 40
0.8292682926829268
 40
0.8292682926829268
 40
0.8292682926829268
 40
0.8292682926829268
 40
0.8536585365853658
 40
0.8536585365853658
 40
0.8536585365853658
 40
0.8536585365853658
 40
0.8780487804878049
 40
0.8780487804878049
 40
0.8780487804878049
 40
0.8780487804878049
 40
0.9024390243902439
 40
0.9024390243902439
 40
0.9024390243902439
 40
0.9024390243902439
 40
0.926829268292683
 40
0.926829268292683
 40
0.926829268292683
 40
0.926829268292683
 40
0.9512195121951219
 40
0.9512195121951219
 40
0.9512195121951219
 40
0.9512195121951219
 40
1.0
 40
1.0
 40
1.0
 40
1.0
 10
-77.9936
 20
-79.4015
 30
0.0
 10
-77.9936
 20
-79.4015
 30
0.0
 10
-70.5408
 20
-82.4885
 30
0.0
 10
-70.5408
 20
-82.4885
 30
0.0
 10
-70.5408
 20
-82.4885
 30
0.0
 10
-70.5408
 20
-82.4885
 30
0.0
 10
-72.3449
 20
-86.844
 30
0.0
 10
-72.3449
 20
-86.844
 30
0.0
 10
-72.3449
 20
-86.844
 30
0.0
 10
-72.3449
 20
-86.844
 30
0.0
 10
-69.5732
 20
-87.9921
 30
0.0
 10
-69.5732
 20
-87.9921
 30
0.0
 10
-69.5732
 20
-87.9921
 30
0.0
 10
-69.5732
 20
-87.9921
 30
0.0
 10
-67.7691
 20
-83.6366
 30
0.0
 10
-67.7691
 20
-83.6366
 30
0.0
 10
-67.7691
 20
-83.6366
 30
0.0
 10
-67.7691
 20
-83.6366
 30
0.0
 10
-60.316
 20
-86.7238
 30
0.0
 10
-60.316
 20
-86.7238
 30
0.0
 10
-60.316
 20
-86.7238
 30
0.0
 10
-60.316
 20
-86.7238
 30
0.0
 10
-57.2288
 20
-94.1768
 30
0.0
 10
-57.2288
 20
-94.1768
 30
0.0
 10
-57.2288
 20
-94.1768
 30
0.0
 10
-57.2288
 20
-94.1768
 30
0.0
 10
-61.5845
 20
-95.981
 30
0.0
 10
-61.5845
 20
-95.981
 30
0.0
 10
-61.5845
 20
-95.981
 30
0.0
 10
-61.5845
 20
-95.981
 30
0.0
 10
-60.4364
 20
-98.7526
 30
0.0
 10
-60.4364
 20
-98.7526
 30
0.0
 10
-60.4364
 20
-98.7526
 30
0.0
 10
-60.4364
 20
-98.7526
 30
0.0
 10
-56.0808
 20
-96.9485
 30
0.0
 10
-56.0808
 20
-96.9485
 30
0.0
 10
-56.0808
 20
-96.9485
 30
0.0
 10
-56.0808
 20
-96.9485
 30
0.0
 10
-52.9936
 20
-104.4015
 30
0.0
 10
-52.9936
 20
-104.4015
 30
0.0
 10
-52.9936
 20
-104.4015
 30
0.0
 10
-52.9936
 20
-104.4015
 30
0.0
 10
-56.0808
 20
-111.8546
 30
0.0
 10
-56.0808
 20
-111.8546
 30
0.0
 10
-56.0808
 20
-111.8546
 30
0.0
 10
-56.0808
 20
-111.8546
 30
0.0
 10
-60.4365
 20
-110.0504
 30
0.0
 10
-60.4365
 20
-110.0504
 30
0.0
 10
-60.4365
 20
-110.0504
 30
0.0
 10
-60.4365
 20
-110.0504
 30
0.0
 10
-61.5846
 20
-112.822
 30
0.0
 10
-61.5846
 20
-112.822
 30
0.0
 10
-61.5846
 20
-112.822
 30
0.0
 10
-61.5846
 20
-112.822
 30
0.0
 10
-57.2289
 20
-114.6262
 30
0.0
 10
-57.2289
 20
-114.6262
 30
0.0
 10
-57.2289
 20
-114.6262
 30
0.0
 10
-57.2289
 20
-114.6262
 30
0.0
 10
-60.316
 20
-122.0792
 30
0.0
 10
-60.316
 20
-122.0792
 30
0.0
 10
-60.316
 20
-122.0792
 30
0.0
 10
-60.316
 20
-122.0792
 30
0.0
 10
-67.7692
 20
-125.1664
 30
0.0
 10
-67.7692
 20
-125.1664
 30
0.0
 10
-67.7692
 20
-125.1664
 30
0.0
 10
-67.7692
 20
-125.1664
 30
0.0
 10
-69.5733
 20
-120.8109
 30
0.0
 10
-69.5733
 20
-120.8109
 30
0.0
 10
-69.5733
 20
-120.8109
 30
0.0
 10
-69.5733
 20
-120.8109
 30
0.0
 10
-72.345
 20
-121.9589
 30
0.0
 10
-72.345
 20
-121.9589
 30
0.0
 10
-72.345
 20
-121.9589
 30
0.0
 10
-72.345
 20
-121.9589
 30
0.0
 10
-70.5409
 20
-126.3145
 30
0.0
 10
-70.5409
 20
-126.3145
 30
0.0
 10
-70.5409
 20
-126.3145
 30
0.0
 10
-70.5409
 20
-126.3145
 30
0.0
 10
-77.9936
 20
-129.4015
 30
0.0
 10
-77.9936
 20
-129.4015
 30
0.0
 10
-77.9936
 20
-129.4015
 30
0.0
 10
-77.9936
 20
-129.4015
 30
0.0
 10
-85.4467
 20
-126.3144
 30
0.0
 10
-85.4467
 20
-126.3144
 30
0.0
 10
-85.4467
 20
-126.3144
 30
0.0
 10
-85.4467
 20
-126.3144
 30
0.0
 10
-83.6426
 20
-121.9589
 30
0.0
 10
-83.6426
 20
-121.9589
 30
0.0
 10
-83.6426
 20
-121.9589
 30
0.0
 10
-83.6426
 20
-121.9589
 30
0.0
 10
-86.4143
 20
-120.8109
 30
0.0
 10
-86.4143
 20
-120.8109
 30
0.0
 10
-86.4143
 20
-120.8109
 30
0.0
 10
-86.4143
 20
-120.8109
 30
0.0
 10
-88.2184
 20
-125.1663
 30
0.0
 10
-88.2184
 20
-125.1663
 30
0.0
 10
-88.2184
 20
-125.1663
 30
0.0
 10
-88.2184
 20
-125.1663
 30
0.0
 10
-95.6712
 20
-122.0792
 30
0.0
 10
-95.6712
 20
-122.0792
 30
0.0
 10
-95.6712
 20
-122.0792
 30
0.0
 10
-95.6712
 20
-122.0792
 30
0.0
 10
-98.7584
 20
-114.6261
 30
0.0
 10
-98.7584
 20
-114.6261
 30
0.0
 10
-98.7584
 20
-114.6261
 30
0.0
 10
-98.7584
 20
-114.6261
 30
0.0
 10
-94.403
 20
-112.822
 30
0.0
 10
-94.403
 20
-112.822
 30
0.0
 10
-94.403
 20
-112.822
 30
0.0
 10
-94.403
 20
-112.822
 30
0.0
 10
-95.5511
 20
-110.0504
 30
0.0
 10
-95.5511
 20
-110.0504
 30
0.0
 10
-95.5511
 20
-110.0504
 30
0.0
 10
-95.5511
 20
-110.0504
 30
0.0
 10
-99.9065
 20
-111.8544
 30
0.0
 10
-99.9065
 20
-111.8544
 30
0.0
 10
-99.9065
 20
-111.8544
 30
0.0
 10
-99.9065
 20
-111.8544
 30
0.0
 10
-102.9936
 20
-104.4015
 30
0.0
 10
-102.9936
 20
-104.4015
 30
0.0
 10
-102.9936
 20
-104.4015
 30
0.0
 10
-102.9936
 20
-104.4015
 30
0.0
 10
-99.9065
 20
-96.9486
 30
0.0
 10
-99.9065
 20
-96.9486
 30
0.0
 10
-99.9065
 20
-96.9486
 30
0.0
 10
-99.9065
 20
-96.9486
 30
0.0
 10
-95.5512
 20
-98.7526
 30
0.0
 10
-95.5512
 20
-98.7526
 30
0.0
 10
-95.5512
 20
-98.7526
 30
0.0
 10
-95.5512
 20
-98.7526
 30
0.0
 10
-94.4031
 20
-95.981
 30
0.0
 10
-94.4031
 20
-95.981
 30
0.0
 10
-94.4031
 20
-95.981
 30
0.0
 10
-94.4031
 20
-95.981
 30
0.0
 10
-98.7584
 20
-94.177
 30
0.0
 10
-98.7584
 20
-94.177
 30
0.0
 10
-98.7584
 20
-94.177
 30
0.0
 10
-98.7584
 20
-94.177
 30
0.0
 10
-95.6712
 20
-86.7238
 30
0.0
 10
-95.6712
 20
-86.7238
 30
0.0
 10
-95.6712
 20
-86.7238
 30
0.0
 10
-95.6712
 20
-86.7238
 30
0.0
 10
-88.2184
 20
-83.6367
 30
0.0
 10
-88.2184
 20
-83.6367
 30
0.0
 10
-88.2184
 20
-83.6367
 30
0.0
 10
-88.2184
 20
-83.6367
 30
0.0
 10
-86.4144
 20
-87.9921
 30
0.0
 10
-86.4144
 20
-87.9921
 30
0.0
 10
-86.4144
 20
-87.9921
 30
0.0
 10
-86.4144
 20
-87.9921
 30
0.0
 10
-83.6427
 20
-86.844
 30
0.0
 10
-83.6427
 20
-86.844
 30
0.0
 10
-83.6427
 20
-86.844
 30
0.0
 10
-83.6427
 20
-86.844
 30
0.0
 10
-85.4468
 20
-82.4887
 30
0.0
 10
-85.4468
 20
-82.4887
 30
0.0
 10
-85.4468
 20
-82.4887
 30
0.0
 10
-85.4468
 20
-82.4887
 30
0.0
 10
-77.9936
 20
-79.4015
 30
0.0
 10
-77.9936
 20
-79.4015
 30
0.0
  0
SPLINE
  5
4E
330
1F
100
AcDbEntity
  8
Capa 1
 62
   142
370
     9
100
AcDbSpline
210
0.0
220
0.0
230
1.0
 70
    11
 71
     3
 72
   164
 73
   160
 74
     0
 42
0.0000000001
 43
0.0000000001
 40
0.0
 40
0.0
 40
0.0
 40
0.0
 40
0.024390243902439
 40
0.024390243902439
 40
0.024390243902439
 40
0.024390243902439
 40
0.0487804878048781
 40
0.0487804878048781
 40
0.0487804878048781
 40
0.0487804878048781
 40
0.0731707317073171
 40
0.0731707317073171
 40
0.0731707317073171
 40
0.0731707317073171
 40
0.0975609756097561
 40
0.0975609756097561
 40
0.0975609756097561
 40
0.0975609756097561
 40
0.1219512195121951
 40
0.1219512195121951
 40
0.1219512195121951
 40
0.1219512195121951
 40
0.1463414634146341
 40
0.1463414634146341
 40
0.1463414634146341
 40
0.1463414634146341
 40
0.1707317073170732
 40
0.1707317073170732
 40
0.1707317073170732
 40
0.1707317073170732
 40
0.1951219512195122
 40
0.1951219512195122
 40
0.1951219512195122
 40
0.1951219512195122
 40
0.2195121951219512
 40
0.2195121951219512
 40
0.2195121951219512
 40
0.2195121951219512
 40
0.2439024390243902
 40
0.2439024390243902
 40
0.2439024390243902
 40
0.2439024390243902
 40
0.2682926829268293
 40
0.2682926829268293
 40
0.2682926829268293
 40
0.2682926829268293
 40
0.2926829268292683
 40
0.2926829268292683
 40
0.2926829268292683
 40
0.2926829268292683
 40
0.3170731707317073
 40
0.3170731707317073
 40
0.3170731707317073
 40
0.3170731707317073
 40
0.3414634146341464
 40
0.3414634146341464
 40
0.3414634146341464
 40
0.3414634146341464
 40
0.3658536585365854
 40
0.3658536585365854
 40
0.3658536585365854
 40
0.3658536585365854
 40
0.3902439024390244
 40
0.3902439024390244
 40
0.3902439024390244
 40
0.3902439024390244
 40
0.4146341463414634
 40
0.4146341463414634
 40
0.4146341463414634
 40
0.4146341463414634
 40
0.4390243902439024
 40
0.4390243902439024
 40
0.4390243902439024
 40
0.4390243902439024
 40
0.4634146341463415
 40
0.4634146341463415
 40
0.4634146341463415
 40
0.4634146341463415
 40
0.4878048780487805
 40
0.4878048780487805
 40
0.4878048780487805
 40
0.4878048780487805
 40
0.5121951219512195
 40
0.5121951219512195
 40
0.5121951219512195
 40
0.5121951219512195
 40
0.5365853658536586
 40
0.5365853658536586
 40
0.5365853658536586
 40
0.5365853658536586
 40
0.5609756097560976
 40
0.5609756097560976
 40
0.5609756097560976
 40
0.5609756097560976
 40
0.5853658536585366
 40
0.5853658536585366
 40
0.5853658536585366
 40
0.5853658536585366
 40
0.6097560975609756
 40
0.6097560975609756
 40
0.6097560975609756
 40
0.6097560975609756
 40
0.6341463414634146
 40
0.6341463414634146
 40
0.6341463414634146
 40
0.6341463414634146
 40
0.6585365853658537
 40
0.6585365853658537
 40
0.6585365853658537
 40
0.6585365853658537
 40
0.6829268292682927
 40
0.6829268292682927
 40
0.6829268292682927
 40
0.6829268292682927
 40
0.7073170731707317
 40
0.7073170731707317
 40
0.7073170731707317
 40
0.7073170731707317
 40
0.7317073170731707
 40
0.7317073170731707
 40
0.7317073170731707
 40
0.7317073170731707
 40
0.7560975609756098
 40
0.7560975609756098
 40
0.7560975609756098
 40
0.7560975609756098
 40
0.7804878048780488
 40
0.7804878048780488
 40
0.7804878048780488
 40
0.7804878048780488
 40
0.8048780487804879
 40
0.8048780487804879
 40
0.8048780487804879
 40
0.8048780487804879
 40
0.8292682926829268
 40
0.8292682926829268
 40
0.8292682926829268
 40
0.8292682926829268
 40
0.8536585365853658
 40
0.8536585365853658
 40
0.8536585365853658
 40
0.8536585365853658
 40
0.8780487804878049
 40
0.8780487804878049
 40
0.8780487804878049
 40
0.8780487804878049
 40
0.9024390243902439
 40
0.9024390243902439
 40
0.9024390243902439
 40
0.9024390243902439
 40
0.926829268292683
 40
0.926829268292683
 40
0.926829268292683
 40
0.926829268292683
 40
0.9512195121951219
 40
0.9512195121951219
 40
0.9512195121951219
 40
0.9512195121951219
 40
1.0
 40
1.0
 40
1.0
 40
1.0
 10
-25.6061
 20
-79.4015
 30
0.0
 10
-25.6061
 20
-79.4015
 30
0.0
 10
-18.1533
 20
-82.4885
 30
0.0
 10
-18.1533
 20
-82.4885
 30
0.0
 10
-18.1533
 20
-82.4885
 30
0.0
 10
-18.1533
 20
-82.4885
 30
0.0
 10
-19.9574
 20
-86.844
 30
0.0
 10
-19.9574
 20
-86.844
 30
0.0
 10
-19.9574
 20
-86.844
 30
0.0
 10
-19.9574
 20
-86.844
 30
0.0
 10
-17.1857
 20
-87.9921
 30
0.0
 10
-17.1857
 20
-87.9921
 30
0.0
 10
-17.1857
 20
-87.9921
 30
0.0
 10
-17.1857
 20
-87.9921
 30
0.0
 10
-15.3816
 20
-83.6366
 30
0.0
 10
-15.3816
 20
-83.6366
 30
0.0
 10
-15.3816
 20
-83.6366
 30
0.0
 10
-15.3816
 20
-83.6366
 30
0.0
 10
-7.9285
 20
-86.7238
 30
0.0
 10
-7.9285
 20
-86.7238
 30
0.0
 10
-7.9285
 20
-86.7238
 30
0.0
 10
-7.9285
 20
-86.7238
 30
0.0
 10
-4.8413
 20
-94.1768
 30
0.0
 10
-4.8413
 20
-94.1768
 30
0.0
 10
-4.8413
 20
-94.1768
 30
0.0
 10
-4.8413
 20
-94.1768
 30
0.0
 10
-9.197
 20
-95.981
 30
0.0
 10
-9.197
 20
-95.981
 30
0.0
 10
-9.197
 20
-95.981
 30
0.0
 10
-9.197
 20
-95.981
 30
0.0
 10
-8.0489
 20
-98.7526
 30
0.0
 10
-8.0489
 20
-98.7526
 30
0.0
 10
-8.0489
 20
-98.7526
 30
0.0
 10
-8.0489
 20
-98.7526
 30
0.0
 10
-3.6933
 20
-96.9485
 30
0.0
 10
-3.6933
 20
-96.9485
 30
0.0
 10
-3.6933
 20
-96.9485
 30
0.0
 10
-3.6933
 20
-96.9485
 30
0.0
 10
-0.6061
 20
-104.4015
 30
0.0
 10
-0.6061
 20
-104.4015
 30
0.0
 10
-0.6061
 20
-104.4015
 30
0.0
 10
-0.6061
 20
-104.4015
 30
0.0
 10
-3.6933
 20
-111.8546
 30
0.0
 10
-3.6933
 20
-111.8546
 30
0.0
 10
-3.6933
 20
-111.8546
 30
0.0
 10
-3.6933
 20
-111.8546
 30
0.0
 10
-8.049
 20
-110.0504
 30
0.0
 10
-8.049
 20
-110.0504
 30
0.0
 10
-8.049
 20
-110.0504
 30
0.0
 10
-8.049
 20
-110.0504
 30
0.0
 10
-9.1971
 20
-112.822
 30
0.0
 10
-9.1971
 20
-112.822
 30
0.0
 10
-9.1971
 20
-112.822
 30
0.0
 10
-9.1971
 20
-112.822
 30
0.0
 10
-4.8414
 20
-114.6262
 30
0.0
 10
-4.8414
 20
-114.6262
 30
0.0
 10
-4.8414
 20
-114.6262
 30
0.0
 10
-4.8414
 20
-114.6262
 30
0.0
 10
-7.9285
 20
-122.0792
 30
0.0
 10
-7.9285
 20
-122.0792
 30
0.0
 10
-7.9285
 20
-122.0792
 30
0.0
 10
-7.9285
 20
-122.0792
 30
0.0
 10
-15.3817
 20
-125.1664
 30
0.0
 10
-15.3817
 20
-125.1664
 30
0.0
 10
-15.3817
 20
-125.1664
 30
0.0
 10
-15.3817
 20
-125.1664
 30
0.0
 10
-17.1858
 20
-120.8109
 30
0.0
 10
-17.1858
 20
-120.8109
 30
0.0
 10
-17.1858
 20
-120.8109
 30
0.0
 10
-17.1858
 20
-120.8109
 30
0.0
 10
-19.9575
 20
-121.9589
 30
0.0
 10
-19.9575
 20
-121.9589
 30
0.0
 10
-19.9575
 20
-121.9589
 30
0.0
 10
-19.9575
 20
-121.9589
 30
0.0
 10
-18.1534
 20
-126.3145
 30
0.0
 10
-18.1534
 20
-126.3145
 30
0.0
 10
-18.1534
 20
-126.3145
 30
0.0
 10
-18.1534
 20
-126.3145
 30
0.0
 10
-25.6061
 20
-129.4015
 30
0.0
 10
-25.6061
 20
-129.4015
 30
0.0
 10
-25.6061
 20
-129.4015
 30
0.0
 10
-25.6061
 20
-129.4015
 30
0.0
 10
-33.0592
 20
-126.3144
 30
0.0
 10
-33.0592
 20
-126.3144
 30
0.0
 10
-33.0592
 20
-126.3144
 30
0.0
 10
-33.0592
 20
-126.3144
 30
0.0
 10
-31.2551
 20
-121.9589
 30
0.0
 10
-31.2551
 20
-121.9589
 30
0.0
 10
-31.2551
 20
-121.9589
 30
0.0
 10
-31.2551
 20
-121.9589
 30
0.0
 10
-34.0268
 20
-120.8109
 30
0.0
 10
-34.0268
 20
-120.8109
 30
0.0
 10
-34.0268
 20
-120.8109
 30
0.0
 10
-34.0268
 20
-120.8109
 30
0.0
 10
-35.8309
 20
-125.1663
 30
0.0
 10
-35.8309
 20
-125.1663
 30
0.0
 10
-35.8309
 20
-125.1663
 30
0.0
 10
-35.8309
 20
-125.1663
 30
0.0
 10
-43.2837
 20
-122.0792
 30
0.0
 10
-43.2837
 20
-122.0792
 30
0.0
 10
-43.2837
 20
-122.0792
 30
0.0
 10
-43.2837
 20
-122.0792
 30
0.0
 10
-46.3709
 20
-114.6261
 30
0.0
 10
-46.3709
 20
-114.6261
 30
0.0
 10
-46.3709
 20
-114.6261
 30
0.0
 10
-46.3709
 20
-114.6261
 30
0.0
 10
-42.0155
 20
-112.822
 30
0.0
 10
-42.0155
 20
-112.822
 30
0.0
 10
-42.0155
 20
-112.822
 30
0.0
 10
-42.0155
 20
-112.822
 30
0.0
 10
-43.1636
 20
-110.0504
 30
0.0
 10
-43.1636
 20
-110.0504
 30
0.0
 10
-43.1636
 20
-110.0504
 30
0.0
 10
-43.1636
 20
-110.0504
 30
0.0
 10
-47.519
 20
-111.8544
 30
0.0
 10
-47.519
 20
-111.8544
 30
0.0
 10
-47.519
 20
-111.8544
 30
0.0
 10
-47.519
 20
-111.8544
 30
0.0
 10
-50.6061
 20
-104.4015
 30
0.0
 10
-50.6061
 20
-104.4015
 30
0.0
 10
-50.6061
 20
-104.4015
 30
0.0
 10
-50.6061
 20
-104.4015
 30
0.0
 10
-47.519
 20
-96.9486
 30
0.0
 10
-47.519
 20
-96.9486
 30
0.0
 10
-47.519
 20
-96.9486
 30
0.0
 10
-47.519
 20
-96.9486
 30
0.0
 10
-43.1637
 20
-98.7526
 30
0.0
 10
-43.1637
 20
-98.7526
 30
0.0
 10
-43.1637
 20
-98.7526
 30
0.0
 10
-43.1637
 20
-98.7526
 30
0.0
 10
-42.0156
 20
-95.981
 30
0.0
 10
-42.0156
 20
-95.981
 30
0.0
 10
-42.0156
 20
-95.981
 30
0.0
 10
-42.0156
 20
-95.981
 30
0.0
 10
-46.3709
 20
-94.177
 30
0.0
 10
-46.3709
 20
-94.177
 30
0.0
 10
-46.3709
 20
-94.177
 30
0.0
 10
-46.3709
 20
-94.177
 30
0.0
 10
-43.2837
 20
-86.7238
 30
0.0
 10
-43.2837
 20
-86.7238
 30
0.0
 10
-43.2837
 20
-86.7238
 30
0.0
 10
-43.2837
 20
-86.7238
 30
0.0
 10
-35.8309
 20
-83.6367
 30
0.0
 10
-35.8309
 20
-83.6367
 30
0.0
 10
-35.8309
 20
-83.6367
 30
0.0
 10
-35.8309
 20
-83.6367
 30
0.0
 10
-34.0269
 20
-87.9921
 30
0.0
 10
-34.0269
 20
-87.9921
 30
0.0
 10
-34.0269
 20
-87.9921
 30
0.0
 10
-34.0269
 20
-87.9921
 30
0.0
 10
-31.2552
 20
-86.844
 30
0.0
 10
-31.2552
 20
-86.844
 30
0.0
 10
-31.2552
 20
-86.844
 30
0.0
 10
-31.2552
 20
-86.844
 30
0.0
 10
-33.0593
 20
-82.4887
 30
0.0
 10
-33.0593
 20
-82.4887
 30
0.0
 10
-33.0593
 20
-82.4887
 30
0.0
 10
-33.0593
 20
-82.4887
 30
0.0
 10
-25.6061
 20
-79.4015
 30
0.0
 10
-25.6061
 20
-79.4015
 30
0.0
  0
SPLINE
  5
4F
330
1F
100
AcDbEntity
  8
Capa 1
 62
   142
370
     9
100
AcDbSpline
210
0.0
220
0.0
230
1.0
 70
    11
 71
     3
 72
   164
 73
   160
 74
     0
 42
0.0000000001
 43
0.0000000001
 40
0.0
 40
0.0
 40
0.0
 40
0.0
 40
0.024390243902439
 40
0.024390243902439
 40
0.024390243902439
 40
0.024390243902439
 40
0.0487804878048781
 40
0.0487804878048781
 40
0.0487804878048781
 40
0.0487804878048781
 40
0.0731707317073171
 40
0.0731707317073171
 40
0.0731707317073171
 40
0.0731707317073171
 40
0.0975609756097561
 40
0.0975609756097561
 40
0.0975609756097561
 40
0.0975609756097561
 40
0.1219512195121951
 40
0.1219512195121951
 40
0.1219512195121951
 40
0.1219512195121951
 40
0.1463414634146341
 40
0.1463414634146341
 40
0.1463414634146341
 40
0.1463414634146341
 40
0.1707317073170732
 40
0.1707317073170732
 40
0.1707317073170732
 40
0.1707317073170732
 40
0.1951219512195122
 40
0.1951219512195122
 40
0.1951219512195122
 40
0.1951219512195122
 40
0.2195121951219512
 40
0.2195121951219512
 40
0.2195121951219512
 40
0.2195121951219512
 40
0.2439024390243902
 40
0.2439024390243902
 40
0.2439024390243902
 40
0.2439024390243902
 40
0.2682926829268293
 40
0.2682926829268293
 40
0.2682926829268293
 40
0.2682926829268293
 40
0.2926829268292683
 40
0.2926829268292683
 40
0.2926829268292683
 40
0.2926829268292683
 40
0.3170731707317073
 40
0.3170731707317073
 40
0.3170731707317073
 40
0.3170731707317073
 40
0.3414634146341464
 40
0.3414634146341464
 40
0.3414634146341464
 40
0.3414634146341464
 40
0.3658536585365854
 40
0.3658536585365854
 40
0.3658536585365854
 40
0.3658536585365854
 40
0.3902439024390244
 40
0.3902439024390244
 40
0.3902439024390244
 40
0.3902439024390244
 40
0.4146341463414634
 40
0.4146341463414634
 40
0.4146341463414634
 40
0.4146341463414634
 40
0.4390243902439024
 40
0.4390243902439024
 40
0.4390243902439024
 40
0.4390243902439024
 40
0.4634146341463415
 40
0.4634146341463415
 40
0.4634146341463415
 40
0.4634146341463415
 40
0.4878048780487805
 40
0.4878048780487805
 40
0.4878048780487805
 40
0.4878048780487805
 40
0.5121951219512195
 40
0.5121951219512195
 40
0.5121951219512195
 40
0.5121951219512195
 40
0.5365853658536586
 40
0.5365853658536586
 40
0.5365853658536586
 40
0.5365853658536586
 40
0.5609756097560976
 40
0.5609756097560976
 40
0.5609756097560976
 40
0.5609756097560976
 40
0.5853658536585366
 40
0.5853658536585366
 40
0.5853658536585366
 40
0.5853658536585366
 40
0.6097560975609756
 40
0.6097560975609756
 40
0.6097560975609756
 40
0.6097560975609756
 40
0.6341463414634146
 40
0.6341463414634146
 40
0.6341463414634146
 40
0.6341463414634146
 40
0.6585365853658537
 40
0.6585365853658537
 40
0.6585365853658537
 40
0.6585365853658537
 40
0.6829268292682927
 40
0.6829268292682927
 40
0.6829268292682927
 40
0.6829268292682927
 40
0.7073170731707317
 40
0.7073170731707317
 40
0.7073170731707317
 40
0.7073170731707317
 40
0.7317073170731707
 40
0.7317073170731707
 40
0.7317073170731707
 40
0.7317073170731707
 40
0.7560975609756098
 40
0.7560975609756098
 40
0.7560975609756098
 40
0.7560975609756098
 40
0.7804878048780488
 40
0.7804878048780488
 40
0.7804878048780488
 40
0.7804878048780488
 40
0.8048780487804879
 40
0.8048780487804879
 40
0.8048780487804879
 40
0.8048780487804879
 40
0.8292682926829268
 40
0.8292682926829268
 40
0.8292682926829268
 40
0.8292682926829268
 40
0.8536585365853658
 40
0.8536585365853658
 40
0.8536585365853658
 40
0.8536585365853658
 40
0.8780487804878049
 40
0.8780487804878049
 40
0.8780487804878049
 40
0.8780487804878049
 40
0.9024390243902439
 40
0.9024390243902439
 40
0.9024390243902439
 40
0.9024390243902439
 40
0.926829268292683
 40
0.926829268292683
 40
0.926829268292683
 40
0.926829268292683
 40
0.9512195121951219
 40
0.9512195121951219
 40
0.9512195121951219
 40
0.9512195121951219
 40
1.0
 40
1.0
 40
1.0
 40
1.0
 10
26.7814
 20
-79.4015
 30
0.0
 10
26.7814
 20
-79.4015
 30
0.0
 10
34.2342
 20
-82.4885
 30
0.0
 10
34.2342
 20
-82.4885
 30
0.0
 10
34.2342
 20
-82.4885
 30
0.0
 10
34.2342
 20
-82.4885
 30
0.0
 10
32.4301
 20
-86.844
 30
0.0
 10
32.4301
 20
-86.844
 30
0.0
 10
32.4301
 20
-86.844
 30
0.0
 10
32.4301
 20
-86.844
 30
0.0
 10
35.2018
 20
-87.9921
 30
0.0
 10
35.2018
 20
-87.9921
 30
0.0
 10
35.2018
 20
-87.9921
 30
0.0
 10
35.2018
 20
-87.9921
 30
0.0
 10
37.0059
 20
-83.6366
 30
0.0
 10
37.0059
 20
-83.6366
 30
0.0
 10
37.0059
 20
-83.6366
 30
0.0
 10
37.0059
 20
-83.6366
 30
0.0
 10
44.459
 20
-86.7238
 30
0.0
 10
44.459
 20
-86.7238
 30
0.0
 10
44.459
 20
-86.7238
 30
0.0
 10
44.459
 20
-86.7238
 30
0.0
 10
47.5462
 20
-94.1768
 30
0.0
 10
47.5462
 20
-94.1768
 30
0.0
 10
47.5462
 20
-94.1768
 30
0.0
 10
47.5462
 20
-94.1768
 30
0.0
 10
43.1905
 20
-95.981
 30
0.0
 10
43.1905
 20
-95.981
 30
0.0
 10
43.1905
 20
-95.981
 30
0.0
 10
43.1905
 20
-95.981
 30
0.0
 10
44.3386
 20
-98.7526
 30
0.0
 10
44.3386
 20
-98.7526
 30
0.0
 10
44.3386
 20
-98.7526
 30
0.0
 10
44.3386
 20
-98.7526
 30
0.0
 10
48.6942
 20
-96.9485
 30
0.0
 10
48.6942
 20
-96.9485
 30
0.0
 10
48.6942
 20
-96.9485
 30
0.0
 10
48.6942
 20
-96.9485
 30
0.0
 10
51.7814
 20
-104.4015
 30
0.0
 10
51.7814
 20
-104.4015
 30
0.0
 10
51.7814
 20
-104.4015
 30
0.0
 10
51.7814
 20
-104.4015
 30
0.0
 10
48.6942
 20
-111.8546
 30
0.0
 10
48.6942
 20
-111.8546
 30
0.0
 10
48.6942
 20
-111.8546
 30
0.0
 10
48.6942
 20
-111.8546
 30
0.0
 10
44.3385
 20
-110.0504
 30
0.0
 10
44.3385
 20
-110.0504
 30
0.0
 10
44.3385
 20
-110.0504
 30
0.0
 10
44.3385
 20
-110.0504
 30
0.0
 10
43.1904
 20
-112.822
 30
0.0
 10
43.1904
 20
-112.822
 30
0.0
 10
43.1904
 20
-112.822
 30
0.0
 10
43.1904
 20
-112.822
 30
0.0
 10
47.5461
 20
-114.6262
 30
0.0
 10
47.5461
 20
-114.6262
 30
0.0
 10
47.5461
 20
-114.6262
 30
0.0
 10
47.5461
 20
-114.6262
 30
0.0
 10
44.459
 20
-122.0792
 30
0.0
 10
44.459
 20
-122.0792
 30
0.0
 10
44.459
 20
-122.0792
 30
0.0
 10
44.459
 20
-122.0792
 30
0.0
 10
37.0058
 20
-125.1664
 30
0.0
 10
37.0058
 20
-125.1664
 30
0.0
 10
37.0058
 20
-125.1664
 30
0.0
 10
37.0058
 20
-125.1664
 30
0.0
 10
35.2017
 20
-120.8109
 30
0.0
 10
35.2017
 20
-120.8109
 30
0.0
 10
35.2017
 20
-120.8109
 30
0.0
 10
35.2017
 20
-120.8109
 30
0.0
 10
32.43
 20
-121.9589
 30
0.0
 10
32.43
 20
-121.9589
 30
0.0
 10
32.43
 20
-121.9589
 30
0.0
 10
32.43
 20
-121.9589
 30
0.0
 10
34.2341
 20
-126.3145
 30
0.0
 10
34.2341
 20
-126.3145
 30
0.0
 10
34.2341
 20
-126.3145
 30
0.0
 10
34.2341
 20
-126.3145
 30
0.0
 10
26.7814
 20
-129.4015
 30
0.0
 10
26.7814
 20
-129.4015
 30
0.0
 10
26.7814
 20
-129.4015
 30
0.0
 10
26.7814
 20
-129.4015
 30
0.0
 10
19.3283
 20
-126.3144
 30
0.0
 10
19.3283
 20
-126.3144
 30
0.0
 10
19.3283
 20
-126.3144
 30
0.0
 10
19.3283
 20
-126.3144
 30
0.0
 10
21.1324
 20
-121.9589
 30
0.0
 10
21.1324
 20
-121.9589
 30
0.0
 10
21.1324
 20
-121.9589
 30
0.0
 10
21.1324
 20
-121.9589
 30
0.0
 10
18.3607
 20
-120.8109
 30
0.0
 10
18.3607
 20
-120.8109
 30
0.0
 10
18.3607
 20
-120.8109
 30
0.0
 10
18.3607
 20
-120.8109
 30
0.0
 10
16.5566
 20
-125.1663
 30
0.0
 10
16.5566
 20
-125.1663
 30
0.0
 10
16.5566
 20
-125.1663
 30
0.0
 10
16.5566
 20
-125.1663
 30
0.0
 10
9.1038
 20
-122.0792
 30
0.0
 10
9.1038
 20
-122.0792
 30
0.0
 10
9.1038
 20
-122.0792
 30
0.0
 10
9.1038
 20
-122.0792
 30
0.0
 10
6.0166
 20
-114.6261
 30
0.0
 10
6.0166
 20
-114.6261
 30
0.0
 10
6.0166
 20
-114.6261
 30
0.0
 10
6.0166
 20
-114.6261
 30
0.0
 10
10.372
 20
-112.822
 30
0.0
 10
10.372
 20
-112.822
 30
0.0
 10
10.372
 20
-112.822
 30
0.0
 10
10.372
 20
-112.822
 30
0.0
 10
9.2239
 20
-110.0504
 30
0.0
 10
9.2239
 20
-110.0504
 30
0.0
 10
9.2239
 20
-110.0504
 30
0.0
 10
9.2239
 20
-110.0504
 30
0.0
 10
4.8685
 20
-111.8544
 30
0.0
 10
4.8685
 20
-111.8544
 30
0.0
 10
4.8685
 20
-111.8544
 30
0.0
 10
4.8685
 20
-111.8544
 30
0.0
 10
1.7814
 20
-104.4015
 30
0.0
 10
1.7814
 20
-104.4015
 30
0.0
 10
1.7814
 20
-104.4015
 30
0.0
 10
1.7814
 20
-104.4015
 30
0.0
 10
4.8685
 20
-96.9486
 30
0.0
 10
4.8685
 20
-96.9486
 30
0.0
 10
4.8685
 20
-96.9486
 30
0.0
 10
4.8685
 20
-96.9486
 30
0.0
 10
9.2238
 20
-98.7526
 30
0.0
 10
9.2238
 20
-98.7526
 30
0.0
 10
9.2238
 20
-98.7526
 30
0.0
 10
9.2238
 20
-98.7526
 30
0.0
 10
10.3719
 20
-95.981
 30
0.0
 10
10.3719
 20
-95.981
 30
0.0
 10
10.3719
 20
-95.981
 30
0.0
 10
10.3719
 20
-95.981
 30
0.0
 10
6.0166
 20
-94.177
 30
0.0
 10
6.0166
 20
-94.177
 30
0.0
 10
6.0166
 20
-94.177
 30
0.0
 10
6.0166
 20
-94.177
 30
0.0
 10
9.1038
 20
-86.7238
 30
0.0
 10
9.1038
 20
-86.7238
 30
0.0
 10
9.1038
 20
-86.7238
 30
0.0
 10
9.1038
 20
-86.7238
 30
0.0
 10
16.5566
 20
-83.6367
 30
0.0
 10
16.5566
 20
-83.6367
 30
0.0
 10
16.5566
 20
-83.6367
 30
0.0
 10
16.5566
 20
-83.6367
 30
0.0
 10
18.3606
 20
-87.9921
 30
0.0
 10
18.3606
 20
-87.9921
 30
0.0
 10
18.3606
 20
-87.9921
 30
0.0
 10
18.3606
 20
-87.9921
 30
0.0
 10
21.1323
 20
-86.844
 30
0.0
 10
21.1323
 20
-86.844
 30
0.0
 10
21.1323
 20
-86.844
 30
0.0
 10
21.1323
 20
-86.844
 30
0.0
 10
19.3282
 20
-82.4887
 30
0.0
 10
19.3282
 20
-82.4887
 30
0.0
 10
19.3282
 20
-82.4887
 30
0.0
 10
19.3282
 20
-82.4887
 30
0.0
 10
26.7814
 20
-79.4015
 30
0.0
 10
26.7814
 20
-79.4015
 30
0.0
  0
SPLINE
  5
50
330
1F
100
AcDbEntity
  8
Capa 1
 62
   142
370
     9
100
AcDbSpline
210
0.0
220
0.0
230
1.0
 70
    11
 71
     3
 72
    68
 73
    64
 74
     0
 42
0.0000000001
 43
0.0000000001
 40
0.0
 40
0.0
 40
0.0
 40
0.0
 40
0.0588235294117647
 40
0.0588235294117647
 40
0.0588235294117647
 40
0.0588235294117647
 40
0.1176470588235294
 40
0.1176470588235294
 40
0.1176470588235294
 40
0.1176470588235294
 40
0.1764705882352941
 40
0.1764705882352941
 40
0.1764705882352941
 40
0.1764705882352941
 40
0.2352941176470588
 40
0.2352941176470588
 40
0.2352941176470588
 40
0.2352941176470588
 40
0.2941176470588235
 40
0.2941176470588235
 40
0.2941176470588235
 40
0.2941176470588235
 40
0.3529411764705883
 40
0.3529411764705883
 40
0.3529411764705883
 40
0.3529411764705883
 40
0.4117647058823529
 40
0.4117647058823529
 40
0.4117647058823529
 40
0.4117647058823529
 40
0.4705882352941176
 40
0.4705882352941176
 40
0.4705882352941176
 40
0.4705882352941176
 40
0.5294117647058824
 40
0.5294117647058824
 40
0.5294117647058824
 40
0.5294117647058824
 40
0.5882352941176471
 40
0.5882352941176471
 40
0.5882352941176471
 40
0.5882352941176471
 40
0.6470588235294118
 40
0.6470588235294118
 40
0.6470588235294118
 40
0.6470588235294118
 40
0.7058823529411765
 40
0.7058823529411765
 40
0.7058823529411765
 40
0.7058823529411765
 40
0.7647058823529411
 40
0.7647058823529411
 40
0.7647058823529411
 40
0.7647058823529411
 40
0.8235294117647058
 40
0.8235294117647058
 40
0.8235294117647058
 40
0.8235294117647058
 40
0.8823529411764706
 40
0.8823529411764706
 40
0.8823529411764706
 40
0.8823529411764706
 40
1.0
 40
1.0
 40
1.0
 40
1.0
 10
74.0297
 20
118.1388
 30
0.0
 10
73.3475
 20
112.4344
 30
0.0
 10
68.8235
 20
107.911
 30
0.0
 10
63.119
 20
107.2287
 30
0.0
 10
63.119
 20
107.2287
 30
0.0
 10
63.119
 20
107.2287
 30
0.0
 10
63.119
 20
111.8532
 30
0.0
 10
63.119
 20
111.8532
 30
0.0
 10
63.119
 20
111.8532
 30
0.0
 10
63.119
 20
111.8532
 30
0.0
 10
60.119
 20
111.8532
 30
0.0
 10
60.119
 20
111.8532
 30
0.0
 10
60.119
 20
111.8532
 30
0.0
 10
60.119
 20
111.8532
 30
0.0
 10
60.119
 20
107.2287
 30
0.0
 10
60.119
 20
107.2287
 30
0.0
 10
60.119
 20
107.2287
 30
0.0
 10
54.4145
 20
107.911
 30
0.0
 10
49.8905
 20
112.4344
 30
0.0
 10
49.2083
 20
118.1388
 30
0.0
 10
49.2083
 20
118.1388
 30
0.0
 10
49.2083
 20
118.1388
 30
0.0
 10
53.8334
 20
118.1388
 30
0.0
 10
53.8334
 20
118.1388
 30
0.0
 10
53.8334
 20
118.1388
 30
0.0
 10
53.8334
 20
118.1388
 30
0.0
 10
53.8334
 20
121.1388
 30
0.0
 10
53.8334
 20
121.1388
 30
0.0
 10
53.8334
 20
121.1388
 30
0.0
 10
53.8334
 20
121.1388
 30
0.0
 10
49.2083
 20
121.1388
 30
0.0
 10
49.2083
 20
121.1388
 30
0.0
 10
49.2083
 20
121.1388
 30
0.0
 10
49.8905
 20
126.8432
 30
0.0
 10
54.4145
 20
131.3666
 30
0.0
 10
60.119
 20
132.0489
 30
0.0
 10
60.119
 20
132.0489
 30
0.0
 10
60.119
 20
132.0489
 30
0.0
 10
60.119
 20
127.4244
 30
0.0
 10
60.119
 20
127.4244
 30
0.0
 10
60.119
 20
127.4244
 30
0.0
 10
60.119
 20
127.4244
 30
0.0
 10
63.119
 20
127.4244
 30
0.0
 10
63.119
 20
127.4244
 30
0.0
 10
63.119
 20
127.4244
 30
0.0
 10
63.119
 20
127.4244
 30
0.0
 10
63.119
 20
132.0489
 30
0.0
 10
63.119
 20
132.0489
 30
0.0
 10
63.119
 20
132.0489
 30
0.0
 10
68.8235
 20
131.3666
 30
0.0
 10
73.3475
 20
126.8432
 30
0.0
 10
74.0297
 20
121.1388
 30
0.0
 10
74.0297
 20
121.1388
 30
0.0
 10
74.0297
 20
121.1388
 30
0.0
 10
69.4046
 20
121.1388
 30
0.0
 10
69.4046
 20
121.1388
 30
0.0
 10
69.4046
 20
121.1388
 30
0.0
 10
69.4046
 20
121.1388
 30
0.0
 10
69.4046
 20
118.1388
 30
0.0
 10
69.4046
 20
118.1388
 30
0.0
 10
69.4046
 20
118.1388
 30
0.0
 10
69.4046
 20
118.1388
 30
0.0
 10
74.0297
 20
118.1388
 30
0.0
 10
74.0297
 20
118.1388
 30
0.0
  0
SPLINE
  5
51
330
1F
100
AcDbEntity
  8
Capa 1
 62
   142
370
     9
100
AcDbSpline
210
0.0
220
0.0
230
1.0
 70
    11
 71
     3
 72
   132
 73
   128
 74
     0
 42
0.0000000001
 43
0.0000000001
 40
0.0
 40
0.0
 40
0.0
 40
0.0
 40
0.0303030303030303
 40
0.0303030303030303
 40
0.0303030303030303
 40
0.0303030303030303
 40
0.0606060606060606
 40
0.0606060606060606
 40
0.0606060606060606
 40
0.0606060606060606
 40
0.0909090909090909
 40
0.0909090909090909
 40
0.0909090909090909
 40
0.0909090909090909
 40
0.1212121212121212
 40
0.1212121212121212
 40
0.1212121212121212
 40
0.1212121212121212
 40
0.1515151515151515
 40
0.1515151515151515
 40
0.1515151515151515
 40
0.1515151515151515
 40
0.1818181818181818
 40
0.1818181818181818
 40
0.1818181818181818
 40
0.1818181818181818
 40
0.2121212121212121
 40
0.2121212121212121
 40
0.2121212121212121
 40
0.2121212121212121
 40
0.2424242424242424
 40
0.2424242424242424
 40
0.2424242424242424
 40
0.2424242424242424
 40
0.2727272727272727
 40
0.2727272727272727
 40
0.2727272727272727
 40
0.2727272727272727
 40
0.303030303030303
 40
0.303030303030303
 40
0.303030303030303
 40
0.303030303030303
 40
0.3333333333333333
 40
0.3333333333333333
 40
0.3333333333333333
 40
0.3333333333333333
 40
0.3636363636363636
 40
0.3636363636363636
 40
0.3636363636363636
 40
0.3636363636363636
 40
0.3939393939393939
 40
0.3939393939393939
 40
0.3939393939393939
 40
0.3939393939393939
 40
0.4242424242424243
 40
0.4242424242424243
 40
0.4242424242424243
 40
0.4242424242424243
 40
0.4545454545454545
 40
0.4545454545454545
 40
0.4545454545454545
 40
0.4545454545454545
 40
0.4848484848484849
 40
0.4848484848484849
 40
0.4848484848484849
 40
0.4848484848484849
 40
0.5151515151515151
 40
0.5151515151515151
 40
0.5151515151515151
 40
0.5151515151515151
 40
0.5454545454545454
 40
0.5454545454545454
 40
0.5454545454545454
 40
0.5454545454545454
 40
0.5757575757575758
 40
0.5757575757575758
 40
0.5757575757575758
 40
0.5757575757575758
 40
0.6060606060606061
 40
0.6060606060606061
 40
0.6060606060606061
 40
0.6060606060606061
 40
0.6363636363636364
 40
0.6363636363636364
 40
0.6363636363636364
 40
0.6363636363636364
 40
0.6666666666666666
 40
0.6666666666666666
 40
0.6666666666666666
 40
0.6666666666666666
 40
0.696969696969697
 40
0.696969696969697
 40
0.696969696969697
 40
0.696969696969697
 40
0.7272727272727273
 40
0.7272727272727273
 40
0.7272727272727273
 40
0.7272727272727273
 40
0.7575757575757576
 40
0.7575757575757576
 40
0.7575757575757576
 40
0.7575757575757576
 40
0.7878787878787878
 40
0.7878787878787878
 40
0.7878787878787878
 40
0.7878787878787878
 40
0.8181818181818182
 40
0.8181818181818182
 40
0.8181818181818182
 40
0.8181818181818182
 40
0.8484848484848485
 40
0.8484848484848485
 40
0.8484848484848485
 40
0.8484848484848485
 40
0.8787878787878788
 40
0.8787878787878788
 40
0.8787878787878788
 40
0.8787878787878788
 40
0.9090909090909091
 40
0.9090909090909091
 40
0.9090909090909091
 40
0.9090909090909091
 40
0.9393939393939394
 40
0.9393939393939394
 40
0.9393939393939394
 40
0.9393939393939394
 40
1.0
 40
1.0
 40
1.0
 40
1.0
 10
74.0297
 20
91.768
 30
0.0
 10
73.7512
 20
89.4394
 30
0.0
 10
72.8325
 20
87.3076
 30
0.0
 10
71.4546
 20
85.5537
 30
0.0
 10
71.4546
 20
85.5537
 30
0.0
 10
71.4546
 20
85.5537
 30
0.0
 10
68.1976
 20
88.8107
 30
0.0
 10
68.1976
 20
88.8107
 30
0.0
 10
68.1976
 20
88.8107
 30
0.0
 10
68.1976
 20
88.8107
 30
0.0
 10
66.0763
 20
86.6894
 30
0.0
 10
66.0763
 20
86.6894
 30
0.0
 10
66.0763
 20
86.6894
 30
0.0
 10
66.0763
 20
86.6894
 30
0.0
 10
69.3331
 20
83.4326
 30
0.0
 10
69.3331
 20
83.4326
 30
0.0
 10
69.3331
 20
83.4326
 30
0.0
 10
67.579
 20
82.0551
 30
0.0
 10
65.4474
 20
81.1364
 30
0.0
 10
63.119
 20
80.8579
 30
0.0
 10
63.119
 20
80.8579
 30
0.0
 10
63.119
 20
80.8579
 30
0.0
 10
63.119
 20
85.4824
 30
0.0
 10
63.119
 20
85.4824
 30
0.0
 10
63.119
 20
85.4824
 30
0.0
 10
63.119
 20
85.4824
 30
0.0
 10
60.119
 20
85.4824
 30
0.0
 10
60.119
 20
85.4824
 30
0.0
 10
60.119
 20
85.4824
 30
0.0
 10
60.119
 20
85.4824
 30
0.0
 10
60.119
 20
80.8579
 30
0.0
 10
60.119
 20
80.8579
 30
0.0
 10
60.119
 20
80.8579
 30
0.0
 10
57.7905
 20
81.1364
 30
0.0
 10
55.659
 20
82.055
 30
0.0
 10
53.9049
 20
83.4326
 30
0.0
 10
53.9049
 20
83.4326
 30
0.0
 10
53.9049
 20
83.4326
 30
0.0
 10
57.1617
 20
86.6894
 30
0.0
 10
57.1617
 20
86.6894
 30
0.0
 10
57.1617
 20
86.6894
 30
0.0
 10
57.1617
 20
86.6894
 30
0.0
 10
55.0404
 20
88.8107
 30
0.0
 10
55.0404
 20
88.8107
 30
0.0
 10
55.0404
 20
88.8107
 30
0.0
 10
55.0404
 20
88.8107
 30
0.0
 10
51.7834
 20
85.5537
 30
0.0
 10
51.7834
 20
85.5537
 30
0.0
 10
51.7834
 20
85.5537
 30
0.0
 10
50.4056
 20
87.3077
 30
0.0
 10
49.4868
 20
89.4394
 30
0.0
 10
49.2083
 20
91.768
 30
0.0
 10
49.2083
 20
91.768
 30
0.0
 10
49.2083
 20
91.768
 30
0.0
 10
53.8334
 20
91.768
 30
0.0
 10
53.8334
 20
91.768
 30
0.0
 10
53.8334
 20
91.768
 30
0.0
 10
53.8334
 20
91.768
 30
0.0
 10
53.8334
 20
94.768
 30
0.0
 10
53.8334
 20
94.768
 30
0.0
 10
53.8334
 20
94.768
 30
0.0
 10
53.8334
 20
94.768
 30
0.0
 10
49.2083
 20
94.768
 30
0.0
 10
49.2083
 20
94.768
 30
0.0
 10
49.2083
 20
94.768
 30
0.0
 10
49.4868
 20
97.0966
 30
0.0
 10
50.4055
 20
99.2284
 30
0.0
 10
51.7834
 20
100.9823
 30
0.0
 10
51.7834
 20
100.9823
 30
0.0
 10
51.7834
 20
100.9823
 30
0.0
 10
55.0404
 20
97.7253
 30
0.0
 10
55.0404
 20
97.7253
 30
0.0
 10
55.0404
 20
97.7253
 30
0.0
 10
55.0404
 20
97.7253
 30
0.0
 10
57.1617
 20
99.8466
 30
0.0
 10
57.1617
 20
99.8466
 30
0.0
 10
57.1617
 20
99.8466
 30
0.0
 10
57.1617
 20
99.8466
 30
0.0
 10
53.9049
 20
103.1034
 30
0.0
 10
53.9049
 20
103.1034
 30
0.0
 10
53.9049
 20
103.1034
 30
0.0
 10
55.659
 20
104.4809
 30
0.0
 10
57.7906
 20
105.3996
 30
0.0
 10
60.119
 20
105.6781
 30
0.0
 10
60.119
 20
105.6781
 30
0.0
 10
60.119
 20
105.6781
 30
0.0
 10
60.119
 20
101.0536
 30
0.0
 10
60.119
 20
101.0536
 30
0.0
 10
60.119
 20
101.0536
 30
0.0
 10
60.119
 20
101.0536
 30
0.0
 10
63.119
 20
101.0536
 30
0.0
 10
63.119
 20
101.0536
 30
0.0
 10
63.119
 20
101.0536
 30
0.0
 10
63.119
 20
101.0536
 30
0.0
 10
63.119
 20
105.6781
 30
0.0
 10
63.119
 20
105.6781
 30
0.0
 10
63.119
 20
105.6781
 30
0.0
 10
65.4475
 20
105.3996
 30
0.0
 10
67.579
 20
104.481
 30
0.0
 10
69.3331
 20
103.1034
 30
0.0
 10
69.3331
 20
103.1034
 30
0.0
 10
69.3331
 20
103.1034
 30
0.0
 10
66.0763
 20
99.8466
 30
0.0
 10
66.0763
 20
99.8466
 30
0.0
 10
66.0763
 20
99.8466
 30
0.0
 10
66.0763
 20
99.8466
 30
0.0
 10
68.1976
 20
97.7253
 30
0.0
 10
68.1976
 20
97.7253
 30
0.0
 10
68.1976
 20
97.7253
 30
0.0
 10
68.1976
 20
97.7253
 30
0.0
 10
71.4546
 20
100.9823
 30
0.0
 10
71.4546
 20
100.9823
 30
0.0
 10
71.4546
 20
100.9823
 30
0.0
 10
72.8324
 20
99.2283
 30
0.0
 10
73.7512
 20
97.0966
 30
0.0
 10
74.0297
 20
94.768
 30
0.0
 10
74.0297
 20
94.768
 30
0.0
 10
74.0297
 20
94.768
 30
0.0
 10
69.4046
 20
94.768
 30
0.0
 10
69.4046
 20
94.768
 30
0.0
 10
69.4046
 20
94.768
 30
0.0
 10
69.4046
 20
94.768
 30
0.0
 10
69.4046
 20
91.768
 30
0.0
 10
69.4046
 20
91.768
 30
0.0
 10
69.4046
 20
91.768
 30
0.0
 10
69.4046
 20
91.768
 30
0.0
 10
74.0297
 20
91.768
 30
0.0
 10
74.0297
 20
91.768
 30
0.0
  0
SPLINE
  5
52
330
1F
100
AcDbEntity
  8
Capa 1
 62
   142
370
     9
100
AcDbSpline
210
0.0
220
0.0
230
1.0
 70
    11
 71
     3
 72
    68
 73
    64
 74
     0
 42
0.0000000001
 43
0.0000000001
 40
0.0
 40
0.0
 40
0.0
 40
0.0
 40
0.0588235294117647
 40
0.0588235294117647
 40
0.0588235294117647
 40
0.0588235294117647
 40
0.1176470588235294
 40
0.1176470588235294
 40
0.1176470588235294
 40
0.1176470588235294
 40
0.1764705882352941
 40
0.1764705882352941
 40
0.1764705882352941
 40
0.1764705882352941
 40
0.2352941176470588
 40
0.2352941176470588
 40
0.2352941176470588
 40
0.2352941176470588
 40
0.2941176470588235
 40
0.2941176470588235
 40
0.2941176470588235
 40
0.2941176470588235
 40
0.3529411764705883
 40
0.3529411764705883
 40
0.3529411764705883
 40
0.3529411764705883
 40
0.4117647058823529
 40
0.4117647058823529
 40
0.4117647058823529
 40
0.4117647058823529
 40
0.4705882352941176
 40
0.4705882352941176
 40
0.4705882352941176
 40
0.4705882352941176
 40
0.5294117647058824
 40
0.5294117647058824
 40
0.5294117647058824
 40
0.5294117647058824
 40
0.5882352941176471
 40
0.5882352941176471
 40
0.5882352941176471
 40
0.5882352941176471
 40
0.6470588235294118
 40
0.6470588235294118
 40
0.6470588235294118
 40
0.6470588235294118
 40
0.7058823529411765
 40
0.7058823529411765
 40
0.7058823529411765
 40
0.7058823529411765
 40
0.7647058823529411
 40
0.7647058823529411
 40
0.7647058823529411
 40
0.7647058823529411
 40
0.8235294117647058
 40
0.8235294117647058
 40
0.8235294117647058
 40
0.8235294117647058
 40
0.8823529411764706
 40
0.8823529411764706
 40
0.8823529411764706
 40
0.8823529411764706
 40
1.0
 40
1.0
 40
1.0
 40
1.0
 10
100.6631
 20
118.1388
 30
0.0
 10
99.9809
 20
112.4344
 30
0.0
 10
95.4569
 20
107.911
 30
0.0
 10
89.7524
 20
107.2287
 30
0.0
 10
89.7524
 20
107.2287
 30
0.0
 10
89.7524
 20
107.2287
 30
0.0
 10
89.7524
 20
111.8532
 30
0.0
 10
89.7524
 20
111.8532
 30
0.0
 10
89.7524
 20
111.8532
 30
0.0
 10
89.7524
 20
111.8532
 30
0.0
 10
86.7524
 20
111.8532
 30
0.0
 10
86.7524
 20
111.8532
 30
0.0
 10
86.7524
 20
111.8532
 30
0.0
 10
86.7524
 20
111.8532
 30
0.0
 10
86.7524
 20
107.2287
 30
0.0
 10
86.7524
 20
107.2287
 30
0.0
 10
86.7524
 20
107.2287
 30
0.0
 10
81.0479
 20
107.911
 30
0.0
 10
76.5239
 20
112.4344
 30
0.0
 10
75.8417
 20
118.1388
 30
0.0
 10
75.8417
 20
118.1388
 30
0.0
 10
75.8417
 20
118.1388
 30
0.0
 10
80.4668
 20
118.1388
 30
0.0
 10
80.4668
 20
118.1388
 30
0.0
 10
80.4668
 20
118.1388
 30
0.0
 10
80.4668
 20
118.1388
 30
0.0
 10
80.4668
 20
121.1388
 30
0.0
 10
80.4668
 20
121.1388
 30
0.0
 10
80.4668
 20
121.1388
 30
0.0
 10
80.4668
 20
121.1388
 30
0.0
 10
75.8417
 20
121.1388
 30
0.0
 10
75.8417
 20
121.1388
 30
0.0
 10
75.8417
 20
121.1388
 30
0.0
 10
76.5239
 20
126.8432
 30
0.0
 10
81.0479
 20
131.3666
 30
0.0
 10
86.7524
 20
132.0489
 30
0.0
 10
86.7524
 20
132.0489
 30
0.0
 10
86.7524
 20
132.0489
 30
0.0
 10
86.7524
 20
127.4244
 30
0.0
 10
86.7524
 20
127.4244
 30
0.0
 10
86.7524
 20
127.4244
 30
0.0
 10
86.7524
 20
127.4244
 30
0.0
 10
89.7524
 20
127.4244
 30
0.0
 10
89.7524
 20
127.4244
 30
0.0
 10
89.7524
 20
127.4244
 30
0.0
 10
89.7524
 20
127.4244
 30
0.0
 10
89.7524
 20
132.0489
 30
0.0
 10
89.7524
 20
132.0489
 30
0.0
 10
89.7524
 20
132.0489
 30
0.0
 10
95.4569
 20
131.3666
 30
0.0
 10
99.9809
 20
126.8432
 30
0.0
 10
100.6631
 20
121.1388
 30
0.0
 10
100.6631
 20
121.1388
 30
0.0
 10
100.6631
 20
121.1388
 30
0.0
 10
96.038
 20
121.1388
 30
0.0
 10
96.038
 20
121.1388
 30
0.0
 10
96.038
 20
121.1388
 30
0.0
 10
96.038
 20
121.1388
 30
0.0
 10
96.038
 20
118.1388
 30
0.0
 10
96.038
 20
118.1388
 30
0.0
 10
96.038
 20
118.1388
 30
0.0
 10
96.038
 20
118.1388
 30
0.0
 10
100.6631
 20
118.1388
 30
0.0
 10
100.6631
 20
118.1388
 30
0.0
  0
SPLINE
  5
53
330
1F
100
AcDbEntity
  8
Capa 1
 62
   142
370
     9
100
AcDbSpline
210
0.0
220
0.0
230
1.0
 70
    11
 71
     3
 72
   132
 73
   128
 74
     0
 42
0.0000000001
 43
0.0000000001
 40
0.0
 40
0.0
 40
0.0
 40
0.0
 40
0.0303030303030303
 40
0.0303030303030303
 40
0.0303030303030303
 40
0.0303030303030303
 40
0.0606060606060606
 40
0.0606060606060606
 40
0.0606060606060606
 40
0.0606060606060606
 40
0.0909090909090909
 40
0.0909090909090909
 40
0.0909090909090909
 40
0.0909090909090909
 40
0.1212121212121212
 40
0.1212121212121212
 40
0.1212121212121212
 40
0.1212121212121212
 40
0.1515151515151515
 40
0.1515151515151515
 40
0.1515151515151515
 40
0.1515151515151515
 40
0.1818181818181818
 40
0.1818181818181818
 40
0.1818181818181818
 40
0.1818181818181818
 40
0.2121212121212121
 40
0.2121212121212121
 40
0.2121212121212121
 40
0.2121212121212121
 40
0.2424242424242424
 40
0.2424242424242424
 40
0.2424242424242424
 40
0.2424242424242424
 40
0.2727272727272727
 40
0.2727272727272727
 40
0.2727272727272727
 40
0.2727272727272727
 40
0.303030303030303
 40
0.303030303030303
 40
0.303030303030303
 40
0.303030303030303
 40
0.3333333333333333
 40
0.3333333333333333
 40
0.3333333333333333
 40
0.3333333333333333
 40
0.3636363636363636
 40
0.3636363636363636
 40
0.3636363636363636
 40
0.3636363636363636
 40
0.3939393939393939
 40
0.3939393939393939
 40
0.3939393939393939
 40
0.3939393939393939
 40
0.4242424242424243
 40
0.4242424242424243
 40
0.4242424242424243
 40
0.4242424242424243
 40
0.4545454545454545
 40
0.4545454545454545
 40
0.4545454545454545
 40
0.4545454545454545
 40
0.4848484848484849
 40
0.4848484848484849
 40
0.4848484848484849
 40
0.4848484848484849
 40
0.5151515151515151
 40
0.5151515151515151
 40
0.5151515151515151
 40
0.5151515151515151
 40
0.5454545454545454
 40
0.5454545454545454
 40
0.5454545454545454
 40
0.5454545454545454
 40
0.5757575757575758
 40
0.5757575757575758
 40
0.5757575757575758
 40
0.5757575757575758
 40
0.6060606060606061
 40
0.6060606060606061
 40
0.6060606060606061
 40
0.6060606060606061
 40
0.6363636363636364
 40
0.6363636363636364
 40
0.6363636363636364
 40
0.6363636363636364
 40
0.6666666666666666
 40
0.6666666666666666
 40
0.6666666666666666
 40
0.6666666666666666
 40
0.696969696969697
 40
0.696969696969697
 40
0.696969696969697
 40
0.696969696969697
 40
0.7272727272727273
 40
0.7272727272727273
 40
0.7272727272727273
 40
0.7272727272727273
 40
0.7575757575757576
 40
0.7575757575757576
 40
0.7575757575757576
 40
0.7575757575757576
 40
0.7878787878787878
 40
0.7878787878787878
 40
0.7878787878787878
 40
0.7878787878787878
 40
0.8181818181818182
 40
0.8181818181818182
 40
0.8181818181818182
 40
0.8181818181818182
 40
0.8484848484848485
 40
0.8484848484848485
 40
0.8484848484848485
 40
0.8484848484848485
 40
0.8787878787878788
 40
0.8787878787878788
 40
0.8787878787878788
 40
0.8787878787878788
 40
0.9090909090909091
 40
0.9090909090909091
 40
0.9090909090909091
 40
0.9090909090909091
 40
0.9393939393939394
 40
0.9393939393939394
 40
0.9393939393939394
 40
0.9393939393939394
 40
1.0
 40
1.0
 40
1.0
 40
1.0
 10
100.6631
 20
91.768
 30
0.0
 10
100.3846
 20
89.4394
 30
0.0
 10
99.4659
 20
87.3076
 30
0.0
 10
98.088
 20
85.5537
 30
0.0
 10
98.088
 20
85.5537
 30
0.0
 10
98.088
 20
85.5537
 30
0.0
 10
94.831
 20
88.8107
 30
0.0
 10
94.831
 20
88.8107
 30
0.0
 10
94.831
 20
88.8107
 30
0.0
 10
94.831
 20
88.8107
 30
0.0
 10
92.7097
 20
86.6894
 30
0.0
 10
92.7097
 20
86.6894
 30
0.0
 10
92.7097
 20
86.6894
 30
0.0
 10
92.7097
 20
86.6894
 30
0.0
 10
95.9665
 20
83.4326
 30
0.0
 10
95.9665
 20
83.4326
 30
0.0
 10
95.9665
 20
83.4326
 30
0.0
 10
94.2124
 20
82.0551
 30
0.0
 10
92.0808
 20
81.1364
 30
0.0
 10
89.7524
 20
80.8579
 30
0.0
 10
89.7524
 20
80.8579
 30
0.0
 10
89.7524
 20
80.8579
 30
0.0
 10
89.7524
 20
85.4824
 30
0.0
 10
89.7524
 20
85.4824
 30
0.0
 10
89.7524
 20
85.4824
 30
0.0
 10
89.7524
 20
85.4824
 30
0.0
 10
86.7524
 20
85.4824
 30
0.0
 10
86.7524
 20
85.4824
 30
0.0
 10
86.7524
 20
85.4824
 30
0.0
 10
86.7524
 20
85.4824
 30
0.0
 10
86.7524
 20
80.8579
 30
0.0
 10
86.7524
 20
80.8579
 30
0.0
 10
86.7524
 20
80.8579
 30
0.0
 10
84.4239
 20
81.1364
 30
0.0
 10
82.2924
 20
82.055
 30
0.0
 10
80.5383
 20
83.4326
 30
0.0
 10
80.5383
 20
83.4326
 30
0.0
 10
80.5383
 20
83.4326
 30
0.0
 10
83.7951
 20
86.6894
 30
0.0
 10
83.7951
 20
86.6894
 30
0.0
 10
83.7951
 20
86.6894
 30
0.0
 10
83.7951
 20
86.6894
 30
0.0
 10
81.6738
 20
88.8107
 30
0.0
 10
81.6738
 20
88.8107
 30
0.0
 10
81.6738
 20
88.8107
 30
0.0
 10
81.6738
 20
88.8107
 30
0.0
 10
78.4168
 20
85.5537
 30
0.0
 10
78.4168
 20
85.5537
 30
0.0
 10
78.4168
 20
85.5537
 30
0.0
 10
77.039
 20
87.3077
 30
0.0
 10
76.1202
 20
89.4394
 30
0.0
 10
75.8417
 20
91.768
 30
0.0
 10
75.8417
 20
91.768
 30
0.0
 10
75.8417
 20
91.768
 30
0.0
 10
80.4668
 20
91.768
 30
0.0
 10
80.4668
 20
91.768
 30
0.0
 10
80.4668
 20
91.768
 30
0.0
 10
80.4668
 20
91.768
 30
0.0
 10
80.4668
 20
94.768
 30
0.0
 10
80.4668
 20
94.768
 30
0.0
 10
80.4668
 20
94.768
 30
0.0
 10
80.4668
 20
94.768
 30
0.0
 10
75.8417
 20
94.768
 30
0.0
 10
75.8417
 20
94.768
 30
0.0
 10
75.8417
 20
94.768
 30
0.0
 10
76.1202
 20
97.0966
 30
0.0
 10
77.0389
 20
99.2284
 30
0.0
 10
78.4168
 20
100.9823
 30
0.0
 10
78.4168
 20
100.9823
 30
0.0
 10
78.4168
 20
100.9823
 30
0.0
 10
81.6738
 20
97.7253
 30
0.0
 10
81.6738
 20
97.7253
 30
0.0
 10
81.6738
 20
97.7253
 30
0.0
 10
81.6738
 20
97.7253
 30
0.0
 10
83.7951
 20
99.8466
 30
0.0
 10
83.7951
 20
99.8466
 30
0.0
 10
83.7951
 20
99.8466
 30
0.0
 10
83.7951
 20
99.8466
 30
0.0
 10
80.5383
 20
103.1034
 30
0.0
 10
80.5383
 20
103.1034
 30
0.0
 10
80.5383
 20
103.1034
 30
0.0
 10
82.2924
 20
104.4809
 30
0.0
 10
84.424
 20
105.3996
 30
0.0
 10
86.7524
 20
105.6781
 30
0.0
 10
86.7524
 20
105.6781
 30
0.0
 10
86.7524
 20
105.6781
 30
0.0
 10
86.7524
 20
101.0536
 30
0.0
 10
86.7524
 20
101.0536
 30
0.0
 10
86.7524
 20
101.0536
 30
0.0
 10
86.7524
 20
101.0536
 30
0.0
 10
89.7524
 20
101.0536
 30
0.0
 10
89.7524
 20
101.0536
 30
0.0
 10
89.7524
 20
101.0536
 30
0.0
 10
89.7524
 20
101.0536
 30
0.0
 10
89.7524
 20
105.6781
 30
0.0
 10
89.7524
 20
105.6781
 30
0.0
 10
89.7524
 20
105.6781
 30
0.0
 10
92.0809
 20
105.3996
 30
0.0
 10
94.2124
 20
104.481
 30
0.0
 10
95.9665
 20
103.1034
 30
0.0
 10
95.9665
 20
103.1034
 30
0.0
 10
95.9665
 20
103.1034
 30
0.0
 10
92.7097
 20
99.8466
 30
0.0
 10
92.7097
 20
99.8466
 30
0.0
 10
92.7097
 20
99.8466
 30
0.0
 10
92.7097
 20
99.8466
 30
0.0
 10
94.831
 20
97.7253
 30
0.0
 10
94.831
 20
97.7253
 30
0.0
 10
94.831
 20
97.7253
 30
0.0
 10
94.831
 20
97.7253
 30
0.0
 10
98.088
 20
100.9823
 30
0.0
 10
98.088
 20
100.9823
 30
0.0
 10
98.088
 20
100.9823
 30
0.0
 10
99.4658
 20
99.2283
 30
0.0
 10
100.3846
 20
97.0966
 30
0.0
 10
100.6631
 20
94.768
 30
0.0
 10
100.6631
 20
94.768
 30
0.0
 10
100.6631
 20
94.768
 30
0.0
 10
96.038
 20
94.768
 30
0.0
 10
96.038
 20
94.768
 30
0.0
 10
96.038
 20
94.768
 30
0.0
 10
96.038
 20
94.768
 30
0.0
 10
96.038
 20
91.768
 30
0.0
 10
96.038
 20
91.768
 30
0.0
 10
96.038
 20
91.768
 30
0.0
 10
96.038
 20
91.768
 30
0.0
 10
100.6631
 20
91.768
 30
0.0
 10
100.6631
 20
91.768
 30
0.0
  0
SPLINE
  5
54
330
1F
100
AcDbEntity
  8
Capa 1
 62
   142
370
     9
100
AcDbSpline
210
0.0
220
0.0
230
1.0
 70
    11
 71
     3
 72
    68
 73
    64
 74
     0
 42
0.0000000001
 43
0.0000000001
 40
0.0
 40
0.0
 40
0.0
 40
0.0
 40
0.0588235294117647
 40
0.0588235294117647
 40
0.0588235294117647
 40
0.0588235294117647
 40
0.1176470588235294
 40
0.1176470588235294
 40
0.1176470588235294
 40
0.1176470588235294
 40
0.1764705882352941
 40
0.1764705882352941
 40
0.1764705882352941
 40
0.1764705882352941
 40
0.2352941176470588
 40
0.2352941176470588
 40
0.2352941176470588
 40
0.2352941176470588
 40
0.2941176470588235
 40
0.2941176470588235
 40
0.2941176470588235
 40
0.2941176470588235
 40
0.3529411764705883
 40
0.3529411764705883
 40
0.3529411764705883
 40
0.3529411764705883
 40
0.4117647058823529
 40
0.4117647058823529
 40
0.4117647058823529
 40
0.4117647058823529
 40
0.4705882352941176
 40
0.4705882352941176
 40
0.4705882352941176
 40
0.4705882352941176
 40
0.5294117647058824
 40
0.5294117647058824
 40
0.5294117647058824
 40
0.5294117647058824
 40
0.5882352941176471
 40
0.5882352941176471
 40
0.5882352941176471
 40
0.5882352941176471
 40
0.6470588235294118
 40
0.6470588235294118
 40
0.6470588235294118
 40
0.6470588235294118
 40
0.7058823529411765
 40
0.7058823529411765
 40
0.7058823529411765
 40
0.7058823529411765
 40
0.7647058823529411
 40
0.7647058823529411
 40
0.7647058823529411
 40
0.7647058823529411
 40
0.8235294117647058
 40
0.8235294117647058
 40
0.8235294117647058
 40
0.8235294117647058
 40
0.8823529411764706
 40
0.8823529411764706
 40
0.8823529411764706
 40
0.8823529411764706
 40
1.0
 40
1.0
 40
1.0
 40
1.0
 10
74.0297
 20
65.1554
 30
0.0
 10
73.3475
 20
59.451
 30
0.0
 10
68.8235
 20
54.9276
 30
0.0
 10
63.119
 20
54.2453
 30
0.0
 10
63.119
 20
54.2453
 30
0.0
 10
63.119
 20
54.2453
 30
0.0
 10
63.119
 20
58.8698
 30
0.0
 10
63.119
 20
58.8698
 30
0.0
 10
63.119
 20
58.8698
 30
0.0
 10
63.119
 20
58.8698
 30
0.0
 10
60.119
 20
58.8698
 30
0.0
 10
60.119
 20
58.8698
 30
0.0
 10
60.119
 20
58.8698
 30
0.0
 10
60.119
 20
58.8698
 30
0.0
 10
60.119
 20
54.2453
 30
0.0
 10
60.119
 20
54.2453
 30
0.0
 10
60.119
 20
54.2453
 30
0.0
 10
54.4145
 20
54.9276
 30
0.0
 10
49.8905
 20
59.451
 30
0.0
 10
49.2083
 20
65.1554
 30
0.0
 10
49.2083
 20
65.1554
 30
0.0
 10
49.2083
 20
65.1554
 30
0.0
 10
53.8334
 20
65.1554
 30
0.0
 10
53.8334
 20
65.1554
 30
0.0
 10
53.8334
 20
65.1554
 30
0.0
 10
53.8334
 20
65.1554
 30
0.0
 10
53.8334
 20
68.1554
 30
0.0
 10
53.8334
 20
68.1554
 30
0.0
 10
53.8334
 20
68.1554
 30
0.0
 10
53.8334
 20
68.1554
 30
0.0
 10
49.2083
 20
68.1554
 30
0.0
 10
49.2083
 20
68.1554
 30
0.0
 10
49.2083
 20
68.1554
 30
0.0
 10
49.8905
 20
73.8598
 30
0.0
 10
54.4145
 20
78.3832
 30
0.0
 10
60.119
 20
79.0655
 30
0.0
 10
60.119
 20
79.0655
 30
0.0
 10
60.119
 20
79.0655
 30
0.0
 10
60.119
 20
74.441
 30
0.0
 10
60.119
 20
74.441
 30
0.0
 10
60.119
 20
74.441
 30
0.0
 10
60.119
 20
74.441
 30
0.0
 10
63.119
 20
74.441
 30
0.0
 10
63.119
 20
74.441
 30
0.0
 10
63.119
 20
74.441
 30
0.0
 10
63.119
 20
74.441
 30
0.0
 10
63.119
 20
79.0655
 30
0.0
 10
63.119
 20
79.0655
 30
0.0
 10
63.119
 20
79.0655
 30
0.0
 10
68.8235
 20
78.3832
 30
0.0
 10
73.3475
 20
73.8598
 30
0.0
 10
74.0297
 20
68.1554
 30
0.0
 10
74.0297
 20
68.1554
 30
0.0
 10
74.0297
 20
68.1554
 30
0.0
 10
69.4046
 20
68.1554
 30
0.0
 10
69.4046
 20
68.1554
 30
0.0
 10
69.4046
 20
68.1554
 30
0.0
 10
69.4046
 20
68.1554
 30
0.0
 10
69.4046
 20
65.1554
 30
0.0
 10
69.4046
 20
65.1554
 30
0.0
 10
69.4046
 20
65.1554
 30
0.0
 10
69.4046
 20
65.1554
 30
0.0
 10
74.0297
 20
65.1554
 30
0.0
 10
74.0297
 20
65.1554
 30
0.0
  0
SPLINE
  5
55
330
1F
100
AcDbEntity
  8
Capa 1
 62
   142
370
     9
100
AcDbSpline
210
0.0
220
0.0
230
1.0
 70
    11
 71
     3
 72
   132
 73
   128
 74
     0
 42
0.0000000001
 43
0.0000000001
 40
0.0
 40
0.0
 40
0.0
 40
0.0
 40
0.0303030303030303
 40
0.0303030303030303
 40
0.0303030303030303
 40
0.0303030303030303
 40
0.0606060606060606
 40
0.0606060606060606
 40
0.0606060606060606
 40
0.0606060606060606
 40
0.0909090909090909
 40
0.0909090909090909
 40
0.0909090909090909
 40
0.0909090909090909
 40
0.1212121212121212
 40
0.1212121212121212
 40
0.1212121212121212
 40
0.1212121212121212
 40
0.1515151515151515
 40
0.1515151515151515
 40
0.1515151515151515
 40
0.1515151515151515
 40
0.1818181818181818
 40
0.1818181818181818
 40
0.1818181818181818
 40
0.1818181818181818
 40
0.2121212121212121
 40
0.2121212121212121
 40
0.2121212121212121
 40
0.2121212121212121
 40
0.2424242424242424
 40
0.2424242424242424
 40
0.2424242424242424
 40
0.2424242424242424
 40
0.2727272727272727
 40
0.2727272727272727
 40
0.2727272727272727
 40
0.2727272727272727
 40
0.303030303030303
 40
0.303030303030303
 40
0.303030303030303
 40
0.303030303030303
 40
0.3333333333333333
 40
0.3333333333333333
 40
0.3333333333333333
 40
0.3333333333333333
 40
0.3636363636363636
 40
0.3636363636363636
 40
0.3636363636363636
 40
0.3636363636363636
 40
0.3939393939393939
 40
0.3939393939393939
 40
0.3939393939393939
 40
0.3939393939393939
 40
0.4242424242424243
 40
0.4242424242424243
 40
0.4242424242424243
 40
0.4242424242424243
 40
0.4545454545454545
 40
0.4545454545454545
 40
0.4545454545454545
 40
0.4545454545454545
 40
0.4848484848484849
 40
0.4848484848484849
 40
0.4848484848484849
 40
0.4848484848484849
 40
0.5151515151515151
 40
0.5151515151515151
 40
0.5151515151515151
 40
0.5151515151515151
 40
0.5454545454545454
 40
0.5454545454545454
 40
0.5454545454545454
 40
0.5454545454545454
 40
0.5757575757575758
 40
0.5757575757575758
 40
0.5757575757575758
 40
0.5757575757575758
 40
0.6060606060606061
 40
0.6060606060606061
 40
0.6060606060606061
 40
0.6060606060606061
 40
0.6363636363636364
 40
0.6363636363636364
 40
0.6363636363636364
 40
0.6363636363636364
 40
0.6666666666666666
 40
0.6666666666666666
 40
0.6666666666666666
 40
0.6666666666666666
 40
0.696969696969697
 40
0.696969696969697
 40
0.696969696969697
 40
0.696969696969697
 40
0.7272727272727273
 40
0.7272727272727273
 40
0.7272727272727273
 40
0.7272727272727273
 40
0.7575757575757576
 40
0.7575757575757576
 40
0.7575757575757576
 40
0.7575757575757576
 40
0.7878787878787878
 40
0.7878787878787878
 40
0.7878787878787878
 40
0.7878787878787878
 40
0.8181818181818182
 40
0.8181818181818182
 40
0.8181818181818182
 40
0.8181818181818182
 40
0.8484848484848485
 40
0.8484848484848485
 40
0.8484848484848485
 40
0.8484848484848485
 40
0.8787878787878788
 40
0.8787878787878788
 40
0.8787878787878788
 40
0.8787878787878788
 40
0.9090909090909091
 40
0.9090909090909091
 40
0.9090909090909091
 40
0.9090909090909091
 40
0.9393939393939394
 40
0.9393939393939394
 40
0.9393939393939394
 40
0.9393939393939394
 40
1.0
 40
1.0
 40
1.0
 40
1.0
 10
74.0297
 20
38.7846
 30
0.0
 10
73.7512
 20
36.456
 30
0.0
 10
72.8325
 20
34.3242
 30
0.0
 10
71.4546
 20
32.5703
 30
0.0
 10
71.4546
 20
32.5703
 30
0.0
 10
71.4546
 20
32.5703
 30
0.0
 10
68.1976
 20
35.8273
 30
0.0
 10
68.1976
 20
35.8273
 30
0.0
 10
68.1976
 20
35.8273
 30
0.0
 10
68.1976
 20
35.8273
 30
0.0
 10
66.0763
 20
33.706
 30
0.0
 10
66.0763
 20
33.706
 30
0.0
 10
66.0763
 20
33.706
 30
0.0
 10
66.0763
 20
33.706
 30
0.0
 10
69.3331
 20
30.4492
 30
0.0
 10
69.3331
 20
30.4492
 30
0.0
 10
69.3331
 20
30.4492
 30
0.0
 10
67.579
 20
29.0717
 30
0.0
 10
65.4474
 20
28.153
 30
0.0
 10
63.119
 20
27.8745
 30
0.0
 10
63.119
 20
27.8745
 30
0.0
 10
63.119
 20
27.8745
 30
0.0
 10
63.119
 20
32.499
 30
0.0
 10
63.119
 20
32.499
 30
0.0
 10
63.119
 20
32.499
 30
0.0
 10
63.119
 20
32.499
 30
0.0
 10
60.119
 20
32.499
 30
0.0
 10
60.119
 20
32.499
 30
0.0
 10
60.119
 20
32.499
 30
0.0
 10
60.119
 20
32.499
 30
0.0
 10
60.119
 20
27.8745
 30
0.0
 10
60.119
 20
27.8745
 30
0.0
 10
60.119
 20
27.8745
 30
0.0
 10
57.7905
 20
28.153
 30
0.0
 10
55.659
 20
29.0716
 30
0.0
 10
53.9049
 20
30.4492
 30
0.0
 10
53.9049
 20
30.4492
 30
0.0
 10
53.9049
 20
30.4492
 30
0.0
 10
57.1617
 20
33.706
 30
0.0
 10
57.1617
 20
33.706
 30
0.0
 10
57.1617
 20
33.706
 30
0.0
 10
57.1617
 20
33.706
 30
0.0
 10
55.0404
 20
35.8273
 30
0.0
 10
55.0404
 20
35.8273
 30
0.0
 10
55.0404
 20
35.8273
 30
0.0
 10
55.0404
 20
35.8273
 30
0.0
 10
51.7834
 20
32.5703
 30
0.0
 10
51.7834
 20
32.5703
 30
0.0
 10
51.7834
 20
32.5703
 30
0.0
 10
50.4056
 20
34.3243
 30
0.0
 10
49.4868
 20
36.456
 30
0.0
 10
49.2083
 20
38.7846
 30
0.0
 10
49.2083
 20
38.7846
 30
0.0
 10
49.2083
 20
38.7846
 30
0.0
 10
53.8334
 20
38.7846
 30
0.0
 10
53.8334
 20
38.7846
 30
0.0
 10
53.8334
 20
38.7846
 30
0.0
 10
53.8334
 20
38.7846
 30
0.0
 10
53.8334
 20
41.7846
 30
0.0
 10
53.8334
 20
41.7846
 30
0.0
 10
53.8334
 20
41.7846
 30
0.0
 10
53.8334
 20
41.7846
 30
0.0
 10
49.2083
 20
41.7846
 30
0.0
 10
49.2083
 20
41.7846
 30
0.0
 10
49.2083
 20
41.7846
 30
0.0
 10
49.4868
 20
44.1132
 30
0.0
 10
50.4055
 20
46.245
 30
0.0
 10
51.7834
 20
47.9989
 30
0.0
 10
51.7834
 20
47.9989
 30
0.0
 10
51.7834
 20
47.9989
 30
0.0
 10
55.0404
 20
44.7419
 30
0.0
 10
55.0404
 20
44.7419
 30
0.0
 10
55.0404
 20
44.7419
 30
0.0
 10
55.0404
 20
44.7419
 30
0.0
 10
57.1617
 20
46.8632
 30
0.0
 10
57.1617
 20
46.8632
 30
0.0
 10
57.1617
 20
46.8632
 30
0.0
 10
57.1617
 20
46.8632
 30
0.0
 10
53.9049
 20
50.12
 30
0.0
 10
53.9049
 20
50.12
 30
0.0
 10
53.9049
 20
50.12
 30
0.0
 10
55.659
 20
51.4975
 30
0.0
 10
57.7906
 20
52.4162
 30
0.0
 10
60.119
 20
52.6947
 30
0.0
 10
60.119
 20
52.6947
 30
0.0
 10
60.119
 20
52.6947
 30
0.0
 10
60.119
 20
48.0702
 30
0.0
 10
60.119
 20
48.0702
 30
0.0
 10
60.119
 20
48.0702
 30
0.0
 10
60.119
 20
48.0702
 30
0.0
 10
63.119
 20
48.0702
 30
0.0
 10
63.119
 20
48.0702
 30
0.0
 10
63.119
 20
48.0702
 30
0.0
 10
63.119
 20
48.0702
 30
0.0
 10
63.119
 20
52.6947
 30
0.0
 10
63.119
 20
52.6947
 30
0.0
 10
63.119
 20
52.6947
 30
0.0
 10
65.4475
 20
52.4162
 30
0.0
 10
67.579
 20
51.4976
 30
0.0
 10
69.3331
 20
50.12
 30
0.0
 10
69.3331
 20
50.12
 30
0.0
 10
69.3331
 20
50.12
 30
0.0
 10
66.0763
 20
46.8632
 30
0.0
 10
66.0763
 20
46.8632
 30
0.0
 10
66.0763
 20
46.8632
 30
0.0
 10
66.0763
 20
46.8632
 30
0.0
 10
68.1976
 20
44.7419
 30
0.0
 10
68.1976
 20
44.7419
 30
0.0
 10
68.1976
 20
44.7419
 30
0.0
 10
68.1976
 20
44.7419
 30
0.0
 10
71.4546
 20
47.9989
 30
0.0
 10
71.4546
 20
47.9989
 30
0.0
 10
71.4546
 20
47.9989
 30
0.0
 10
72.8324
 20
46.2449
 30
0.0
 10
73.7512
 20
44.1132
 30
0.0
 10
74.0297
 20
41.7846
 30
0.0
 10
74.0297
 20
41.7846
 30
0.0
 10
74.0297
 20
41.7846
 30
0.0
 10
69.4046
 20
41.7846
 30
0.0
 10
69.4046
 20
41.7846
 30
0.0
 10
69.4046
 20
41.7846
 30
0.0
 10
69.4046
 20
41.7846
 30
0.0
 10
69.4046
 20
38.7846
 30
0.0
 10
69.4046
 20
38.7846
 30
0.0
 10
69.4046
 20
38.7846
 30
0.0
 10
69.4046
 20
38.7846
 30
0.0
 10
74.0297
 20
38.7846
 30
0.0
 10
74.0297
 20
38.7846
 30
0.0
  0
SPLINE
  5
56
330
1F
100
AcDbEntity
  8
Capa 1
 62
   142
370
     9
100
AcDbSpline
210
0.0
220
0.0
230
1.0
 70
    11
 71
     3
 72
    68
 73
    64
 74
     0
 42
0.0000000001
 43
0.0000000001
 40
0.0
 40
0.0
 40
0.0
 40
0.0
 40
0.0588235294117647
 40
0.0588235294117647
 40
0.0588235294117647
 40
0.0588235294117647
 40
0.1176470588235294
 40
0.1176470588235294
 40
0.1176470588235294
 40
0.1176470588235294
 40
0.1764705882352941
 40
0.1764705882352941
 40
0.1764705882352941
 40
0.1764705882352941
 40
0.2352941176470588
 40
0.2352941176470588
 40
0.2352941176470588
 40
0.2352941176470588
 40
0.2941176470588235
 40
0.2941176470588235
 40
0.2941176470588235
 40
0.2941176470588235
 40
0.3529411764705883
 40
0.3529411764705883
 40
0.3529411764705883
 40
0.3529411764705883
 40
0.4117647058823529
 40
0.4117647058823529
 40
0.4117647058823529
 40
0.4117647058823529
 40
0.4705882352941176
 40
0.4705882352941176
 40
0.4705882352941176
 40
0.4705882352941176
 40
0.5294117647058824
 40
0.5294117647058824
 40
0.5294117647058824
 40
0.5294117647058824
 40
0.5882352941176471
 40
0.5882352941176471
 40
0.5882352941176471
 40
0.5882352941176471
 40
0.6470588235294118
 40
0.6470588235294118
 40
0.6470588235294118
 40
0.6470588235294118
 40
0.7058823529411765
 40
0.7058823529411765
 40
0.7058823529411765
 40
0.7058823529411765
 40
0.7647058823529411
 40
0.7647058823529411
 40
0.7647058823529411
 40
0.7647058823529411
 40
0.8235294117647058
 40
0.8235294117647058
 40
0.8235294117647058
 40
0.8235294117647058
 40
0.8823529411764706
 40
0.8823529411764706
 40
0.8823529411764706
 40
0.8823529411764706
 40
1.0
 40
1.0
 40
1.0
 40
1.0
 10
100.6631
 20
65.1554
 30
0.0
 10
99.9809
 20
59.451
 30
0.0
 10
95.4569
 20
54.9276
 30
0.0
 10
89.7524
 20
54.2453
 30
0.0
 10
89.7524
 20
54.2453
 30
0.0
 10
89.7524
 20
54.2453
 30
0.0
 10
89.7524
 20
58.8698
 30
0.0
 10
89.7524
 20
58.8698
 30
0.0
 10
89.7524
 20
58.8698
 30
0.0
 10
89.7524
 20
58.8698
 30
0.0
 10
86.7524
 20
58.8698
 30
0.0
 10
86.7524
 20
58.8698
 30
0.0
 10
86.7524
 20
58.8698
 30
0.0
 10
86.7524
 20
58.8698
 30
0.0
 10
86.7524
 20
54.2453
 30
0.0
 10
86.7524
 20
54.2453
 30
0.0
 10
86.7524
 20
54.2453
 30
0.0
 10
81.0479
 20
54.9276
 30
0.0
 10
76.5239
 20
59.451
 30
0.0
 10
75.8417
 20
65.1554
 30
0.0
 10
75.8417
 20
65.1554
 30
0.0
 10
75.8417
 20
65.1554
 30
0.0
 10
80.4668
 20
65.1554
 30
0.0
 10
80.4668
 20
65.1554
 30
0.0
 10
80.4668
 20
65.1554
 30
0.0
 10
80.4668
 20
65.1554
 30
0.0
 10
80.4668
 20
68.1554
 30
0.0
 10
80.4668
 20
68.1554
 30
0.0
 10
80.4668
 20
68.1554
 30
0.0
 10
80.4668
 20
68.1554
 30
0.0
 10
75.8417
 20
68.1554
 30
0.0
 10
75.8417
 20
68.1554
 30
0.0
 10
75.8417
 20
68.1554
 30
0.0
 10
76.5239
 20
73.8598
 30
0.0
 10
81.0479
 20
78.3832
 30
0.0
 10
86.7524
 20
79.0655
 30
0.0
 10
86.7524
 20
79.0655
 30
0.0
 10
86.7524
 20
79.0655
 30
0.0
 10
86.7524
 20
74.441
 30
0.0
 10
86.7524
 20
74.441
 30
0.0
 10
86.7524
 20
74.441
 30
0.0
 10
86.7524
 20
74.441
 30
0.0
 10
89.7524
 20
74.441
 30
0.0
 10
89.7524
 20
74.441
 30
0.0
 10
89.7524
 20
74.441
 30
0.0
 10
89.7524
 20
74.441
 30
0.0
 10
89.7524
 20
79.0655
 30
0.0
 10
89.7524
 20
79.0655
 30
0.0
 10
89.7524
 20
79.0655
 30
0.0
 10
95.4569
 20
78.3832
 30
0.0
 10
99.9809
 20
73.8598
 30
0.0
 10
100.6631
 20
68.1554
 30
0.0
 10
100.6631
 20
68.1554
 30
0.0
 10
100.6631
 20
68.1554
 30
0.0
 10
96.038
 20
68.1554
 30
0.0
 10
96.038
 20
68.1554
 30
0.0
 10
96.038
 20
68.1554
 30
0.0
 10
96.038
 20
68.1554
 30
0.0
 10
96.038
 20
65.1554
 30
0.0
 10
96.038
 20
65.1554
 30
0.0
 10
96.038
 20
65.1554
 30
0.0
 10
96.038
 20
65.1554
 30
0.0
 10
100.6631
 20
65.1554
 30
0.0
 10
100.6631
 20
65.1554
 30
0.0
  0
SPLINE
  5
57
330
1F
100
AcDbEntity
  8
Capa 1
 62
   142
370
     9
100
AcDbSpline
210
0.0
220
0.0
230
1.0
 70
    11
 71
     3
 72
   132
 73
   128
 74
     0
 42
0.0000000001
 43
0.0000000001
 40
0.0
 40
0.0
 40
0.0
 40
0.0
 40
0.0303030303030303
 40
0.0303030303030303
 40
0.0303030303030303
 40
0.0303030303030303
 40
0.0606060606060606
 40
0.0606060606060606
 40
0.0606060606060606
 40
0.0606060606060606
 40
0.0909090909090909
 40
0.0909090909090909
 40
0.0909090909090909
 40
0.0909090909090909
 40
0.1212121212121212
 40
0.1212121212121212
 40
0.1212121212121212
 40
0.1212121212121212
 40
0.1515151515151515
 40
0.1515151515151515
 40
0.1515151515151515
 40
0.1515151515151515
 40
0.1818181818181818
 40
0.1818181818181818
 40
0.1818181818181818
 40
0.1818181818181818
 40
0.2121212121212121
 40
0.2121212121212121
 40
0.2121212121212121
 40
0.2121212121212121
 40
0.2424242424242424
 40
0.2424242424242424
 40
0.2424242424242424
 40
0.2424242424242424
 40
0.2727272727272727
 40
0.2727272727272727
 40
0.2727272727272727
 40
0.2727272727272727
 40
0.303030303030303
 40
0.303030303030303
 40
0.303030303030303
 40
0.303030303030303
 40
0.3333333333333333
 40
0.3333333333333333
 40
0.3333333333333333
 40
0.3333333333333333
 40
0.3636363636363636
 40
0.3636363636363636
 40
0.3636363636363636
 40
0.3636363636363636
 40
0.3939393939393939
 40
0.3939393939393939
 40
0.3939393939393939
 40
0.3939393939393939
 40
0.4242424242424243
 40
0.4242424242424243
 40
0.4242424242424243
 40
0.4242424242424243
 40
0.4545454545454545
 40
0.4545454545454545
 40
0.4545454545454545
 40
0.4545454545454545
 40
0.4848484848484849
 40
0.4848484848484849
 40
0.4848484848484849
 40
0.4848484848484849
 40
0.5151515151515151
 40
0.5151515151515151
 40
0.5151515151515151
 40
0.5151515151515151
 40
0.5454545454545454
 40
0.5454545454545454
 40
0.5454545454545454
 40
0.5454545454545454
 40
0.5757575757575758
 40
0.5757575757575758
 40
0.5757575757575758
 40
0.5757575757575758
 40
0.6060606060606061
 40
0.6060606060606061
 40
0.6060606060606061
 40
0.6060606060606061
 40
0.6363636363636364
 40
0.6363636363636364
 40
0.6363636363636364
 40
0.6363636363636364
 40
0.6666666666666666
 40
0.6666666666666666
 40
0.6666666666666666
 40
0.6666666666666666
 40
0.696969696969697
 40
0.696969696969697
 40
0.696969696969697
 40
0.696969696969697
 40
0.7272727272727273
 40
0.7272727272727273
 40
0.7272727272727273
 40
0.7272727272727273
 40
0.7575757575757576
 40
0.7575757575757576
 40
0.7575757575757576
 40
0.7575757575757576
 40
0.7878787878787878
 40
0.7878787878787878
 40
0.7878787878787878
 40
0.7878787878787878
 40
0.8181818181818182
 40
0.8181818181818182
 40
0.8181818181818182
 40
0.8181818181818182
 40
0.8484848484848485
 40
0.8484848484848485
 40
0.8484848484848485
 40
0.8484848484848485
 40
0.8787878787878788
 40
0.8787878787878788
 40
0.8787878787878788
 40
0.8787878787878788
 40
0.9090909090909091
 40
0.9090909090909091
 40
0.9090909090909091
 40
0.9090909090909091
 40
0.9393939393939394
 40
0.9393939393939394
 40
0.9393939393939394
 40
0.9393939393939394
 40
1.0
 40
1.0
 40
1.0
 40
1.0
 10
100.6631
 20
38.7846
 30
0.0
 10
100.3846
 20
36.456
 30
0.0
 10
99.4659
 20
34.3242
 30
0.0
 10
98.088
 20
32.5703
 30
0.0
 10
98.088
 20
32.5703
 30
0.0
 10
98.088
 20
32.5703
 30
0.0
 10
94.831
 20
35.8273
 30
0.0
 10
94.831
 20
35.8273
 30
0.0
 10
94.831
 20
35.8273
 30
0.0
 10
94.831
 20
35.8273
 30
0.0
 10
92.7097
 20
33.706
 30
0.0
 10
92.7097
 20
33.706
 30
0.0
 10
92.7097
 20
33.706
 30
0.0
 10
92.7097
 20
33.706
 30
0.0
 10
95.9665
 20
30.4492
 30
0.0
 10
95.9665
 20
30.4492
 30
0.0
 10
95.9665
 20
30.4492
 30
0.0
 10
94.2124
 20
29.0717
 30
0.0
 10
92.0808
 20
28.153
 30
0.0
 10
89.7524
 20
27.8745
 30
0.0
 10
89.7524
 20
27.8745
 30
0.0
 10
89.7524
 20
27.8745
 30
0.0
 10
89.7524
 20
32.499
 30
0.0
 10
89.7524
 20
32.499
 30
0.0
 10
89.7524
 20
32.499
 30
0.0
 10
89.7524
 20
32.499
 30
0.0
 10
86.7524
 20
32.499
 30
0.0
 10
86.7524
 20
32.499
 30
0.0
 10
86.7524
 20
32.499
 30
0.0
 10
86.7524
 20
32.499
 30
0.0
 10
86.7524
 20
27.8745
 30
0.0
 10
86.7524
 20
27.8745
 30
0.0
 10
86.7524
 20
27.8745
 30
0.0
 10
84.4239
 20
28.153
 30
0.0
 10
82.2924
 20
29.0716
 30
0.0
 10
80.5383
 20
30.4492
 30
0.0
 10
80.5383
 20
30.4492
 30
0.0
 10
80.5383
 20
30.4492
 30
0.0
 10
83.7951
 20
33.706
 30
0.0
 10
83.7951
 20
33.706
 30
0.0
 10
83.7951
 20
33.706
 30
0.0
 10
83.7951
 20
33.706
 30
0.0
 10
81.6738
 20
35.8273
 30
0.0
 10
81.6738
 20
35.8273
 30
0.0
 10
81.6738
 20
35.8273
 30
0.0
 10
81.6738
 20
35.8273
 30
0.0
 10
78.4168
 20
32.5703
 30
0.0
 10
78.4168
 20
32.5703
 30
0.0
 10
78.4168
 20
32.5703
 30
0.0
 10
77.039
 20
34.3243
 30
0.0
 10
76.1202
 20
36.456
 30
0.0
 10
75.8417
 20
38.7846
 30
0.0
 10
75.8417
 20
38.7846
 30
0.0
 10
75.8417
 20
38.7846
 30
0.0
 10
80.4668
 20
38.7846
 30
0.0
 10
80.4668
 20
38.7846
 30
0.0
 10
80.4668
 20
38.7846
 30
0.0
 10
80.4668
 20
38.7846
 30
0.0
 10
80.4668
 20
41.7846
 30
0.0
 10
80.4668
 20
41.7846
 30
0.0
 10
80.4668
 20
41.7846
 30
0.0
 10
80.4668
 20
41.7846
 30
0.0
 10
75.8417
 20
41.7846
 30
0.0
 10
75.8417
 20
41.7846
 30
0.0
 10
75.8417
 20
41.7846
 30
0.0
 10
76.1202
 20
44.1132
 30
0.0
 10
77.0389
 20
46.245
 30
0.0
 10
78.4168
 20
47.9989
 30
0.0
 10
78.4168
 20
47.9989
 30
0.0
 10
78.4168
 20
47.9989
 30
0.0
 10
81.6738
 20
44.7419
 30
0.0
 10
81.6738
 20
44.7419
 30
0.0
 10
81.6738
 20
44.7419
 30
0.0
 10
81.6738
 20
44.7419
 30
0.0
 10
83.7951
 20
46.8632
 30
0.0
 10
83.7951
 20
46.8632
 30
0.0
 10
83.7951
 20
46.8632
 30
0.0
 10
83.7951
 20
46.8632
 30
0.0
 10
80.5383
 20
50.12
 30
0.0
 10
80.5383
 20
50.12
 30
0.0
 10
80.5383
 20
50.12
 30
0.0
 10
82.2924
 20
51.4975
 30
0.0
 10
84.424
 20
52.4162
 30
0.0
 10
86.7524
 20
52.6947
 30
0.0
 10
86.7524
 20
52.6947
 30
0.0
 10
86.7524
 20
52.6947
 30
0.0
 10
86.7524
 20
48.0702
 30
0.0
 10
86.7524
 20
48.0702
 30
0.0
 10
86.7524
 20
48.0702
 30
0.0
 10
86.7524
 20
48.0702
 30
0.0
 10
89.7524
 20
48.0702
 30
0.0
 10
89.7524
 20
48.0702
 30
0.0
 10
89.7524
 20
48.0702
 30
0.0
 10
89.7524
 20
48.0702
 30
0.0
 10
89.7524
 20
52.6947
 30
0.0
 10
89.7524
 20
52.6947
 30
0.0
 10
89.7524
 20
52.6947
 30
0.0
 10
92.0809
 20
52.4162
 30
0.0
 10
94.2124
 20
51.4976
 30
0.0
 10
95.9665
 20
50.12
 30
0.0
 10
95.9665
 20
50.12
 30
0.0
 10
95.9665
 20
50.12
 30
0.0
 10
92.7097
 20
46.8632
 30
0.0
 10
92.7097
 20
46.8632
 30
0.0
 10
92.7097
 20
46.8632
 30
0.0
 10
92.7097
 20
46.8632
 30
0.0
 10
94.831
 20
44.7419
 30
0.0
 10
94.831
 20
44.7419
 30
0.0
 10
94.831
 20
44.7419
 30
0.0
 10
94.831
 20
44.7419
 30
0.0
 10
98.088
 20
47.9989
 30
0.0
 10
98.088
 20
47.9989
 30
0.0
 10
98.088
 20
47.9989
 30
0.0
 10
99.4658
 20
46.2449
 30
0.0
 10
100.3846
 20
44.1132
 30
0.0
 10
100.6631
 20
41.7846
 30
0.0
 10
100.6631
 20
41.7846
 30
0.0
 10
100.6631
 20
41.7846
 30
0.0
 10
96.038
 20
41.7846
 30
0.0
 10
96.038
 20
41.7846
 30
0.0
 10
96.038
 20
41.7846
 30
0.0
 10
96.038
 20
41.7846
 30
0.0
 10
96.038
 20
38.7846
 30
0.0
 10
96.038
 20
38.7846
 30
0.0
 10
96.038
 20
38.7846
 30
0.0
 10
96.038
 20
38.7846
 30
0.0
 10
100.6631
 20
38.7846
 30
0.0
 10
100.6631
 20
38.7846
 30
0.0
  0
SPLINE
  5
58
330
1F
100
AcDbEntity
  8
Capa 1
 62
   142
370
     9
100
AcDbSpline
210
0.0
220
0.0
230
1.0
 70
    11
 71
     3
 72
    68
 73
    64
 74
     0
 42
0.0000000001
 43
0.0000000001
 40
0.0
 40
0.0
 40
0.0
 40
0.0
 40
0.0588235294117647
 40
0.0588235294117647
 40
0.0588235294117647
 40
0.0588235294117647
 40
0.1176470588235294
 40
0.1176470588235294
 40
0.1176470588235294
 40
0.1176470588235294
 40
0.1764705882352941
 40
0.1764705882352941
 40
0.1764705882352941
 40
0.1764705882352941
 40
0.2352941176470588
 40
0.2352941176470588
 40
0.2352941176470588
 40
0.2352941176470588
 40
0.2941176470588235
 40
0.2941176470588235
 40
0.2941176470588235
 40
0.2941176470588235
 40
0.3529411764705883
 40
0.3529411764705883
 40
0.3529411764705883
 40
0.3529411764705883
 40
0.4117647058823529
 40
0.4117647058823529
 40
0.4117647058823529
 40
0.4117647058823529
 40
0.4705882352941176
 40
0.4705882352941176
 40
0.4705882352941176
 40
0.4705882352941176
 40
0.5294117647058824
 40
0.5294117647058824
 40
0.5294117647058824
 40
0.5294117647058824
 40
0.5882352941176471
 40
0.5882352941176471
 40
0.5882352941176471
 40
0.5882352941176471
 40
0.6470588235294118
 40
0.6470588235294118
 40
0.6470588235294118
 40
0.6470588235294118
 40
0.7058823529411765
 40
0.7058823529411765
 40
0.7058823529411765
 40
0.7058823529411765
 40
0.7647058823529411
 40
0.7647058823529411
 40
0.7647058823529411
 40
0.7647058823529411
 40
0.8235294117647058
 40
0.8235294117647058
 40
0.8235294117647058
 40
0.8235294117647058
 40
0.8823529411764706
 40
0.8823529411764706
 40
0.8823529411764706
 40
0.8823529411764706
 40
1.0
 40
1.0
 40
1.0
 40
1.0
 10
74.0297
 20
11.7762
 30
0.0
 10
73.3475
 20
6.0718
 30
0.0
 10
68.8235
 20
1.5484
 30
0.0
 10
63.119
 20
0.8661
 30
0.0
 10
63.119
 20
0.8661
 30
0.0
 10
63.119
 20
0.8661
 30
0.0
 10
63.119
 20
5.4906
 30
0.0
 10
63.119
 20
5.4906
 30
0.0
 10
63.119
 20
5.4906
 30
0.0
 10
63.119
 20
5.4906
 30
0.0
 10
60.119
 20
5.4906
 30
0.0
 10
60.119
 20
5.4906
 30
0.0
 10
60.119
 20
5.4906
 30
0.0
 10
60.119
 20
5.4906
 30
0.0
 10
60.119
 20
0.8661
 30
0.0
 10
60.119
 20
0.8661
 30
0.0
 10
60.119
 20
0.8661
 30
0.0
 10
54.4145
 20
1.5484
 30
0.0
 10
49.8905
 20
6.0718
 30
0.0
 10
49.2083
 20
11.7762
 30
0.0
 10
49.2083
 20
11.7762
 30
0.0
 10
49.2083
 20
11.7762
 30
0.0
 10
53.8334
 20
11.7762
 30
0.0
 10
53.8334
 20
11.7762
 30
0.0
 10
53.8334
 20
11.7762
 30
0.0
 10
53.8334
 20
11.7762
 30
0.0
 10
53.8334
 20
14.7762
 30
0.0
 10
53.8334
 20
14.7762
 30
0.0
 10
53.8334
 20
14.7762
 30
0.0
 10
53.8334
 20
14.7762
 30
0.0
 10
49.2083
 20
14.7762
 30
0.0
 10
49.2083
 20
14.7762
 30
0.0
 10
49.2083
 20
14.7762
 30
0.0
 10
49.8905
 20
20.4806
 30
0.0
 10
54.4145
 20
25.004
 30
0.0
 10
60.119
 20
25.6863
 30
0.0
 10
60.119
 20
25.6863
 30
0.0
 10
60.119
 20
25.6863
 30
0.0
 10
60.119
 20
21.0618
 30
0.0
 10
60.119
 20
21.0618
 30
0.0
 10
60.119
 20
21.0618
 30
0.0
 10
60.119
 20
21.0618
 30
0.0
 10
63.119
 20
21.0618
 30
0.0
 10
63.119
 20
21.0618
 30
0.0
 10
63.119
 20
21.0618
 30
0.0
 10
63.119
 20
21.0618
 30
0.0
 10
63.119
 20
25.6863
 30
0.0
 10
63.119
 20
25.6863
 30
0.0
 10
63.119
 20
25.6863
 30
0.0
 10
68.8235
 20
25.004
 30
0.0
 10
73.3475
 20
20.4806
 30
0.0
 10
74.0297
 20
14.7762
 30
0.0
 10
74.0297
 20
14.7762
 30
0.0
 10
74.0297
 20
14.7762
 30
0.0
 10
69.4046
 20
14.7762
 30
0.0
 10
69.4046
 20
14.7762
 30
0.0
 10
69.4046
 20
14.7762
 30
0.0
 10
69.4046
 20
14.7762
 30
0.0
 10
69.4046
 20
11.7762
 30
0.0
 10
69.4046
 20
11.7762
 30
0.0
 10
69.4046
 20
11.7762
 30
0.0
 10
69.4046
 20
11.7762
 30
0.0
 10
74.0297
 20
11.7762
 30
0.0
 10
74.0297
 20
11.7762
 30
0.0
  0
SPLINE
  5
59
330
1F
100
AcDbEntity
  8
Capa 1
 62
   142
370
     9
100
AcDbSpline
210
0.0
220
0.0
230
1.0
 70
    11
 71
     3
 72
   132
 73
   128
 74
     0
 42
0.0000000001
 43
0.0000000001
 40
0.0
 40
0.0
 40
0.0
 40
0.0
 40
0.0303030303030303
 40
0.0303030303030303
 40
0.0303030303030303
 40
0.0303030303030303
 40
0.0606060606060606
 40
0.0606060606060606
 40
0.0606060606060606
 40
0.0606060606060606
 40
0.0909090909090909
 40
0.0909090909090909
 40
0.0909090909090909
 40
0.0909090909090909
 40
0.1212121212121212
 40
0.1212121212121212
 40
0.1212121212121212
 40
0.1212121212121212
 40
0.1515151515151515
 40
0.1515151515151515
 40
0.1515151515151515
 40
0.1515151515151515
 40
0.1818181818181818
 40
0.1818181818181818
 40
0.1818181818181818
 40
0.1818181818181818
 40
0.2121212121212121
 40
0.2121212121212121
 40
0.2121212121212121
 40
0.2121212121212121
 40
0.2424242424242424
 40
0.2424242424242424
 40
0.2424242424242424
 40
0.2424242424242424
 40
0.2727272727272727
 40
0.2727272727272727
 40
0.2727272727272727
 40
0.2727272727272727
 40
0.303030303030303
 40
0.303030303030303
 40
0.303030303030303
 40
0.303030303030303
 40
0.3333333333333333
 40
0.3333333333333333
 40
0.3333333333333333
 40
0.3333333333333333
 40
0.3636363636363636
 40
0.3636363636363636
 40
0.3636363636363636
 40
0.3636363636363636
 40
0.3939393939393939
 40
0.3939393939393939
 40
0.3939393939393939
 40
0.3939393939393939
 40
0.4242424242424243
 40
0.4242424242424243
 40
0.4242424242424243
 40
0.4242424242424243
 40
0.4545454545454545
 40
0.4545454545454545
 40
0.4545454545454545
 40
0.4545454545454545
 40
0.4848484848484849
 40
0.4848484848484849
 40
0.4848484848484849
 40
0.4848484848484849
 40
0.5151515151515151
 40
0.5151515151515151
 40
0.5151515151515151
 40
0.5151515151515151
 40
0.5454545454545454
 40
0.5454545454545454
 40
0.5454545454545454
 40
0.5454545454545454
 40
0.5757575757575758
 40
0.5757575757575758
 40
0.5757575757575758
 40
0.5757575757575758
 40
0.6060606060606061
 40
0.6060606060606061
 40
0.6060606060606061
 40
0.6060606060606061
 40
0.6363636363636364
 40
0.6363636363636364
 40
0.6363636363636364
 40
0.6363636363636364
 40
0.6666666666666666
 40
0.6666666666666666
 40
0.6666666666666666
 40
0.6666666666666666
 40
0.696969696969697
 40
0.696969696969697
 40
0.696969696969697
 40
0.696969696969697
 40
0.7272727272727273
 40
0.7272727272727273
 40
0.7272727272727273
 40
0.7272727272727273
 40
0.7575757575757576
 40
0.7575757575757576
 40
0.7575757575757576
 40
0.7575757575757576
 40
0.7878787878787878
 40
0.7878787878787878
 40
0.7878787878787878
 40
0.7878787878787878
 40
0.8181818181818182
 40
0.8181818181818182
 40
0.8181818181818182
 40
0.8181818181818182
 40
0.8484848484848485
 40
0.8484848484848485
 40
0.8484848484848485
 40
0.8484848484848485
 40
0.8787878787878788
 40
0.8787878787878788
 40
0.8787878787878788
 40
0.8787878787878788
 40
0.9090909090909091
 40
0.9090909090909091
 40
0.9090909090909091
 40
0.9090909090909091
 40
0.9393939393939394
 40
0.9393939393939394
 40
0.9393939393939394
 40
0.9393939393939394
 40
1.0
 40
1.0
 40
1.0
 40
1.0
 10
74.0297
 20
-14.5946
 30
0.0
 10
73.7512
 20
-16.9232
 30
0.0
 10
72.8325
 20
-19.055
 30
0.0
 10
71.4546
 20
-20.8089
 30
0.0
 10
71.4546
 20
-20.8089
 30
0.0
 10
71.4546
 20
-20.8089
 30
0.0
 10
68.1976
 20
-17.5519
 30
0.0
 10
68.1976
 20
-17.5519
 30
0.0
 10
68.1976
 20
-17.5519
 30
0.0
 10
68.1976
 20
-17.5519
 30
0.0
 10
66.0763
 20
-19.6732
 30
0.0
 10
66.0763
 20
-19.6732
 30
0.0
 10
66.0763
 20
-19.6732
 30
0.0
 10
66.0763
 20
-19.6732
 30
0.0
 10
69.3331
 20
-22.93
 30
0.0
 10
69.3331
 20
-22.93
 30
0.0
 10
69.3331
 20
-22.93
 30
0.0
 10
67.579
 20
-24.3075
 30
0.0
 10
65.4474
 20
-25.2262
 30
0.0
 10
63.119
 20
-25.5047
 30
0.0
 10
63.119
 20
-25.5047
 30
0.0
 10
63.119
 20
-25.5047
 30
0.0
 10
63.119
 20
-20.8802
 30
0.0
 10
63.119
 20
-20.8802
 30
0.0
 10
63.119
 20
-20.8802
 30
0.0
 10
63.119
 20
-20.8802
 30
0.0
 10
60.119
 20
-20.8802
 30
0.0
 10
60.119
 20
-20.8802
 30
0.0
 10
60.119
 20
-20.8802
 30
0.0
 10
60.119
 20
-20.8802
 30
0.0
 10
60.119
 20
-25.5047
 30
0.0
 10
60.119
 20
-25.5047
 30
0.0
 10
60.119
 20
-25.5047
 30
0.0
 10
57.7905
 20
-25.2262
 30
0.0
 10
55.659
 20
-24.3076
 30
0.0
 10
53.9049
 20
-22.93
 30
0.0
 10
53.9049
 20
-22.93
 30
0.0
 10
53.9049
 20
-22.93
 30
0.0
 10
57.1617
 20
-19.6732
 30
0.0
 10
57.1617
 20
-19.6732
 30
0.0
 10
57.1617
 20
-19.6732
 30
0.0
 10
57.1617
 20
-19.6732
 30
0.0
 10
55.0404
 20
-17.5519
 30
0.0
 10
55.0404
 20
-17.5519
 30
0.0
 10
55.0404
 20
-17.5519
 30
0.0
 10
55.0404
 20
-17.5519
 30
0.0
 10
51.7834
 20
-20.8089
 30
0.0
 10
51.7834
 20
-20.8089
 30
0.0
 10
51.7834
 20
-20.8089
 30
0.0
 10
50.4056
 20
-19.0549
 30
0.0
 10
49.4868
 20
-16.9232
 30
0.0
 10
49.2083
 20
-14.5946
 30
0.0
 10
49.2083
 20
-14.5946
 30
0.0
 10
49.2083
 20
-14.5946
 30
0.0
 10
53.8334
 20
-14.5946
 30
0.0
 10
53.8334
 20
-14.5946
 30
0.0
 10
53.8334
 20
-14.5946
 30
0.0
 10
53.8334
 20
-14.5946
 30
0.0
 10
53.8334
 20
-11.5946
 30
0.0
 10
53.8334
 20
-11.5946
 30
0.0
 10
53.8334
 20
-11.5946
 30
0.0
 10
53.8334
 20
-11.5946
 30
0.0
 10
49.2083
 20
-11.5946
 30
0.0
 10
49.2083
 20
-11.5946
 30
0.0
 10
49.2083
 20
-11.5946
 30
0.0
 10
49.4868
 20
-9.266
 30
0.0
 10
50.4055
 20
-7.1342
 30
0.0
 10
51.7834
 20
-5.3803
 30
0.0
 10
51.7834
 20
-5.3803
 30
0.0
 10
51.7834
 20
-5.3803
 30
0.0
 10
55.0404
 20
-8.6373
 30
0.0
 10
55.0404
 20
-8.6373
 30
0.0
 10
55.0404
 20
-8.6373
 30
0.0
 10
55.0404
 20
-8.6373
 30
0.0
 10
57.1617
 20
-6.516
 30
0.0
 10
57.1617
 20
-6.516
 30
0.0
 10
57.1617
 20
-6.516
 30
0.0
 10
57.1617
 20
-6.516
 30
0.0
 10
53.9049
 20
-3.2592
 30
0.0
 10
53.9049
 20
-3.2592
 30
0.0
 10
53.9049
 20
-3.2592
 30
0.0
 10
55.659
 20
-1.8817
 30
0.0
 10
57.7906
 20
-0.963
 30
0.0
 10
60.119
 20
-0.6845
 30
0.0
 10
60.119
 20
-0.6845
 30
0.0
 10
60.119
 20
-0.6845
 30
0.0
 10
60.119
 20
-5.309
 30
0.0
 10
60.119
 20
-5.309
 30
0.0
 10
60.119
 20
-5.309
 30
0.0
 10
60.119
 20
-5.309
 30
0.0
 10
63.119
 20
-5.309
 30
0.0
 10
63.119
 20
-5.309
 30
0.0
 10
63.119
 20
-5.309
 30
0.0
 10
63.119
 20
-5.309
 30
0.0
 10
63.119
 20
-0.6845
 30
0.0
 10
63.119
 20
-0.6845
 30
0.0
 10
63.119
 20
-0.6845
 30
0.0
 10
65.4475
 20
-0.963
 30
0.0
 10
67.579
 20
-1.8816
 30
0.0
 10
69.3331
 20
-3.2592
 30
0.0
 10
69.3331
 20
-3.2592
 30
0.0
 10
69.3331
 20
-3.2592
 30
0.0
 10
66.0763
 20
-6.516
 30
0.0
 10
66.0763
 20
-6.516
 30
0.0
 10
66.0763
 20
-6.516
 30
0.0
 10
66.0763
 20
-6.516
 30
0.0
 10
68.1976
 20
-8.6373
 30
0.0
 10
68.1976
 20
-8.6373
 30
0.0
 10
68.1976
 20
-8.6373
 30
0.0
 10
68.1976
 20
-8.6373
 30
0.0
 10
71.4546
 20
-5.3803
 30
0.0
 10
71.4546
 20
-5.3803
 30
0.0
 10
71.4546
 20
-5.3803
 30
0.0
 10
72.8324
 20
-7.1343
 30
0.0
 10
73.7512
 20
-9.266
 30
0.0
 10
74.0297
 20
-11.5946
 30
0.0
 10
74.0297
 20
-11.5946
 30
0.0
 10
74.0297
 20
-11.5946
 30
0.0
 10
69.4046
 20
-11.5946
 30
0.0
 10
69.4046
 20
-11.5946
 30
0.0
 10
69.4046
 20
-11.5946
 30
0.0
 10
69.4046
 20
-11.5946
 30
0.0
 10
69.4046
 20
-14.5946
 30
0.0
 10
69.4046
 20
-14.5946
 30
0.0
 10
69.4046
 20
-14.5946
 30
0.0
 10
69.4046
 20
-14.5946
 30
0.0
 10
74.0297
 20
-14.5946
 30
0.0
 10
74.0297
 20
-14.5946
 30
0.0
  0
SPLINE
  5
5A
330
1F
100
AcDbEntity
  8
Capa 1
 62
   142
370
     9
100
AcDbSpline
210
0.0
220
0.0
230
1.0
 70
    11
 71
     3
 72
    68
 73
    64
 74
     0
 42
0.0000000001
 43
0.0000000001
 40
0.0
 40
0.0
 40
0.0
 40
0.0
 40
0.0588235294117647
 40
0.0588235294117647
 40
0.0588235294117647
 40
0.0588235294117647
 40
0.1176470588235294
 40
0.1176470588235294
 40
0.1176470588235294
 40
0.1176470588235294
 40
0.1764705882352941
 40
0.1764705882352941
 40
0.1764705882352941
 40
0.1764705882352941
 40
0.2352941176470588
 40
0.2352941176470588
 40
0.2352941176470588
 40
0.2352941176470588
 40
0.2941176470588235
 40
0.2941176470588235
 40
0.2941176470588235
 40
0.2941176470588235
 40
0.3529411764705883
 40
0.3529411764705883
 40
0.3529411764705883
 40
0.3529411764705883
 40
0.4117647058823529
 40
0.4117647058823529
 40
0.4117647058823529
 40
0.4117647058823529
 40
0.4705882352941176
 40
0.4705882352941176
 40
0.4705882352941176
 40
0.4705882352941176
 40
0.5294117647058824
 40
0.5294117647058824
 40
0.5294117647058824
 40
0.5294117647058824
 40
0.5882352941176471
 40
0.5882352941176471
 40
0.5882352941176471
 40
0.5882352941176471
 40
0.6470588235294118
 40
0.6470588235294118
 40
0.6470588235294118
 40
0.6470588235294118
 40
0.7058823529411765
 40
0.7058823529411765
 40
0.7058823529411765
 40
0.7058823529411765
 40
0.7647058823529411
 40
0.7647058823529411
 40
0.7647058823529411
 40
0.7647058823529411
 40
0.8235294117647058
 40
0.8235294117647058
 40
0.8235294117647058
 40
0.8235294117647058
 40
0.8823529411764706
 40
0.8823529411764706
 40
0.8823529411764706
 40
0.8823529411764706
 40
1.0
 40
1.0
 40
1.0
 40
1.0
 10
100.6631
 20
11.7762
 30
0.0
 10
99.9809
 20
6.0718
 30
0.0
 10
95.4569
 20
1.5484
 30
0.0
 10
89.7524
 20
0.8661
 30
0.0
 10
89.7524
 20
0.8661
 30
0.0
 10
89.7524
 20
0.8661
 30
0.0
 10
89.7524
 20
5.4906
 30
0.0
 10
89.7524
 20
5.4906
 30
0.0
 10
89.7524
 20
5.4906
 30
0.0
 10
89.7524
 20
5.4906
 30
0.0
 10
86.7524
 20
5.4906
 30
0.0
 10
86.7524
 20
5.4906
 30
0.0
 10
86.7524
 20
5.4906
 30
0.0
 10
86.7524
 20
5.4906
 30
0.0
 10
86.7524
 20
0.8661
 30
0.0
 10
86.7524
 20
0.8661
 30
0.0
 10
86.7524
 20
0.8661
 30
0.0
 10
81.0479
 20
1.5484
 30
0.0
 10
76.5239
 20
6.0718
 30
0.0
 10
75.8417
 20
11.7762
 30
0.0
 10
75.8417
 20
11.7762
 30
0.0
 10
75.8417
 20
11.7762
 30
0.0
 10
80.4668
 20
11.7762
 30
0.0
 10
80.4668
 20
11.7762
 30
0.0
 10
80.4668
 20
11.7762
 30
0.0
 10
80.4668
 20
11.7762
 30
0.0
 10
80.4668
 20
14.7762
 30
0.0
 10
80.4668
 20
14.7762
 30
0.0
 10
80.4668
 20
14.7762
 30
0.0
 10
80.4668
 20
14.7762
 30
0.0
 10
75.8417
 20
14.7762
 30
0.0
 10
75.8417
 20
14.7762
 30
0.0
 10
75.8417
 20
14.7762
 30
0.0
 10
76.5239
 20
20.4806
 30
0.0
 10
81.0479
 20
25.004
 30
0.0
 10
86.7524
 20
25.6863
 30
0.0
 10
86.7524
 20
25.6863
 30
0.0
 10
86.7524
 20
25.6863
 30
0.0
 10
86.7524
 20
21.0618
 30
0.0
 10
86.7524
 20
21.0618
 30
0.0
 10
86.7524
 20
21.0618
 30
0.0
 10
86.7524
 20
21.0618
 30
0.0
 10
89.7524
 20
21.0618
 30
0.0
 10
89.7524
 20
21.0618
 30
0.0
 10
89.7524
 20
21.0618
 30
0.0
 10
89.7524
 20
21.0618
 30
0.0
 10
89.7524
 20
25.6863
 30
0.0
 10
89.7524
 20
25.6863
 30
0.0
 10
89.7524
 20
25.6863
 30
0.0
 10
95.4569
 20
25.004
 30
0.0
 10
99.9809
 20
20.4806
 30
0.0
 10
100.6631
 20
14.7762
 30
0.0
 10
100.6631
 20
14.7762
 30
0.0
 10
100.6631
 20
14.7762
 30
0.0
 10
96.038
 20
14.7762
 30
0.0
 10
96.038
 20
14.7762
 30
0.0
 10
96.038
 20
14.7762
 30
0.0
 10
96.038
 20
14.7762
 30
0.0
 10
96.038
 20
11.7762
 30
0.0
 10
96.038
 20
11.7762
 30
0.0
 10
96.038
 20
11.7762
 30
0.0
 10
96.038
 20
11.7762
 30
0.0
 10
100.6631
 20
11.7762
 30
0.0
 10
100.6631
 20
11.7762
 30
0.0
  0
SPLINE
  5
5B
330
1F
100
AcDbEntity
  8
Capa 1
 62
   142
370
     9
100
AcDbSpline
210
0.0
220
0.0
230
1.0
 70
    11
 71
     3
 72
   132
 73
   128
 74
     0
 42
0.0000000001
 43
0.0000000001
 40
0.0
 40
0.0
 40
0.0
 40
0.0
 40
0.0303030303030303
 40
0.0303030303030303
 40
0.0303030303030303
 40
0.0303030303030303
 40
0.0606060606060606
 40
0.0606060606060606
 40
0.0606060606060606
 40
0.0606060606060606
 40
0.0909090909090909
 40
0.0909090909090909
 40
0.0909090909090909
 40
0.0909090909090909
 40
0.1212121212121212
 40
0.1212121212121212
 40
0.1212121212121212
 40
0.1212121212121212
 40
0.1515151515151515
 40
0.1515151515151515
 40
0.1515151515151515
 40
0.1515151515151515
 40
0.1818181818181818
 40
0.1818181818181818
 40
0.1818181818181818
 40
0.1818181818181818
 40
0.2121212121212121
 40
0.2121212121212121
 40
0.2121212121212121
 40
0.2121212121212121
 40
0.2424242424242424
 40
0.2424242424242424
 40
0.2424242424242424
 40
0.2424242424242424
 40
0.2727272727272727
 40
0.2727272727272727
 40
0.2727272727272727
 40
0.2727272727272727
 40
0.303030303030303
 40
0.303030303030303
 40
0.303030303030303
 40
0.303030303030303
 40
0.3333333333333333
 40
0.3333333333333333
 40
0.3333333333333333
 40
0.3333333333333333
 40
0.3636363636363636
 40
0.3636363636363636
 40
0.3636363636363636
 40
0.3636363636363636
 40
0.3939393939393939
 40
0.3939393939393939
 40
0.3939393939393939
 40
0.3939393939393939
 40
0.4242424242424243
 40
0.4242424242424243
 40
0.4242424242424243
 40
0.4242424242424243
 40
0.4545454545454545
 40
0.4545454545454545
 40
0.4545454545454545
 40
0.4545454545454545
 40
0.4848484848484849
 40
0.4848484848484849
 40
0.4848484848484849
 40
0.4848484848484849
 40
0.5151515151515151
 40
0.5151515151515151
 40
0.5151515151515151
 40
0.5151515151515151
 40
0.5454545454545454
 40
0.5454545454545454
 40
0.5454545454545454
 40
0.5454545454545454
 40
0.5757575757575758
 40
0.5757575757575758
 40
0.5757575757575758
 40
0.5757575757575758
 40
0.6060606060606061
 40
0.6060606060606061
 40
0.6060606060606061
 40
0.6060606060606061
 40
0.6363636363636364
 40
0.6363636363636364
 40
0.6363636363636364
 40
0.6363636363636364
 40
0.6666666666666666
 40
0.6666666666666666
 40
0.6666666666666666
 40
0.6666666666666666
 40
0.696969696969697
 40
0.696969696969697
 40
0.696969696969697
 40
0.696969696969697
 40
0.7272727272727273
 40
0.7272727272727273
 40
0.7272727272727273
 40
0.7272727272727273
 40
0.7575757575757576
 40
0.7575757575757576
 40
0.7575757575757576
 40
0.7575757575757576
 40
0.7878787878787878
 40
0.7878787878787878
 40
0.7878787878787878
 40
0.7878787878787878
 40
0.8181818181818182
 40
0.8181818181818182
 40
0.8181818181818182
 40
0.8181818181818182
 40
0.8484848484848485
 40
0.8484848484848485
 40
0.8484848484848485
 40
0.8484848484848485
 40
0.8787878787878788
 40
0.8787878787878788
 40
0.8787878787878788
 40
0.8787878787878788
 40
0.9090909090909091
 40
0.9090909090909091
 40
0.9090909090909091
 40
0.9090909090909091
 40
0.9393939393939394
 40
0.9393939393939394
 40
0.9393939393939394
 40
0.9393939393939394
 40
1.0
 40
1.0
 40
1.0
 40
1.0
 10
100.6631
 20
-14.5946
 30
0.0
 10
100.3846
 20
-16.9232
 30
0.0
 10
99.4659
 20
-19.055
 30
0.0
 10
98.088
 20
-20.8089
 30
0.0
 10
98.088
 20
-20.8089
 30
0.0
 10
98.088
 20
-20.8089
 30
0.0
 10
94.831
 20
-17.5519
 30
0.0
 10
94.831
 20
-17.5519
 30
0.0
 10
94.831
 20
-17.5519
 30
0.0
 10
94.831
 20
-17.5519
 30
0.0
 10
92.7097
 20
-19.6732
 30
0.0
 10
92.7097
 20
-19.6732
 30
0.0
 10
92.7097
 20
-19.6732
 30
0.0
 10
92.7097
 20
-19.6732
 30
0.0
 10
95.9665
 20
-22.93
 30
0.0
 10
95.9665
 20
-22.93
 30
0.0
 10
95.9665
 20
-22.93
 30
0.0
 10
94.2124
 20
-24.3075
 30
0.0
 10
92.0808
 20
-25.2262
 30
0.0
 10
89.7524
 20
-25.5047
 30
0.0
 10
89.7524
 20
-25.5047
 30
0.0
 10
89.7524
 20
-25.5047
 30
0.0
 10
89.7524
 20
-20.8802
 30
0.0
 10
89.7524
 20
-20.8802
 30
0.0
 10
89.7524
 20
-20.8802
 30
0.0
 10
89.7524
 20
-20.8802
 30
0.0
 10
86.7524
 20
-20.8802
 30
0.0
 10
86.7524
 20
-20.8802
 30
0.0
 10
86.7524
 20
-20.8802
 30
0.0
 10
86.7524
 20
-20.8802
 30
0.0
 10
86.7524
 20
-25.5047
 30
0.0
 10
86.7524
 20
-25.5047
 30
0.0
 10
86.7524
 20
-25.5047
 30
0.0
 10
84.4239
 20
-25.2262
 30
0.0
 10
82.2924
 20
-24.3076
 30
0.0
 10
80.5383
 20
-22.93
 30
0.0
 10
80.5383
 20
-22.93
 30
0.0
 10
80.5383
 20
-22.93
 30
0.0
 10
83.7951
 20
-19.6732
 30
0.0
 10
83.7951
 20
-19.6732
 30
0.0
 10
83.7951
 20
-19.6732
 30
0.0
 10
83.7951
 20
-19.6732
 30
0.0
 10
81.6738
 20
-17.5519
 30
0.0
 10
81.6738
 20
-17.5519
 30
0.0
 10
81.6738
 20
-17.5519
 30
0.0
 10
81.6738
 20
-17.5519
 30
0.0
 10
78.4168
 20
-20.8089
 30
0.0
 10
78.4168
 20
-20.8089
 30
0.0
 10
78.4168
 20
-20.8089
 30
0.0
 10
77.039
 20
-19.0549
 30
0.0
 10
76.1202
 20
-16.9232
 30
0.0
 10
75.8417
 20
-14.5946
 30
0.0
 10
75.8417
 20
-14.5946
 30
0.0
 10
75.8417
 20
-14.5946
 30
0.0
 10
80.4668
 20
-14.5946
 30
0.0
 10
80.4668
 20
-14.5946
 30
0.0
 10
80.4668
 20
-14.5946
 30
0.0
 10
80.4668
 20
-14.5946
 30
0.0
 10
80.4668
 20
-11.5946
 30
0.0
 10
80.4668
 20
-11.5946
 30
0.0
 10
80.4668
 20
-11.5946
 30
0.0
 10
80.4668
 20
-11.5946
 30
0.0
 10
75.8417
 20
-11.5946
 30
0.0
 10
75.8417
 20
-11.5946
 30
0.0
 10
75.8417
 20
-11.5946
 30
0.0
 10
76.1202
 20
-9.266
 30
0.0
 10
77.0389
 20
-7.1342
 30
0.0
 10
78.4168
 20
-5.3803
 30
0.0
 10
78.4168
 20
-5.3803
 30
0.0
 10
78.4168
 20
-5.3803
 30
0.0
 10
81.6738
 20
-8.6373
 30
0.0
 10
81.6738
 20
-8.6373
 30
0.0
 10
81.6738
 20
-8.6373
 30
0.0
 10
81.6738
 20
-8.6373
 30
0.0
 10
83.7951
 20
-6.516
 30
0.0
 10
83.7951
 20
-6.516
 30
0.0
 10
83.7951
 20
-6.516
 30
0.0
 10
83.7951
 20
-6.516
 30
0.0
 10
80.5383
 20
-3.2592
 30
0.0
 10
80.5383
 20
-3.2592
 30
0.0
 10
80.5383
 20
-3.2592
 30
0.0
 10
82.2924
 20
-1.8817
 30
0.0
 10
84.424
 20
-0.963
 30
0.0
 10
86.7524
 20
-0.6845
 30
0.0
 10
86.7524
 20
-0.6845
 30
0.0
 10
86.7524
 20
-0.6845
 30
0.0
 10
86.7524
 20
-5.309
 30
0.0
 10
86.7524
 20
-5.309
 30
0.0
 10
86.7524
 20
-5.309
 30
0.0
 10
86.7524
 20
-5.309
 30
0.0
 10
89.7524
 20
-5.309
 30
0.0
 10
89.7524
 20
-5.309
 30
0.0
 10
89.7524
 20
-5.309
 30
0.0
 10
89.7524
 20
-5.309
 30
0.0
 10
89.7524
 20
-0.6845
 30
0.0
 10
89.7524
 20
-0.6845
 30
0.0
 10
89.7524
 20
-0.6845
 30
0.0
 10
92.0809
 20
-0.963
 30
0.0
 10
94.2124
 20
-1.8816
 30
0.0
 10
95.9665
 20
-3.2592
 30
0.0
 10
95.9665
 20
-3.2592
 30
0.0
 10
95.9665
 20
-3.2592
 30
0.0
 10
92.7097
 20
-6.516
 30
0.0
 10
92.7097
 20
-6.516
 30
0.0
 10
92.7097
 20
-6.516
 30
0.0
 10
92.7097
 20
-6.516
 30
0.0
 10
94.831
 20
-8.6373
 30
0.0
 10
94.831
 20
-8.6373
 30
0.0
 10
94.831
 20
-8.6373
 30
0.0
 10
94.831
 20
-8.6373
 30
0.0
 10
98.088
 20
-5.3803
 30
0.0
 10
98.088
 20
-5.3803
 30
0.0
 10
98.088
 20
-5.3803
 30
0.0
 10
99.4658
 20
-7.1343
 30
0.0
 10
100.3846
 20
-9.266
 30
0.0
 10
100.6631
 20
-11.5946
 30
0.0
 10
100.6631
 20
-11.5946
 30
0.0
 10
100.6631
 20
-11.5946
 30
0.0
 10
96.038
 20
-11.5946
 30
0.0
 10
96.038
 20
-11.5946
 30
0.0
 10
96.038
 20
-11.5946
 30
0.0
 10
96.038
 20
-11.5946
 30
0.0
 10
96.038
 20
-14.5946
 30
0.0
 10
96.038
 20
-14.5946
 30
0.0
 10
96.038
 20
-14.5946
 30
0.0
 10
96.038
 20
-14.5946
 30
0.0
 10
100.6631
 20
-14.5946
 30
0.0
 10
100.6631
 20
-14.5946
 30
0.0
  0
SPLINE
  5
5C
330
1F
100
AcDbEntity
  8
Capa 1
 62
   142
370
     9
100
AcDbSpline
210
0.0
220
0.0
230
1.0
 70
    11
 71
     3
 72
    68
 73
    64
 74
     0
 42
0.0000000001
 43
0.0000000001
 40
0.0
 40
0.0
 40
0.0
 40
0.0
 40
0.0588235294117647
 40
0.0588235294117647
 40
0.0588235294117647
 40
0.0588235294117647
 40
0.1176470588235294
 40
0.1176470588235294
 40
0.1176470588235294
 40
0.1176470588235294
 40
0.1764705882352941
 40
0.1764705882352941
 40
0.1764705882352941
 40
0.1764705882352941
 40
0.2352941176470588
 40
0.2352941176470588
 40
0.2352941176470588
 40
0.2352941176470588
 40
0.2941176470588235
 40
0.2941176470588235
 40
0.2941176470588235
 40
0.2941176470588235
 40
0.3529411764705883
 40
0.3529411764705883
 40
0.3529411764705883
 40
0.3529411764705883
 40
0.4117647058823529
 40
0.4117647058823529
 40
0.4117647058823529
 40
0.4117647058823529
 40
0.4705882352941176
 40
0.4705882352941176
 40
0.4705882352941176
 40
0.4705882352941176
 40
0.5294117647058824
 40
0.5294117647058824
 40
0.5294117647058824
 40
0.5294117647058824
 40
0.5882352941176471
 40
0.5882352941176471
 40
0.5882352941176471
 40
0.5882352941176471
 40
0.6470588235294118
 40
0.6470588235294118
 40
0.6470588235294118
 40
0.6470588235294118
 40
0.7058823529411765
 40
0.7058823529411765
 40
0.7058823529411765
 40
0.7058823529411765
 40
0.7647058823529411
 40
0.7647058823529411
 40
0.7647058823529411
 40
0.7647058823529411
 40
0.8235294117647058
 40
0.8235294117647058
 40
0.8235294117647058
 40
0.8235294117647058
 40
0.8823529411764706
 40
0.8823529411764706
 40
0.8823529411764706
 40
0.8823529411764706
 40
1.0
 40
1.0
 40
1.0
 40
1.0
 10
74.0297
 20
-40.6113
 30
0.0
 10
73.3475
 20
-46.3157
 30
0.0
 10
68.8235
 20
-50.8391
 30
0.0
 10
63.119
 20
-51.5214
 30
0.0
 10
63.119
 20
-51.5214
 30
0.0
 10
63.119
 20
-51.5214
 30
0.0
 10
63.119
 20
-46.8969
 30
0.0
 10
63.119
 20
-46.8969
 30
0.0
 10
63.119
 20
-46.8969
 30
0.0
 10
63.119
 20
-46.8969
 30
0.0
 10
60.119
 20
-46.8969
 30
0.0
 10
60.119
 20
-46.8969
 30
0.0
 10
60.119
 20
-46.8969
 30
0.0
 10
60.119
 20
-46.8969
 30
0.0
 10
60.119
 20
-51.5214
 30
0.0
 10
60.119
 20
-51.5214
 30
0.0
 10
60.119
 20
-51.5214
 30
0.0
 10
54.4145
 20
-50.8391
 30
0.0
 10
49.8905
 20
-46.3157
 30
0.0
 10
49.2083
 20
-40.6113
 30
0.0
 10
49.2083
 20
-40.6113
 30
0.0
 10
49.2083
 20
-40.6113
 30
0.0
 10
53.8334
 20
-40.6113
 30
0.0
 10
53.8334
 20
-40.6113
 30
0.0
 10
53.8334
 20
-40.6113
 30
0.0
 10
53.8334
 20
-40.6113
 30
0.0
 10
53.8334
 20
-37.6113
 30
0.0
 10
53.8334
 20
-37.6113
 30
0.0
 10
53.8334
 20
-37.6113
 30
0.0
 10
53.8334
 20
-37.6113
 30
0.0
 10
49.2083
 20
-37.6113
 30
0.0
 10
49.2083
 20
-37.6113
 30
0.0
 10
49.2083
 20
-37.6113
 30
0.0
 10
49.8905
 20
-31.9069
 30
0.0
 10
54.4145
 20
-27.3835
 30
0.0
 10
60.119
 20
-26.7012
 30
0.0
 10
60.119
 20
-26.7012
 30
0.0
 10
60.119
 20
-26.7012
 30
0.0
 10
60.119
 20
-31.3257
 30
0.0
 10
60.119
 20
-31.3257
 30
0.0
 10
60.119
 20
-31.3257
 30
0.0
 10
60.119
 20
-31.3257
 30
0.0
 10
63.119
 20
-31.3257
 30
0.0
 10
63.119
 20
-31.3257
 30
0.0
 10
63.119
 20
-31.3257
 30
0.0
 10
63.119
 20
-31.3257
 30
0.0
 10
63.119
 20
-26.7012
 30
0.0
 10
63.119
 20
-26.7012
 30
0.0
 10
63.119
 20
-26.7012
 30
0.0
 10
68.8235
 20
-27.3835
 30
0.0
 10
73.3475
 20
-31.9069
 30
0.0
 10
74.0297
 20
-37.6113
 30
0.0
 10
74.0297
 20
-37.6113
 30
0.0
 10
74.0297
 20
-37.6113
 30
0.0
 10
69.4046
 20
-37.6113
 30
0.0
 10
69.4046
 20
-37.6113
 30
0.0
 10
69.4046
 20
-37.6113
 30
0.0
 10
69.4046
 20
-37.6113
 30
0.0
 10
69.4046
 20
-40.6113
 30
0.0
 10
69.4046
 20
-40.6113
 30
0.0
 10
69.4046
 20
-40.6113
 30
0.0
 10
69.4046
 20
-40.6113
 30
0.0
 10
74.0297
 20
-40.6113
 30
0.0
 10
74.0297
 20
-40.6113
 30
0.0
  0
SPLINE
  5
5D
330
1F
100
AcDbEntity
  8
Capa 1
 62
   142
370
     9
100
AcDbSpline
210
0.0
220
0.0
230
1.0
 70
    11
 71
     3
 72
   132
 73
   128
 74
     0
 42
0.0000000001
 43
0.0000000001
 40
0.0
 40
0.0
 40
0.0
 40
0.0
 40
0.0303030303030303
 40
0.0303030303030303
 40
0.0303030303030303
 40
0.0303030303030303
 40
0.0606060606060606
 40
0.0606060606060606
 40
0.0606060606060606
 40
0.0606060606060606
 40
0.0909090909090909
 40
0.0909090909090909
 40
0.0909090909090909
 40
0.0909090909090909
 40
0.1212121212121212
 40
0.1212121212121212
 40
0.1212121212121212
 40
0.1212121212121212
 40
0.1515151515151515
 40
0.1515151515151515
 40
0.1515151515151515
 40
0.1515151515151515
 40
0.1818181818181818
 40
0.1818181818181818
 40
0.1818181818181818
 40
0.1818181818181818
 40
0.2121212121212121
 40
0.2121212121212121
 40
0.2121212121212121
 40
0.2121212121212121
 40
0.2424242424242424
 40
0.2424242424242424
 40
0.2424242424242424
 40
0.2424242424242424
 40
0.2727272727272727
 40
0.2727272727272727
 40
0.2727272727272727
 40
0.2727272727272727
 40
0.303030303030303
 40
0.303030303030303
 40
0.303030303030303
 40
0.303030303030303
 40
0.3333333333333333
 40
0.3333333333333333
 40
0.3333333333333333
 40
0.3333333333333333
 40
0.3636363636363636
 40
0.3636363636363636
 40
0.3636363636363636
 40
0.3636363636363636
 40
0.3939393939393939
 40
0.3939393939393939
 40
0.3939393939393939
 40
0.3939393939393939
 40
0.4242424242424243
 40
0.4242424242424243
 40
0.4242424242424243
 40
0.4242424242424243
 40
0.4545454545454545
 40
0.4545454545454545
 40
0.4545454545454545
 40
0.4545454545454545
 40
0.4848484848484849
 40
0.4848484848484849
 40
0.4848484848484849
 40
0.4848484848484849
 40
0.5151515151515151
 40
0.5151515151515151
 40
0.5151515151515151
 40
0.5151515151515151
 40
0.5454545454545454
 40
0.5454545454545454
 40
0.5454545454545454
 40
0.5454545454545454
 40
0.5757575757575758
 40
0.5757575757575758
 40
0.5757575757575758
 40
0.5757575757575758
 40
0.6060606060606061
 40
0.6060606060606061
 40
0.6060606060606061
 40
0.6060606060606061
 40
0.6363636363636364
 40
0.6363636363636364
 40
0.6363636363636364
 40
0.6363636363636364
 40
0.6666666666666666
 40
0.6666666666666666
 40
0.6666666666666666
 40
0.6666666666666666
 40
0.696969696969697
 40
0.696969696969697
 40
0.696969696969697
 40
0.696969696969697
 40
0.7272727272727273
 40
0.7272727272727273
 40
0.7272727272727273
 40
0.7272727272727273
 40
0.7575757575757576
 40
0.7575757575757576
 40
0.7575757575757576
 40
0.7575757575757576
 40
0.7878787878787878
 40
0.7878787878787878
 40
0.7878787878787878
 40
0.7878787878787878
 40
0.8181818181818182
 40
0.8181818181818182
 40
0.8181818181818182
 40
0.8181818181818182
 40
0.8484848484848485
 40
0.8484848484848485
 40
0.8484848484848485
 40
0.8484848484848485
 40
0.8787878787878788
 40
0.8787878787878788
 40
0.8787878787878788
 40
0.8787878787878788
 40
0.9090909090909091
 40
0.9090909090909091
 40
0.9090909090909091
 40
0.9090909090909091
 40
0.9393939393939394
 40
0.9393939393939394
 40
0.9393939393939394
 40
0.9393939393939394
 40
1.0
 40
1.0
 40
1.0
 40
1.0
 10
74.0297
 20
-66.9821
 30
0.0
 10
73.7512
 20
-69.3107
 30
0.0
 10
72.8325
 20
-71.4425
 30
0.0
 10
71.4546
 20
-73.1964
 30
0.0
 10
71.4546
 20
-73.1964
 30
0.0
 10
71.4546
 20
-73.1964
 30
0.0
 10
68.1976
 20
-69.9394
 30
0.0
 10
68.1976
 20
-69.9394
 30
0.0
 10
68.1976
 20
-69.9394
 30
0.0
 10
68.1976
 20
-69.9394
 30
0.0
 10
66.0763
 20
-72.0607
 30
0.0
 10
66.0763
 20
-72.0607
 30
0.0
 10
66.0763
 20
-72.0607
 30
0.0
 10
66.0763
 20
-72.0607
 30
0.0
 10
69.3331
 20
-75.3175
 30
0.0
 10
69.3331
 20
-75.3175
 30
0.0
 10
69.3331
 20
-75.3175
 30
0.0
 10
67.579
 20
-76.695
 30
0.0
 10
65.4474
 20
-77.6137
 30
0.0
 10
63.119
 20
-77.8922
 30
0.0
 10
63.119
 20
-77.8922
 30
0.0
 10
63.119
 20
-77.8922
 30
0.0
 10
63.119
 20
-73.2677
 30
0.0
 10
63.119
 20
-73.2677
 30
0.0
 10
63.119
 20
-73.2677
 30
0.0
 10
63.119
 20
-73.2677
 30
0.0
 10
60.119
 20
-73.2677
 30
0.0
 10
60.119
 20
-73.2677
 30
0.0
 10
60.119
 20
-73.2677
 30
0.0
 10
60.119
 20
-73.2677
 30
0.0
 10
60.119
 20
-77.8922
 30
0.0
 10
60.119
 20
-77.8922
 30
0.0
 10
60.119
 20
-77.8922
 30
0.0
 10
57.7905
 20
-77.6137
 30
0.0
 10
55.659
 20
-76.6951
 30
0.0
 10
53.9049
 20
-75.3175
 30
0.0
 10
53.9049
 20
-75.3175
 30
0.0
 10
53.9049
 20
-75.3175
 30
0.0
 10
57.1617
 20
-72.0607
 30
0.0
 10
57.1617
 20
-72.0607
 30
0.0
 10
57.1617
 20
-72.0607
 30
0.0
 10
57.1617
 20
-72.0607
 30
0.0
 10
55.0404
 20
-69.9394
 30
0.0
 10
55.0404
 20
-69.9394
 30
0.0
 10
55.0404
 20
-69.9394
 30
0.0
 10
55.0404
 20
-69.9394
 30
0.0
 10
51.7834
 20
-73.1964
 30
0.0
 10
51.7834
 20
-73.1964
 30
0.0
 10
51.7834
 20
-73.1964
 30
0.0
 10
50.4056
 20
-71.4424
 30
0.0
 10
49.4868
 20
-69.3107
 30
0.0
 10
49.2083
 20
-66.9821
 30
0.0
 10
49.2083
 20
-66.9821
 30
0.0
 10
49.2083
 20
-66.9821
 30
0.0
 10
53.8334
 20
-66.9821
 30
0.0
 10
53.8334
 20
-66.9821
 30
0.0
 10
53.8334
 20
-66.9821
 30
0.0
 10
53.8334
 20
-66.9821
 30
0.0
 10
53.8334
 20
-63.9821
 30
0.0
 10
53.8334
 20
-63.9821
 30
0.0
 10
53.8334
 20
-63.9821
 30
0.0
 10
53.8334
 20
-63.9821
 30
0.0
 10
49.2083
 20
-63.9821
 30
0.0
 10
49.2083
 20
-63.9821
 30
0.0
 10
49.2083
 20
-63.9821
 30
0.0
 10
49.4868
 20
-61.6535
 30
0.0
 10
50.4055
 20
-59.5217
 30
0.0
 10
51.7834
 20
-57.7678
 30
0.0
 10
51.7834
 20
-57.7678
 30
0.0
 10
51.7834
 20
-57.7678
 30
0.0
 10
55.0404
 20
-61.0248
 30
0.0
 10
55.0404
 20
-61.0248
 30
0.0
 10
55.0404
 20
-61.0248
 30
0.0
 10
55.0404
 20
-61.0248
 30
0.0
 10
57.1617
 20
-58.9035
 30
0.0
 10
57.1617
 20
-58.9035
 30
0.0
 10
57.1617
 20
-58.9035
 30
0.0
 10
57.1617
 20
-58.9035
 30
0.0
 10
53.9049
 20
-55.6467
 30
0.0
 10
53.9049
 20
-55.6467
 30
0.0
 10
53.9049
 20
-55.6467
 30
0.0
 10
55.659
 20
-54.2692
 30
0.0
 10
57.7906
 20
-53.3505
 30
0.0
 10
60.119
 20
-53.072
 30
0.0
 10
60.119
 20
-53.072
 30
0.0
 10
60.119
 20
-53.072
 30
0.0
 10
60.119
 20
-57.6965
 30
0.0
 10
60.119
 20
-57.6965
 30
0.0
 10
60.119
 20
-57.6965
 30
0.0
 10
60.119
 20
-57.6965
 30
0.0
 10
63.119
 20
-57.6965
 30
0.0
 10
63.119
 20
-57.6965
 30
0.0
 10
63.119
 20
-57.6965
 30
0.0
 10
63.119
 20
-57.6965
 30
0.0
 10
63.119
 20
-53.072
 30
0.0
 10
63.119
 20
-53.072
 30
0.0
 10
63.119
 20
-53.072
 30
0.0
 10
65.4475
 20
-53.3505
 30
0.0
 10
67.579
 20
-54.2691
 30
0.0
 10
69.3331
 20
-55.6467
 30
0.0
 10
69.3331
 20
-55.6467
 30
0.0
 10
69.3331
 20
-55.6467
 30
0.0
 10
66.0763
 20
-58.9035
 30
0.0
 10
66.0763
 20
-58.9035
 30
0.0
 10
66.0763
 20
-58.9035
 30
0.0
 10
66.0763
 20
-58.9035
 30
0.0
 10
68.1976
 20
-61.0248
 30
0.0
 10
68.1976
 20
-61.0248
 30
0.0
 10
68.1976
 20
-61.0248
 30
0.0
 10
68.1976
 20
-61.0248
 30
0.0
 10
71.4546
 20
-57.7678
 30
0.0
 10
71.4546
 20
-57.7678
 30
0.0
 10
71.4546
 20
-57.7678
 30
0.0
 10
72.8324
 20
-59.5218
 30
0.0
 10
73.7512
 20
-61.6535
 30
0.0
 10
74.0297
 20
-63.9821
 30
0.0
 10
74.0297
 20
-63.9821
 30
0.0
 10
74.0297
 20
-63.9821
 30
0.0
 10
69.4046
 20
-63.9821
 30
0.0
 10
69.4046
 20
-63.9821
 30
0.0
 10
69.4046
 20
-63.9821
 30
0.0
 10
69.4046
 20
-63.9821
 30
0.0
 10
69.4046
 20
-66.9821
 30
0.0
 10
69.4046
 20
-66.9821
 30
0.0
 10
69.4046
 20
-66.9821
 30
0.0
 10
69.4046
 20
-66.9821
 30
0.0
 10
74.0297
 20
-66.9821
 30
0.0
 10
74.0297
 20
-66.9821
 30
0.0
  0
SPLINE
  5
5E
330
1F
100
AcDbEntity
  8
Capa 1
 62
   142
370
     9
100
AcDbSpline
210
0.0
220
0.0
230
1.0
 70
    11
 71
     3
 72
    68
 73
    64
 74
     0
 42
0.0000000001
 43
0.0000000001
 40
0.0
 40
0.0
 40
0.0
 40
0.0
 40
0.0588235294117647
 40
0.0588235294117647
 40
0.0588235294117647
 40
0.0588235294117647
 40
0.1176470588235294
 40
0.1176470588235294
 40
0.1176470588235294
 40
0.1176470588235294
 40
0.1764705882352941
 40
0.1764705882352941
 40
0.1764705882352941
 40
0.1764705882352941
 40
0.2352941176470588
 40
0.2352941176470588
 40
0.2352941176470588
 40
0.2352941176470588
 40
0.2941176470588235
 40
0.2941176470588235
 40
0.2941176470588235
 40
0.2941176470588235
 40
0.3529411764705883
 40
0.3529411764705883
 40
0.3529411764705883
 40
0.3529411764705883
 40
0.4117647058823529
 40
0.4117647058823529
 40
0.4117647058823529
 40
0.4117647058823529
 40
0.4705882352941176
 40
0.4705882352941176
 40
0.4705882352941176
 40
0.4705882352941176
 40
0.5294117647058824
 40
0.5294117647058824
 40
0.5294117647058824
 40
0.5294117647058824
 40
0.5882352941176471
 40
0.5882352941176471
 40
0.5882352941176471
 40
0.5882352941176471
 40
0.6470588235294118
 40
0.6470588235294118
 40
0.6470588235294118
 40
0.6470588235294118
 40
0.7058823529411765
 40
0.7058823529411765
 40
0.7058823529411765
 40
0.7058823529411765
 40
0.7647058823529411
 40
0.7647058823529411
 40
0.7647058823529411
 40
0.7647058823529411
 40
0.8235294117647058
 40
0.8235294117647058
 40
0.8235294117647058
 40
0.8235294117647058
 40
0.8823529411764706
 40
0.8823529411764706
 40
0.8823529411764706
 40
0.8823529411764706
 40
1.0
 40
1.0
 40
1.0
 40
1.0
 10
100.6631
 20
-40.6113
 30
0.0
 10
99.9809
 20
-46.3157
 30
0.0
 10
95.4569
 20
-50.8391
 30
0.0
 10
89.7524
 20
-51.5214
 30
0.0
 10
89.7524
 20
-51.5214
 30
0.0
 10
89.7524
 20
-51.5214
 30
0.0
 10
89.7524
 20
-46.8969
 30
0.0
 10
89.7524
 20
-46.8969
 30
0.0
 10
89.7524
 20
-46.8969
 30
0.0
 10
89.7524
 20
-46.8969
 30
0.0
 10
86.7524
 20
-46.8969
 30
0.0
 10
86.7524
 20
-46.8969
 30
0.0
 10
86.7524
 20
-46.8969
 30
0.0
 10
86.7524
 20
-46.8969
 30
0.0
 10
86.7524
 20
-51.5214
 30
0.0
 10
86.7524
 20
-51.5214
 30
0.0
 10
86.7524
 20
-51.5214
 30
0.0
 10
81.0479
 20
-50.8391
 30
0.0
 10
76.5239
 20
-46.3157
 30
0.0
 10
75.8417
 20
-40.6113
 30
0.0
 10
75.8417
 20
-40.6113
 30
0.0
 10
75.8417
 20
-40.6113
 30
0.0
 10
80.4668
 20
-40.6113
 30
0.0
 10
80.4668
 20
-40.6113
 30
0.0
 10
80.4668
 20
-40.6113
 30
0.0
 10
80.4668
 20
-40.6113
 30
0.0
 10
80.4668
 20
-37.6113
 30
0.0
 10
80.4668
 20
-37.6113
 30
0.0
 10
80.4668
 20
-37.6113
 30
0.0
 10
80.4668
 20
-37.6113
 30
0.0
 10
75.8417
 20
-37.6113
 30
0.0
 10
75.8417
 20
-37.6113
 30
0.0
 10
75.8417
 20
-37.6113
 30
0.0
 10
76.5239
 20
-31.9069
 30
0.0
 10
81.0479
 20
-27.3835
 30
0.0
 10
86.7524
 20
-26.7012
 30
0.0
 10
86.7524
 20
-26.7012
 30
0.0
 10
86.7524
 20
-26.7012
 30
0.0
 10
86.7524
 20
-31.3257
 30
0.0
 10
86.7524
 20
-31.3257
 30
0.0
 10
86.7524
 20
-31.3257
 30
0.0
 10
86.7524
 20
-31.3257
 30
0.0
 10
89.7524
 20
-31.3257
 30
0.0
 10
89.7524
 20
-31.3257
 30
0.0
 10
89.7524
 20
-31.3257
 30
0.0
 10
89.7524
 20
-31.3257
 30
0.0
 10
89.7524
 20
-26.7012
 30
0.0
 10
89.7524
 20
-26.7012
 30
0.0
 10
89.7524
 20
-26.7012
 30
0.0
 10
95.4569
 20
-27.3835
 30
0.0
 10
99.9809
 20
-31.9069
 30
0.0
 10
100.6631
 20
-37.6113
 30
0.0
 10
100.6631
 20
-37.6113
 30
0.0
 10
100.6631
 20
-37.6113
 30
0.0
 10
96.038
 20
-37.6113
 30
0.0
 10
96.038
 20
-37.6113
 30
0.0
 10
96.038
 20
-37.6113
 30
0.0
 10
96.038
 20
-37.6113
 30
0.0
 10
96.038
 20
-40.6113
 30
0.0
 10
96.038
 20
-40.6113
 30
0.0
 10
96.038
 20
-40.6113
 30
0.0
 10
96.038
 20
-40.6113
 30
0.0
 10
100.6631
 20
-40.6113
 30
0.0
 10
100.6631
 20
-40.6113
 30
0.0
  0
SPLINE
  5
5F
330
1F
100
AcDbEntity
  8
Capa 1
 62
   142
370
     9
100
AcDbSpline
210
0.0
220
0.0
230
1.0
 70
    11
 71
     3
 72
   132
 73
   128
 74
     0
 42
0.0000000001
 43
0.0000000001
 40
0.0
 40
0.0
 40
0.0
 40
0.0
 40
0.0303030303030303
 40
0.0303030303030303
 40
0.0303030303030303
 40
0.0303030303030303
 40
0.0606060606060606
 40
0.0606060606060606
 40
0.0606060606060606
 40
0.0606060606060606
 40
0.0909090909090909
 40
0.0909090909090909
 40
0.0909090909090909
 40
0.0909090909090909
 40
0.1212121212121212
 40
0.1212121212121212
 40
0.1212121212121212
 40
0.1212121212121212
 40
0.1515151515151515
 40
0.1515151515151515
 40
0.1515151515151515
 40
0.1515151515151515
 40
0.1818181818181818
 40
0.1818181818181818
 40
0.1818181818181818
 40
0.1818181818181818
 40
0.2121212121212121
 40
0.2121212121212121
 40
0.2121212121212121
 40
0.2121212121212121
 40
0.2424242424242424
 40
0.2424242424242424
 40
0.2424242424242424
 40
0.2424242424242424
 40
0.2727272727272727
 40
0.2727272727272727
 40
0.2727272727272727
 40
0.2727272727272727
 40
0.303030303030303
 40
0.303030303030303
 40
0.303030303030303
 40
0.303030303030303
 40
0.3333333333333333
 40
0.3333333333333333
 40
0.3333333333333333
 40
0.3333333333333333
 40
0.3636363636363636
 40
0.3636363636363636
 40
0.3636363636363636
 40
0.3636363636363636
 40
0.3939393939393939
 40
0.3939393939393939
 40
0.3939393939393939
 40
0.3939393939393939
 40
0.4242424242424243
 40
0.4242424242424243
 40
0.4242424242424243
 40
0.4242424242424243
 40
0.4545454545454545
 40
0.4545454545454545
 40
0.4545454545454545
 40
0.4545454545454545
 40
0.4848484848484849
 40
0.4848484848484849
 40
0.4848484848484849
 40
0.4848484848484849
 40
0.5151515151515151
 40
0.5151515151515151
 40
0.5151515151515151
 40
0.5151515151515151
 40
0.5454545454545454
 40
0.5454545454545454
 40
0.5454545454545454
 40
0.5454545454545454
 40
0.5757575757575758
 40
0.5757575757575758
 40
0.5757575757575758
 40
0.5757575757575758
 40
0.6060606060606061
 40
0.6060606060606061
 40
0.6060606060606061
 40
0.6060606060606061
 40
0.6363636363636364
 40
0.6363636363636364
 40
0.6363636363636364
 40
0.6363636363636364
 40
0.6666666666666666
 40
0.6666666666666666
 40
0.6666666666666666
 40
0.6666666666666666
 40
0.696969696969697
 40
0.696969696969697
 40
0.696969696969697
 40
0.696969696969697
 40
0.7272727272727273
 40
0.7272727272727273
 40
0.7272727272727273
 40
0.7272727272727273
 40
0.7575757575757576
 40
0.7575757575757576
 40
0.7575757575757576
 40
0.7575757575757576
 40
0.7878787878787878
 40
0.7878787878787878
 40
0.7878787878787878
 40
0.7878787878787878
 40
0.8181818181818182
 40
0.8181818181818182
 40
0.8181818181818182
 40
0.8181818181818182
 40
0.8484848484848485
 40
0.8484848484848485
 40
0.8484848484848485
 40
0.8484848484848485
 40
0.8787878787878788
 40
0.8787878787878788
 40
0.8787878787878788
 40
0.8787878787878788
 40
0.9090909090909091
 40
0.9090909090909091
 40
0.9090909090909091
 40
0.9090909090909091
 40
0.9393939393939394
 40
0.9393939393939394
 40
0.9393939393939394
 40
0.9393939393939394
 40
1.0
 40
1.0
 40
1.0
 40
1.0
 10
100.6631
 20
-66.9821
 30
0.0
 10
100.3846
 20
-69.3107
 30
0.0
 10
99.4659
 20
-71.4425
 30
0.0
 10
98.088
 20
-73.1964
 30
0.0
 10
98.088
 20
-73.1964
 30
0.0
 10
98.088
 20
-73.1964
 30
0.0
 10
94.831
 20
-69.9394
 30
0.0
 10
94.831
 20
-69.9394
 30
0.0
 10
94.831
 20
-69.9394
 30
0.0
 10
94.831
 20
-69.9394
 30
0.0
 10
92.7097
 20
-72.0607
 30
0.0
 10
92.7097
 20
-72.0607
 30
0.0
 10
92.7097
 20
-72.0607
 30
0.0
 10
92.7097
 20
-72.0607
 30
0.0
 10
95.9665
 20
-75.3175
 30
0.0
 10
95.9665
 20
-75.3175
 30
0.0
 10
95.9665
 20
-75.3175
 30
0.0
 10
94.2124
 20
-76.695
 30
0.0
 10
92.0808
 20
-77.6137
 30
0.0
 10
89.7524
 20
-77.8922
 30
0.0
 10
89.7524
 20
-77.8922
 30
0.0
 10
89.7524
 20
-77.8922
 30
0.0
 10
89.7524
 20
-73.2677
 30
0.0
 10
89.7524
 20
-73.2677
 30
0.0
 10
89.7524
 20
-73.2677
 30
0.0
 10
89.7524
 20
-73.2677
 30
0.0
 10
86.7524
 20
-73.2677
 30
0.0
 10
86.7524
 20
-73.2677
 30
0.0
 10
86.7524
 20
-73.2677
 30
0.0
 10
86.7524
 20
-73.2677
 30
0.0
 10
86.7524
 20
-77.8922
 30
0.0
 10
86.7524
 20
-77.8922
 30
0.0
 10
86.7524
 20
-77.8922
 30
0.0
 10
84.4239
 20
-77.6137
 30
0.0
 10
82.2924
 20
-76.6951
 30
0.0
 10
80.5383
 20
-75.3175
 30
0.0
 10
80.5383
 20
-75.3175
 30
0.0
 10
80.5383
 20
-75.3175
 30
0.0
 10
83.7951
 20
-72.0607
 30
0.0
 10
83.7951
 20
-72.0607
 30
0.0
 10
83.7951
 20
-72.0607
 30
0.0
 10
83.7951
 20
-72.0607
 30
0.0
 10
81.6738
 20
-69.9394
 30
0.0
 10
81.6738
 20
-69.9394
 30
0.0
 10
81.6738
 20
-69.9394
 30
0.0
 10
81.6738
 20
-69.9394
 30
0.0
 10
78.4168
 20
-73.1964
 30
0.0
 10
78.4168
 20
-73.1964
 30
0.0
 10
78.4168
 20
-73.1964
 30
0.0
 10
77.039
 20
-71.4424
 30
0.0
 10
76.1202
 20
-69.3107
 30
0.0
 10
75.8417
 20
-66.9821
 30
0.0
 10
75.8417
 20
-66.9821
 30
0.0
 10
75.8417
 20
-66.9821
 30
0.0
 10
80.4668
 20
-66.9821
 30
0.0
 10
80.4668
 20
-66.9821
 30
0.0
 10
80.4668
 20
-66.9821
 30
0.0
 10
80.4668
 20
-66.9821
 30
0.0
 10
80.4668
 20
-63.9821
 30
0.0
 10
80.4668
 20
-63.9821
 30
0.0
 10
80.4668
 20
-63.9821
 30
0.0
 10
80.4668
 20
-63.9821
 30
0.0
 10
75.8417
 20
-63.9821
 30
0.0
 10
75.8417
 20
-63.9821
 30
0.0
 10
75.8417
 20
-63.9821
 30
0.0
 10
76.1202
 20
-61.6535
 30
0.0
 10
77.0389
 20
-59.5217
 30
0.0
 10
78.4168
 20
-57.7678
 30
0.0
 10
78.4168
 20
-57.7678
 30
0.0
 10
78.4168
 20
-57.7678
 30
0.0
 10
81.6738
 20
-61.0248
 30
0.0
 10
81.6738
 20
-61.0248
 30
0.0
 10
81.6738
 20
-61.0248
 30
0.0
 10
81.6738
 20
-61.0248
 30
0.0
 10
83.7951
 20
-58.9035
 30
0.0
 10
83.7951
 20
-58.9035
 30
0.0
 10
83.7951
 20
-58.9035
 30
0.0
 10
83.7951
 20
-58.9035
 30
0.0
 10
80.5383
 20
-55.6467
 30
0.0
 10
80.5383
 20
-55.6467
 30
0.0
 10
80.5383
 20
-55.6467
 30
0.0
 10
82.2924
 20
-54.2692
 30
0.0
 10
84.424
 20
-53.3505
 30
0.0
 10
86.7524
 20
-53.072
 30
0.0
 10
86.7524
 20
-53.072
 30
0.0
 10
86.7524
 20
-53.072
 30
0.0
 10
86.7524
 20
-57.6965
 30
0.0
 10
86.7524
 20
-57.6965
 30
0.0
 10
86.7524
 20
-57.6965
 30
0.0
 10
86.7524
 20
-57.6965
 30
0.0
 10
89.7524
 20
-57.6965
 30
0.0
 10
89.7524
 20
-57.6965
 30
0.0
 10
89.7524
 20
-57.6965
 30
0.0
 10
89.7524
 20
-57.6965
 30
0.0
 10
89.7524
 20
-53.072
 30
0.0
 10
89.7524
 20
-53.072
 30
0.0
 10
89.7524
 20
-53.072
 30
0.0
 10
92.0809
 20
-53.3505
 30
0.0
 10
94.2124
 20
-54.2691
 30
0.0
 10
95.9665
 20
-55.6467
 30
0.0
 10
95.9665
 20
-55.6467
 30
0.0
 10
95.9665
 20
-55.6467
 30
0.0
 10
92.7097
 20
-58.9035
 30
0.0
 10
92.7097
 20
-58.9035
 30
0.0
 10
92.7097
 20
-58.9035
 30
0.0
 10
92.7097
 20
-58.9035
 30
0.0
 10
94.831
 20
-61.0248
 30
0.0
 10
94.831
 20
-61.0248
 30
0.0
 10
94.831
 20
-61.0248
 30
0.0
 10
94.831
 20
-61.0248
 30
0.0
 10
98.088
 20
-57.7678
 30
0.0
 10
98.088
 20
-57.7678
 30
0.0
 10
98.088
 20
-57.7678
 30
0.0
 10
99.4658
 20
-59.5218
 30
0.0
 10
100.3846
 20
-61.6535
 30
0.0
 10
100.6631
 20
-63.9821
 30
0.0
 10
100.6631
 20
-63.9821
 30
0.0
 10
100.6631
 20
-63.9821
 30
0.0
 10
96.038
 20
-63.9821
 30
0.0
 10
96.038
 20
-63.9821
 30
0.0
 10
96.038
 20
-63.9821
 30
0.0
 10
96.038
 20
-63.9821
 30
0.0
 10
96.038
 20
-66.9821
 30
0.0
 10
96.038
 20
-66.9821
 30
0.0
 10
96.038
 20
-66.9821
 30
0.0
 10
96.038
 20
-66.9821
 30
0.0
 10
100.6631
 20
-66.9821
 30
0.0
 10
100.6631
 20
-66.9821
 30
0.0
  0
SPLINE
  5
60
330
1F
100
AcDbEntity
  8
Capa 1
 62
   142
370
     9
100
AcDbSpline
210
0.0
220
0.0
230
1.0
 70
    11
 71
     3
 72
    68
 73
    64
 74
     0
 42
0.0000000001
 43
0.0000000001
 40
0.0
 40
0.0
 40
0.0
 40
0.0
 40
0.0588235294117647
 40
0.0588235294117647
 40
0.0588235294117647
 40
0.0588235294117647
 40
0.1176470588235294
 40
0.1176470588235294
 40
0.1176470588235294
 40
0.1176470588235294
 40
0.1764705882352941
 40
0.1764705882352941
 40
0.1764705882352941
 40
0.1764705882352941
 40
0.2352941176470588
 40
0.2352941176470588
 40
0.2352941176470588
 40
0.2352941176470588
 40
0.2941176470588235
 40
0.2941176470588235
 40
0.2941176470588235
 40
0.2941176470588235
 40
0.3529411764705883
 40
0.3529411764705883
 40
0.3529411764705883
 40
0.3529411764705883
 40
0.4117647058823529
 40
0.4117647058823529
 40
0.4117647058823529
 40
0.4117647058823529
 40
0.4705882352941176
 40
0.4705882352941176
 40
0.4705882352941176
 40
0.4705882352941176
 40
0.5294117647058824
 40
0.5294117647058824
 40
0.5294117647058824
 40
0.5294117647058824
 40
0.5882352941176471
 40
0.5882352941176471
 40
0.5882352941176471
 40
0.5882352941176471
 40
0.6470588235294118
 40
0.6470588235294118
 40
0.6470588235294118
 40
0.6470588235294118
 40
0.7058823529411765
 40
0.7058823529411765
 40
0.7058823529411765
 40
0.7058823529411765
 40
0.7647058823529411
 40
0.7647058823529411
 40
0.7647058823529411
 40
0.7647058823529411
 40
0.8235294117647058
 40
0.8235294117647058
 40
0.8235294117647058
 40
0.8235294117647058
 40
0.8823529411764706
 40
0.8823529411764706
 40
0.8823529411764706
 40
0.8823529411764706
 40
1.0
 40
1.0
 40
1.0
 40
1.0
 10
74.0297
 20
-93.599
 30
0.0
 10
73.3475
 20
-99.3034
 30
0.0
 10
68.8235
 20
-103.8268
 30
0.0
 10
63.119
 20
-104.5091
 30
0.0
 10
63.119
 20
-104.5091
 30
0.0
 10
63.119
 20
-104.5091
 30
0.0
 10
63.119
 20
-99.8846
 30
0.0
 10
63.119
 20
-99.8846
 30
0.0
 10
63.119
 20
-99.8846
 30
0.0
 10
63.119
 20
-99.8846
 30
0.0
 10
60.119
 20
-99.8846
 30
0.0
 10
60.119
 20
-99.8846
 30
0.0
 10
60.119
 20
-99.8846
 30
0.0
 10
60.119
 20
-99.8846
 30
0.0
 10
60.119
 20
-104.5091
 30
0.0
 10
60.119
 20
-104.5091
 30
0.0
 10
60.119
 20
-104.5091
 30
0.0
 10
54.4145
 20
-103.8268
 30
0.0
 10
49.8905
 20
-99.3034
 30
0.0
 10
49.2083
 20
-93.599
 30
0.0
 10
49.2083
 20
-93.599
 30
0.0
 10
49.2083
 20
-93.599
 30
0.0
 10
53.8334
 20
-93.599
 30
0.0
 10
53.8334
 20
-93.599
 30
0.0
 10
53.8334
 20
-93.599
 30
0.0
 10
53.8334
 20
-93.599
 30
0.0
 10
53.8334
 20
-90.599
 30
0.0
 10
53.8334
 20
-90.599
 30
0.0
 10
53.8334
 20
-90.599
 30
0.0
 10
53.8334
 20
-90.599
 30
0.0
 10
49.2083
 20
-90.599
 30
0.0
 10
49.2083
 20
-90.599
 30
0.0
 10
49.2083
 20
-90.599
 30
0.0
 10
49.8905
 20
-84.8946
 30
0.0
 10
54.4145
 20
-80.3712
 30
0.0
 10
60.119
 20
-79.6889
 30
0.0
 10
60.119
 20
-79.6889
 30
0.0
 10
60.119
 20
-79.6889
 30
0.0
 10
60.119
 20
-84.3134
 30
0.0
 10
60.119
 20
-84.3134
 30
0.0
 10
60.119
 20
-84.3134
 30
0.0
 10
60.119
 20
-84.3134
 30
0.0
 10
63.119
 20
-84.3134
 30
0.0
 10
63.119
 20
-84.3134
 30
0.0
 10
63.119
 20
-84.3134
 30
0.0
 10
63.119
 20
-84.3134
 30
0.0
 10
63.119
 20
-79.6889
 30
0.0
 10
63.119
 20
-79.6889
 30
0.0
 10
63.119
 20
-79.6889
 30
0.0
 10
68.8235
 20
-80.3712
 30
0.0
 10
73.3475
 20
-84.8946
 30
0.0
 10
74.0297
 20
-90.599
 30
0.0
 10
74.0297
 20
-90.599
 30
0.0
 10
74.0297
 20
-90.599
 30
0.0
 10
69.4046
 20
-90.599
 30
0.0
 10
69.4046
 20
-90.599
 30
0.0
 10
69.4046
 20
-90.599
 30
0.0
 10
69.4046
 20
-90.599
 30
0.0
 10
69.4046
 20
-93.599
 30
0.0
 10
69.4046
 20
-93.599
 30
0.0
 10
69.4046
 20
-93.599
 30
0.0
 10
69.4046
 20
-93.599
 30
0.0
 10
74.0297
 20
-93.599
 30
0.0
 10
74.0297
 20
-93.599
 30
0.0
  0
SPLINE
  5
61
330
1F
100
AcDbEntity
  8
Capa 1
 62
   142
370
     9
100
AcDbSpline
210
0.0
220
0.0
230
1.0
 70
    11
 71
     3
 72
   132
 73
   128
 74
     0
 42
0.0000000001
 43
0.0000000001
 40
0.0
 40
0.0
 40
0.0
 40
0.0
 40
0.0303030303030303
 40
0.0303030303030303
 40
0.0303030303030303
 40
0.0303030303030303
 40
0.0606060606060606
 40
0.0606060606060606
 40
0.0606060606060606
 40
0.0606060606060606
 40
0.0909090909090909
 40
0.0909090909090909
 40
0.0909090909090909
 40
0.0909090909090909
 40
0.1212121212121212
 40
0.1212121212121212
 40
0.1212121212121212
 40
0.1212121212121212
 40
0.1515151515151515
 40
0.1515151515151515
 40
0.1515151515151515
 40
0.1515151515151515
 40
0.1818181818181818
 40
0.1818181818181818
 40
0.1818181818181818
 40
0.1818181818181818
 40
0.2121212121212121
 40
0.2121212121212121
 40
0.2121212121212121
 40
0.2121212121212121
 40
0.2424242424242424
 40
0.2424242424242424
 40
0.2424242424242424
 40
0.2424242424242424
 40
0.2727272727272727
 40
0.2727272727272727
 40
0.2727272727272727
 40
0.2727272727272727
 40
0.303030303030303
 40
0.303030303030303
 40
0.303030303030303
 40
0.303030303030303
 40
0.3333333333333333
 40
0.3333333333333333
 40
0.3333333333333333
 40
0.3333333333333333
 40
0.3636363636363636
 40
0.3636363636363636
 40
0.3636363636363636
 40
0.3636363636363636
 40
0.3939393939393939
 40
0.3939393939393939
 40
0.3939393939393939
 40
0.3939393939393939
 40
0.4242424242424243
 40
0.4242424242424243
 40
0.4242424242424243
 40
0.4242424242424243
 40
0.4545454545454545
 40
0.4545454545454545
 40
0.4545454545454545
 40
0.4545454545454545
 40
0.4848484848484849
 40
0.4848484848484849
 40
0.4848484848484849
 40
0.4848484848484849
 40
0.5151515151515151
 40
0.5151515151515151
 40
0.5151515151515151
 40
0.5151515151515151
 40
0.5454545454545454
 40
0.5454545454545454
 40
0.5454545454545454
 40
0.5454545454545454
 40
0.5757575757575758
 40
0.5757575757575758
 40
0.5757575757575758
 40
0.5757575757575758
 40
0.6060606060606061
 40
0.6060606060606061
 40
0.6060606060606061
 40
0.6060606060606061
 40
0.6363636363636364
 40
0.6363636363636364
 40
0.6363636363636364
 40
0.6363636363636364
 40
0.6666666666666666
 40
0.6666666666666666
 40
0.6666666666666666
 40
0.6666666666666666
 40
0.696969696969697
 40
0.696969696969697
 40
0.696969696969697
 40
0.696969696969697
 40
0.7272727272727273
 40
0.7272727272727273
 40
0.7272727272727273
 40
0.7272727272727273
 40
0.7575757575757576
 40
0.7575757575757576
 40
0.7575757575757576
 40
0.7575757575757576
 40
0.7878787878787878
 40
0.7878787878787878
 40
0.7878787878787878
 40
0.7878787878787878
 40
0.8181818181818182
 40
0.8181818181818182
 40
0.8181818181818182
 40
0.8181818181818182
 40
0.8484848484848485
 40
0.8484848484848485
 40
0.8484848484848485
 40
0.8484848484848485
 40
0.8787878787878788
 40
0.8787878787878788
 40
0.8787878787878788
 40
0.8787878787878788
 40
0.9090909090909091
 40
0.9090909090909091
 40
0.9090909090909091
 40
0.9090909090909091
 40
0.9393939393939394
 40
0.9393939393939394
 40
0.9393939393939394
 40
0.9393939393939394
 40
1.0
 40
1.0
 40
1.0
 40
1.0
 10
74.0297
 20
-119.9698
 30
0.0
 10
73.7512
 20
-122.2984
 30
0.0
 10
72.8325
 20
-124.4302
 30
0.0
 10
71.4546
 20
-126.1841
 30
0.0
 10
71.4546
 20
-126.1841
 30
0.0
 10
71.4546
 20
-126.1841
 30
0.0
 10
68.1976
 20
-122.9271
 30
0.0
 10
68.1976
 20
-122.9271
 30
0.0
 10
68.1976
 20
-122.9271
 30
0.0
 10
68.1976
 20
-122.9271
 30
0.0
 10
66.0763
 20
-125.0484
 30
0.0
 10
66.0763
 20
-125.0484
 30
0.0
 10
66.0763
 20
-125.0484
 30
0.0
 10
66.0763
 20
-125.0484
 30
0.0
 10
69.3331
 20
-128.3052
 30
0.0
 10
69.3331
 20
-128.3052
 30
0.0
 10
69.3331
 20
-128.3052
 30
0.0
 10
67.579
 20
-129.6827
 30
0.0
 10
65.4474
 20
-130.6014
 30
0.0
 10
63.119
 20
-130.8799
 30
0.0
 10
63.119
 20
-130.8799
 30
0.0
 10
63.119
 20
-130.8799
 30
0.0
 10
63.119
 20
-126.2554
 30
0.0
 10
63.119
 20
-126.2554
 30
0.0
 10
63.119
 20
-126.2554
 30
0.0
 10
63.119
 20
-126.2554
 30
0.0
 10
60.119
 20
-126.2554
 30
0.0
 10
60.119
 20
-126.2554
 30
0.0
 10
60.119
 20
-126.2554
 30
0.0
 10
60.119
 20
-126.2554
 30
0.0
 10
60.119
 20
-130.8799
 30
0.0
 10
60.119
 20
-130.8799
 30
0.0
 10
60.119
 20
-130.8799
 30
0.0
 10
57.7905
 20
-130.6014
 30
0.0
 10
55.659
 20
-129.6828
 30
0.0
 10
53.9049
 20
-128.3052
 30
0.0
 10
53.9049
 20
-128.3052
 30
0.0
 10
53.9049
 20
-128.3052
 30
0.0
 10
57.1617
 20
-125.0484
 30
0.0
 10
57.1617
 20
-125.0484
 30
0.0
 10
57.1617
 20
-125.0484
 30
0.0
 10
57.1617
 20
-125.0484
 30
0.0
 10
55.0404
 20
-122.9271
 30
0.0
 10
55.0404
 20
-122.9271
 30
0.0
 10
55.0404
 20
-122.9271
 30
0.0
 10
55.0404
 20
-122.9271
 30
0.0
 10
51.7834
 20
-126.1841
 30
0.0
 10
51.7834
 20
-126.1841
 30
0.0
 10
51.7834
 20
-126.1841
 30
0.0
 10
50.4056
 20
-124.4301
 30
0.0
 10
49.4868
 20
-122.2984
 30
0.0
 10
49.2083
 20
-119.9698
 30
0.0
 10
49.2083
 20
-119.9698
 30
0.0
 10
49.2083
 20
-119.9698
 30
0.0
 10
53.8334
 20
-119.9698
 30
0.0
 10
53.8334
 20
-119.9698
 30
0.0
 10
53.8334
 20
-119.9698
 30
0.0
 10
53.8334
 20
-119.9698
 30
0.0
 10
53.8334
 20
-116.9698
 30
0.0
 10
53.8334
 20
-116.9698
 30
0.0
 10
53.8334
 20
-116.9698
 30
0.0
 10
53.8334
 20
-116.9698
 30
0.0
 10
49.2083
 20
-116.9698
 30
0.0
 10
49.2083
 20
-116.9698
 30
0.0
 10
49.2083
 20
-116.9698
 30
0.0
 10
49.4868
 20
-114.6412
 30
0.0
 10
50.4055
 20
-112.5094
 30
0.0
 10
51.7834
 20
-110.7555
 30
0.0
 10
51.7834
 20
-110.7555
 30
0.0
 10
51.7834
 20
-110.7555
 30
0.0
 10
55.0404
 20
-114.0125
 30
0.0
 10
55.0404
 20
-114.0125
 30
0.0
 10
55.0404
 20
-114.0125
 30
0.0
 10
55.0404
 20
-114.0125
 30
0.0
 10
57.1617
 20
-111.8912
 30
0.0
 10
57.1617
 20
-111.8912
 30
0.0
 10
57.1617
 20
-111.8912
 30
0.0
 10
57.1617
 20
-111.8912
 30
0.0
 10
53.9049
 20
-108.6344
 30
0.0
 10
53.9049
 20
-108.6344
 30
0.0
 10
53.9049
 20
-108.6344
 30
0.0
 10
55.659
 20
-107.2569
 30
0.0
 10
57.7906
 20
-106.3382
 30
0.0
 10
60.119
 20
-106.0597
 30
0.0
 10
60.119
 20
-106.0597
 30
0.0
 10
60.119
 20
-106.0597
 30
0.0
 10
60.119
 20
-110.6842
 30
0.0
 10
60.119
 20
-110.6842
 30
0.0
 10
60.119
 20
-110.6842
 30
0.0
 10
60.119
 20
-110.6842
 30
0.0
 10
63.119
 20
-110.6842
 30
0.0
 10
63.119
 20
-110.6842
 30
0.0
 10
63.119
 20
-110.6842
 30
0.0
 10
63.119
 20
-110.6842
 30
0.0
 10
63.119
 20
-106.0597
 30
0.0
 10
63.119
 20
-106.0597
 30
0.0
 10
63.119
 20
-106.0597
 30
0.0
 10
65.4475
 20
-106.3382
 30
0.0
 10
67.579
 20
-107.2568
 30
0.0
 10
69.3331
 20
-108.6344
 30
0.0
 10
69.3331
 20
-108.6344
 30
0.0
 10
69.3331
 20
-108.6344
 30
0.0
 10
66.0763
 20
-111.8912
 30
0.0
 10
66.0763
 20
-111.8912
 30
0.0
 10
66.0763
 20
-111.8912
 30
0.0
 10
66.0763
 20
-111.8912
 30
0.0
 10
68.1976
 20
-114.0125
 30
0.0
 10
68.1976
 20
-114.0125
 30
0.0
 10
68.1976
 20
-114.0125
 30
0.0
 10
68.1976
 20
-114.0125
 30
0.0
 10
71.4546
 20
-110.7555
 30
0.0
 10
71.4546
 20
-110.7555
 30
0.0
 10
71.4546
 20
-110.7555
 30
0.0
 10
72.8324
 20
-112.5095
 30
0.0
 10
73.7512
 20
-114.6412
 30
0.0
 10
74.0297
 20
-116.9698
 30
0.0
 10
74.0297
 20
-116.9698
 30
0.0
 10
74.0297
 20
-116.9698
 30
0.0
 10
69.4046
 20
-116.9698
 30
0.0
 10
69.4046
 20
-116.9698
 30
0.0
 10
69.4046
 20
-116.9698
 30
0.0
 10
69.4046
 20
-116.9698
 30
0.0
 10
69.4046
 20
-119.9698
 30
0.0
 10
69.4046
 20
-119.9698
 30
0.0
 10
69.4046
 20
-119.9698
 30
0.0
 10
69.4046
 20
-119.9698
 30
0.0
 10
74.0297
 20
-119.9698
 30
0.0
 10
74.0297
 20
-119.9698
 30
0.0
  0
SPLINE
  5
62
330
1F
100
AcDbEntity
  8
Capa 1
 62
   142
370
     9
100
AcDbSpline
210
0.0
220
0.0
230
1.0
 70
    11
 71
     3
 72
    68
 73
    64
 74
     0
 42
0.0000000001
 43
0.0000000001
 40
0.0
 40
0.0
 40
0.0
 40
0.0
 40
0.0588235294117647
 40
0.0588235294117647
 40
0.0588235294117647
 40
0.0588235294117647
 40
0.1176470588235294
 40
0.1176470588235294
 40
0.1176470588235294
 40
0.1176470588235294
 40
0.1764705882352941
 40
0.1764705882352941
 40
0.1764705882352941
 40
0.1764705882352941
 40
0.2352941176470588
 40
0.2352941176470588
 40
0.2352941176470588
 40
0.2352941176470588
 40
0.2941176470588235
 40
0.2941176470588235
 40
0.2941176470588235
 40
0.2941176470588235
 40
0.3529411764705883
 40
0.3529411764705883
 40
0.3529411764705883
 40
0.3529411764705883
 40
0.4117647058823529
 40
0.4117647058823529
 40
0.4117647058823529
 40
0.4117647058823529
 40
0.4705882352941176
 40
0.4705882352941176
 40
0.4705882352941176
 40
0.4705882352941176
 40
0.5294117647058824
 40
0.5294117647058824
 40
0.5294117647058824
 40
0.5294117647058824
 40
0.5882352941176471
 40
0.5882352941176471
 40
0.5882352941176471
 40
0.5882352941176471
 40
0.6470588235294118
 40
0.6470588235294118
 40
0.6470588235294118
 40
0.6470588235294118
 40
0.7058823529411765
 40
0.7058823529411765
 40
0.7058823529411765
 40
0.7058823529411765
 40
0.7647058823529411
 40
0.7647058823529411
 40
0.7647058823529411
 40
0.7647058823529411
 40
0.8235294117647058
 40
0.8235294117647058
 40
0.8235294117647058
 40
0.8235294117647058
 40
0.8823529411764706
 40
0.8823529411764706
 40
0.8823529411764706
 40
0.8823529411764706
 40
1.0
 40
1.0
 40
1.0
 40
1.0
 10
100.6631
 20
-93.599
 30
0.0
 10
99.9809
 20
-99.3034
 30
0.0
 10
95.4569
 20
-103.8268
 30
0.0
 10
89.7524
 20
-104.5091
 30
0.0
 10
89.7524
 20
-104.5091
 30
0.0
 10
89.7524
 20
-104.5091
 30
0.0
 10
89.7524
 20
-99.8846
 30
0.0
 10
89.7524
 20
-99.8846
 30
0.0
 10
89.7524
 20
-99.8846
 30
0.0
 10
89.7524
 20
-99.8846
 30
0.0
 10
86.7524
 20
-99.8846
 30
0.0
 10
86.7524
 20
-99.8846
 30
0.0
 10
86.7524
 20
-99.8846
 30
0.0
 10
86.7524
 20
-99.8846
 30
0.0
 10
86.7524
 20
-104.5091
 30
0.0
 10
86.7524
 20
-104.5091
 30
0.0
 10
86.7524
 20
-104.5091
 30
0.0
 10
81.0479
 20
-103.8268
 30
0.0
 10
76.5239
 20
-99.3034
 30
0.0
 10
75.8417
 20
-93.599
 30
0.0
 10
75.8417
 20
-93.599
 30
0.0
 10
75.8417
 20
-93.599
 30
0.0
 10
80.4668
 20
-93.599
 30
0.0
 10
80.4668
 20
-93.599
 30
0.0
 10
80.4668
 20
-93.599
 30
0.0
 10
80.4668
 20
-93.599
 30
0.0
 10
80.4668
 20
-90.599
 30
0.0
 10
80.4668
 20
-90.599
 30
0.0
 10
80.4668
 20
-90.599
 30
0.0
 10
80.4668
 20
-90.599
 30
0.0
 10
75.8417
 20
-90.599
 30
0.0
 10
75.8417
 20
-90.599
 30
0.0
 10
75.8417
 20
-90.599
 30
0.0
 10
76.5239
 20
-84.8946
 30
0.0
 10
81.0479
 20
-80.3712
 30
0.0
 10
86.7524
 20
-79.6889
 30
0.0
 10
86.7524
 20
-79.6889
 30
0.0
 10
86.7524
 20
-79.6889
 30
0.0
 10
86.7524
 20
-84.3134
 30
0.0
 10
86.7524
 20
-84.3134
 30
0.0
 10
86.7524
 20
-84.3134
 30
0.0
 10
86.7524
 20
-84.3134
 30
0.0
 10
89.7524
 20
-84.3134
 30
0.0
 10
89.7524
 20
-84.3134
 30
0.0
 10
89.7524
 20
-84.3134
 30
0.0
 10
89.7524
 20
-84.3134
 30
0.0
 10
89.7524
 20
-79.6889
 30
0.0
 10
89.7524
 20
-79.6889
 30
0.0
 10
89.7524
 20
-79.6889
 30
0.0
 10
95.4569
 20
-80.3712
 30
0.0
 10
99.9809
 20
-84.8946
 30
0.0
 10
100.6631
 20
-90.599
 30
0.0
 10
100.6631
 20
-90.599
 30
0.0
 10
100.6631
 20
-90.599
 30
0.0
 10
96.038
 20
-90.599
 30
0.0
 10
96.038
 20
-90.599
 30
0.0
 10
96.038
 20
-90.599
 30
0.0
 10
96.038
 20
-90.599
 30
0.0
 10
96.038
 20
-93.599
 30
0.0
 10
96.038
 20
-93.599
 30
0.0
 10
96.038
 20
-93.599
 30
0.0
 10
96.038
 20
-93.599
 30
0.0
 10
100.6631
 20
-93.599
 30
0.0
 10
100.6631
 20
-93.599
 30
0.0
  0
SPLINE
  5
63
330
1F
100
AcDbEntity
  8
Capa 1
 62
   142
370
     9
100
AcDbSpline
210
0.0
220
0.0
230
1.0
 70
    11
 71
     3
 72
   132
 73
   128
 74
     0
 42
0.0000000001
 43
0.0000000001
 40
0.0
 40
0.0
 40
0.0
 40
0.0
 40
0.0303030303030303
 40
0.0303030303030303
 40
0.0303030303030303
 40
0.0303030303030303
 40
0.0606060606060606
 40
0.0606060606060606
 40
0.0606060606060606
 40
0.0606060606060606
 40
0.0909090909090909
 40
0.0909090909090909
 40
0.0909090909090909
 40
0.0909090909090909
 40
0.1212121212121212
 40
0.1212121212121212
 40
0.1212121212121212
 40
0.1212121212121212
 40
0.1515151515151515
 40
0.1515151515151515
 40
0.1515151515151515
 40
0.1515151515151515
 40
0.1818181818181818
 40
0.1818181818181818
 40
0.1818181818181818
 40
0.1818181818181818
 40
0.2121212121212121
 40
0.2121212121212121
 40
0.2121212121212121
 40
0.2121212121212121
 40
0.2424242424242424
 40
0.2424242424242424
 40
0.2424242424242424
 40
0.2424242424242424
 40
0.2727272727272727
 40
0.2727272727272727
 40
0.2727272727272727
 40
0.2727272727272727
 40
0.303030303030303
 40
0.303030303030303
 40
0.303030303030303
 40
0.303030303030303
 40
0.3333333333333333
 40
0.3333333333333333
 40
0.3333333333333333
 40
0.3333333333333333
 40
0.3636363636363636
 40
0.3636363636363636
 40
0.3636363636363636
 40
0.3636363636363636
 40
0.3939393939393939
 40
0.3939393939393939
 40
0.3939393939393939
 40
0.3939393939393939
 40
0.4242424242424243
 40
0.4242424242424243
 40
0.4242424242424243
 40
0.4242424242424243
 40
0.4545454545454545
 40
0.4545454545454545
 40
0.4545454545454545
 40
0.4545454545454545
 40
0.4848484848484849
 40
0.4848484848484849
 40
0.4848484848484849
 40
0.4848484848484849
 40
0.5151515151515151
 40
0.5151515151515151
 40
0.5151515151515151
 40
0.5151515151515151
 40
0.5454545454545454
 40
0.5454545454545454
 40
0.5454545454545454
 40
0.5454545454545454
 40
0.5757575757575758
 40
0.5757575757575758
 40
0.5757575757575758
 40
0.5757575757575758
 40
0.6060606060606061
 40
0.6060606060606061
 40
0.6060606060606061
 40
0.6060606060606061
 40
0.6363636363636364
 40
0.6363636363636364
 40
0.6363636363636364
 40
0.6363636363636364
 40
0.6666666666666666
 40
0.6666666666666666
 40
0.6666666666666666
 40
0.6666666666666666
 40
0.696969696969697
 40
0.696969696969697
 40
0.696969696969697
 40
0.696969696969697
 40
0.7272727272727273
 40
0.7272727272727273
 40
0.7272727272727273
 40
0.7272727272727273
 40
0.7575757575757576
 40
0.7575757575757576
 40
0.7575757575757576
 40
0.7575757575757576
 40
0.7878787878787878
 40
0.7878787878787878
 40
0.7878787878787878
 40
0.7878787878787878
 40
0.8181818181818182
 40
0.8181818181818182
 40
0.8181818181818182
 40
0.8181818181818182
 40
0.8484848484848485
 40
0.8484848484848485
 40
0.8484848484848485
 40
0.8484848484848485
 40
0.8787878787878788
 40
0.8787878787878788
 40
0.8787878787878788
 40
0.8787878787878788
 40
0.9090909090909091
 40
0.9090909090909091
 40
0.9090909090909091
 40
0.9090909090909091
 40
0.9393939393939394
 40
0.9393939393939394
 40
0.9393939393939394
 40
0.9393939393939394
 40
1.0
 40
1.0
 40
1.0
 40
1.0
 10
100.6631
 20
-119.9698
 30
0.0
 10
100.3846
 20
-122.2984
 30
0.0
 10
99.4659
 20
-124.4302
 30
0.0
 10
98.088
 20
-126.1841
 30
0.0
 10
98.088
 20
-126.1841
 30
0.0
 10
98.088
 20
-126.1841
 30
0.0
 10
94.831
 20
-122.9271
 30
0.0
 10
94.831
 20
-122.9271
 30
0.0
 10
94.831
 20
-122.9271
 30
0.0
 10
94.831
 20
-122.9271
 30
0.0
 10
92.7097
 20
-125.0484
 30
0.0
 10
92.7097
 20
-125.0484
 30
0.0
 10
92.7097
 20
-125.0484
 30
0.0
 10
92.7097
 20
-125.0484
 30
0.0
 10
95.9665
 20
-128.3052
 30
0.0
 10
95.9665
 20
-128.3052
 30
0.0
 10
95.9665
 20
-128.3052
 30
0.0
 10
94.2124
 20
-129.6827
 30
0.0
 10
92.0808
 20
-130.6014
 30
0.0
 10
89.7524
 20
-130.8799
 30
0.0
 10
89.7524
 20
-130.8799
 30
0.0
 10
89.7524
 20
-130.8799
 30
0.0
 10
89.7524
 20
-126.2554
 30
0.0
 10
89.7524
 20
-126.2554
 30
0.0
 10
89.7524
 20
-126.2554
 30
0.0
 10
89.7524
 20
-126.2554
 30
0.0
 10
86.7524
 20
-126.2554
 30
0.0
 10
86.7524
 20
-126.2554
 30
0.0
 10
86.7524
 20
-126.2554
 30
0.0
 10
86.7524
 20
-126.2554
 30
0.0
 10
86.7524
 20
-130.8799
 30
0.0
 10
86.7524
 20
-130.8799
 30
0.0
 10
86.7524
 20
-130.8799
 30
0.0
 10
84.4239
 20
-130.6014
 30
0.0
 10
82.2924
 20
-129.6828
 30
0.0
 10
80.5383
 20
-128.3052
 30
0.0
 10
80.5383
 20
-128.3052
 30
0.0
 10
80.5383
 20
-128.3052
 30
0.0
 10
83.7951
 20
-125.0484
 30
0.0
 10
83.7951
 20
-125.0484
 30
0.0
 10
83.7951
 20
-125.0484
 30
0.0
 10
83.7951
 20
-125.0484
 30
0.0
 10
81.6738
 20
-122.9271
 30
0.0
 10
81.6738
 20
-122.9271
 30
0.0
 10
81.6738
 20
-122.9271
 30
0.0
 10
81.6738
 20
-122.9271
 30
0.0
 10
78.4168
 20
-126.1841
 30
0.0
 10
78.4168
 20
-126.1841
 30
0.0
 10
78.4168
 20
-126.1841
 30
0.0
 10
77.039
 20
-124.4301
 30
0.0
 10
76.1202
 20
-122.2984
 30
0.0
 10
75.8417
 20
-119.9698
 30
0.0
 10
75.8417
 20
-119.9698
 30
0.0
 10
75.8417
 20
-119.9698
 30
0.0
 10
80.4668
 20
-119.9698
 30
0.0
 10
80.4668
 20
-119.9698
 30
0.0
 10
80.4668
 20
-119.9698
 30
0.0
 10
80.4668
 20
-119.9698
 30
0.0
 10
80.4668
 20
-116.9698
 30
0.0
 10
80.4668
 20
-116.9698
 30
0.0
 10
80.4668
 20
-116.9698
 30
0.0
 10
80.4668
 20
-116.9698
 30
0.0
 10
75.8417
 20
-116.9698
 30
0.0
 10
75.8417
 20
-116.9698
 30
0.0
 10
75.8417
 20
-116.9698
 30
0.0
 10
76.1202
 20
-114.6412
 30
0.0
 10
77.0389
 20
-112.5094
 30
0.0
 10
78.4168
 20
-110.7555
 30
0.0
 10
78.4168
 20
-110.7555
 30
0.0
 10
78.4168
 20
-110.7555
 30
0.0
 10
81.6738
 20
-114.0125
 30
0.0
 10
81.6738
 20
-114.0125
 30
0.0
 10
81.6738
 20
-114.0125
 30
0.0
 10
81.6738
 20
-114.0125
 30
0.0
 10
83.7951
 20
-111.8912
 30
0.0
 10
83.7951
 20
-111.8912
 30
0.0
 10
83.7951
 20
-111.8912
 30
0.0
 10
83.7951
 20
-111.8912
 30
0.0
 10
80.5383
 20
-108.6344
 30
0.0
 10
80.5383
 20
-108.6344
 30
0.0
 10
80.5383
 20
-108.6344
 30
0.0
 10
82.2924
 20
-107.2569
 30
0.0
 10
84.424
 20
-106.3382
 30
0.0
 10
86.7524
 20
-106.0597
 30
0.0
 10
86.7524
 20
-106.0597
 30
0.0
 10
86.7524
 20
-106.0597
 30
0.0
 10
86.7524
 20
-110.6842
 30
0.0
 10
86.7524
 20
-110.6842
 30
0.0
 10
86.7524
 20
-110.6842
 30
0.0
 10
86.7524
 20
-110.6842
 30
0.0
 10
89.7524
 20
-110.6842
 30
0.0
 10
89.7524
 20
-110.6842
 30
0.0
 10
89.7524
 20
-110.6842
 30
0.0
 10
89.7524
 20
-110.6842
 30
0.0
 10
89.7524
 20
-106.0597
 30
0.0
 10
89.7524
 20
-106.0597
 30
0.0
 10
89.7524
 20
-106.0597
 30
0.0
 10
92.0809
 20
-106.3382
 30
0.0
 10
94.2124
 20
-107.2568
 30
0.0
 10
95.9665
 20
-108.6344
 30
0.0
 10
95.9665
 20
-108.6344
 30
0.0
 10
95.9665
 20
-108.6344
 30
0.0
 10
92.7097
 20
-111.8912
 30
0.0
 10
92.7097
 20
-111.8912
 30
0.0
 10
92.7097
 20
-111.8912
 30
0.0
 10
92.7097
 20
-111.8912
 30
0.0
 10
94.831
 20
-114.0125
 30
0.0
 10
94.831
 20
-114.0125
 30
0.0
 10
94.831
 20
-114.0125
 30
0.0
 10
94.831
 20
-114.0125
 30
0.0
 10
98.088
 20
-110.7555
 30
0.0
 10
98.088
 20
-110.7555
 30
0.0
 10
98.088
 20
-110.7555
 30
0.0
 10
99.4658
 20
-112.5095
 30
0.0
 10
100.3846
 20
-114.6412
 30
0.0
 10
100.6631
 20
-116.9698
 30
0.0
 10
100.6631
 20
-116.9698
 30
0.0
 10
100.6631
 20
-116.9698
 30
0.0
 10
96.038
 20
-116.9698
 30
0.0
 10
96.038
 20
-116.9698
 30
0.0
 10
96.038
 20
-116.9698
 30
0.0
 10
96.038
 20
-116.9698
 30
0.0
 10
96.038
 20
-119.9698
 30
0.0
 10
96.038
 20
-119.9698
 30
0.0
 10
96.038
 20
-119.9698
 30
0.0
 10
96.038
 20
-119.9698
 30
0.0
 10
100.6631
 20
-119.9698
 30
0.0
 10
100.6631
 20
-119.9698
 30
0.0
  0
ENDSEC
  0
SECTION
  2
OBJECTS
  0
DICTIONARY
  5
C
330
0
100
AcDbDictionary
281
     1
  3
ACAD_GROUP
350
D
  3
ACAD_LAYOUT
350
1A
  3
ACAD_MATERIAL
350
3B
  3
ACAD_MLEADERSTYLE
350
85
  3
ACAD_MLINESTYLE
350
17
  3
ACAD_PLOTSETTINGS
350
19
  3
ACAD_PLOTSTYLENAME
350
E
  3
ACAD_TABLESTYLE
350
84
  3
ACAD_VISUALSTYLE
350
2A
  0
DICTIONARY
  5
D
102
{ACAD_REACTORS
330
C
102
}
330
C
100
AcDbDictionary
281
     1
  0
DICTIONARY
  5
1A
102
{ACAD_REACTORS
330
C
102
}
330
C
100
AcDbDictionary
281
     1
  3
Layout1
350
1E
  3
Layout2
350
26
  3
Model
350
22
  0
DICTIONARY
  5
3B
102
{ACAD_REACTORS
330
C
102
}
330
C
100
AcDbDictionary
281
     1
  3
ByBlock
350
3D
  3
ByLayer
350
3C
  3
Global
350
3E
  0
DICTIONARY
  5
85
102
{ACAD_REACTORS
330
C
102
}
330
C
100
AcDbDictionary
281
     1
  0
DICTIONARY
  5
17
102
{ACAD_REACTORS
330
C
102
}
330
C
100
AcDbDictionary
281
     1
  3
Standard
350
18
  0
DICTIONARY
  5
19
102
{ACAD_REACTORS
330
C
102
}
330
C
100
AcDbDictionary
281
     1
  0
ACDBDICTIONARYWDFLT
  5
E
102
{ACAD_REACTORS
330
C
102
}
330
C
100
AcDbDictionary
281
     1
  3
Normal
350
F
100
AcDbDictionaryWithDefault
340
F
  0
DICTIONARY
  5
84
102
{ACAD_REACTORS
330
C
102
}
330
C
100
AcDbDictionary
281
     1
  0
DICTIONARY
  5
2A
102
{ACAD_REACTORS
330
C
102
}
330
C
100
AcDbDictionary
281
     1
  3
2dWireframe
350
2F
  3
3D Hidden
350
31
  3
3dWireframe
350
30
  3
Basic
350
32
  3
Brighten
350
36
  3
ColorChange
350
3A
  3
Conceptual
350
34
  3
Dim
350
35
  3
Facepattern
350
39
  3
Flat
350
2B
  3
FlatWithEdges
350
2C
  3
Gouraud
350
2D
  3
GouraudWithEdges
350
2E
  3
Linepattern
350
38
  3
Realistic
350
33
  3
Thicken
350
37
  0
LAYOUT
  5
1E
102
{ACAD_REACTORS
330
1A
102
}
330
1A
100
AcDbPlotSettings
  1

  2
none_device
  4

  6

 40
0.0
 41
0.0
 42
0.0
 43
0.0
 44
0.0
 45
0.0
 46
0.0
 47
0.0
 48
0.0
 49
0.0
140
0.0
141
0.0
142
1.0
143
1.0
 70
   688
 72
     0
 73
     0
 74
     5
  7

 75
    16
 76
     0
 77
     2
 78
   300
147
1.0
148
0.0
149
0.0
100
AcDbLayout
  1
Layout1
 70
     1
 71
     1
 10
0.0
 20
0.0
 11
12.0
 21
9.0
 12
0.0
 22
0.0
 32
0.0
 14
1.000000000000000E+20
 24
1.000000000000000E+20
 34
1.000000000000000E+20
 15
-1.000000000000000E+20
 25
-1.000000000000000E+20
 35
-1.000000000000000E+20
146
0.0
 13
0.0
 23
0.0
 33
0.0
 16
1.0
 26
0.0
 36
0.0
 17
0.0
 27
1.0
 37
0.0
 76
     0
330
1B
  0
LAYOUT
  5
26
102
{ACAD_REACTORS
330
1A
102
}
330
1A
100
AcDbPlotSettings
  1

  2
none_device
  4

  6

 40
0.0
 41
0.0
 42
0.0
 43
0.0
 44
0.0
 45
0.0
 46
0.0
 47
0.0
 48
0.0
 49
0.0
140
0.0
141
0.0
142
1.0
143
1.0
 70
   688
 72
     0
 73
     0
 74
     5
  7

 75
    16
 76
     0
 77
     2
 78
   300
147
1.0
148
0.0
149
0.0
100
AcDbLayout
  1
Layout2
 70
     1
 71
     2
 10
0.0
 20
0.0
 11
0.0
 21
0.0
 12
0.0
 22
0.0
 32
0.0
 14
0.0
 24
0.0
 34
0.0
 15
0.0
 25
0.0
 35
0.0
146
0.0
 13
0.0
 23
0.0
 33
0.0
 16
1.0
 26
0.0
 36
0.0
 17
0.0
 27
1.0
 37
0.0
 76
     0
330
23
  0
LAYOUT
  5
22
102
{ACAD_REACTORS
330
1A
102
}
330
1A
100
AcDbPlotSettings
  1

  2
none_device
  4

  6

 40
0.0
 41
0.0
 42
0.0
 43
0.0
 44
0.0
 45
0.0
 46
0.0
 47
0.0
 48
0.0
 49
0.0
140
0.0
141
0.0
142
1.0
143
1.0
 70
  1712
 72
     0
 73
     0
 74
     0
  7

 75
     0
 76
     0
 77
     2
 78
   300
147
1.0
148
0.0
149
0.0
100
AcDbLayout
  1
Model
 70
     1
 71
     0
 10
0.0
 20
0.0
 11
12.0
 21
9.0
 12
0.0
 22
0.0
 32
0.0
 14
-103.0348
 24
-130.9228
 34
0.0
 15
100.706
 25
132.0918
 35
0.0
146
0.0
 13
0.0
 23
0.0
 33
0.0
 16
1.0
 26
0.0
 36
0.0
 17
0.0
 27
1.0
 37
0.0
 76
     0
330
1F
331
29
  0
MATERIAL
  5
3D
102
{ACAD_REACTORS
330
3B
102
}
330
3B
100
AcDbMaterial
  1
ByBlock
 72
     1
 94
      127
  0
MATERIAL
  5
3C
102
{ACAD_REACTORS
330
3B
102
}
330
3B
100
AcDbMaterial
  1
ByLayer
 72
     1
 94
      127
  0
MATERIAL
  5
3E
102
{ACAD_REACTORS
330
3B
102
}
330
3B
100
AcDbMaterial
  1
Global
 72
     1
 94
      127
  0
MLINESTYLE
  5
18
102
{ACAD_REACTORS
330
17
102
}
330
17
100
AcDbMlineStyle
  2
Standard
 70
     0
  3

 62
   256
 51
90.0
 52
90.0
 71
     2
 49
0.5
 62
   256
  6
BYLAYER
 49
-0.5
 62
   256
  6
BYLAYER
  0
ACDBPLACEHOLDER
  5
F
102
{ACAD_REACTORS
330
E
102
}
330
E
  0
VISUALSTYLE
  5
2F
102
{ACAD_REACTORS
330
2A
102
}
102
{ACAD_XDICTIONARY
360
6C
102
}
330
2A
100
AcDbVisualStyle
  2
2dWireframe
 70
     4
 71
     0
 72
     2
 73
     0
 90
        0
 40
-0.6
 41
-30.0
 62
     5
 63
     7
421
 16777215
 74
     1
 91
        4
 64
     7
 65
   257
 75
     1
175
     1
 42
1.0
 92
        0
 66
   257
 43
1.0
 76
     1
 77
     6
 78
     2
 67
     7
 79
     5
170
     0
171
     0
290
     0
174
     0
 93
        1
 44
0.0
173
     0
291
     0
 45
0.0
  0
VISUALSTYLE
  5
31
102
{ACAD_REACTORS
330
2A
102
}
102
{ACAD_XDICTIONARY
360
70
102
}
330
2A
100
AcDbVisualStyle
  2
3D Hidden
 70
     6
 71
     1
 72
     2
 73
     2
 90
        0
 40
-0.6
 41
-30.0
 62
     5
 63
     7
421
 16777215
 74
     2
 91
        2
 64
     7
 65
   257
 75
     2
175
     1
 42
40.0
 92
        0
 66
   257
 43
1.0
 76
     1
 77
     6
 78
     2
 67
     7
 79
     3
170
     0
171
     0
290
     0
174
     0
 93
        1
 44
0.0
173
     0
291
     0
 45
0.0
  0
VISUALSTYLE
  5
30
102
{ACAD_REACTORS
330
2A
102
}
102
{ACAD_XDICTIONARY
360
6E
102
}
330
2A
100
AcDbVisualStyle
  2
3dWireframe
 70
     5
 71
     0
 72
     2
 73
     0
 90
        0
 40
-0.6
 41
-30.0
 62
     5
 63
     7
421
 16777215
 74
     1
 91
        4
 64
     7
 65
   257
 75
     1
175
     1
 42
1.0
 92
        0
 66
   257
 43
1.0
 76
     1
 77
     6
 78
     2
 67
     7
 79
     5
170
     0
171
     0
290
     0
174
     0
 93
        1
 44
0.0
173
     0
291
     0
 45
0.0
  0
VISUALSTYLE
  5
32
102
{ACAD_REACTORS
330
2A
102
}
102
{ACAD_XDICTIONARY
360
72
102
}
330
2A
100
AcDbVisualStyle
  2
Basic
 70
     7
 71
     1
 72
     0
 73
     1
 90
        0
 40
-0.6
 41
-30.0
 62
     5
 63
     7
421
 16777215
 74
     0
 91
        4
 64
     7
 65
   257
 75
     1
175
     1
 42
1.0
 92
        8
 66
     7
 43
1.0
 76
     1
 77
     6
 78
     2
 67
     7
 79
     5
170
     0
171
     0
290
     0
174
     0
 93
        1
 44
0.0
173
     0
291
     1
 45
0.0
  0
VISUALSTYLE
  5
36
102
{ACAD_REACTORS
330
2A
102
}
102
{ACAD_XDICTIONARY
360
7A
102
}
330
2A
100
AcDbVisualStyle
  2
Brighten
 70
    12
 71
     2
 72
     2
 73
     0
 90
        0
 40
-0.6
 41
-30.0
 62
     5
 63
     7
421
 16777215
 74
     1
 91
        4
 64
     7
 65
   257
 75
     1
175
     1
 42
1.0
 92
        8
 66
     7
 43
1.0
 76
     1
 77
     6
 78
     2
 67
     7
 79
     5
170
     0
171
     0
290
     0
174
     0
 93
        1
 44
50.0
173
     0
291
     1
 45
0.0
  0
VISUALSTYLE
  5
3A
102
{ACAD_REACTORS
330
2A
102
}
102
{ACAD_XDICTIONARY
360
82
102
}
330
2A
100
AcDbVisualStyle
  2
ColorChange
 70
    16
 71
     2
 72
     2
 73
     3
 90
        0
 40
-0.6
 41
-30.0
 62
     5
 63
     8
421
  8421504
 74
     1
 91
        4
 64
     7
 65
   257
 75
     1
175
     1
 42
1.0
 92
        8
 66
     8
424
  8421504
 43
1.0
 76
     1
 77
     6
 78
     2
 67
     7
 79
     5
170
     0
171
     0
290
     0
174
     0
 93
        1
 44
0.0
173
     0
291
     1
 45
0.0
  0
VISUALSTYLE
  5
34
102
{ACAD_REACTORS
330
2A
102
}
102
{ACAD_XDICTIONARY
360
76
102
}
330
2A
100
AcDbVisualStyle
  2
Conceptual
 70
     9
 71
     3
 72
     2
 73
     0
 90
        0
 40
-0.6
 41
-30.0
 62
     5
 63
     7
421
 16777215
 74
     2
 91
        2
 64
     7
 65
   257
 75
     1
175
     1
 42
40.0
 92
        8
 66
     7
 43
1.0
 76
     1
 77
     6
 78
     2
 67
     7
 79
     3
170
     0
171
     0
290
     0
174
     0
 93
        1
 44
0.0
173
     0
291
     0
 45
0.0
  0
VISUALSTYLE
  5
35
102
{ACAD_REACTORS
330
2A
102
}
102
{ACAD_XDICTIONARY
360
78
102
}
330
2A
100
AcDbVisualStyle
  2
Dim
 70
    11
 71
     2
 72
     2
 73
     0
 90
        0
 40
-0.6
 41
-30.0
 62
     5
 63
     7
421
 16777215
 74
     1
 91
        4
 64
     7
 65
   257
 75
     1
175
     1
 42
1.0
 92
        8
 66
     7
 43
1.0
 76
     1
 77
     6
 78
     2
 67
     7
 79
     5
170
     0
171
     0
290
     0
174
     0
 93
        1
 44
-50.0
173
     0
291
     1
 45
0.0
  0
VISUALSTYLE
  5
39
102
{ACAD_REACTORS
330
2A
102
}
102
{ACAD_XDICTIONARY
360
80
102
}
330
2A
100
AcDbVisualStyle
  2
Facepattern
 70
    15
 71
     2
 72
     2
 73
     0
 90
        0
 40
-0.6
 41
-30.0
 62
     5
 63
     7
421
 16777215
 74
     1
 91
        4
 64
     7
 65
   257
 75
     1
175
     1
 42
1.0
 92
        8
 66
     7
 43
1.0
 76
     1
 77
     6
 78
     2
 67
     7
 79
     5
170
     0
171
     0
290
     0
174
     0
 93
        1
 44
0.0
173
     0
291
     1
 45
0.0
  0
VISUALSTYLE
  5
2B
102
{ACAD_REACTORS
330
2A
102
}
102
{ACAD_XDICTIONARY
360
64
102
}
330
2A
100
AcDbVisualStyle
  2
Flat
 70
     0
 71
     2
 72
     1
 73
     1
 90
        2
 40
-0.6
 41
30.0
 62
     5
 63
     7
421
 16777215
 74
     0
 91
        4
 64
     7
 65
   257
 75
     1
175
     1
 42
1.0
 92
        8
 66
     7
 43
1.0
 76
     1
 77
     6
 78
     2
 67
     7
 79
     5
170
     0
171
     0
290
     0
174
     0
 93
       13
 44
0.0
173
     0
291
     1
 45
0.0
  0
VISUALSTYLE
  5
2C
102
{ACAD_REACTORS
330
2A
102
}
102
{ACAD_XDICTIONARY
360
66
102
}
330
2A
100
AcDbVisualStyle
  2
FlatWithEdges
 70
     1
 71
     2
 72
     1
 73
     1
 90
        2
 40
-0.6
 41
30.0
 62
     5
 63
     7
421
 16777215
 74
     1
 91
        4
 64
     7
 65
   257
 75
     1
175
     1
 42
1.0
 92
        0
 66
   257
 43
1.0
 76
     1
 77
     6
 78
     2
 67
     7
 79
     5
170
     0
171
     0
290
     0
174
     0
 93
       13
 44
0.0
173
     0
291
     1
 45
0.0
  0
VISUALSTYLE
  5
2D
102
{ACAD_REACTORS
330
2A
102
}
102
{ACAD_XDICTIONARY
360
68
102
}
330
2A
100
AcDbVisualStyle
  2
Gouraud
 70
     2
 71
     2
 72
     2
 73
     1
 90
        2
 40
-0.6
 41
30.0
 62
     5
 63
     7
421
 16777215
 74
     0
 91
        4
 64
     7
 65
   257
 75
     1
175
     1
 42
1.0
 92
        0
 66
     7
 43
1.0
 76
     1
 77
     6
 78
     2
 67
     7
 79
     5
170
     0
171
     0
290
     0
174
     0
 93
       13
 44
0.0
173
     0
291
     1
 45
0.0
  0
VISUALSTYLE
  5
2E
102
{ACAD_REACTORS
330
2A
102
}
102
{ACAD_XDICTIONARY
360
6A
102
}
330
2A
100
AcDbVisualStyle
  2
GouraudWithEdges
 70
     3
 71
     2
 72
     2
 73
     1
 90
        2
 40
-0.6
 41
30.0
 62
     5
 63
     7
421
 16777215
 74
     1
 91
        4
 64
     7
 65
   257
 75
     1
175
     1
 42
1.0
 92
        0
 66
   257
 43
1.0
 76
     1
 77
     6
 78
     2
 67
     7
 79
     5
170
     0
171
     0
290
     0
174
     0
 93
       13
 44
0.0
173
     0
291
     1
 45
0.0
  0
VISUALSTYLE
  5
38
102
{ACAD_REACTORS
330
2A
102
}
102
{ACAD_XDICTIONARY
360
7E
102
}
330
2A
100
AcDbVisualStyle
  2
Linepattern
 70
    14
 71
     2
 72
     2
 73
     0
 90
        0
 40
-0.6
 41
-30.0
 62
     5
 63
     7
421
 16777215
 74
     1
 91
        4
 64
     7
 65
   257
 75
     7
175
     7
 42
1.0
 92
        8
 66
     7
 43
1.0
 76
     1
 77
     6
 78
     2
 67
     7
 79
     5
170
     0
171
     0
290
     0
174
     0
 93
        1
 44
0.0
173
     0
291
     1
 45
0.0
  0
VISUALSTYLE
  5
33
102
{ACAD_REACTORS
330
2A
102
}
102
{ACAD_XDICTIONARY
360
74
102
}
330
2A
100
AcDbVisualStyle
  2
Realistic
 70
     8
 71
     2
 72
     2
 73
     0
 90
        0
 40
-0.6
 41
-30.0
 62
     5
 63
     7
421
 16777215
 74
     1
 91
        0
 64
     7
 65
   257
 75
     1
175
     1
 42
1.0
 92
        8
 66
     8
424
  7895160
 43
1.0
 76
     1
 77
     6
 78
     2
 67
     7
 79
     5
170
     0
171
     0
290
     0
174
     0
 93
       13
 44
0.0
173
     0
291
     0
 45
0.0
  0
VISUALSTYLE
  5
37
102
{ACAD_REACTORS
330
2A
102
}
102
{ACAD_XDICTIONARY
360
7C
102
}
330
2A
100
AcDbVisualStyle
  2
Thicken
 70
    13
 71
     2
 72
     2
 73
     0
 90
        0
 40
-0.6
 41
-30.0
 62
     5
 63
     7
421
 16777215
 74
     1
 91
        4
 64
     7
 65
   257
 75
     1
175
     1
 42
1.0
 92
       12
 66
     7
 43
1.0
 76
     1
 77
     6
 78
     2
 67
     7
 79
     5
170
     0
171
     0
290
     0
174
     0
 93
        1
 44
0.0
173
     0
291
     1
 45
0.0
  0
DICTIONARY
  5
6C
330
2F
100
AcDbDictionary
280
     1
281
     1
  3
ACAD_XREC_ROUNDTRIP
360
6D
  0
DICTIONARY
  5
70
330
31
100
AcDbDictionary
280
     1
281
     1
  3
ACAD_XREC_ROUNDTRIP
360
71
  0
DICTIONARY
  5
6E
330
30
100
AcDbDictionary
280
     1
281
     1
  3
ACAD_XREC_ROUNDTRIP
360
6F
  0
DICTIONARY
  5
72
330
32
100
AcDbDictionary
280
     1
281
     1
  3
ACAD_XREC_ROUNDTRIP
360
73
  0
DICTIONARY
  5
7A
330
36
100
AcDbDictionary
280
     1
281
     1
  3
ACAD_XREC_ROUNDTRIP
360
7B
  0
DICTIONARY
  5
82
330
3A
100
AcDbDictionary
280
     1
281
     1
  3
ACAD_XREC_ROUNDTRIP
360
83
  0
DICTIONARY
  5
76
330
34
100
AcDbDictionary
280
     1
281
     1
  3
ACAD_XREC_ROUNDTRIP
360
77
  0
DICTIONARY
  5
78
330
35
100
AcDbDictionary
280
     1
281
     1
  3
ACAD_XREC_ROUNDTRIP
360
79
  0
DICTIONARY
  5
80
330
39
100
AcDbDictionary
280
     1
281
     1
  3
ACAD_XREC_ROUNDTRIP
360
81
  0
DICTIONARY
  5
64
330
2B
100
AcDbDictionary
280
     1
281
     1
  3
ACAD_XREC_ROUNDTRIP
360
65
  0
DICTIONARY
  5
66
330
2C
100
AcDbDictionary
280
     1
281
     1
  3
ACAD_XREC_ROUNDTRIP
360
67
  0
DICTIONARY
  5
68
330
2D
100
AcDbDictionary
280
     1
281
     1
  3
ACAD_XREC_ROUNDTRIP
360
69
  0
DICTIONARY
  5
6A
330
2E
100
AcDbDictionary
280
     1
281
     1
  3
ACAD_XREC_ROUNDTRIP
360
6B
  0
DICTIONARY
  5
7E
330
38
100
AcDbDictionary
280
     1
281
     1
  3
ACAD_XREC_ROUNDTRIP
360
7F
  0
DICTIONARY
  5
74
330
33
100
AcDbDictionary
280
     1
281
     1
  3
ACAD_XREC_ROUNDTRIP
360
75
  0
DICTIONARY
  5
7C
330
37
100
AcDbDictionary
280
     1
281
     1
  3
ACAD_XREC_ROUNDTRIP
360
7D
  0
XRECORD
  5
6D
102
{ACAD_REACTORS
330
6C
102
}
330
6C
100
AcDbXrecord
280
     1
102
RTVSPropertyOp0
 70
     1
102
RTVSPropertyOp1
 70
     1
102
RTVSPropertyOp2
 70
     1
102
RTVSPropertyOp3
 70
     1
102
RTVSPropertyOp4
 70
     1
102
RTVSPropertyOp5
 70
     1
102
RTVSPropertyOp6
 70
     1
102
RTVSPropertyOp7
 70
     1
102
RTVSPropertyOp8
 70
     1
102
RTVSPropertyOp9
 70
     1
102
RTVSPropertyOp10
 70
     1
102
RTVSPropertyOp11
 70
     1
102
RTVSPropertyOp12
 70
     1
102
RTVSPropertyOp13
 70
     1
102
RTVSPropertyOp14
 70
     1
102
RTVSPropertyOp15
 70
     1
102
RTVSPropertyOp16
 70
     1
102
RTVSPropertyOp17
 70
     1
102
RTVSPropertyOp18
 70
     1
102
RTVSPropertyOp19
 70
     1
102
RTVSPropertyOp20
 70
     1
102
RTVSPropertyOp21
 70
     1
102
RTVSPropertyOp22
 70
     1
102
RTVSPropertyOp23
 70
     1
102
RTVSPropertyOp24
 70
     1
102
RTVSPropertyOp25
 70
     1
102
RTVSPropertyOp26
 70
     1
102
RTVSPropertyOp27
 70
     1
  0
XRECORD
  5
71
102
{ACAD_REACTORS
330
70
102
}
330
70
100
AcDbXrecord
280
     1
102
RTVSPropertyOp0
 70
     1
102
RTVSPropertyOp1
 70
     1
102
RTVSPropertyOp2
 70
     1
102
RTVSPropertyOp3
 70
     1
102
RTVSPropertyOp4
 70
     1
102
RTVSPropertyOp5
 70
     1
102
RTVSPropertyOp6
 70
     1
102
RTVSPropertyOp7
 70
     1
102
RTVSPropertyOp8
 70
     1
102
RTVSPropertyOp9
 70
     1
102
RTVSPropertyOp10
 70
     1
102
RTVSPropertyOp11
 70
     1
102
RTVSPropertyOp12
 70
     1
102
RTVSPropertyOp13
 70
     1
102
RTVSPropertyOp14
 70
     1
102
RTVSPropertyOp15
 70
     1
102
RTVSPropertyOp16
 70
     1
102
RTVSPropertyOp17
 70
     1
102
RTVSPropertyOp18
 70
     1
102
RTVSPropertyOp19
 70
     1
102
RTVSPropertyOp20
 70
     1
102
RTVSPropertyOp21
 70
     1
102
RTVSPropertyOp22
 70
     1
102
RTVSPropertyOp23
 70
     1
102
RTVSPropertyOp24
 70
     1
102
RTVSPropertyOp25
 70
     1
102
RTVSPropertyOp26
 70
     1
102
RTVSPropertyOp27
 70
     1
  0
XRECORD
  5
6F
102
{ACAD_REACTORS
330
6E
102
}
330
6E
100
AcDbXrecord
280
     1
102
RTVSPropertyOp0
 70
     1
102
RTVSPropertyOp1
 70
     1
102
RTVSPropertyOp2
 70
     1
102
RTVSPropertyOp3
 70
     1
102
RTVSPropertyOp4
 70
     1
102
RTVSPropertyOp5
 70
     1
102
RTVSPropertyOp6
 70
     1
102
RTVSPropertyOp7
 70
     1
102
RTVSPropertyOp8
 70
     1
102
RTVSPropertyOp9
 70
     1
102
RTVSPropertyOp10
 70
     1
102
RTVSPropertyOp11
 70
     1
102
RTVSPropertyOp12
 70
     1
102
RTVSPropertyOp13
 70
     1
102
RTVSPropertyOp14
 70
     1
102
RTVSPropertyOp15
 70
     1
102
RTVSPropertyOp16
 70
     1
102
RTVSPropertyOp17
 70
     1
102
RTVSPropertyOp18
 70
     1
102
RTVSPropertyOp19
 70
     1
102
RTVSPropertyOp20
 70
     1
102
RTVSPropertyOp21
 70
     1
102
RTVSPropertyOp22
 70
     1
102
RTVSPropertyOp23
 70
     1
102
RTVSPropertyOp24
 70
     1
102
RTVSPropertyOp25
 70
     1
102
RTVSPropertyOp26
 70
     1
102
RTVSPropertyOp27
 70
     1
  0
XRECORD
  5
73
102
{ACAD_REACTORS
330
72
102
}
330
72
100
AcDbXrecord
280
     1
102
RTVSPropertyOp0
 70
     1
102
RTVSPropertyOp1
 70
     1
102
RTVSPropertyOp2
 70
     1
102
RTVSPropertyOp3
 70
     1
102
RTVSPropertyOp4
 70
     1
102
RTVSPropertyOp5
 70
     1
102
RTVSPropertyOp6
 70
     1
102
RTVSPropertyOp7
 70
     1
102
RTVSPropertyOp8
 70
     1
102
RTVSPropertyOp9
 70
     1
102
RTVSPropertyOp10
 70
     1
102
RTVSPropertyOp11
 70
     1
102
RTVSPropertyOp12
 70
     1
102
RTVSPropertyOp13
 70
     1
102
RTVSPropertyOp14
 70
     1
102
RTVSPropertyOp15
 70
     1
102
RTVSPropertyOp16
 70
     1
102
RTVSPropertyOp17
 70
     1
102
RTVSPropertyOp18
 70
     1
102
RTVSPropertyOp19
 70
     1
102
RTVSPropertyOp20
 70
     1
102
RTVSPropertyOp21
 70
     1
102
RTVSPropertyOp22
 70
     1
102
RTVSPropertyOp23
 70
     1
102
RTVSPropertyOp24
 70
     1
102
RTVSPropertyOp25
 70
     1
102
RTVSPropertyOp26
 70
     1
102
RTVSPropertyOp27
 70
     1
  0
XRECORD
  5
7B
102
{ACAD_REACTORS
330
7A
102
}
330
7A
100
AcDbXrecord
280
     1
102
RTVSPropertyOp0
 70
     1
102
RTVSPropertyOp1
 70
     1
102
RTVSPropertyOp2
 70
     1
102
RTVSPropertyOp3
 70
     1
102
RTVSPropertyOp4
 70
     1
102
RTVSPropertyOp5
 70
     1
102
RTVSPropertyOp6
 70
     1
102
RTVSPropertyOp7
 70
     1
102
RTVSPropertyOp8
 70
     1
102
RTVSPropertyOp9
 70
     1
102
RTVSPropertyOp10
 70
     1
102
RTVSPropertyOp11
 70
     1
102
RTVSPropertyOp12
 70
     1
102
RTVSPropertyOp13
 70
     1
102
RTVSPropertyOp14
 70
     1
102
RTVSPropertyOp15
 70
     1
102
RTVSPropertyOp16
 70
     1
102
RTVSPropertyOp17
 70
     1
102
RTVSPropertyOp18
 70
     1
102
RTVSPropertyOp19
 70
     1
102
RTVSPropertyOp20
 70
     1
102
RTVSPropertyOp21
 70
     1
102
RTVSPropertyOp22
 70
     1
102
RTVSPropertyOp23
 70
     1
102
RTVSPropertyOp24
 70
     1
102
RTVSPropertyOp25
 70
     1
102
RTVSPropertyOp26
 70
     1
102
RTVSPropertyOp27
 70
     1
  0
XRECORD
  5
83
102
{ACAD_REACTORS
330
82
102
}
330
82
100
AcDbXrecord
280
     1
102
RTVSPropertyOp0
 70
     1
102
RTVSPropertyOp1
 70
     1
102
RTVSPropertyOp2
 70
     1
102
RTVSPropertyOp3
 70
     1
102
RTVSPropertyOp4
 70
     1
102
RTVSPropertyOp5
 70
     1
102
RTVSPropertyOp6
 70
     1
102
RTVSPropertyOp7
 70
     1
102
RTVSPropertyOp8
 70
     1
102
RTVSPropertyOp9
 70
     1
102
RTVSPropertyOp10
 70
     1
102
RTVSPropertyOp11
 70
     1
102
RTVSPropertyOp12
 70
     1
102
RTVSPropertyOp13
 70
     1
102
RTVSPropertyOp14
 70
     1
102
RTVSPropertyOp15
 70
     1
102
RTVSPropertyOp16
 70
     1
102
RTVSPropertyOp17
 70
     1
102
RTVSPropertyOp18
 70
     1
102
RTVSPropertyOp19
 70
     1
102
RTVSPropertyOp20
 70
     1
102
RTVSPropertyOp21
 70
     1
102
RTVSPropertyOp22
 70
     1
102
RTVSPropertyOp23
 70
     1
102
RTVSPropertyOp24
 70
     1
102
RTVSPropertyOp25
 70
     1
102
RTVSPropertyOp26
 70
     1
102
RTVSPropertyOp27
 70
     1
  0
XRECORD
  5
77
102
{ACAD_REACTORS
330
76
102
}
330
76
100
AcDbXrecord
280
     1
102
RTVSPropertyOp0
 70
     1
102
RTVSPropertyOp1
 70
     1
102
RTVSPropertyOp2
 70
     1
102
RTVSPropertyOp3
 70
     1
102
RTVSPropertyOp4
 70
     1
102
RTVSPropertyOp5
 70
     1
102
RTVSPropertyOp6
 70
     1
102
RTVSPropertyOp7
 70
     1
102
RTVSPropertyOp8
 70
     1
102
RTVSPropertyOp9
 70
     1
102
RTVSPropertyOp10
 70
     1
102
RTVSPropertyOp11
 70
     1
102
RTVSPropertyOp12
 70
     1
102
RTVSPropertyOp13
 70
     1
102
RTVSPropertyOp14
 70
     1
102
RTVSPropertyOp15
 70
     1
102
RTVSPropertyOp16
 70
     1
102
RTVSPropertyOp17
 70
     1
102
RTVSPropertyOp18
 70
     1
102
RTVSPropertyOp19
 70
     1
102
RTVSPropertyOp20
 70
     1
102
RTVSPropertyOp21
 70
     1
102
RTVSPropertyOp22
 70
     1
102
RTVSPropertyOp23
 70
     1
102
RTVSPropertyOp24
 70
     1
102
RTVSPropertyOp25
 70
     1
102
RTVSPropertyOp26
 70
     1
102
RTVSPropertyOp27
 70
     1
  0
XRECORD
  5
79
102
{ACAD_REACTORS
330
78
102
}
330
78
100
AcDbXrecord
280
     1
102
RTVSPropertyOp0
 70
     1
102
RTVSPropertyOp1
 70
     1
102
RTVSPropertyOp2
 70
     1
102
RTVSPropertyOp3
 70
     1
102
RTVSPropertyOp4
 70
     1
102
RTVSPropertyOp5
 70
     1
102
RTVSPropertyOp6
 70
     1
102
RTVSPropertyOp7
 70
     1
102
RTVSPropertyOp8
 70
     1
102
RTVSPropertyOp9
 70
     1
102
RTVSPropertyOp10
 70
     1
102
RTVSPropertyOp11
 70
     1
102
RTVSPropertyOp12
 70
     1
102
RTVSPropertyOp13
 70
     1
102
RTVSPropertyOp14
 70
     1
102
RTVSPropertyOp15
 70
     1
102
RTVSPropertyOp16
 70
     1
102
RTVSPropertyOp17
 70
     1
102
RTVSPropertyOp18
 70
     1
102
RTVSPropertyOp19
 70
     1
102
RTVSPropertyOp20
 70
     1
102
RTVSPropertyOp21
 70
     1
102
RTVSPropertyOp22
 70
     1
102
RTVSPropertyOp23
 70
     1
102
RTVSPropertyOp24
 70
     1
102
RTVSPropertyOp25
 70
     1
102
RTVSPropertyOp26
 70
     1
102
RTVSPropertyOp27
 70
     1
  0
XRECORD
  5
81
102
{ACAD_REACTORS
330
80
102
}
330
80
100
AcDbXrecord
280
     1
102
RTVSPropertyOp0
 70
     1
102
RTVSPropertyOp1
 70
     1
102
RTVSPropertyOp2
 70
     1
102
RTVSPropertyOp3
 70
     1
102
RTVSPropertyOp4
 70
     1
102
RTVSPropertyOp5
 70
     1
102
RTVSPropertyOp6
 70
     1
102
RTVSPropertyOp7
 70
     1
102
RTVSPropertyOp8
 70
     1
102
RTVSPropertyOp9
 70
     1
102
RTVSPropertyOp10
 70
     1
102
RTVSPropertyOp11
 70
     1
102
RTVSPropertyOp12
 70
     1
102
RTVSPropertyOp13
 70
     1
102
RTVSPropertyOp14
 70
     1
102
RTVSPropertyOp15
 70
     1
102
RTVSPropertyOp16
 70
     1
102
RTVSPropertyOp17
 70
     1
102
RTVSPropertyOp18
 70
     1
102
RTVSPropertyOp19
 70
     1
102
RTVSPropertyOp20
 70
     1
102
RTVSPropertyOp21
 70
     1
102
RTVSPropertyOp22
 70
     1
102
RTVSPropertyOp23
 70
     1
102
RTVSPropertyOp24
 70
     1
102
RTVSPropertyOp25
 70
     1
102
RTVSPropertyOp26
 70
     1
102
RTVSPropertyOp27
 70
     1
  0
XRECORD
  5
65
102
{ACAD_REACTORS
330
64
102
}
330
64
100
AcDbXrecord
280
     1
102
RTVSPropertyOp0
 70
     1
102
RTVSPropertyOp1
 70
     1
102
RTVSPropertyOp2
 70
     1
102
RTVSPropertyOp3
 70
     1
102
RTVSPropertyOp4
 70
     1
102
RTVSPropertyOp5
 70
     1
102
RTVSPropertyOp6
 70
     1
102
RTVSPropertyOp7
 70
     1
102
RTVSPropertyOp8
 70
     1
102
RTVSPropertyOp9
 70
     1
102
RTVSPropertyOp10
 70
     1
102
RTVSPropertyOp11
 70
     1
102
RTVSPropertyOp12
 70
     1
102
RTVSPropertyOp13
 70
     1
102
RTVSPropertyOp14
 70
     1
102
RTVSPropertyOp15
 70
     1
102
RTVSPropertyOp16
 70
     1
102
RTVSPropertyOp17
 70
     1
102
RTVSPropertyOp18
 70
     1
102
RTVSPropertyOp19
 70
     1
102
RTVSPropertyOp20
 70
     1
102
RTVSPropertyOp21
 70
     1
102
RTVSPropertyOp22
 70
     1
102
RTVSPropertyOp23
 70
     1
102
RTVSPropertyOp24
 70
     1
102
RTVSPropertyOp25
 70
     1
102
RTVSPropertyOp26
 70
     1
102
RTVSPropertyOp27
 70
     1
  0
XRECORD
  5
67
102
{ACAD_REACTORS
330
66
102
}
330
66
100
AcDbXrecord
280
     1
102
RTVSPropertyOp0
 70
     1
102
RTVSPropertyOp1
 70
     1
102
RTVSPropertyOp2
 70
     1
102
RTVSPropertyOp3
 70
     1
102
RTVSPropertyOp4
 70
     1
102
RTVSPropertyOp5
 70
     1
102
RTVSPropertyOp6
 70
     1
102
RTVSPropertyOp7
 70
     1
102
RTVSPropertyOp8
 70
     1
102
RTVSPropertyOp9
 70
     1
102
RTVSPropertyOp10
 70
     1
102
RTVSPropertyOp11
 70
     1
102
RTVSPropertyOp12
 70
     1
102
RTVSPropertyOp13
 70
     1
102
RTVSPropertyOp14
 70
     1
102
RTVSPropertyOp15
 70
     1
102
RTVSPropertyOp16
 70
     1
102
RTVSPropertyOp17
 70
     1
102
RTVSPropertyOp18
 70
     1
102
RTVSPropertyOp19
 70
     1
102
RTVSPropertyOp20
 70
     1
102
RTVSPropertyOp21
 70
     1
102
RTVSPropertyOp22
 70
     1
102
RTVSPropertyOp23
 70
     1
102
RTVSPropertyOp24
 70
     1
102
RTVSPropertyOp25
 70
     1
102
RTVSPropertyOp26
 70
     1
102
RTVSPropertyOp27
 70
     1
  0
XRECORD
  5
69
102
{ACAD_REACTORS
330
68
102
}
330
68
100
AcDbXrecord
280
     1
102
RTVSPropertyOp0
 70
     1
102
RTVSPropertyOp1
 70
     1
102
RTVSPropertyOp2
 70
     1
102
RTVSPropertyOp3
 70
     1
102
RTVSPropertyOp4
 70
     1
102
RTVSPropertyOp5
 70
     1
102
RTVSPropertyOp6
 70
     1
102
RTVSPropertyOp7
 70
     1
102
RTVSPropertyOp8
 70
     1
102
RTVSPropertyOp9
 70
     1
102
RTVSPropertyOp10
 70
     1
102
RTVSPropertyOp11
 70
     1
102
RTVSPropertyOp12
 70
     1
102
RTVSPropertyOp13
 70
     1
102
RTVSPropertyOp14
 70
     1
102
RTVSPropertyOp15
 70
     1
102
RTVSPropertyOp16
 70
     1
102
RTVSPropertyOp17
 70
     1
102
RTVSPropertyOp18
 70
     1
102
RTVSPropertyOp19
 70
     1
102
RTVSPropertyOp20
 70
     1
102
RTVSPropertyOp21
 70
     1
102
RTVSPropertyOp22
 70
     1
102
RTVSPropertyOp23
 70
     1
102
RTVSPropertyOp24
 70
     1
102
RTVSPropertyOp25
 70
     1
102
RTVSPropertyOp26
 70
     1
102
RTVSPropertyOp27
 70
     1
  0
XRECORD
  5
6B
102
{ACAD_REACTORS
330
6A
102
}
330
6A
100
AcDbXrecord
280
     1
102
RTVSPropertyOp0
 70
     1
102
RTVSPropertyOp1
 70
     1
102
RTVSPropertyOp2
 70
     1
102
RTVSPropertyOp3
 70
     1
102
RTVSPropertyOp4
 70
     1
102
RTVSPropertyOp5
 70
     1
102
RTVSPropertyOp6
 70
     1
102
RTVSPropertyOp7
 70
     1
102
RTVSPropertyOp8
 70
     1
102
RTVSPropertyOp9
 70
     1
102
RTVSPropertyOp10
 70
     1
102
RTVSPropertyOp11
 70
     1
102
RTVSPropertyOp12
 70
     1
102
RTVSPropertyOp13
 70
     1
102
RTVSPropertyOp14
 70
     1
102
RTVSPropertyOp15
 70
     1
102
RTVSPropertyOp16
 70
     1
102
RTVSPropertyOp17
 70
     1
102
RTVSPropertyOp18
 70
     1
102
RTVSPropertyOp19
 70
     1
102
RTVSPropertyOp20
 70
     1
102
RTVSPropertyOp21
 70
     1
102
RTVSPropertyOp22
 70
     1
102
RTVSPropertyOp23
 70
     1
102
RTVSPropertyOp24
 70
     1
102
RTVSPropertyOp25
 70
     1
102
RTVSPropertyOp26
 70
     1
102
RTVSPropertyOp27
 70
     1
  0
XRECORD
  5
7F
102
{ACAD_REACTORS
330
7E
102
}
330
7E
100
AcDbXrecord
280
     1
102
RTVSPropertyOp0
 70
     1
102
RTVSPropertyOp1
 70
     1
102
RTVSPropertyOp2
 70
     1
102
RTVSPropertyOp3
 70
     1
102
RTVSPropertyOp4
 70
     1
102
RTVSPropertyOp5
 70
     1
102
RTVSPropertyOp6
 70
     1
102
RTVSPropertyOp7
 70
     1
102
RTVSPropertyOp8
 70
     1
102
RTVSPropertyOp9
 70
     1
102
RTVSPropertyOp10
 70
     1
102
RTVSPropertyOp11
 70
     1
102
RTVSPropertyOp12
 70
     1
102
RTVSPropertyOp13
 70
     1
102
RTVSPropertyOp14
 70
     1
102
RTVSPropertyOp15
 70
     1
102
RTVSPropertyOp16
 70
     1
102
RTVSPropertyOp17
 70
     1
102
RTVSPropertyOp18
 70
     1
102
RTVSPropertyOp19
 70
     1
102
RTVSPropertyOp20
 70
     1
102
RTVSPropertyOp21
 70
     1
102
RTVSPropertyOp22
 70
     1
102
RTVSPropertyOp23
 70
     1
102
RTVSPropertyOp24
 70
     1
102
RTVSPropertyOp25
 70
     1
102
RTVSPropertyOp26
 70
     1
102
RTVSPropertyOp27
 70
     1
  0
XRECORD
  5
75
102
{ACAD_REACTORS
330
74
102
}
330
74
100
AcDbXrecord
280
     1
102
RTVSPropertyOp0
 70
     1
102
RTVSPropertyOp1
 70
     1
102
RTVSPropertyOp2
 70
     1
102
RTVSPropertyOp3
 70
     1
102
RTVSPropertyOp4
 70
     1
102
RTVSPropertyOp5
 70
     1
102
RTVSPropertyOp6
 70
     1
102
RTVSPropertyOp7
 70
     1
102
RTVSPropertyOp8
 70
     1
102
RTVSPropertyOp9
 70
     1
102
RTVSPropertyOp10
 70
     1
102
RTVSPropertyOp11
 70
     1
102
RTVSPropertyOp12
 70
     1
102
RTVSPropertyOp13
 70
     1
102
RTVSPropertyOp14
 70
     1
102
RTVSPropertyOp15
 70
     1
102
RTVSPropertyOp16
 70
     1
102
RTVSPropertyOp17
 70
     1
102
RTVSPropertyOp18
 70
     1
102
RTVSPropertyOp19
 70
     1
102
RTVSPropertyOp20
 70
     1
102
RTVSPropertyOp21
 70
     1
102
RTVSPropertyOp22
 70
     1
102
RTVSPropertyOp23
 70
     1
102
RTVSPropertyOp24
 70
     1
102
RTVSPropertyOp25
 70
     1
102
RTVSPropertyOp26
 70
     1
102
RTVSPropertyOp27
 70
     1
  0
XRECORD
  5
7D
102
{ACAD_REACTORS
330
7C
102
}
330
7C
100
AcDbXrecord
280
     1
102
RTVSPropertyOp0
 70
     1
102
RTVSPropertyOp1
 70
     1
102
RTVSPropertyOp2
 70
     1
102
RTVSPropertyOp3
 70
     1
102
RTVSPropertyOp4
 70
     1
102
RTVSPropertyOp5
 70
     1
102
RTVSPropertyOp6
 70
     1
102
RTVSPropertyOp7
 70
     1
102
RTVSPropertyOp8
 70
     1
102
RTVSPropertyOp9
 70
     1
102
RTVSPropertyOp10
 70
     1
102
RTVSPropertyOp11
 70
     1
102
RTVSPropertyOp12
 70
     1
102
RTVSPropertyOp13
 70
     1
102
RTVSPropertyOp14
 70
     1
102
RTVSPropertyOp15
 70
     1
102
RTVSPropertyOp16
 70
     1
102
RTVSPropertyOp17
 70
     1
102
RTVSPropertyOp18
 70
     1
102
RTVSPropertyOp19
 70
     1
102
RTVSPropertyOp20
 70
     1
102
RTVSPropertyOp21
 70
     1
102
RTVSPropertyOp22
 70
     1
102
RTVSPropertyOp23
 70
     1
102
RTVSPropertyOp24
 70
     1
102
RTVSPropertyOp25
 70
     1
102
RTVSPropertyOp26
 70
     1
102
RTVSPropertyOp27
 70
     1
  0
ENDSEC
  0
EOF
