  0
SECTION
  2
HEADER
  9
$ACADVER
  1
AC1021
  9
$ACADMAINTVER
 70
    25
  9
$DWGCODEPAGE
  3
ANSI_1252
  9
$INSBASE
 10
0.0
 20
0.0
 30
0.0
  9
$EXTMIN
 10
-14.99616
 20
-9.33597
 30
0.0
  9
$EXTMAX
 10
14.1142
 20
9.9124
 30
0.0
  9
$LIMMIN
 10
0.0
 20
0.0
  9
$LIMMAX
 10
12.0
 20
9.0
  9
$ORTHOMODE
 70
     0
  9
$REGENMODE
 70
     1
  9
$FILLMODE
 70
     1
  9
$QTEXTMODE
 70
     0
  9
$MIRRTEXT
 70
     1
  9
$LTSCALE
 40
1.0
  9
$ATTMODE
 70
     1
  9
$TEXTSIZE
 40
0.2
  9
$TRACEWID
 40
0.05
  9
$TEXTSTYLE
  7
Standard
  9
$CLAYER
  8
0
  9
$CELTYPE
  6
ByLayer
  9
$CECOLOR
 62
   256
  9
$CELTSCALE
 40
1.0
  9
$DISPSILH
 70
     0
  9
$DIMSCALE
 40
1.0
  9
$DIMASZ
 40
0.18
  9
$DIMEXO
 40
0.0625
  9
$DIMDLI
 40
0.38
  9
$DIMRND
 40
0.0
  9
$DIMDLE
 40
0.0
  9
$DIMEXE
 40
0.18
  9
$DIMTP
 40
0.0
  9
$DIMTM
 40
0.0
  9
$DIMTXT
 40
0.18
  9
$DIMCEN
 40
0.09
  9
$DIMTSZ
 40
0.0
  9
$DIMTOL
 70
     0
  9
$DIMLIM
 70
     0
  9
$DIMTIH
 70
     1
  9
$DIMTOH
 70
     1
  9
$DIMSE1
 70
     0
  9
$DIMSE2
 70
     0
  9
$DIMTAD
 70
     0
  9
$DIMZIN
 70
     0
  9
$DIMBLK
  1

  9
$DIMASO
 70
     1
  9
$DIMSHO
 70
     1
  9
$DIMPOST
  1

  9
$DIMAPOST
  1

  9
$DIMALT
 70
     0
  9
$DIMALTD
 70
     2
  9
$DIMALTF
 40
25.4
  9
$DIMLFAC
 40
1.0
  9
$DIMTOFL
 70
     0
  9
$DIMTVP
 40
0.0
  9
$DIMTIX
 70
     0
  9
$DIMSOXD
 70
     0
  9
$DIMSAH
 70
     0
  9
$DIMBLK1
  1

  9
$DIMBLK2
  1

  9
$DIMSTYLE
  2
Standard
  9
$DIMCLRD
 70
     0
  9
$DIMCLRE
 70
     0
  9
$DIMCLRT
 70
     0
  9
$DIMTFAC
 40
1.0
  9
$DIMGAP
 40
0.09
  9
$DIMJUST
 70
     0
  9
$DIMSD1
 70
     0
  9
$DIMSD2
 70
     0
  9
$DIMTOLJ
 70
     1
  9
$DIMTZIN
 70
     0
  9
$DIMALTZ
 70
     0
  9
$DIMALTTZ
 70
     0
  9
$DIMUPT
 70
     0
  9
$DIMDEC
 70
     4
  9
$DIMTDEC
 70
     4
  9
$DIMALTU
 70
     2
  9
$DIMALTTD
 70
     2
  9
$DIMTXSTY
  7
Standard
  9
$DIMAUNIT
 70
     0
  9
$DIMADEC
 70
     0
  9
$DIMALTRND
 40
0.0
  9
$DIMAZIN
 70
     0
  9
$DIMDSEP
 70
    46
  9
$DIMATFIT
 70
     3
  9
$DIMFRAC
 70
     0
  9
$DIMLDRBLK
  1

  9
$DIMLUNIT
 70
     2
  9
$DIMLWD
 70
    -2
  9
$DIMLWE
 70
    -2
  9
$DIMTMOVE
 70
     0
  9
$DIMFXL
 40
1.0
  9
$DIMFXLON
 70
     0
  9
$DIMJOGANG
 40
0.7853981633974483
  9
$DIMTFILL
 70
     0
  9
$DIMTFILLCLR
 70
     0
  9
$DIMARCSYM
 70
     0
  9
$DIMLTYPE
  6

  9
$DIMLTEX1
  6

  9
$DIMLTEX2
  6

  9
$LUNITS
 70
     2
  9
$LUPREC
 70
     4
  9
$SKETCHINC
 40
0.1
  9
$FILLETRAD
 40
0.5
  9
$AUNITS
 70
     0
  9
$AUPREC
 70
     0
  9
$MENU
  1
.
  9
$ELEVATION
 40
0.0
  9
$PELEVATION
 40
0.0
  9
$THICKNESS
 40
0.0
  9
$LIMCHECK
 70
     0
  9
$CHAMFERA
 40
0.5
  9
$CHAMFERB
 40
0.5
  9
$CHAMFERC
 40
1.0
  9
$CHAMFERD
 40
0.0
  9
$SKPOLY
 70
     0
  9
$TDCREATE
 40
2457064.038860197
  9
$TDUCREATE
 40
2457063.99719353
  9
$TDUPDATE
 40
2457064.038860208
  9
$TDUUPDATE
 40
2457063.997193542
  9
$TDINDWG
 40
0.0000000116
  9
$TDUSRTIMER
 40
0.0000000116
  9
$USRTIMER
 70
     1
  9
$ANGBASE
 50
0.0
  9
$ANGDIR
 70
     0
  9
$PDMODE
 70
     0
  9
$PDSIZE
 40
0.0
  9
$PLINEWID
 40
0.0
  9
$SPLFRAME
 70
     0
  9
$SPLINETYPE
 70
     6
  9
$SPLINESEGS
 70
     8
  9
$HANDSEED
  5
B3
  9
$SURFTAB1
 70
     6
  9
$SURFTAB2
 70
     6
  9
$SURFTYPE
 70
     6
  9
$SURFU
 70
     6
  9
$SURFV
 70
     6
  9
$UCSBASE
  2

  9
$UCSNAME
  2

  9
$UCSORG
 10
0.0
 20
0.0
 30
0.0
  9
$UCSXDIR
 10
1.0
 20
0.0
 30
0.0
  9
$UCSYDIR
 10
0.0
 20
1.0
 30
0.0
  9
$UCSORTHOREF
  2

  9
$UCSORTHOVIEW
 70
     0
  9
$UCSORGTOP
 10
0.0
 20
0.0
 30
0.0
  9
$UCSORGBOTTOM
 10
0.0
 20
0.0
 30
0.0
  9
$UCSORGLEFT
 10
0.0
 20
0.0
 30
0.0
  9
$UCSORGRIGHT
 10
0.0
 20
0.0
 30
0.0
  9
$UCSORGFRONT
 10
0.0
 20
0.0
 30
0.0
  9
$UCSORGBACK
 10
0.0
 20
0.0
 30
0.0
  9
$PUCSBASE
  2

  9
$PUCSNAME
  2

  9
$PUCSORG
 10
0.0
 20
0.0
 30
0.0
  9
$PUCSXDIR
 10
1.0
 20
0.0
 30
0.0
  9
$PUCSYDIR
 10
0.0
 20
1.0
 30
0.0
  9
$PUCSORTHOREF
  2

  9
$PUCSORTHOVIEW
 70
     0
  9
$PUCSORGTOP
 10
0.0
 20
0.0
 30
0.0
  9
$PUCSORGBOTTOM
 10
0.0
 20
0.0
 30
0.0
  9
$PUCSORGLEFT
 10
0.0
 20
0.0
 30
0.0
  9
$PUCSORGRIGHT
 10
0.0
 20
0.0
 30
0.0
  9
$PUCSORGFRONT
 10
0.0
 20
0.0
 30
0.0
  9
$PUCSORGBACK
 10
0.0
 20
0.0
 30
0.0
  9
$USERI1
 70
     0
  9
$USERI2
 70
     0
  9
$USERI3
 70
     0
  9
$USERI4
 70
     0
  9
$USERI5
 70
     0
  9
$USERR1
 40
0.0
  9
$USERR2
 40
0.0
  9
$USERR3
 40
0.0
  9
$USERR4
 40
0.0
  9
$USERR5
 40
0.0
  9
$WORLDVIEW
 70
     1
  9
$SHADEDGE
 70
     3
  9
$SHADEDIF
 70
    70
  9
$TILEMODE
 70
     1
  9
$MAXACTVP
 70
    64
  9
$PINSBASE
 10
0.0
 20
0.0
 30
0.0
  9
$PLIMCHECK
 70
     0
  9
$PEXTMIN
 10
1.000000000000000E+20
 20
1.000000000000000E+20
 30
1.000000000000000E+20
  9
$PEXTMAX
 10
-1.000000000000000E+20
 20
-1.000000000000000E+20
 30
-1.000000000000000E+20
  9
$PLIMMIN
 10
0.0
 20
0.0
  9
$PLIMMAX
 10
12.0
 20
9.0
  9
$UNITMODE
 70
     0
  9
$VISRETAIN
 70
     1
  9
$PLINEGEN
 70
     0
  9
$PSLTSCALE
 70
     1
  9
$TREEDEPTH
 70
  3020
  9
$CMLSTYLE
  2
Standard
  9
$CMLJUST
 70
     0
  9
$CMLSCALE
 40
1.0
  9
$PROXYGRAPHICS
 70
     1
  9
$MEASUREMENT
 70
     0
  9
$CELWEIGHT
370
    -1
  9
$ENDCAPS
280
     0
  9
$JOINSTYLE
280
     0
  9
$LWDISPLAY
290
     0
  9
$INSUNITS
 70
     5
  9
$HYPERLINKBASE
  1

  9
$STYLESHEET
  1

  9
$XEDIT
290
     1
  9
$CEPSNTYPE
380
     0
  9
$PSTYLEMODE
290
     1
  9
$FINGERPRINTGUID
  2
{0BE5128D-B156-4F62-8FB8-C95C4D655EBA}
  9
$VERSIONGUID
  2
{FAEB1C32-E019-11D5-929B-00C0DF256EC4}
  9
$EXTNAMES
290
     1
  9
$PSVPSCALE
 40
0.0
  9
$OLESTARTUP
290
     0
  9
$SORTENTS
280
   127
  9
$INDEXCTL
280
     0
  9
$HIDETEXT
280
     1
  9
$XCLIPFRAME
290
     0
  9
$HALOGAP
280
     0
  9
$OBSCOLOR
 70
   257
  9
$OBSLTYPE
280
     0
  9
$INTERSECTIONDISPLAY
280
     0
  9
$INTERSECTIONCOLOR
 70
   257
  9
$DIMASSOC
280
     2
  9
$PROJECTNAME
  1

  9
$CAMERADISPLAY
290
     0
  9
$LENSLENGTH
 40
50.0
  9
$CAMERAHEIGHT
 40
0.0
  9
$STEPSPERSEC
 40
2.0
  9
$STEPSIZE
 40
6.0
  9
$3DDWFPREC
 40
2.0
  9
$PSOLWIDTH
 40
0.25
  9
$PSOLHEIGHT
 40
4.0
  9
$LOFTANG1
 40
1.570796326794897
  9
$LOFTANG2
 40
1.570796326794897
  9
$LOFTMAG1
 40
0.0
  9
$LOFTMAG2
 40
0.0
  9
$LOFTPARAM
 70
     7
  9
$LOFTNORMALS
280
     1
  9
$LATITUDE
 40
37.795
  9
$LONGITUDE
 40
-122.394
  9
$NORTHDIRECTION
 40
0.0
  9
$TIMEZONE
 70
 -8000
  9
$LIGHTGLYPHDISPLAY
280
     1
  9
$TILEMODELIGHTSYNCH
280
     1
  9
$SOLIDHIST
280
     1
  9
$SHOWHIST
280
     1
  9
$DWFFRAME
280
     2
  9
$DGNFRAME
280
     2
  9
$REALWORLDSCALE
290
     1
  9
$INTERFERECOLOR
 62
   256
  9
$CSHADOW
280
     0
  9
$SHADOWPLANELOCATION
 40
0.0
  0
ENDSEC
  0
SECTION
  2
CLASSES
  0
CLASS
  1
ACDBDICTIONARYWDFLT
  2
AcDbDictionaryWithDefault
  3
ObjectDBX Classes
 90
        0
 91
        4
280
     0
281
     0
  0
CLASS
  1
VISUALSTYLE
  2
AcDbVisualStyle
  3
ObjectDBX Classes
 90
     4095
 91
        4
280
     0
281
     0
  0
CLASS
  1
MATERIAL
  2
AcDbMaterial
  3
ObjectDBX Classes
 90
     1153
 91
        4
280
     0
281
     0
  0
ENDSEC
  0
SECTION
  2
TABLES
  0
TABLE
  2
VPORT
  5
8
330
0
100
AcDbSymbolTable
 70
     1
  0
VPORT
  5
29
330
8
100
AcDbSymbolTableRecord
100
AcDbViewportTableRecord
  2
*Active
 70
     0
 10
0.0
 20
0.0
 11
1.0
 21
1.0
 12
10.42990654205607
 22
4.5
 13
0.0
 23
0.0
 14
0.5
 24
0.5
 15
0.5
 25
0.5
 16
0.0
 26
0.0
 36
1.0
 17
0.0
 27
0.0
 37
0.0
 40
9.0
 41
1.972972972850329
 42
50.0
 43
0.0
 44
0.0
 50
0.0
 51
0.0
 71
     0
 72
   100
 73
     1
 74
     3
 75
     0
 76
     0
 77
     0
 78
     0
281
     0
 65
     1
110
0.0
120
0.0
130
0.0
111
1.0
121
0.0
131
0.0
112
0.0
122
1.0
132
0.0
 79
     0
146
0.0
 60
     3
 61
     5
292
     1
282
     1
141
0.0
142
0.0
 63
   250
  0
ENDTAB
  0
TABLE
  2
LTYPE
  5
5
330
0
100
AcDbSymbolTable
 70
     1
  0
LTYPE
  5
14
330
5
100
AcDbSymbolTableRecord
100
AcDbLinetypeTableRecord
  2
ByBlock
 70
     0
  3

 72
    65
 73
     0
 40
0.0
  0
LTYPE
  5
15
330
5
100
AcDbSymbolTableRecord
100
AcDbLinetypeTableRecord
  2
ByLayer
 70
     0
  3

 72
    65
 73
     0
 40
0.0
  0
LTYPE
  5
16
330
5
100
AcDbSymbolTableRecord
100
AcDbLinetypeTableRecord
  2
Continuous
 70
     0
  3
Solid line
 72
    65
 73
     0
 40
0.0
  0
ENDTAB
  0
TABLE
  2
LAYER
  5
2
330
0
100
AcDbSymbolTable
 70
     2
  0
LAYER
  5
10
330
2
100
AcDbSymbolTableRecord
100
AcDbLayerTableRecord
  2
0
 70
     0
 62
     7
  6
Continuous
370
    -3
390
F
347
3E
  0
LAYER
  5
40
330
2
100
AcDbSymbolTableRecord
100
AcDbLayerTableRecord
  2
Capa 1
 70
     0
 62
     7
  6
Continuous
370
    -3
390
F
347
3E
  0
ENDTAB
  0
TABLE
  2
STYLE
  5
3
330
0
100
AcDbSymbolTable
 70
     1
  0
STYLE
  5
11
330
3
100
AcDbSymbolTableRecord
100
AcDbTextStyleTableRecord
  2
Standard
 70
     0
 40
0.0
 41
1.0
 50
0.0
 71
     0
 42
0.2
  3
txt
  4

  0
ENDTAB
  0
TABLE
  2
VIEW
  5
6
330
0
100
AcDbSymbolTable
 70
     0
  0
ENDTAB
  0
TABLE
  2
UCS
  5
7
330
0
100
AcDbSymbolTable
 70
     0
  0
ENDTAB
  0
TABLE
  2
APPID
  5
9
330
0
100
AcDbSymbolTable
 70
     2
  0
APPID
  5
12
330
9
100
AcDbSymbolTableRecord
100
AcDbRegAppTableRecord
  2
ACAD
 70
     0
  0
APPID
  5
3F
330
9
100
AcDbSymbolTableRecord
100
AcDbRegAppTableRecord
  2
ODA
 70
     0
  0
ENDTAB
  0
TABLE
  2
DIMSTYLE
  5
A
330
0
100
AcDbSymbolTable
 70
     1
100
AcDbDimStyleTable
  0
DIMSTYLE
105
27
330
A
100
AcDbSymbolTableRecord
100
AcDbDimStyleTableRecord
  2
Standard
 70
     0
340
11
  0
ENDTAB
  0
TABLE
  2
BLOCK_RECORD
  5
1
330
0
100
AcDbSymbolTable
 70
     1
  0
BLOCK_RECORD
  5
1F
330
1
100
AcDbSymbolTableRecord
100
AcDbBlockTableRecord
  2
*Model_Space
340
22
 70
     0
280
     1
281
     0
  0
BLOCK_RECORD
  5
1B
330
1
100
AcDbSymbolTableRecord
100
AcDbBlockTableRecord
  2
*Paper_Space
340
1E
 70
     0
280
     1
281
     0
  0
BLOCK_RECORD
  5
23
330
1
100
AcDbSymbolTableRecord
100
AcDbBlockTableRecord
  2
*Paper_Space0
340
26
 70
     0
280
     1
281
     0
  0
ENDTAB
  0
ENDSEC
  0
SECTION
  2
BLOCKS
  0
BLOCK
  5
20
330
1F
100
AcDbEntity
  8
0
100
AcDbBlockBegin
  2
*Model_Space
 70
     0
 10
0.0
 20
0.0
 30
0.0
  3
*Model_Space
  1

  0
ENDBLK
  5
21
330
1F
100
AcDbEntity
  8
0
100
AcDbBlockEnd
  0
BLOCK
  5
1C
330
1B
100
AcDbEntity
 67
     1
  8
0
100
AcDbBlockBegin
  2
*Paper_Space
 70
     0
 10
0.0
 20
0.0
 30
0.0
  3
*Paper_Space
  1

  0
ENDBLK
  5
1D
330
1B
100
AcDbEntity
 67
     1
  8
0
100
AcDbBlockEnd
  0
BLOCK
  5
24
330
23
100
AcDbEntity
  8
0
100
AcDbBlockBegin
  2
*Paper_Space0
 70
     0
 10
0.0
 20
0.0
 30
0.0
  3
*Paper_Space0
  1

  0
ENDBLK
  5
25
330
23
100
AcDbEntity
  8
0
100
AcDbBlockEnd
  0
ENDSEC
  0
SECTION
  2
ENTITIES
  0
SPLINE
  5
41
330
1F
100
AcDbEntity
  8
Capa 1
 62
   250
370
    20
100
AcDbSpline
210
0.0
220
0.0
230
1.0
 70
     8
 71
     3
 72
    12
 73
     8
 74
     0
 42
0.0000000001
 43
0.0000000001
 40
0.0
 40
0.0
 40
0.0
 40
0.0
 40
0.3333333333333333
 40
0.3333333333333333
 40
0.3333333333333333
 40
0.3333333333333333
 40
1.0
 40
1.0
 40
1.0
 40
1.0
 10
-14.15642
 20
3.16696
 30
0.0
 10
-14.15642
 20
3.16696
 30
0.0
 10
-14.15642
 20
9.89742
 30
0.0
 10
-14.15642
 20
9.89742
 30
0.0
 10
-14.15642
 20
9.89742
 30
0.0
 10
-14.15642
 20
9.89742
 30
0.0
 10
-13.78401
 20
9.89742
 30
0.0
 10
-13.78401
 20
9.89742
 30
0.0
  0
SPLINE
  5
42
330
1F
100
AcDbEntity
  8
Capa 1
 62
   250
370
    20
100
AcDbSpline
210
0.0
220
0.0
230
1.0
 70
    24
 71
     3
 72
     8
 73
     4
 74
     0
 42
0.0000000001
 43
0.0000000001
 40
0.0
 40
0.0
 40
0.0
 40
0.0
 40
1.0
 40
1.0
 40
1.0
 40
1.0
 10
-13.60241
 20
9.89742
 30
0.0
 10
-13.60241
 20
9.89742
 30
0.0
 10
-6.36094
 20
9.89742
 30
0.0
 10
-6.36094
 20
9.89742
 30
0.0
  0
SPLINE
  5
43
330
1F
100
AcDbEntity
  8
Capa 1
 62
   250
370
    20
100
AcDbSpline
210
0.0
220
0.0
230
1.0
 70
     8
 71
     3
 72
    12
 73
     8
 74
     0
 42
0.0000000001
 43
0.0000000001
 40
0.0
 40
0.0
 40
0.0
 40
0.0
 40
0.3333333333333333
 40
0.3333333333333333
 40
0.3333333333333333
 40
0.3333333333333333
 40
1.0
 40
1.0
 40
1.0
 40
1.0
 10
-6.17938
 20
9.89742
 30
0.0
 10
-6.17938
 20
9.89742
 30
0.0
 10
-5.81928
 20
9.89742
 30
0.0
 10
-5.81928
 20
9.89742
 30
0.0
 10
-5.81928
 20
9.89742
 30
0.0
 10
-5.81928
 20
9.89742
 30
0.0
 10
-5.81928
 20
3.16696
 30
0.0
 10
-5.81928
 20
3.16696
 30
0.0
  0
SPLINE
  5
44
330
1F
100
AcDbEntity
  8
Capa 1
 62
   250
370
    20
100
AcDbSpline
210
0.0
220
0.0
230
1.0
 70
     8
 71
     3
 72
    16
 73
    12
 74
     0
 42
0.0000000001
 43
0.0000000001
 40
0.0
 40
0.0
 40
0.0
 40
0.0
 40
0.25
 40
0.25
 40
0.25
 40
0.25
 40
0.5
 40
0.5
 40
0.5
 40
0.5
 40
1.0
 40
1.0
 40
1.0
 40
1.0
 10
-5.81928
 20
2.91252
 30
0.0
 10
-5.81928
 20
2.91252
 30
0.0
 10
-5.81928
 20
0.26647
 30
0.0
 10
-5.81928
 20
0.26647
 30
0.0
 10
-5.81928
 20
0.26647
 30
0.0
 10
-5.61109
 20
-0.14808
 30
0.0
 10
-12.48589
 20
-0.31369
 30
0.0
 10
-14.15642
 20
0.26647
 30
0.0
 10
-14.15642
 20
0.26647
 30
0.0
 10
-14.15642
 20
0.26647
 30
0.0
 10
-14.15642
 20
2.91252
 30
0.0
 10
-14.15642
 20
2.91252
 30
0.0
  0
SPLINE
  5
45
330
1F
100
AcDbEntity
  8
Capa 1
 62
   250
370
    20
100
AcDbSpline
210
0.0
220
0.0
230
1.0
 70
     8
 71
     3
 72
    16
 73
    12
 74
     0
 42
0.0000000001
 43
0.0000000001
 40
0.0
 40
0.0
 40
0.0
 40
0.0
 40
0.25
 40
0.25
 40
0.25
 40
0.25
 40
0.5
 40
0.5
 40
0.5
 40
0.5
 40
1.0
 40
1.0
 40
1.0
 40
1.0
 10
-14.16405
 20
3.16696
 30
0.0
 10
-14.16405
 20
3.16696
 30
0.0
 10
-12.99184
 20
3.16696
 30
0.0
 10
-12.99184
 20
3.16696
 30
0.0
 10
-12.99184
 20
3.16696
 30
0.0
 10
-12.99184
 20
3.16696
 30
0.0
 10
-12.99184
 20
2.91252
 30
0.0
 10
-12.99184
 20
2.91252
 30
0.0
 10
-12.99184
 20
2.91252
 30
0.0
 10
-12.99184
 20
2.91252
 30
0.0
 10
-14.16405
 20
2.91252
 30
0.0
 10
-14.16405
 20
2.91252
 30
0.0
  0
SPLINE
  5
46
330
1F
100
AcDbEntity
  8
Capa 1
 62
   250
370
    20
100
AcDbSpline
210
0.0
220
0.0
230
1.0
 70
     8
 71
     3
 72
    16
 73
    12
 74
     0
 42
0.0000000001
 43
0.0000000001
 40
0.0
 40
0.0
 40
0.0
 40
0.0
 40
0.25
 40
0.25
 40
0.25
 40
0.25
 40
0.5
 40
0.5
 40
0.5
 40
0.5
 40
1.0
 40
1.0
 40
1.0
 40
1.0
 10
-5.8122
 20
3.16696
 30
0.0
 10
-5.8122
 20
3.16696
 30
0.0
 10
-6.98441
 20
3.16696
 30
0.0
 10
-6.98441
 20
3.16696
 30
0.0
 10
-6.98441
 20
3.16696
 30
0.0
 10
-6.98441
 20
3.16696
 30
0.0
 10
-6.98441
 20
2.91252
 30
0.0
 10
-6.98441
 20
2.91252
 30
0.0
 10
-6.98441
 20
2.91252
 30
0.0
 10
-6.98441
 20
2.91252
 30
0.0
 10
-5.8122
 20
2.91252
 30
0.0
 10
-5.8122
 20
2.91252
 30
0.0
  0
SPLINE
  5
47
330
1F
100
AcDbEntity
  8
Capa 1
 62
   250
370
    20
100
AcDbSpline
210
0.0
220
0.0
230
1.0
 70
     8
 71
     3
 72
    16
 73
    12
 74
     0
 42
0.0000000001
 43
0.0000000001
 40
0.0
 40
0.0
 40
0.0
 40
0.0
 40
0.25
 40
0.25
 40
0.25
 40
0.25
 40
0.5
 40
0.5
 40
0.5
 40
0.5
 40
1.0
 40
1.0
 40
1.0
 40
1.0
 10
-13.60241
 20
9.91184
 30
0.0
 10
-13.60241
 20
9.91184
 30
0.0
 10
-13.53578
 20
8.64971
 30
0.0
 10
-13.53578
 20
8.64971
 30
0.0
 10
-13.53578
 20
8.64971
 30
0.0
 10
-13.53578
 20
8.64971
 30
0.0
 10
-13.71339
 20
8.64571
 30
0.0
 10
-13.71339
 20
8.64571
 30
0.0
 10
-13.71339
 20
8.64571
 30
0.0
 10
-13.71339
 20
8.64571
 30
0.0
 10
-13.78401
 20
9.91184
 30
0.0
 10
-13.78401
 20
9.91184
 30
0.0
  0
SPLINE
  5
48
330
1F
100
AcDbEntity
  8
Capa 1
 62
   250
370
    20
100
AcDbSpline
210
0.0
220
0.0
230
1.0
 70
     8
 71
     3
 72
    16
 73
    12
 74
     0
 42
0.0000000001
 43
0.0000000001
 40
0.0
 40
0.0
 40
0.0
 40
0.0
 40
0.25
 40
0.25
 40
0.25
 40
0.25
 40
0.5
 40
0.5
 40
0.5
 40
0.5
 40
1.0
 40
1.0
 40
1.0
 40
1.0
 10
-6.36017
 20
9.91184
 30
0.0
 10
-6.36017
 20
9.91184
 30
0.0
 10
-6.42681
 20
8.64971
 30
0.0
 10
-6.42681
 20
8.64971
 30
0.0
 10
-6.42681
 20
8.64971
 30
0.0
 10
-6.42681
 20
8.64971
 30
0.0
 10
-6.2492
 20
8.64571
 30
0.0
 10
-6.2492
 20
8.64571
 30
0.0
 10
-6.2492
 20
8.64571
 30
0.0
 10
-6.2492
 20
8.64571
 30
0.0
 10
-6.17857
 20
9.91184
 30
0.0
 10
-6.17857
 20
9.91184
 30
0.0
  0
SPLINE
  5
49
330
1F
100
AcDbEntity
  8
Capa 1
 62
   250
370
   100
100
AcDbSpline
210
0.0
220
0.0
230
1.0
 70
     8
 71
     3
 72
    20
 73
    16
 74
     0
 42
0.0000000001
 43
0.0000000001
 40
0.0
 40
0.0
 40
0.0
 40
0.0
 40
0.2
 40
0.2
 40
0.2
 40
0.2
 40
0.4
 40
0.4
 40
0.4
 40
0.4
 40
0.6
 40
0.6
 40
0.6
 40
0.6
 40
1.0
 40
1.0
 40
1.0
 40
1.0
 10
-11.10958
 20
8.09402
 30
0.0
 10
-11.18332
 20
8.15087
 30
0.0
 10
-11.23886
 20
8.28983
 30
0.0
 10
-11.27244
 20
8.37918
 30
0.0
 10
-11.27244
 20
8.37918
 30
0.0
 10
-11.29359
 20
8.43543
 30
0.0
 10
-11.30518
 20
8.49653
 30
0.0
 10
-11.30518
 20
8.56036
 30
0.0
 10
-11.30518
 20
8.56036
 30
0.0
 10
-11.30518
 20
8.84059
 30
0.0
 10
-11.0818
 20
9.06775
 30
0.0
 10
-10.80624
 20
9.06775
 30
0.0
 10
-10.80624
 20
9.06775
 30
0.0
 10
-10.58841
 20
9.06775
 30
0.0
 10
-10.32729
 20
8.90002
 30
0.0
 10
-10.25924
 20
8.70212
 30
0.0
  0
SPLINE
  5
4A
330
1F
100
AcDbEntity
  8
Capa 1
 62
   250
370
   100
100
AcDbSpline
210
0.0
220
0.0
230
1.0
 70
     8
 71
     3
 72
    16
 73
    12
 74
     0
 42
0.0000000001
 43
0.0000000001
 40
0.0
 40
0.0
 40
0.0
 40
0.0
 40
0.25
 40
0.25
 40
0.25
 40
0.25
 40
0.5
 40
0.5
 40
0.5
 40
0.5
 40
1.0
 40
1.0
 40
1.0
 40
1.0
 10
-9.6861
 20
8.68743
 30
0.0
 10
-9.63362
 20
8.91049
 30
0.0
 10
-9.37454
 20
9.09838
 30
0.0
 10
-9.13911
 20
9.09838
 30
0.0
 10
-9.13911
 20
9.09838
 30
0.0
 10
-8.86355
 20
9.09838
 30
0.0
 10
-8.64016
 20
8.87121
 30
0.0
 10
-8.64016
 20
8.59098
 30
0.0
 10
-8.64016
 20
8.59098
 30
0.0
 10
-8.64016
 20
8.39499
 30
0.0
 10
-8.76707
 20
8.16322
 30
0.0
 10
-8.92703
 20
8.07871
 30
0.0
  0
SPLINE
  5
4B
330
1F
100
AcDbEntity
  8
Capa 1
 62
   250
370
   100
100
AcDbSpline
210
0.0
220
0.0
230
1.0
 70
     8
 71
     3
 72
    12
 73
     8
 74
     0
 42
0.0000000001
 43
0.0000000001
 40
0.0
 40
0.0
 40
0.0
 40
0.0
 40
0.3333333333333333
 40
0.3333333333333333
 40
0.3333333333333333
 40
0.3333333333333333
 40
1.0
 40
1.0
 40
1.0
 40
1.0
 10
-10.33513
 20
8.7279
 30
0.0
 10
-10.23231
 20
8.75369
 30
0.0
 10
-10.12424
 20
8.76744
 30
0.0
 10
-10.01273
 20
8.76744
 30
0.0
 10
-10.01273
 20
8.76744
 30
0.0
 10
-9.87712
 20
8.76744
 30
0.0
 10
-9.74656
 20
8.7471
 30
0.0
 10
-9.62437
 20
8.70948
 30
0.0
  0
SPLINE
  5
4C
330
1F
100
AcDbEntity
  8
Capa 1
 62
   250
370
   100
100
AcDbSpline
210
0.0
220
0.0
230
1.0
 70
     8
 71
     3
 72
    20
 73
    16
 74
     0
 42
0.0000000001
 43
0.0000000001
 40
0.0
 40
0.0
 40
0.0
 40
0.0
 40
0.2
 40
0.2
 40
0.2
 40
0.2
 40
0.4
 40
0.4
 40
0.4
 40
0.4
 40
0.6
 40
0.6
 40
0.6
 40
0.6
 40
1.0
 40
1.0
 40
1.0
 40
1.0
 10
-8.90939
 20
8.14044
 30
0.0
 10
-8.81945
 20
7.97908
 30
0.0
 10
-8.7686
 20
7.79553
 30
0.0
 10
-8.7686
 20
7.60085
 30
0.0
 10
-8.7686
 20
7.60085
 30
0.0
 10
-8.7686
 20
6.95655
 30
0.0
 10
-9.32561
 20
6.43425
 30
0.0
 10
-10.01273
 20
6.43425
 30
0.0
 10
-10.01273
 20
6.43425
 30
0.0
 10
-10.69986
 20
6.43425
 30
0.0
 10
-11.25687
 20
6.95655
 30
0.0
 10
-11.25687
 20
7.60085
 30
0.0
 10
-11.25687
 20
7.60085
 30
0.0
 10
-11.25687
 20
7.80172
 30
0.0
 10
-11.20272
 20
7.99074
 30
0.0
 10
-11.10738
 20
8.15576
 30
0.0
  0
ELLIPSE
  5
4D
330
1F
100
AcDbEntity
  8
Capa 1
 62
   250
370
   100
100
AcDbEllipse
 10
-10.50433
 20
7.94373
 30
0.0
 11
0.0
 21
0.15425
 31
0.0
210
0.0
220
0.0
230
1.0
 40
1.0
 41
0.0
 42
6.283185307179586
  0
ELLIPSE
  5
4E
330
1F
100
AcDbEntity
  8
Capa 1
 62
   250
370
   100
100
AcDbEllipse
 10
-9.45677
 20
7.94373
 30
0.0
 11
0.15426
 21
0.0
 31
0.0
210
0.0
220
0.0
230
1.0
 40
0.9999351743809153
 41
0.0
 42
6.283185307179586
  0
ELLIPSE
  5
4F
330
1F
100
AcDbEntity
  8
Capa 1
 62
   250
370
   100
100
AcDbEllipse
 10
-9.98553
 20
7.18251
 30
0.0
 11
0.585
 21
0.0
 31
0.0
210
0.0
220
0.0
230
1.0
 40
0.9999829059829061
 41
0.0
 42
6.283185307179586
  0
SPLINE
  5
50
330
1F
100
AcDbEntity
  8
Capa 1
 62
   250
370
   158
100
AcDbSpline
210
0.0
220
0.0
230
1.0
 70
     8
 71
     3
 72
     8
 73
     4
 74
     0
 42
0.0000000001
 43
0.0000000001
 40
0.0
 40
0.0
 40
0.0
 40
0.0
 40
1.0
 40
1.0
 40
1.0
 40
1.0
 10
-9.22355
 20
6.69894
 30
0.0
 10
-9.12225
 20
6.64053
 30
0.0
 10
-9.02902
 20
6.5712
 30
0.0
 10
-8.94576
 20
6.49272
 30
0.0
  0
SPLINE
  5
51
330
1F
100
AcDbEntity
  8
Capa 1
 62
   250
370
   158
100
AcDbSpline
210
0.0
220
0.0
230
1.0
 70
     8
 71
     3
 72
    12
 73
     8
 74
     0
 42
0.0000000001
 43
0.0000000001
 40
0.0
 40
0.0
 40
0.0
 40
0.0
 40
0.3333333333333333
 40
0.3333333333333333
 40
0.3333333333333333
 40
0.3333333333333333
 40
1.0
 40
1.0
 40
1.0
 40
1.0
 10
-8.51717
 20
5.58316
 30
0.0
 10
-8.5161
 20
5.56155
 30
0.0
 10
-8.51555
 20
5.5398
 30
0.0
 10
-8.51555
 20
5.51793
 30
0.0
 10
-8.51555
 20
5.51793
 30
0.0
 10
-8.51555
 20
5.3795
 30
0.0
 10
-8.53737
 20
5.2458
 30
0.0
 10
-8.57797
 20
5.11963
 30
0.0
  0
SPLINE
  5
52
330
1F
100
AcDbEntity
  8
Capa 1
 62
   250
370
   158
100
AcDbSpline
210
0.0
220
0.0
230
1.0
 70
     8
 71
     3
 72
    12
 73
     8
 74
     0
 42
0.0000000001
 43
0.0000000001
 40
0.0
 40
0.0
 40
0.0
 40
0.0
 40
0.3333333333333333
 40
0.3333333333333333
 40
0.3333333333333333
 40
0.3333333333333333
 40
1.0
 40
1.0
 40
1.0
 40
1.0
 10
-9.77736
 20
4.14565
 30
0.0
 10
-9.85382
 20
4.13447
 30
0.0
 10
-9.93221
 20
4.12867
 30
0.0
 10
-10.01206
 20
4.12867
 30
0.0
 10
-10.01206
 20
4.12867
 30
0.0
 10
-10.06707
 20
4.12867
 30
0.0
 10
-10.12139
 20
4.13143
 30
0.0
 10
-10.17486
 20
4.13679
 30
0.0
  0
SPLINE
  5
53
330
1F
100
AcDbEntity
  8
Capa 1
 62
   250
370
   158
100
AcDbSpline
210
0.0
220
0.0
230
1.0
 70
     8
 71
     3
 72
    12
 73
     8
 74
     0
 42
0.0000000001
 43
0.0000000001
 40
0.0
 40
0.0
 40
0.0
 40
0.0
 40
0.3333333333333333
 40
0.3333333333333333
 40
0.3333333333333333
 40
0.3333333333333333
 40
1.0
 40
1.0
 40
1.0
 40
1.0
 10
-11.43077
 20
5.07465
 30
0.0
 10
-11.48122
 20
5.21386
 30
0.0
 10
-11.50857
 20
5.36293
 30
0.0
 10
-11.50857
 20
5.51793
 30
0.0
 10
-11.50857
 20
5.51793
 30
0.0
 10
-11.50857
 20
5.54443
 30
0.0
 10
-11.50777
 20
5.57075
 30
0.0
 10
-11.50619
 20
5.59688
 30
0.0
  0
SPLINE
  5
54
330
1F
100
AcDbEntity
  8
Capa 1
 62
   250
370
   158
100
AcDbSpline
210
0.0
220
0.0
230
1.0
 70
     8
 71
     3
 72
     8
 73
     4
 74
     0
 42
0.0000000001
 43
0.0000000001
 40
0.0
 40
0.0
 40
0.0
 40
0.0
 40
1.0
 40
1.0
 40
1.0
 40
1.0
 10
-11.05695
 20
6.51249
 30
0.0
 10
-10.97944
 20
6.58269
 30
0.0
 10
-10.89375
 20
6.64514
 30
0.0
 10
-10.80134
 20
6.6985
 30
0.0
  0
ELLIPSE
  5
55
330
1F
100
AcDbEntity
  8
Capa 1
 62
   250
370
   158
100
AcDbEllipse
 10
-11.34146
 20
6.08412
 30
0.0
 11
0.0
 21
0.51419
 31
0.0
210
0.0
220
0.0
230
1.0
 40
1.0
 41
0.0
 42
6.283185307179586
  0
SPLINE
  5
56
330
1F
100
AcDbEntity
  8
Capa 1
 62
   250
370
    80
100
AcDbSpline
210
0.0
220
0.0
230
1.0
 70
    11
 71
     3
 72
    20
 73
    16
 74
     0
 42
0.0000000001
 43
0.0000000001
 40
0.0
 40
0.0
 40
0.0
 40
0.0
 40
0.2
 40
0.2
 40
0.2
 40
0.2
 40
0.4
 40
0.4
 40
0.4
 40
0.4
 40
0.6
 40
0.6
 40
0.6
 40
0.6
 40
1.0
 40
1.0
 40
1.0
 40
1.0
 10
-10.47036
 20
4.73168
 30
0.0
 10
-10.23284
 20
4.43229
 30
0.0
 10
-10.2168
 20
4.04955
 30
0.0
 10
-10.43454
 20
3.8768
 30
0.0
 10
-10.43454
 20
3.8768
 30
0.0
 10
-10.65228
 20
3.70406
 30
0.0
 10
-11.02134
 20
3.80672
 30
0.0
 10
-11.25886
 20
4.10611
 30
0.0
 10
-11.25886
 20
4.10611
 30
0.0
 10
-11.49638
 20
4.4055
 30
0.0
 10
-11.51242
 20
4.78824
 30
0.0
 10
-11.29468
 20
4.96099
 30
0.0
 10
-11.29468
 20
4.96099
 30
0.0
 10
-11.07695
 20
5.13373
 30
0.0
 10
-10.70789
 20
5.03106
 30
0.0
 10
-10.47036
 20
4.73168
 30
0.0
  0
ELLIPSE
  5
57
330
1F
100
AcDbEntity
  8
Capa 1
 62
   250
370
    80
100
AcDbEllipse
 10
-9.99068
 20
7.50602
 30
0.0
 11
0.0
 21
0.15425
 31
0.0
210
0.0
220
0.0
230
1.0
 40
1.0
 41
0.0
 42
6.283185307179586
  0
SPLINE
  5
58
330
1F
100
AcDbEntity
  8
Capa 1
 62
   250
370
    80
100
AcDbSpline
210
0.0
220
0.0
230
1.0
 70
     8
 71
     3
 72
    12
 73
     8
 74
     0
 42
0.0000000001
 43
0.0000000001
 40
0.0
 40
0.0
 40
0.0
 40
0.0
 40
0.3333333333333333
 40
0.3333333333333333
 40
0.3333333333333333
 40
0.3333333333333333
 40
1.0
 40
1.0
 40
1.0
 40
1.0
 10
-9.68945
 20
7.00613
 30
0.0
 10
-9.70601
 20
6.96932
 30
0.0
 10
-9.76202
 20
6.94372
 30
0.0
 10
-9.826
 20
6.94372
 30
0.0
 10
-9.826
 20
6.94372
 30
0.0
 10
-9.90408
 20
6.94372
 30
0.0
 10
-9.96738
 20
6.98142
 30
0.0
 10
-9.96738
 20
7.02792
 30
0.0
  0
SPLINE
  5
59
330
1F
100
AcDbEntity
  8
Capa 1
 62
   250
370
    80
100
AcDbSpline
210
0.0
220
0.0
230
1.0
 70
     8
 71
     3
 72
    12
 73
     8
 74
     0
 42
0.0000000001
 43
0.0000000001
 40
0.0
 40
0.0
 40
0.0
 40
0.0
 40
0.3333333333333333
 40
0.3333333333333333
 40
0.3333333333333333
 40
0.3333333333333333
 40
1.0
 40
1.0
 40
1.0
 40
1.0
 10
-9.96773
 20
7.02205
 30
0.0
 10
-9.9729
 20
6.97793
 30
0.0
 10
-10.0345
 20
6.94372
 30
0.0
 10
-10.10875
 20
6.94372
 30
0.0
 10
-10.10875
 20
6.94372
 30
0.0
 10
-10.17366
 20
6.94372
 30
0.0
 10
-10.23022
 20
6.97004
 30
0.0
 10
-10.24592
 20
7.00755
 30
0.0
  0
ELLIPSE
  5
5A
330
1F
100
AcDbEntity
  8
Capa 1
 62
   250
370
   158
100
AcDbEllipse
 10
-8.63358
 20
6.08412
 30
0.0
 11
0.0
 21
0.51419
 31
0.0
210
0.0
220
0.0
230
1.0
 40
1.0
 41
0.0
 42
6.283185307179586
  0
SPLINE
  5
5B
330
1F
100
AcDbEntity
  8
Capa 1
 62
   250
370
   100
100
AcDbSpline
210
0.0
220
0.0
230
1.0
 70
    11
 71
     3
 72
    20
 73
    16
 74
     0
 42
0.0000000001
 43
0.0000000001
 40
0.0
 40
0.0
 40
0.0
 40
0.0
 40
0.2
 40
0.2
 40
0.2
 40
0.2
 40
0.4
 40
0.4
 40
0.4
 40
0.4
 40
0.6
 40
0.6
 40
0.6
 40
0.6
 40
1.0
 40
1.0
 40
1.0
 40
1.0
 10
-10.40165
 20
4.81768
 30
0.0
 10
-10.11256
 20
4.4533
 30
0.0
 10
-10.09304
 20
3.98747
 30
0.0
 10
-10.35805
 20
3.77722
 30
0.0
 10
-10.35805
 20
3.77722
 30
0.0
 10
-10.62306
 20
3.56697
 30
0.0
 10
-11.07224
 20
3.69193
 30
0.0
 10
-11.36133
 20
4.05632
 30
0.0
 10
-11.36133
 20
4.05632
 30
0.0
 10
-11.65042
 20
4.4207
 30
0.0
 10
-11.66994
 20
4.88653
 30
0.0
 10
-11.40493
 20
5.09678
 30
0.0
 10
-11.40493
 20
5.09678
 30
0.0
 10
-11.13992
 20
5.30702
 30
0.0
 10
-10.69074
 20
5.18207
 30
0.0
 10
-10.40165
 20
4.81768
 30
0.0
  0
SPLINE
  5
5C
330
1F
100
AcDbEntity
  8
Capa 1
 62
   250
370
    80
100
AcDbSpline
210
0.0
220
0.0
230
1.0
 70
    11
 71
     3
 72
    20
 73
    16
 74
     0
 42
0.0000000001
 43
0.0000000001
 40
0.0
 40
0.0
 40
0.0
 40
0.0
 40
0.2
 40
0.2
 40
0.2
 40
0.2
 40
0.4
 40
0.4
 40
0.4
 40
0.4
 40
0.6
 40
0.6
 40
0.6
 40
0.6
 40
1.0
 40
1.0
 40
1.0
 40
1.0
 10
-9.48104
 20
4.73168
 30
0.0
 10
-9.71856
 20
4.43229
 30
0.0
 10
-9.7346
 20
4.04955
 30
0.0
 10
-9.51686
 20
3.8768
 30
0.0
 10
-9.51686
 20
3.8768
 30
0.0
 10
-9.29913
 20
3.70406
 30
0.0
 10
-8.93006
 20
3.80672
 30
0.0
 10
-8.69254
 20
4.10611
 30
0.0
 10
-8.69254
 20
4.10611
 30
0.0
 10
-8.45502
 20
4.4055
 30
0.0
 10
-8.43898
 20
4.78824
 30
0.0
 10
-8.65672
 20
4.96099
 30
0.0
 10
-8.65672
 20
4.96099
 30
0.0
 10
-8.87446
 20
5.13373
 30
0.0
 10
-9.24352
 20
5.03106
 30
0.0
 10
-9.48104
 20
4.73168
 30
0.0
  0
SPLINE
  5
5D
330
1F
100
AcDbEntity
  8
Capa 1
 62
   250
370
   100
100
AcDbSpline
210
0.0
220
0.0
230
1.0
 70
    11
 71
     3
 72
    20
 73
    16
 74
     0
 42
0.0000000001
 43
0.0000000001
 40
0.0
 40
0.0
 40
0.0
 40
0.0
 40
0.2
 40
0.2
 40
0.2
 40
0.2
 40
0.4
 40
0.4
 40
0.4
 40
0.4
 40
0.6
 40
0.6
 40
0.6
 40
0.6
 40
1.0
 40
1.0
 40
1.0
 40
1.0
 10
-9.54976
 20
4.81768
 30
0.0
 10
-9.83884
 20
4.4533
 30
0.0
 10
-9.85837
 20
3.98747
 30
0.0
 10
-9.59336
 20
3.77722
 30
0.0
 10
-9.59336
 20
3.77722
 30
0.0
 10
-9.32835
 20
3.56697
 30
0.0
 10
-8.87917
 20
3.69193
 30
0.0
 10
-8.59008
 20
4.05632
 30
0.0
 10
-8.59008
 20
4.05632
 30
0.0
 10
-8.30099
 20
4.4207
 30
0.0
 10
-8.28147
 20
4.88653
 30
0.0
 10
-8.54648
 20
5.09678
 30
0.0
 10
-8.54648
 20
5.09678
 30
0.0
 10
-8.81149
 20
5.30702
 30
0.0
 10
-9.26067
 20
5.18207
 30
0.0
 10
-9.54976
 20
4.81768
 30
0.0
  0
SPLINE
  5
5E
330
1F
100
AcDbEntity
  8
Capa 1
 62
   250
370
    20
100
AcDbSpline
210
0.0
220
0.0
230
1.0
 70
     8
 71
     3
 72
    24
 73
    20
 74
     0
 42
0.0000000001
 43
0.0000000001
 40
0.0
 40
0.0
 40
0.0
 40
0.0
 40
0.1666666666666667
 40
0.1666666666666667
 40
0.1666666666666667
 40
0.1666666666666667
 40
0.3333333333333333
 40
0.3333333333333333
 40
0.3333333333333333
 40
0.3333333333333333
 40
0.5
 40
0.5
 40
0.5
 40
0.5
 40
0.6666666666666666
 40
0.6666666666666666
 40
0.6666666666666666
 40
0.6666666666666666
 40
1.0
 40
1.0
 40
1.0
 40
1.0
 10
13.59732
 20
2.11509
 30
0.0
 10
13.59732
 20
2.11509
 30
0.0
 10
13.59732
 20
-2.2759
 30
0.0
 10
13.59732
 20
-2.2759
 30
0.0
 10
13.59732
 20
-2.2759
 30
0.0
 10
13.59732
 20
-2.2759
 30
0.0
 10
6.90755
 20
-2.2759
 30
0.0
 10
6.90755
 20
-2.2759
 30
0.0
 10
6.90755
 20
-2.2759
 30
0.0
 10
6.90755
 20
-2.2759
 30
0.0
 10
6.90755
 20
9.49286
 30
0.0
 10
6.90755
 20
9.49286
 30
0.0
 10
6.90755
 20
9.49286
 30
0.0
 10
6.90755
 20
9.49286
 30
0.0
 10
13.59732
 20
9.49286
 30
0.0
 10
13.59732
 20
9.49286
 30
0.0
 10
13.59732
 20
9.49286
 30
0.0
 10
13.59732
 20
9.49286
 30
0.0
 10
13.59732
 20
5.10187
 30
0.0
 10
13.59732
 20
5.10187
 30
0.0
  0
SPLINE
  5
5F
330
1F
100
AcDbEntity
  8
Capa 1
 62
   250
370
    20
100
AcDbSpline
210
0.0
220
0.0
230
1.0
 70
    11
 71
     3
 72
    36
 73
    32
 74
     0
 42
0.0000000001
 43
0.0000000001
 40
0.0
 40
0.0
 40
0.0
 40
0.0
 40
0.1111111111111111
 40
0.1111111111111111
 40
0.1111111111111111
 40
0.1111111111111111
 40
0.2222222222222222
 40
0.2222222222222222
 40
0.2222222222222222
 40
0.2222222222222222
 40
0.3333333333333333
 40
0.3333333333333333
 40
0.3333333333333333
 40
0.3333333333333333
 40
0.4444444444444444
 40
0.4444444444444444
 40
0.4444444444444444
 40
0.4444444444444444
 40
0.5555555555555556
 40
0.5555555555555556
 40
0.5555555555555556
 40
0.5555555555555556
 40
0.6666666666666666
 40
0.6666666666666666
 40
0.6666666666666666
 40
0.6666666666666666
 40
0.7777777777777778
 40
0.7777777777777778
 40
0.7777777777777778
 40
0.7777777777777778
 40
1.0
 40
1.0
 40
1.0
 40
1.0
 10
8.0225
 20
3.50509
 30
0.0
 10
8.0225
 20
3.50509
 30
0.0
 10
8.0225
 20
3.50511
 30
0.0
 10
8.0225
 20
3.50511
 30
0.0
 10
8.0225
 20
3.50511
 30
0.0
 10
8.0225
 20
3.74838
 30
0.0
 10
8.22152
 20
3.9474
 30
0.0
 10
8.46478
 20
3.9474
 30
0.0
 10
8.46478
 20
3.9474
 30
0.0
 10
8.46478
 20
3.9474
 30
0.0
 10
12.04009
 20
3.9474
 30
0.0
 10
12.04009
 20
3.9474
 30
0.0
 10
12.04009
 20
3.9474
 30
0.0
 10
12.28335
 20
3.9474
 30
0.0
 10
12.48236
 20
3.74838
 30
0.0
 10
12.48236
 20
3.50511
 30
0.0
 10
12.48236
 20
3.50511
 30
0.0
 10
12.48236
 20
3.50511
 30
0.0
 10
12.48236
 20
3.50509
 30
0.0
 10
12.48236
 20
3.50509
 30
0.0
 10
12.48236
 20
3.50509
 30
0.0
 10
12.48236
 20
3.26183
 30
0.0
 10
12.28335
 20
3.06282
 30
0.0
 10
12.04009
 20
3.06282
 30
0.0
 10
12.04009
 20
3.06282
 30
0.0
 10
12.04009
 20
3.06282
 30
0.0
 10
8.46478
 20
3.06282
 30
0.0
 10
8.46478
 20
3.06282
 30
0.0
 10
8.46478
 20
3.06282
 30
0.0
 10
8.22152
 20
3.06282
 30
0.0
 10
8.0225
 20
3.26183
 30
0.0
 10
8.0225
 20
3.50509
 30
0.0
  0
SPLINE
  5
60
330
1F
100
AcDbEntity
  8
Capa 1
 62
   250
370
    20
100
AcDbSpline
210
0.0
220
0.0
230
1.0
 70
    11
 71
     3
 72
    36
 73
    32
 74
     0
 42
0.0000000001
 43
0.0000000001
 40
0.0
 40
0.0
 40
0.0
 40
0.0
 40
0.1111111111111111
 40
0.1111111111111111
 40
0.1111111111111111
 40
0.1111111111111111
 40
0.2222222222222222
 40
0.2222222222222222
 40
0.2222222222222222
 40
0.2222222222222222
 40
0.3333333333333333
 40
0.3333333333333333
 40
0.3333333333333333
 40
0.3333333333333333
 40
0.4444444444444444
 40
0.4444444444444444
 40
0.4444444444444444
 40
0.4444444444444444
 40
0.5555555555555556
 40
0.5555555555555556
 40
0.5555555555555556
 40
0.5555555555555556
 40
0.6666666666666666
 40
0.6666666666666666
 40
0.6666666666666666
 40
0.6666666666666666
 40
0.7777777777777778
 40
0.7777777777777778
 40
0.7777777777777778
 40
0.7777777777777778
 40
1.0
 40
1.0
 40
1.0
 40
1.0
 10
8.0225
 20
1.64391
 30
0.0
 10
8.0225
 20
1.64391
 30
0.0
 10
8.0225
 20
1.64393
 30
0.0
 10
8.0225
 20
1.64393
 30
0.0
 10
8.0225
 20
1.64393
 30
0.0
 10
8.0225
 20
1.88719
 30
0.0
 10
8.22152
 20
2.08621
 30
0.0
 10
8.46478
 20
2.08621
 30
0.0
 10
8.46478
 20
2.08621
 30
0.0
 10
8.46478
 20
2.08621
 30
0.0
 10
12.04009
 20
2.08621
 30
0.0
 10
12.04009
 20
2.08621
 30
0.0
 10
12.04009
 20
2.08621
 30
0.0
 10
12.28335
 20
2.08621
 30
0.0
 10
12.48236
 20
1.88719
 30
0.0
 10
12.48236
 20
1.64393
 30
0.0
 10
12.48236
 20
1.64393
 30
0.0
 10
12.48236
 20
1.64393
 30
0.0
 10
12.48236
 20
1.64391
 30
0.0
 10
12.48236
 20
1.64391
 30
0.0
 10
12.48236
 20
1.64391
 30
0.0
 10
12.48236
 20
1.40065
 30
0.0
 10
12.28335
 20
1.20163
 30
0.0
 10
12.04009
 20
1.20163
 30
0.0
 10
12.04009
 20
1.20163
 30
0.0
 10
12.04009
 20
1.20163
 30
0.0
 10
8.46478
 20
1.20163
 30
0.0
 10
8.46478
 20
1.20163
 30
0.0
 10
8.46478
 20
1.20163
 30
0.0
 10
8.22152
 20
1.20163
 30
0.0
 10
8.0225
 20
1.40065
 30
0.0
 10
8.0225
 20
1.64391
 30
0.0
  0
SPLINE
  5
61
330
1F
100
AcDbEntity
  8
Capa 1
 62
   250
370
    20
100
AcDbSpline
210
0.0
220
0.0
230
1.0
 70
    11
 71
     3
 72
    36
 73
    32
 74
     0
 42
0.0000000001
 43
0.0000000001
 40
0.0
 40
0.0
 40
0.0
 40
0.0
 40
0.1111111111111111
 40
0.1111111111111111
 40
0.1111111111111111
 40
0.1111111111111111
 40
0.2222222222222222
 40
0.2222222222222222
 40
0.2222222222222222
 40
0.2222222222222222
 40
0.3333333333333333
 40
0.3333333333333333
 40
0.3333333333333333
 40
0.3333333333333333
 40
0.4444444444444444
 40
0.4444444444444444
 40
0.4444444444444444
 40
0.4444444444444444
 40
0.5555555555555556
 40
0.5555555555555556
 40
0.5555555555555556
 40
0.5555555555555556
 40
0.6666666666666666
 40
0.6666666666666666
 40
0.6666666666666666
 40
0.6666666666666666
 40
0.7777777777777778
 40
0.7777777777777778
 40
0.7777777777777778
 40
0.7777777777777778
 40
1.0
 40
1.0
 40
1.0
 40
1.0
 10
8.0225
 20
-0.31755
 30
0.0
 10
8.0225
 20
-0.31755
 30
0.0
 10
8.0225
 20
-0.31753
 30
0.0
 10
8.0225
 20
-0.31753
 30
0.0
 10
8.0225
 20
-0.31753
 30
0.0
 10
8.0225
 20
-0.07426
 30
0.0
 10
8.22152
 20
0.12476
 30
0.0
 10
8.46478
 20
0.12476
 30
0.0
 10
8.46478
 20
0.12476
 30
0.0
 10
8.46478
 20
0.12476
 30
0.0
 10
12.04009
 20
0.12476
 30
0.0
 10
12.04009
 20
0.12476
 30
0.0
 10
12.04009
 20
0.12476
 30
0.0
 10
12.28335
 20
0.12476
 30
0.0
 10
12.48236
 20
-0.07426
 30
0.0
 10
12.48236
 20
-0.31753
 30
0.0
 10
12.48236
 20
-0.31753
 30
0.0
 10
12.48236
 20
-0.31753
 30
0.0
 10
12.48236
 20
-0.31755
 30
0.0
 10
12.48236
 20
-0.31755
 30
0.0
 10
12.48236
 20
-0.31755
 30
0.0
 10
12.48236
 20
-0.56081
 30
0.0
 10
12.28335
 20
-0.75983
 30
0.0
 10
12.04009
 20
-0.75983
 30
0.0
 10
12.04009
 20
-0.75983
 30
0.0
 10
12.04009
 20
-0.75983
 30
0.0
 10
8.46478
 20
-0.75983
 30
0.0
 10
8.46478
 20
-0.75983
 30
0.0
 10
8.46478
 20
-0.75983
 30
0.0
 10
8.22152
 20
-0.75983
 30
0.0
 10
8.0225
 20
-0.56081
 30
0.0
 10
8.0225
 20
-0.31755
 30
0.0
  0
SPLINE
  5
62
330
1F
100
AcDbEntity
  8
Capa 1
 62
   250
370
    20
100
AcDbSpline
210
0.0
220
0.0
230
1.0
 70
    11
 71
     3
 72
    36
 73
    32
 74
     0
 42
0.0000000001
 43
0.0000000001
 40
0.0
 40
0.0
 40
0.0
 40
0.0
 40
0.1111111111111111
 40
0.1111111111111111
 40
0.1111111111111111
 40
0.1111111111111111
 40
0.2222222222222222
 40
0.2222222222222222
 40
0.2222222222222222
 40
0.2222222222222222
 40
0.3333333333333333
 40
0.3333333333333333
 40
0.3333333333333333
 40
0.3333333333333333
 40
0.4444444444444444
 40
0.4444444444444444
 40
0.4444444444444444
 40
0.4444444444444444
 40
0.5555555555555556
 40
0.5555555555555556
 40
0.5555555555555556
 40
0.5555555555555556
 40
0.6666666666666666
 40
0.6666666666666666
 40
0.6666666666666666
 40
0.6666666666666666
 40
0.7777777777777778
 40
0.7777777777777778
 40
0.7777777777777778
 40
0.7777777777777778
 40
1.0
 40
1.0
 40
1.0
 40
1.0
 10
8.0225
 20
7.48372
 30
0.0
 10
8.0225
 20
7.48372
 30
0.0
 10
8.0225
 20
7.48374
 30
0.0
 10
8.0225
 20
7.48374
 30
0.0
 10
8.0225
 20
7.48374
 30
0.0
 10
8.0225
 20
7.727
 30
0.0
 10
8.22152
 20
7.92602
 30
0.0
 10
8.46478
 20
7.92602
 30
0.0
 10
8.46478
 20
7.92602
 30
0.0
 10
8.46478
 20
7.92602
 30
0.0
 10
12.04009
 20
7.92602
 30
0.0
 10
12.04009
 20
7.92602
 30
0.0
 10
12.04009
 20
7.92602
 30
0.0
 10
12.28335
 20
7.92602
 30
0.0
 10
12.48236
 20
7.727
 30
0.0
 10
12.48236
 20
7.48374
 30
0.0
 10
12.48236
 20
7.48374
 30
0.0
 10
12.48236
 20
7.48374
 30
0.0
 10
12.48236
 20
7.48372
 30
0.0
 10
12.48236
 20
7.48372
 30
0.0
 10
12.48236
 20
7.48372
 30
0.0
 10
12.48236
 20
7.24046
 30
0.0
 10
12.28335
 20
7.04144
 30
0.0
 10
12.04009
 20
7.04144
 30
0.0
 10
12.04009
 20
7.04144
 30
0.0
 10
12.04009
 20
7.04144
 30
0.0
 10
8.46478
 20
7.04144
 30
0.0
 10
8.46478
 20
7.04144
 30
0.0
 10
8.46478
 20
7.04144
 30
0.0
 10
8.22152
 20
7.04144
 30
0.0
 10
8.0225
 20
7.24046
 30
0.0
 10
8.0225
 20
7.48372
 30
0.0
  0
SPLINE
  5
63
330
1F
100
AcDbEntity
  8
Capa 1
 62
   250
370
    20
100
AcDbSpline
210
0.0
220
0.0
230
1.0
 70
    11
 71
     3
 72
    36
 73
    32
 74
     0
 42
0.0000000001
 43
0.0000000001
 40
0.0
 40
0.0
 40
0.0
 40
0.0
 40
0.1111111111111111
 40
0.1111111111111111
 40
0.1111111111111111
 40
0.1111111111111111
 40
0.2222222222222222
 40
0.2222222222222222
 40
0.2222222222222222
 40
0.2222222222222222
 40
0.3333333333333333
 40
0.3333333333333333
 40
0.3333333333333333
 40
0.3333333333333333
 40
0.4444444444444444
 40
0.4444444444444444
 40
0.4444444444444444
 40
0.4444444444444444
 40
0.5555555555555556
 40
0.5555555555555556
 40
0.5555555555555556
 40
0.5555555555555556
 40
0.6666666666666666
 40
0.6666666666666666
 40
0.6666666666666666
 40
0.6666666666666666
 40
0.7777777777777778
 40
0.7777777777777778
 40
0.7777777777777778
 40
0.7777777777777778
 40
1.0
 40
1.0
 40
1.0
 40
1.0
 10
8.0225
 20
5.52226
 30
0.0
 10
8.0225
 20
5.52226
 30
0.0
 10
8.0225
 20
5.52228
 30
0.0
 10
8.0225
 20
5.52228
 30
0.0
 10
8.0225
 20
5.52228
 30
0.0
 10
8.0225
 20
5.76555
 30
0.0
 10
8.22152
 20
5.96457
 30
0.0
 10
8.46478
 20
5.96457
 30
0.0
 10
8.46478
 20
5.96457
 30
0.0
 10
8.46478
 20
5.96457
 30
0.0
 10
12.04009
 20
5.96457
 30
0.0
 10
12.04009
 20
5.96457
 30
0.0
 10
12.04009
 20
5.96457
 30
0.0
 10
12.28335
 20
5.96457
 30
0.0
 10
12.48236
 20
5.76555
 30
0.0
 10
12.48236
 20
5.52228
 30
0.0
 10
12.48236
 20
5.52228
 30
0.0
 10
12.48236
 20
5.52228
 30
0.0
 10
12.48236
 20
5.52226
 30
0.0
 10
12.48236
 20
5.52226
 30
0.0
 10
12.48236
 20
5.52226
 30
0.0
 10
12.48236
 20
5.279
 30
0.0
 10
12.28335
 20
5.07999
 30
0.0
 10
12.04009
 20
5.07999
 30
0.0
 10
12.04009
 20
5.07999
 30
0.0
 10
12.04009
 20
5.07999
 30
0.0
 10
8.46478
 20
5.07999
 30
0.0
 10
8.46478
 20
5.07999
 30
0.0
 10
8.46478
 20
5.07999
 30
0.0
 10
8.22152
 20
5.07999
 30
0.0
 10
8.0225
 20
5.279
 30
0.0
 10
8.0225
 20
5.52226
 30
0.0
  0
SPLINE
  5
64
330
1F
100
AcDbEntity
  8
Capa 1
 62
   250
370
    20
100
AcDbSpline
210
0.0
220
0.0
230
1.0
 70
    24
 71
     3
 72
     8
 73
     4
 74
     0
 42
0.0000000001
 43
0.0000000001
 40
0.0
 40
0.0
 40
0.0
 40
0.0
 40
1.0
 40
1.0
 40
1.0
 40
1.0
 10
13.93138
 20
2.11509
 30
0.0
 10
13.93138
 20
2.11509
 30
0.0
 10
13.59732
 20
2.11509
 30
0.0
 10
13.59732
 20
2.11509
 30
0.0
  0
SPLINE
  5
65
330
1F
100
AcDbEntity
  8
Capa 1
 62
   250
370
    20
100
AcDbSpline
210
0.0
220
0.0
230
1.0
 70
    24
 71
     3
 72
     8
 73
     4
 74
     0
 42
0.0000000001
 43
0.0000000001
 40
0.0
 40
0.0
 40
0.0
 40
0.0
 40
1.0
 40
1.0
 40
1.0
 40
1.0
 10
13.59732
 20
5.10187
 30
0.0
 10
13.59732
 20
5.10187
 30
0.0
 10
13.94412
 20
5.10187
 30
0.0
 10
13.94412
 20
5.10187
 30
0.0
  0
SPLINE
  5
66
330
1F
100
AcDbEntity
  8
Capa 1
 62
   250
370
    20
100
AcDbSpline
210
0.0
220
0.0
230
1.0
 70
    24
 71
     3
 72
     8
 73
     4
 74
     0
 42
0.0000000001
 43
0.0000000001
 40
0.0
 40
0.0
 40
0.0
 40
0.0
 40
1.0
 40
1.0
 40
1.0
 40
1.0
 10
14.10413
 20
4.95107
 30
0.0
 10
14.10413
 20
4.95107
 30
0.0
 10
14.10413
 20
2.26658
 30
0.0
 10
14.10413
 20
2.26658
 30
0.0
  0
SPLINE
  5
67
330
1F
100
AcDbEntity
  8
Capa 1
 62
   250
370
    20
100
AcDbSpline
210
0.0
220
0.0
230
1.0
 70
     8
 71
     3
 72
    16
 73
    12
 74
     0
 42
0.0000000001
 43
0.0000000001
 40
0.0
 40
0.0
 40
0.0
 40
0.0
 40
0.25
 40
0.25
 40
0.25
 40
0.25
 40
0.5
 40
0.5
 40
0.5
 40
0.5
 40
1.0
 40
1.0
 40
1.0
 40
1.0
 10
14.10413
 20
2.27555
 30
0.0
 10
14.10417
 20
2.27407
 30
0.0
 10
14.1042
 20
2.27257
 30
0.0
 10
14.1042
 20
2.27106
 30
0.0
 10
14.1042
 20
2.27106
 30
0.0
 10
14.1042
 20
2.1849
 30
0.0
 10
14.02478
 20
2.11504
 30
0.0
 10
13.92682
 20
2.11504
 30
0.0
 10
13.92682
 20
2.11504
 30
0.0
 10
13.9253
 20
2.11504
 30
0.0
 10
13.92378
 20
2.11507
 30
0.0
 10
13.92227
 20
2.11509
 30
0.0
  0
SPLINE
  5
68
330
1F
100
AcDbEntity
  8
Capa 1
 62
   250
370
    20
100
AcDbSpline
210
0.0
220
0.0
230
1.0
 70
     8
 71
     3
 72
    16
 73
    12
 74
     0
 42
0.0000000001
 43
0.0000000001
 40
0.0
 40
0.0
 40
0.0
 40
0.0
 40
0.25
 40
0.25
 40
0.25
 40
0.25
 40
0.5
 40
0.5
 40
0.5
 40
0.5
 40
1.0
 40
1.0
 40
1.0
 40
1.0
 10
14.10413
 20
4.94209
 30
0.0
 10
14.10417
 20
4.94357
 30
0.0
 10
14.1042
 20
4.94508
 30
0.0
 10
14.1042
 20
4.94658
 30
0.0
 10
14.1042
 20
4.94658
 30
0.0
 10
14.1042
 20
5.03275
 30
0.0
 10
14.02478
 20
5.1026
 30
0.0
 10
13.92682
 20
5.1026
 30
0.0
 10
13.92682
 20
5.1026
 30
0.0
 10
13.9253
 20
5.1026
 30
0.0
 10
13.92378
 20
5.10258
 30
0.0
 10
13.92227
 20
5.10255
 30
0.0
  0
SPLINE
  5
69
330
1F
100
AcDbEntity
  8
Capa 1
 62
   250
370
    20
100
AcDbSpline
210
0.0
220
0.0
230
1.0
 70
    11
 71
     3
 72
    20
 73
    16
 74
     0
 42
0.0000000001
 43
0.0000000001
 40
0.0
 40
0.0
 40
0.0
 40
0.0
 40
0.2
 40
0.2
 40
0.2
 40
0.2
 40
0.4
 40
0.4
 40
0.4
 40
0.4
 40
0.6
 40
0.6
 40
0.6
 40
0.6
 40
1.0
 40
1.0
 40
1.0
 40
1.0
 10
-5.34936
 20
-8.26979
 30
0.0
 10
-5.34936
 20
-8.26979
 30
0.0
 10
-5.34936
 20
0.0571
 30
0.0
 10
-5.34936
 20
0.0571
 30
0.0
 10
-5.34936
 20
0.0571
 30
0.0
 10
-5.34936
 20
0.0571
 30
0.0
 10
6.43344
 20
0.0571
 30
0.0
 10
6.43344
 20
0.0571
 30
0.0
 10
6.43344
 20
0.0571
 30
0.0
 10
6.43344
 20
0.0571
 30
0.0
 10
6.43344
 20
-8.26979
 30
0.0
 10
6.43344
 20
-8.26979
 30
0.0
 10
6.43344
 20
-8.26979
 30
0.0
 10
6.43344
 20
-8.26979
 30
0.0
 10
-5.34936
 20
-8.26979
 30
0.0
 10
-5.34936
 20
-8.26979
 30
0.0
  0
SPLINE
  5
6A
330
1F
100
AcDbEntity
  8
Capa 1
 62
   250
370
    20
100
AcDbSpline
210
0.0
220
0.0
230
1.0
 70
    11
 71
     3
 72
    20
 73
    16
 74
     0
 42
0.0000000001
 43
0.0000000001
 40
0.0
 40
0.0
 40
0.0
 40
0.0
 40
0.2
 40
0.2
 40
0.2
 40
0.2
 40
0.4
 40
0.4
 40
0.4
 40
0.4
 40
0.6
 40
0.6
 40
0.6
 40
0.6
 40
1.0
 40
1.0
 40
1.0
 40
1.0
 10
-3.47367
 20
-5.94078
 30
0.0
 10
-3.47367
 20
-5.57957
 30
0.0
 10
-3.1717
 20
-5.28676
 30
0.0
 10
-2.79921
 20
-5.28676
 30
0.0
 10
-2.79921
 20
-5.28676
 30
0.0
 10
-2.42671
 20
-5.28676
 30
0.0
 10
-2.12475
 20
-5.57957
 30
0.0
 10
-2.12475
 20
-5.94078
 30
0.0
 10
-2.12475
 20
-5.94078
 30
0.0
 10
-2.12475
 20
-6.30199
 30
0.0
 10
-2.42671
 20
-6.59481
 30
0.0
 10
-2.79921
 20
-6.59481
 30
0.0
 10
-2.79921
 20
-6.59481
 30
0.0
 10
-3.1717
 20
-6.59481
 30
0.0
 10
-3.47367
 20
-6.30199
 30
0.0
 10
-3.47367
 20
-5.94078
 30
0.0
  0
SPLINE
  5
6B
330
1F
100
AcDbEntity
  8
Capa 1
 62
   250
370
    20
100
AcDbSpline
210
0.0
220
0.0
230
1.0
 70
    11
 71
     3
 72
    20
 73
    16
 74
     0
 42
0.0000000001
 43
0.0000000001
 40
0.0
 40
0.0
 40
0.0
 40
0.0
 40
0.2
 40
0.2
 40
0.2
 40
0.2
 40
0.4
 40
0.4
 40
0.4
 40
0.4
 40
0.6
 40
0.6
 40
0.6
 40
0.6
 40
1.0
 40
1.0
 40
1.0
 40
1.0
 10
-1.20501
 20
-5.94078
 30
0.0
 10
-1.20501
 20
-5.57957
 30
0.0
 10
-0.90304
 20
-5.28676
 30
0.0
 10
-0.53055
 20
-5.28676
 30
0.0
 10
-0.53055
 20
-5.28676
 30
0.0
 10
-0.15805
 20
-5.28676
 30
0.0
 10
0.14391
 20
-5.57957
 30
0.0
 10
0.14391
 20
-5.94078
 30
0.0
 10
0.14391
 20
-5.94078
 30
0.0
 10
0.14391
 20
-6.30199
 30
0.0
 10
-0.15805
 20
-6.59481
 30
0.0
 10
-0.53055
 20
-6.59481
 30
0.0
 10
-0.53055
 20
-6.59481
 30
0.0
 10
-0.90304
 20
-6.59481
 30
0.0
 10
-1.20501
 20
-6.30199
 30
0.0
 10
-1.20501
 20
-5.94078
 30
0.0
  0
SPLINE
  5
6C
330
1F
100
AcDbEntity
  8
Capa 1
 62
   250
370
    20
100
AcDbSpline
210
0.0
220
0.0
230
1.0
 70
    11
 71
     3
 72
    20
 73
    16
 74
     0
 42
0.0000000001
 43
0.0000000001
 40
0.0
 40
0.0
 40
0.0
 40
0.0
 40
0.2
 40
0.2
 40
0.2
 40
0.2
 40
0.4
 40
0.4
 40
0.4
 40
0.4
 40
0.6
 40
0.6
 40
0.6
 40
0.6
 40
1.0
 40
1.0
 40
1.0
 40
1.0
 10
1.24759
 20
-5.94078
 30
0.0
 10
1.24759
 20
-5.57957
 30
0.0
 10
1.54955
 20
-5.28676
 30
0.0
 10
1.92205
 20
-5.28676
 30
0.0
 10
1.92205
 20
-5.28676
 30
0.0
 10
2.29454
 20
-5.28676
 30
0.0
 10
2.59651
 20
-5.57957
 30
0.0
 10
2.59651
 20
-5.94078
 30
0.0
 10
2.59651
 20
-5.94078
 30
0.0
 10
2.59651
 20
-6.30199
 30
0.0
 10
2.29454
 20
-6.59481
 30
0.0
 10
1.92205
 20
-6.59481
 30
0.0
 10
1.92205
 20
-6.59481
 30
0.0
 10
1.54955
 20
-6.59481
 30
0.0
 10
1.24759
 20
-6.30199
 30
0.0
 10
1.24759
 20
-5.94078
 30
0.0
  0
SPLINE
  5
6D
330
1F
100
AcDbEntity
  8
Capa 1
 62
   250
370
    20
100
AcDbSpline
210
0.0
220
0.0
230
1.0
 70
    11
 71
     3
 72
    20
 73
    16
 74
     0
 42
0.0000000001
 43
0.0000000001
 40
0.0
 40
0.0
 40
0.0
 40
0.0
 40
0.2
 40
0.2
 40
0.2
 40
0.2
 40
0.4
 40
0.4
 40
0.4
 40
0.4
 40
0.6
 40
0.6
 40
0.6
 40
0.6
 40
1.0
 40
1.0
 40
1.0
 40
1.0
 10
3.51625
 20
-5.94078
 30
0.0
 10
3.51625
 20
-5.57957
 30
0.0
 10
3.81821
 20
-5.28676
 30
0.0
 10
4.19071
 20
-5.28676
 30
0.0
 10
4.19071
 20
-5.28676
 30
0.0
 10
4.5632
 20
-5.28676
 30
0.0
 10
4.86517
 20
-5.57957
 30
0.0
 10
4.86517
 20
-5.94078
 30
0.0
 10
4.86517
 20
-5.94078
 30
0.0
 10
4.86517
 20
-6.30199
 30
0.0
 10
4.5632
 20
-6.59481
 30
0.0
 10
4.19071
 20
-6.59481
 30
0.0
 10
4.19071
 20
-6.59481
 30
0.0
 10
3.81821
 20
-6.59481
 30
0.0
 10
3.51625
 20
-6.30199
 30
0.0
 10
3.51625
 20
-5.94078
 30
0.0
  0
SPLINE
  5
6E
330
1F
100
AcDbEntity
  8
Capa 1
 62
   250
370
    20
100
AcDbSpline
210
0.0
220
0.0
230
1.0
 70
    11
 71
     3
 72
    20
 73
    16
 74
     0
 42
0.0000000001
 43
0.0000000001
 40
0.0
 40
0.0
 40
0.0
 40
0.0
 40
0.2
 40
0.2
 40
0.2
 40
0.2
 40
0.4
 40
0.4
 40
0.4
 40
0.4
 40
0.6
 40
0.6
 40
0.6
 40
0.6
 40
1.0
 40
1.0
 40
1.0
 40
1.0
 10
-3.47367
 20
-2.20134
 30
0.0
 10
-3.47367
 20
-1.84013
 30
0.0
 10
-3.1717
 20
-1.54732
 30
0.0
 10
-2.79921
 20
-1.54732
 30
0.0
 10
-2.79921
 20
-1.54732
 30
0.0
 10
-2.42671
 20
-1.54732
 30
0.0
 10
-2.12475
 20
-1.84013
 30
0.0
 10
-2.12475
 20
-2.20134
 30
0.0
 10
-2.12475
 20
-2.20134
 30
0.0
 10
-2.12475
 20
-2.56255
 30
0.0
 10
-2.42671
 20
-2.85537
 30
0.0
 10
-2.79921
 20
-2.85537
 30
0.0
 10
-2.79921
 20
-2.85537
 30
0.0
 10
-3.1717
 20
-2.85537
 30
0.0
 10
-3.47367
 20
-2.56255
 30
0.0
 10
-3.47367
 20
-2.20134
 30
0.0
  0
SPLINE
  5
6F
330
1F
100
AcDbEntity
  8
Capa 1
 62
   250
370
    20
100
AcDbSpline
210
0.0
220
0.0
230
1.0
 70
    11
 71
     3
 72
    20
 73
    16
 74
     0
 42
0.0000000001
 43
0.0000000001
 40
0.0
 40
0.0
 40
0.0
 40
0.0
 40
0.2
 40
0.2
 40
0.2
 40
0.2
 40
0.4
 40
0.4
 40
0.4
 40
0.4
 40
0.6
 40
0.6
 40
0.6
 40
0.6
 40
1.0
 40
1.0
 40
1.0
 40
1.0
 10
-1.20501
 20
-2.20134
 30
0.0
 10
-1.20501
 20
-1.84013
 30
0.0
 10
-0.90304
 20
-1.54732
 30
0.0
 10
-0.53055
 20
-1.54732
 30
0.0
 10
-0.53055
 20
-1.54732
 30
0.0
 10
-0.15805
 20
-1.54732
 30
0.0
 10
0.14391
 20
-1.84013
 30
0.0
 10
0.14391
 20
-2.20134
 30
0.0
 10
0.14391
 20
-2.20134
 30
0.0
 10
0.14391
 20
-2.56255
 30
0.0
 10
-0.15805
 20
-2.85537
 30
0.0
 10
-0.53055
 20
-2.85537
 30
0.0
 10
-0.53055
 20
-2.85537
 30
0.0
 10
-0.90304
 20
-2.85537
 30
0.0
 10
-1.20501
 20
-2.56255
 30
0.0
 10
-1.20501
 20
-2.20134
 30
0.0
  0
SPLINE
  5
70
330
1F
100
AcDbEntity
  8
Capa 1
 62
   250
370
    20
100
AcDbSpline
210
0.0
220
0.0
230
1.0
 70
    11
 71
     3
 72
    20
 73
    16
 74
     0
 42
0.0000000001
 43
0.0000000001
 40
0.0
 40
0.0
 40
0.0
 40
0.0
 40
0.2
 40
0.2
 40
0.2
 40
0.2
 40
0.4
 40
0.4
 40
0.4
 40
0.4
 40
0.6
 40
0.6
 40
0.6
 40
0.6
 40
1.0
 40
1.0
 40
1.0
 40
1.0
 10
1.24759
 20
-2.20134
 30
0.0
 10
1.24759
 20
-1.84013
 30
0.0
 10
1.54955
 20
-1.54732
 30
0.0
 10
1.92205
 20
-1.54732
 30
0.0
 10
1.92205
 20
-1.54732
 30
0.0
 10
2.29454
 20
-1.54732
 30
0.0
 10
2.59651
 20
-1.84013
 30
0.0
 10
2.59651
 20
-2.20134
 30
0.0
 10
2.59651
 20
-2.20134
 30
0.0
 10
2.59651
 20
-2.56255
 30
0.0
 10
2.29454
 20
-2.85537
 30
0.0
 10
1.92205
 20
-2.85537
 30
0.0
 10
1.92205
 20
-2.85537
 30
0.0
 10
1.54955
 20
-2.85537
 30
0.0
 10
1.24759
 20
-2.56255
 30
0.0
 10
1.24759
 20
-2.20134
 30
0.0
  0
SPLINE
  5
71
330
1F
100
AcDbEntity
  8
Capa 1
 62
   250
370
    20
100
AcDbSpline
210
0.0
220
0.0
230
1.0
 70
    11
 71
     3
 72
    20
 73
    16
 74
     0
 42
0.0000000001
 43
0.0000000001
 40
0.0
 40
0.0
 40
0.0
 40
0.0
 40
0.2
 40
0.2
 40
0.2
 40
0.2
 40
0.4
 40
0.4
 40
0.4
 40
0.4
 40
0.6
 40
0.6
 40
0.6
 40
0.6
 40
1.0
 40
1.0
 40
1.0
 40
1.0
 10
3.51625
 20
-2.20134
 30
0.0
 10
3.51625
 20
-1.84013
 30
0.0
 10
3.81821
 20
-1.54732
 30
0.0
 10
4.19071
 20
-1.54732
 30
0.0
 10
4.19071
 20
-1.54732
 30
0.0
 10
4.5632
 20
-1.54732
 30
0.0
 10
4.86517
 20
-1.84013
 30
0.0
 10
4.86517
 20
-2.20134
 30
0.0
 10
4.86517
 20
-2.20134
 30
0.0
 10
4.86517
 20
-2.56255
 30
0.0
 10
4.5632
 20
-2.85537
 30
0.0
 10
4.19071
 20
-2.85537
 30
0.0
 10
4.19071
 20
-2.85537
 30
0.0
 10
3.81821
 20
-2.85537
 30
0.0
 10
3.51625
 20
-2.56255
 30
0.0
 10
3.51625
 20
-2.20134
 30
0.0
  0
SPLINE
  5
72
330
1F
100
AcDbEntity
  8
Capa 1
 62
   250
100
AcDbSpline
210
0.0
220
0.0
230
1.0
 70
    11
 71
     3
 72
    44
 73
    40
 74
     0
 42
0.0000000001
 43
0.0000000001
 40
0.0
 40
0.0
 40
0.0
 40
0.0
 40
0.0909090909090909
 40
0.0909090909090909
 40
0.0909090909090909
 40
0.0909090909090909
 40
0.1818181818181818
 40
0.1818181818181818
 40
0.1818181818181818
 40
0.1818181818181818
 40
0.2727272727272727
 40
0.2727272727272727
 40
0.2727272727272727
 40
0.2727272727272727
 40
0.3636363636363636
 40
0.3636363636363636
 40
0.3636363636363636
 40
0.3636363636363636
 40
0.4545454545454545
 40
0.4545454545454545
 40
0.4545454545454545
 40
0.4545454545454545
 40
0.5454545454545454
 40
0.5454545454545454
 40
0.5454545454545454
 40
0.5454545454545454
 40
0.6363636363636364
 40
0.6363636363636364
 40
0.6363636363636364
 40
0.6363636363636364
 40
0.7272727272727273
 40
0.7272727272727273
 40
0.7272727272727273
 40
0.7272727272727273
 40
0.8181818181818182
 40
0.8181818181818182
 40
0.8181818181818182
 40
0.8181818181818182
 40
1.0
 40
1.0
 40
1.0
 40
1.0
 10
-14.40132
 20
-0.86917
 30
0.0
 10
-14.40132
 20
-0.86917
 30
0.0
 10
-14.51183
 20
-0.98052
 30
0.0
 10
-14.51183
 20
-0.98052
 30
0.0
 10
-14.51183
 20
-0.98052
 30
0.0
 10
-14.51183
 20
-0.98052
 30
0.0
 10
-14.84587
 20
-0.98052
 30
0.0
 10
-14.84587
 20
-0.98052
 30
0.0
 10
-14.84587
 20
-0.98052
 30
0.0
 10
-14.84587
 20
-0.98052
 30
0.0
 10
-14.84587
 20
-1.06741
 30
0.0
 10
-14.84587
 20
-1.06741
 30
0.0
 10
-14.84587
 20
-1.06741
 30
0.0
 10
-14.84587
 20
-1.06741
 30
0.0
 10
-14.47387
 20
-1.06741
 30
0.0
 10
-14.47387
 20
-1.06741
 30
0.0
 10
-14.47387
 20
-1.06741
 30
0.0
 10
-14.47387
 20
-1.06741
 30
0.0
 10
-14.57509
 20
-1.16863
 30
0.0
 10
-14.57509
 20
-1.16863
 30
0.0
 10
-14.57509
 20
-1.16863
 30
0.0
 10
-14.57509
 20
-1.16863
 30
0.0
 10
-14.84587
 20
-1.16863
 30
0.0
 10
-14.84587
 20
-1.16863
 30
0.0
 10
-14.84587
 20
-1.16863
 30
0.0
 10
-14.84587
 20
-1.16863
 30
0.0
 10
-14.84587
 20
-1.36686
 30
0.0
 10
-14.84587
 20
-1.36686
 30
0.0
 10
-14.84587
 20
-1.36686
 30
0.0
 10
-14.84587
 20
-1.36686
 30
0.0
 10
-14.99602
 20
-1.45206
 30
0.0
 10
-14.99602
 20
-1.45206
 30
0.0
 10
-14.99602
 20
-1.45206
 30
0.0
 10
-14.99602
 20
-1.45206
 30
0.0
 10
-14.99602
 20
-0.86917
 30
0.0
 10
-14.99602
 20
-0.86917
 30
0.0
 10
-14.99602
 20
-0.86917
 30
0.0
 10
-14.99602
 20
-0.86917
 30
0.0
 10
-14.40132
 20
-0.86917
 30
0.0
 10
-14.40132
 20
-0.86917
 30
0.0
  0
SPLINE
  5
73
330
1F
100
AcDbEntity
  8
Capa 1
 62
   250
100
AcDbSpline
210
0.0
220
0.0
230
1.0
 70
    11
 71
     3
 72
    52
 73
    48
 74
     0
 42
0.0000000001
 43
0.0000000001
 40
0.0
 40
0.0
 40
0.0
 40
0.0
 40
0.0769230769230769
 40
0.0769230769230769
 40
0.0769230769230769
 40
0.0769230769230769
 40
0.1538461538461539
 40
0.1538461538461539
 40
0.1538461538461539
 40
0.1538461538461539
 40
0.2307692307692308
 40
0.2307692307692308
 40
0.2307692307692308
 40
0.2307692307692308
 40
0.3076923076923077
 40
0.3076923076923077
 40
0.3076923076923077
 40
0.3076923076923077
 40
0.3846153846153846
 40
0.3846153846153846
 40
0.3846153846153846
 40
0.3846153846153846
 40
0.4615384615384616
 40
0.4615384615384616
 40
0.4615384615384616
 40
0.4615384615384616
 40
0.5384615384615384
 40
0.5384615384615384
 40
0.5384615384615384
 40
0.5384615384615384
 40
0.6153846153846154
 40
0.6153846153846154
 40
0.6153846153846154
 40
0.6153846153846154
 40
0.6923076923076923
 40
0.6923076923076923
 40
0.6923076923076923
 40
0.6923076923076923
 40
0.7692307692307693
 40
0.7692307692307693
 40
0.7692307692307693
 40
0.7692307692307693
 40
0.8461538461538461
 40
0.8461538461538461
 40
0.8461538461538461
 40
0.8461538461538461
 40
1.0
 40
1.0
 40
1.0
 40
1.0
 10
-13.71215
 20
-1.45206
 30
0.0
 10
-13.71215
 20
-1.45206
 30
0.0
 10
-13.8623
 20
-1.36588
 30
0.0
 10
-13.8623
 20
-1.36588
 30
0.0
 10
-13.8623
 20
-1.36588
 30
0.0
 10
-13.8623
 20
-1.36588
 30
0.0
 10
-13.8623
 20
-1.24413
 30
0.0
 10
-13.8623
 20
-1.24413
 30
0.0
 10
-13.8623
 20
-1.24413
 30
0.0
 10
-13.8623
 20
-1.24413
 30
0.0
 10
-13.90772
 20
-1.19984
 30
0.0
 10
-13.90772
 20
-1.19984
 30
0.0
 10
-13.90772
 20
-1.19984
 30
0.0
 10
-13.90772
 20
-1.19984
 30
0.0
 10
-14.19466
 20
-1.19984
 30
0.0
 10
-14.19466
 20
-1.19984
 30
0.0
 10
-14.19466
 20
-1.19984
 30
0.0
 10
-14.19466
 20
-1.19984
 30
0.0
 10
-14.19466
 20
-1.36602
 30
0.0
 10
-14.19466
 20
-1.36602
 30
0.0
 10
-14.19466
 20
-1.36602
 30
0.0
 10
-14.19466
 20
-1.36602
 30
0.0
 10
-14.34481
 20
-1.36602
 30
0.0
 10
-14.34481
 20
-1.36602
 30
0.0
 10
-14.34481
 20
-1.36602
 30
0.0
 10
-14.34481
 20
-1.36602
 30
0.0
 10
-14.34481
 20
-0.86917
 30
0.0
 10
-14.34481
 20
-0.86917
 30
0.0
 10
-14.34481
 20
-0.86917
 30
0.0
 10
-14.34481
 20
-0.86917
 30
0.0
 10
-13.82519
 20
-0.86917
 30
0.0
 10
-13.82519
 20
-0.86917
 30
0.0
 10
-13.82519
 20
-0.86917
 30
0.0
 10
-13.82519
 20
-0.86917
 30
0.0
 10
-13.71215
 20
-1.02185
 30
0.0
 10
-13.71215
 20
-1.02185
 30
0.0
 10
-13.71215
 20
-1.02185
 30
0.0
 10
-13.71215
 20
-1.02185
 30
0.0
 10
-13.7982
 20
-1.13742
 30
0.0
 10
-13.7982
 20
-1.13742
 30
0.0
 10
-13.7982
 20
-1.13742
 30
0.0
 10
-13.7982
 20
-1.13742
 30
0.0
 10
-13.71215
 20
-1.22346
 30
0.0
 10
-13.71215
 20
-1.22346
 30
0.0
 10
-13.71215
 20
-1.22346
 30
0.0
 10
-13.71215
 20
-1.22346
 30
0.0
 10
-13.71215
 20
-1.45206
 30
0.0
 10
-13.71215
 20
-1.45206
 30
0.0
  0
SPLINE
  5
74
330
1F
100
AcDbEntity
  8
Capa 1
 62
   250
100
AcDbSpline
210
0.0
220
0.0
230
1.0
 70
    11
 71
     3
 72
    24
 73
    20
 74
     0
 42
0.0000000001
 43
0.0000000001
 40
0.0
 40
0.0
 40
0.0
 40
0.0
 40
0.1666666666666667
 40
0.1666666666666667
 40
0.1666666666666667
 40
0.1666666666666667
 40
0.3333333333333333
 40
0.3333333333333333
 40
0.3333333333333333
 40
0.3333333333333333
 40
0.5
 40
0.5
 40
0.5
 40
0.5
 40
0.6666666666666666
 40
0.6666666666666666
 40
0.6666666666666666
 40
0.6666666666666666
 40
1.0
 40
1.0
 40
1.0
 40
1.0
 10
-13.86652
 20
-1.03184
 30
0.0
 10
-13.86652
 20
-1.03184
 30
0.0
 10
-13.90617
 20
-0.97968
 30
0.0
 10
-13.90617
 20
-0.97968
 30
0.0
 10
-13.90617
 20
-0.97968
 30
0.0
 10
-13.90617
 20
-0.97968
 30
0.0
 10
-14.19466
 20
-0.97968
 30
0.0
 10
-14.19466
 20
-0.97968
 30
0.0
 10
-14.19466
 20
-0.97968
 30
0.0
 10
-14.19466
 20
-0.97968
 30
0.0
 10
-14.19466
 20
-1.08681
 30
0.0
 10
-14.19466
 20
-1.08681
 30
0.0
 10
-14.19466
 20
-1.08681
 30
0.0
 10
-14.19466
 20
-1.08681
 30
0.0
 10
-13.90631
 20
-1.08681
 30
0.0
 10
-13.90631
 20
-1.08681
 30
0.0
 10
-13.90631
 20
-1.08681
 30
0.0
 10
-13.90631
 20
-1.08681
 30
0.0
 10
-13.86652
 20
-1.03184
 30
0.0
 10
-13.86652
 20
-1.03184
 30
0.0
  0
SPLINE
  5
75
330
1F
100
AcDbEntity
  8
Capa 1
 62
   250
100
AcDbSpline
210
0.0
220
0.0
230
1.0
 70
    11
 71
     3
 72
    36
 73
    32
 74
     0
 42
0.0000000001
 43
0.0000000001
 40
0.0
 40
0.0
 40
0.0
 40
0.0
 40
0.1111111111111111
 40
0.1111111111111111
 40
0.1111111111111111
 40
0.1111111111111111
 40
0.2222222222222222
 40
0.2222222222222222
 40
0.2222222222222222
 40
0.2222222222222222
 40
0.3333333333333333
 40
0.3333333333333333
 40
0.3333333333333333
 40
0.3333333333333333
 40
0.4444444444444444
 40
0.4444444444444444
 40
0.4444444444444444
 40
0.4444444444444444
 40
0.5555555555555556
 40
0.5555555555555556
 40
0.5555555555555556
 40
0.5555555555555556
 40
0.6666666666666666
 40
0.6666666666666666
 40
0.6666666666666666
 40
0.6666666666666666
 40
0.7777777777777778
 40
0.7777777777777778
 40
0.7777777777777778
 40
0.7777777777777778
 40
1.0
 40
1.0
 40
1.0
 40
1.0
 10
-12.98671
 20
-1.25298
 30
0.0
 10
-12.98671
 20
-1.25298
 30
0.0
 10
-13.09975
 20
-1.36602
 30
0.0
 10
-13.09975
 20
-1.36602
 30
0.0
 10
-13.09975
 20
-1.36602
 30
0.0
 10
-13.09975
 20
-1.36602
 30
0.0
 10
-13.51393
 20
-1.36602
 30
0.0
 10
-13.51393
 20
-1.36602
 30
0.0
 10
-13.51393
 20
-1.36602
 30
0.0
 10
-13.51393
 20
-1.36602
 30
0.0
 10
-13.62696
 20
-1.25298
 30
0.0
 10
-13.62696
 20
-1.25298
 30
0.0
 10
-13.62696
 20
-1.25298
 30
0.0
 10
-13.62696
 20
-1.25298
 30
0.0
 10
-13.62696
 20
-0.98221
 30
0.0
 10
-13.62696
 20
-0.98221
 30
0.0
 10
-13.62696
 20
-0.98221
 30
0.0
 10
-13.62696
 20
-0.98221
 30
0.0
 10
-13.51393
 20
-0.86917
 30
0.0
 10
-13.51393
 20
-0.86917
 30
0.0
 10
-13.51393
 20
-0.86917
 30
0.0
 10
-13.51393
 20
-0.86917
 30
0.0
 10
-13.09975
 20
-0.86917
 30
0.0
 10
-13.09975
 20
-0.86917
 30
0.0
 10
-13.09975
 20
-0.86917
 30
0.0
 10
-13.09975
 20
-0.86917
 30
0.0
 10
-12.98671
 20
-0.98221
 30
0.0
 10
-12.98671
 20
-0.98221
 30
0.0
 10
-12.98671
 20
-0.98221
 30
0.0
 10
-12.98671
 20
-0.98221
 30
0.0
 10
-12.98671
 20
-1.25298
 30
0.0
 10
-12.98671
 20
-1.25298
 30
0.0
  0
SPLINE
  5
76
330
1F
100
AcDbEntity
  8
Capa 1
 62
   250
100
AcDbSpline
210
0.0
220
0.0
230
1.0
 70
    11
 71
     3
 72
    20
 73
    16
 74
     0
 42
0.0000000001
 43
0.0000000001
 40
0.0
 40
0.0
 40
0.0
 40
0.0
 40
0.2
 40
0.2
 40
0.2
 40
0.2
 40
0.4
 40
0.4
 40
0.4
 40
0.4
 40
0.6
 40
0.6
 40
0.6
 40
0.6
 40
1.0
 40
1.0
 40
1.0
 40
1.0
 10
-13.13686
 20
-1.25552
 30
0.0
 10
-13.13686
 20
-1.25552
 30
0.0
 10
-13.13686
 20
-0.97968
 30
0.0
 10
-13.13686
 20
-0.97968
 30
0.0
 10
-13.13686
 20
-0.97968
 30
0.0
 10
-13.13686
 20
-0.97968
 30
0.0
 10
-13.47681
 20
-0.97968
 30
0.0
 10
-13.47681
 20
-0.97968
 30
0.0
 10
-13.47681
 20
-0.97968
 30
0.0
 10
-13.47681
 20
-0.97968
 30
0.0
 10
-13.47681
 20
-1.25552
 30
0.0
 10
-13.47681
 20
-1.25552
 30
0.0
 10
-13.47681
 20
-1.25552
 30
0.0
 10
-13.47681
 20
-1.25552
 30
0.0
 10
-13.13686
 20
-1.25552
 30
0.0
 10
-13.13686
 20
-1.25552
 30
0.0
  0
SPLINE
  5
77
330
1F
100
AcDbEntity
  8
Capa 1
 62
   250
100
AcDbSpline
210
0.0
220
0.0
230
1.0
 70
    11
 71
     3
 72
    44
 73
    40
 74
     0
 42
0.0000000001
 43
0.0000000001
 40
0.0
 40
0.0
 40
0.0
 40
0.0
 40
0.0909090909090909
 40
0.0909090909090909
 40
0.0909090909090909
 40
0.0909090909090909
 40
0.1818181818181818
 40
0.1818181818181818
 40
0.1818181818181818
 40
0.1818181818181818
 40
0.2727272727272727
 40
0.2727272727272727
 40
0.2727272727272727
 40
0.2727272727272727
 40
0.3636363636363636
 40
0.3636363636363636
 40
0.3636363636363636
 40
0.3636363636363636
 40
0.4545454545454545
 40
0.4545454545454545
 40
0.4545454545454545
 40
0.4545454545454545
 40
0.5454545454545454
 40
0.5454545454545454
 40
0.5454545454545454
 40
0.5454545454545454
 40
0.6363636363636364
 40
0.6363636363636364
 40
0.6363636363636364
 40
0.6363636363636364
 40
0.7272727272727273
 40
0.7272727272727273
 40
0.7272727272727273
 40
0.7272727272727273
 40
0.8181818181818182
 40
0.8181818181818182
 40
0.8181818181818182
 40
0.8181818181818182
 40
1.0
 40
1.0
 40
1.0
 40
1.0
 10
-12.26549
 20
-1.36602
 30
0.0
 10
-12.26549
 20
-1.36602
 30
0.0
 10
-12.37937
 20
-1.36602
 30
0.0
 10
-12.37937
 20
-1.36602
 30
0.0
 10
-12.37937
 20
-1.36602
 30
0.0
 10
-12.37937
 20
-1.36602
 30
0.0
 10
-12.73197
 20
-1.07584
 30
0.0
 10
-12.73197
 20
-1.07584
 30
0.0
 10
-12.73197
 20
-1.07584
 30
0.0
 10
-12.73197
 20
-1.07584
 30
0.0
 10
-12.73197
 20
-1.36602
 30
0.0
 10
-12.73197
 20
-1.36602
 30
0.0
 10
-12.73197
 20
-1.36602
 30
0.0
 10
-12.73197
 20
-1.36602
 30
0.0
 10
-12.88212
 20
-1.36518
 30
0.0
 10
-12.88212
 20
-1.36518
 30
0.0
 10
-12.88212
 20
-1.36518
 30
0.0
 10
-12.88212
 20
-1.36518
 30
0.0
 10
-12.88212
 20
-0.86917
 30
0.0
 10
-12.88212
 20
-0.86917
 30
0.0
 10
-12.88212
 20
-0.86917
 30
0.0
 10
-12.88212
 20
-0.86917
 30
0.0
 10
-12.77541
 20
-0.86917
 30
0.0
 10
-12.77541
 20
-0.86917
 30
0.0
 10
-12.77541
 20
-0.86917
 30
0.0
 10
-12.77541
 20
-0.86917
 30
0.0
 10
-12.41564
 20
-1.16526
 30
0.0
 10
-12.41564
 20
-1.16526
 30
0.0
 10
-12.41564
 20
-1.16526
 30
0.0
 10
-12.41564
 20
-1.16526
 30
0.0
 10
-12.41564
 20
-0.86917
 30
0.0
 10
-12.41564
 20
-0.86917
 30
0.0
 10
-12.41564
 20
-0.86917
 30
0.0
 10
-12.41564
 20
-0.86917
 30
0.0
 10
-12.26549
 20
-0.78229
 30
0.0
 10
-12.26549
 20
-0.78229
 30
0.0
 10
-12.26549
 20
-0.78229
 30
0.0
 10
-12.26549
 20
-0.78229
 30
0.0
 10
-12.26549
 20
-1.36602
 30
0.0
 10
-12.26549
 20
-1.36602
 30
0.0
  0
SPLINE
  5
78
330
1F
100
AcDbEntity
  8
Capa 1
 62
   250
100
AcDbSpline
210
0.0
220
0.0
230
1.0
 70
    11
 71
     3
 72
    36
 73
    32
 74
     0
 42
0.0000000001
 43
0.0000000001
 40
0.0
 40
0.0
 40
0.0
 40
0.0
 40
0.1111111111111111
 40
0.1111111111111111
 40
0.1111111111111111
 40
0.1111111111111111
 40
0.2222222222222222
 40
0.2222222222222222
 40
0.2222222222222222
 40
0.2222222222222222
 40
0.3333333333333333
 40
0.3333333333333333
 40
0.3333333333333333
 40
0.3333333333333333
 40
0.4444444444444444
 40
0.4444444444444444
 40
0.4444444444444444
 40
0.4444444444444444
 40
0.5555555555555556
 40
0.5555555555555556
 40
0.5555555555555556
 40
0.5555555555555556
 40
0.6666666666666666
 40
0.6666666666666666
 40
0.6666666666666666
 40
0.6666666666666666
 40
0.7777777777777778
 40
0.7777777777777778
 40
0.7777777777777778
 40
0.7777777777777778
 40
1.0
 40
1.0
 40
1.0
 40
1.0
 10
-11.51474
 20
-0.86917
 30
0.0
 10
-11.51474
 20
-0.86917
 30
0.0
 10
-11.62525
 20
-0.97968
 30
0.0
 10
-11.62525
 20
-0.97968
 30
0.0
 10
-11.62525
 20
-0.97968
 30
0.0
 10
-11.62525
 20
-0.97968
 30
0.0
 10
-11.77287
 20
-0.97968
 30
0.0
 10
-11.77287
 20
-0.97968
 30
0.0
 10
-11.77287
 20
-0.97968
 30
0.0
 10
-11.77287
 20
-0.97968
 30
0.0
 10
-11.77287
 20
-1.45206
 30
0.0
 10
-11.77287
 20
-1.45206
 30
0.0
 10
-11.77287
 20
-1.45206
 30
0.0
 10
-11.77287
 20
-1.45206
 30
0.0
 10
-11.92302
 20
-1.36602
 30
0.0
 10
-11.92302
 20
-1.36602
 30
0.0
 10
-11.92302
 20
-1.36602
 30
0.0
 10
-11.92302
 20
-1.36602
 30
0.0
 10
-11.92302
 20
-0.97968
 30
0.0
 10
-11.92302
 20
-0.97968
 30
0.0
 10
-11.92302
 20
-0.97968
 30
0.0
 10
-11.92302
 20
-0.97968
 30
0.0
 10
-12.07064
 20
-0.97968
 30
0.0
 10
-12.07064
 20
-0.97968
 30
0.0
 10
-12.07064
 20
-0.97968
 30
0.0
 10
-12.07064
 20
-0.97968
 30
0.0
 10
-12.18114
 20
-0.86917
 30
0.0
 10
-12.18114
 20
-0.86917
 30
0.0
 10
-12.18114
 20
-0.86917
 30
0.0
 10
-12.18114
 20
-0.86917
 30
0.0
 10
-11.51474
 20
-0.86917
 30
0.0
 10
-11.51474
 20
-0.86917
 30
0.0
  0
SPLINE
  5
79
330
1F
100
AcDbEntity
  8
Capa 1
 62
   250
100
AcDbSpline
210
0.0
220
0.0
230
1.0
 70
    11
 71
     3
 72
    44
 73
    40
 74
     0
 42
0.0000000001
 43
0.0000000001
 40
0.0
 40
0.0
 40
0.0
 40
0.0
 40
0.0909090909090909
 40
0.0909090909090909
 40
0.0909090909090909
 40
0.0909090909090909
 40
0.1818181818181818
 40
0.1818181818181818
 40
0.1818181818181818
 40
0.1818181818181818
 40
0.2727272727272727
 40
0.2727272727272727
 40
0.2727272727272727
 40
0.2727272727272727
 40
0.3636363636363636
 40
0.3636363636363636
 40
0.3636363636363636
 40
0.3636363636363636
 40
0.4545454545454545
 40
0.4545454545454545
 40
0.4545454545454545
 40
0.4545454545454545
 40
0.5454545454545454
 40
0.5454545454545454
 40
0.5454545454545454
 40
0.5454545454545454
 40
0.6363636363636364
 40
0.6363636363636364
 40
0.6363636363636364
 40
0.6363636363636364
 40
0.7272727272727273
 40
0.7272727272727273
 40
0.7272727272727273
 40
0.7272727272727273
 40
0.8181818181818182
 40
0.8181818181818182
 40
0.8181818181818182
 40
0.8181818181818182
 40
1.0
 40
1.0
 40
1.0
 40
1.0
 10
-10.42743
 20
-1.45206
 30
0.0
 10
-10.42743
 20
-1.45206
 30
0.0
 10
-10.57842
 20
-1.36686
 30
0.0
 10
-10.57842
 20
-1.36686
 30
0.0
 10
-10.57842
 20
-1.36686
 30
0.0
 10
-10.57842
 20
-1.36686
 30
0.0
 10
-10.57842
 20
-1.22346
 30
0.0
 10
-10.57842
 20
-1.22346
 30
0.0
 10
-10.57842
 20
-1.22346
 30
0.0
 10
-10.57842
 20
-1.22346
 30
0.0
 10
-10.88041
 20
-1.22346
 30
0.0
 10
-10.88041
 20
-1.22346
 30
0.0
 10
-10.88041
 20
-1.22346
 30
0.0
 10
-10.88041
 20
-1.22346
 30
0.0
 10
-10.88041
 20
-1.36686
 30
0.0
 10
-10.88041
 20
-1.36686
 30
0.0
 10
-10.88041
 20
-1.36686
 30
0.0
 10
-10.88041
 20
-1.36686
 30
0.0
 10
-11.03056
 20
-1.36602
 30
0.0
 10
-11.03056
 20
-1.36602
 30
0.0
 10
-11.03056
 20
-1.36602
 30
0.0
 10
-11.03056
 20
-1.36602
 30
0.0
 10
-11.03056
 20
-0.98052
 30
0.0
 10
-11.03056
 20
-0.98052
 30
0.0
 10
-11.03056
 20
-0.98052
 30
0.0
 10
-11.03056
 20
-0.98052
 30
0.0
 10
-10.91753
 20
-0.86917
 30
0.0
 10
-10.91753
 20
-0.86917
 30
0.0
 10
-10.91753
 20
-0.86917
 30
0.0
 10
-10.91753
 20
-0.86917
 30
0.0
 10
-10.54046
 20
-0.86917
 30
0.0
 10
-10.54046
 20
-0.86917
 30
0.0
 10
-10.54046
 20
-0.86917
 30
0.0
 10
-10.54046
 20
-0.86917
 30
0.0
 10
-10.42743
 20
-0.98052
 30
0.0
 10
-10.42743
 20
-0.98052
 30
0.0
 10
-10.42743
 20
-0.98052
 30
0.0
 10
-10.42743
 20
-0.98052
 30
0.0
 10
-10.42743
 20
-1.45206
 30
0.0
 10
-10.42743
 20
-1.45206
 30
0.0
  0
SPLINE
  5
7A
330
1F
100
AcDbEntity
  8
Capa 1
 62
   250
100
AcDbSpline
210
0.0
220
0.0
230
1.0
 70
    11
 71
     3
 72
    20
 73
    16
 74
     0
 42
0.0000000001
 43
0.0000000001
 40
0.0
 40
0.0
 40
0.0
 40
0.0
 40
0.2
 40
0.2
 40
0.2
 40
0.2
 40
0.4
 40
0.4
 40
0.4
 40
0.4
 40
0.6
 40
0.6
 40
0.6
 40
0.6
 40
1.0
 40
1.0
 40
1.0
 40
1.0
 10
-10.57842
 20
-1.1138
 30
0.0
 10
-10.57842
 20
-1.1138
 30
0.0
 10
-10.57842
 20
-0.98052
 30
0.0
 10
-10.57842
 20
-0.98052
 30
0.0
 10
-10.57842
 20
-0.98052
 30
0.0
 10
-10.57842
 20
-0.98052
 30
0.0
 10
-10.88041
 20
-0.98052
 30
0.0
 10
-10.88041
 20
-0.98052
 30
0.0
 10
-10.88041
 20
-0.98052
 30
0.0
 10
-10.88041
 20
-0.98052
 30
0.0
 10
-10.88041
 20
-1.1138
 30
0.0
 10
-10.88041
 20
-1.1138
 30
0.0
 10
-10.88041
 20
-1.1138
 30
0.0
 10
-10.88041
 20
-1.1138
 30
0.0
 10
-10.57842
 20
-1.1138
 30
0.0
 10
-10.57842
 20
-1.1138
 30
0.0
  0
SPLINE
  5
7B
330
1F
100
AcDbEntity
  8
Capa 1
 62
   250
100
AcDbSpline
210
0.0
220
0.0
230
1.0
 70
    11
 71
     3
 72
    44
 73
    40
 74
     0
 42
0.0000000001
 43
0.0000000001
 40
0.0
 40
0.0
 40
0.0
 40
0.0
 40
0.0909090909090909
 40
0.0909090909090909
 40
0.0909090909090909
 40
0.0909090909090909
 40
0.1818181818181818
 40
0.1818181818181818
 40
0.1818181818181818
 40
0.1818181818181818
 40
0.2727272727272727
 40
0.2727272727272727
 40
0.2727272727272727
 40
0.2727272727272727
 40
0.3636363636363636
 40
0.3636363636363636
 40
0.3636363636363636
 40
0.3636363636363636
 40
0.4545454545454545
 40
0.4545454545454545
 40
0.4545454545454545
 40
0.4545454545454545
 40
0.5454545454545454
 40
0.5454545454545454
 40
0.5454545454545454
 40
0.5454545454545454
 40
0.6363636363636364
 40
0.6363636363636364
 40
0.6363636363636364
 40
0.6363636363636364
 40
0.7272727272727273
 40
0.7272727272727273
 40
0.7272727272727273
 40
0.7272727272727273
 40
0.8181818181818182
 40
0.8181818181818182
 40
0.8181818181818182
 40
0.8181818181818182
 40
1.0
 40
1.0
 40
1.0
 40
1.0
 10
-9.70367
 20
-1.36602
 30
0.0
 10
-9.70367
 20
-1.36602
 30
0.0
 10
-9.81755
 20
-1.36602
 30
0.0
 10
-9.81755
 20
-1.36602
 30
0.0
 10
-9.81755
 20
-1.36602
 30
0.0
 10
-9.81755
 20
-1.36602
 30
0.0
 10
-10.17015
 20
-1.07584
 30
0.0
 10
-10.17015
 20
-1.07584
 30
0.0
 10
-10.17015
 20
-1.07584
 30
0.0
 10
-10.17015
 20
-1.07584
 30
0.0
 10
-10.17015
 20
-1.36602
 30
0.0
 10
-10.17015
 20
-1.36602
 30
0.0
 10
-10.17015
 20
-1.36602
 30
0.0
 10
-10.17015
 20
-1.36602
 30
0.0
 10
-10.3203
 20
-1.36518
 30
0.0
 10
-10.3203
 20
-1.36518
 30
0.0
 10
-10.3203
 20
-1.36518
 30
0.0
 10
-10.3203
 20
-1.36518
 30
0.0
 10
-10.3203
 20
-0.86917
 30
0.0
 10
-10.3203
 20
-0.86917
 30
0.0
 10
-10.3203
 20
-0.86917
 30
0.0
 10
-10.3203
 20
-0.86917
 30
0.0
 10
-10.21359
 20
-0.86917
 30
0.0
 10
-10.21359
 20
-0.86917
 30
0.0
 10
-10.21359
 20
-0.86917
 30
0.0
 10
-10.21359
 20
-0.86917
 30
0.0
 10
-9.85382
 20
-1.16526
 30
0.0
 10
-9.85382
 20
-1.16526
 30
0.0
 10
-9.85382
 20
-1.16526
 30
0.0
 10
-9.85382
 20
-1.16526
 30
0.0
 10
-9.85382
 20
-0.86917
 30
0.0
 10
-9.85382
 20
-0.86917
 30
0.0
 10
-9.85382
 20
-0.86917
 30
0.0
 10
-9.85382
 20
-0.86917
 30
0.0
 10
-9.70367
 20
-0.78229
 30
0.0
 10
-9.70367
 20
-0.78229
 30
0.0
 10
-9.70367
 20
-0.78229
 30
0.0
 10
-9.70367
 20
-0.78229
 30
0.0
 10
-9.70367
 20
-1.36602
 30
0.0
 10
-9.70367
 20
-1.36602
 30
0.0
  0
SPLINE
  5
7C
330
1F
100
AcDbEntity
  8
Capa 1
 62
   250
100
AcDbSpline
210
0.0
220
0.0
230
1.0
 70
    11
 71
     3
 72
    24
 73
    20
 74
     0
 42
0.0000000001
 43
0.0000000001
 40
0.0
 40
0.0
 40
0.0
 40
0.0
 40
0.1666666666666667
 40
0.1666666666666667
 40
0.1666666666666667
 40
0.1666666666666667
 40
0.3333333333333333
 40
0.3333333333333333
 40
0.3333333333333333
 40
0.3333333333333333
 40
0.5
 40
0.5
 40
0.5
 40
0.5
 40
0.6666666666666666
 40
0.6666666666666666
 40
0.6666666666666666
 40
0.6666666666666666
 40
1.0
 40
1.0
 40
1.0
 40
1.0
 10
-8.95546
 20
-1.11802
 30
0.0
 10
-8.95546
 20
-1.11802
 30
0.0
 10
-9.09633
 20
-1.36686
 30
0.0
 10
-9.09633
 20
-1.36686
 30
0.0
 10
-9.09633
 20
-1.36686
 30
0.0
 10
-9.09633
 20
-1.36686
 30
0.0
 10
-9.59486
 20
-1.36686
 30
0.0
 10
-9.59486
 20
-1.36686
 30
0.0
 10
-9.59486
 20
-1.36686
 30
0.0
 10
-9.59486
 20
-1.36686
 30
0.0
 10
-9.59486
 20
-0.86917
 30
0.0
 10
-9.59486
 20
-0.86917
 30
0.0
 10
-9.59486
 20
-0.86917
 30
0.0
 10
-9.59486
 20
-0.86917
 30
0.0
 10
-9.09633
 20
-0.86917
 30
0.0
 10
-9.09633
 20
-0.86917
 30
0.0
 10
-9.09633
 20
-0.86917
 30
0.0
 10
-9.09633
 20
-0.86917
 30
0.0
 10
-8.95546
 20
-1.11802
 30
0.0
 10
-8.95546
 20
-1.11802
 30
0.0
  0
SPLINE
  5
7D
330
1F
100
AcDbEntity
  8
Capa 1
 62
   250
100
AcDbSpline
210
0.0
220
0.0
230
1.0
 70
    11
 71
     3
 72
    24
 73
    20
 74
     0
 42
0.0000000001
 43
0.0000000001
 40
0.0
 40
0.0
 40
0.0
 40
0.0
 40
0.1666666666666667
 40
0.1666666666666667
 40
0.1666666666666667
 40
0.1666666666666667
 40
0.3333333333333333
 40
0.3333333333333333
 40
0.3333333333333333
 40
0.3333333333333333
 40
0.5
 40
0.5
 40
0.5
 40
0.5
 40
0.6666666666666666
 40
0.6666666666666666
 40
0.6666666666666666
 40
0.6666666666666666
 40
1.0
 40
1.0
 40
1.0
 40
1.0
 10
-9.11812
 20
-1.11774
 30
0.0
 10
-9.11812
 20
-1.11774
 30
0.0
 10
-9.19586
 20
-0.98052
 30
0.0
 10
-9.19586
 20
-0.98052
 30
0.0
 10
-9.19586
 20
-0.98052
 30
0.0
 10
-9.19586
 20
-0.98052
 30
0.0
 10
-9.44471
 20
-0.98052
 30
0.0
 10
-9.44471
 20
-0.98052
 30
0.0
 10
-9.44471
 20
-0.98052
 30
0.0
 10
-9.44471
 20
-0.98052
 30
0.0
 10
-9.44471
 20
-1.25552
 30
0.0
 10
-9.44471
 20
-1.25552
 30
0.0
 10
-9.44471
 20
-1.25552
 30
0.0
 10
-9.44471
 20
-1.25552
 30
0.0
 10
-9.19615
 20
-1.25552
 30
0.0
 10
-9.19615
 20
-1.25552
 30
0.0
 10
-9.19615
 20
-1.25552
 30
0.0
 10
-9.19615
 20
-1.25552
 30
0.0
 10
-9.11812
 20
-1.11774
 30
0.0
 10
-9.11812
 20
-1.11774
 30
0.0
  0
SPLINE
  5
7E
330
1F
100
AcDbEntity
  8
Capa 1
 62
   250
100
AcDbSpline
210
0.0
220
0.0
230
1.0
 70
    11
 71
     3
 72
    32
 73
    28
 74
     0
 42
0.0000000001
 43
0.0000000001
 40
0.0
 40
0.0
 40
0.0
 40
0.0
 40
0.125
 40
0.125
 40
0.125
 40
0.125
 40
0.25
 40
0.25
 40
0.25
 40
0.25
 40
0.375
 40
0.375
 40
0.375
 40
0.375
 40
0.5
 40
0.5
 40
0.5
 40
0.5
 40
0.625
 40
0.625
 40
0.625
 40
0.625
 40
0.75
 40
0.75
 40
0.75
 40
0.75
 40
1.0
 40
1.0
 40
1.0
 40
1.0
 10
-7.80488
 20
-1.21418
 30
0.0
 10
-7.80488
 20
-1.21418
 30
0.0
 10
-7.91791
 20
-1.36686
 30
0.0
 10
-7.91791
 20
-1.36686
 30
0.0
 10
-7.91791
 20
-1.36686
 30
0.0
 10
-7.91791
 20
-1.36686
 30
0.0
 10
-8.44428
 20
-1.36686
 30
0.0
 10
-8.44428
 20
-1.36686
 30
0.0
 10
-8.44428
 20
-1.36686
 30
0.0
 10
-8.44428
 20
-1.36686
 30
0.0
 10
-8.44428
 20
-0.86917
 30
0.0
 10
-8.44428
 20
-0.86917
 30
0.0
 10
-8.44428
 20
-0.86917
 30
0.0
 10
-8.44428
 20
-0.86917
 30
0.0
 10
-7.91791
 20
-0.86917
 30
0.0
 10
-7.91791
 20
-0.86917
 30
0.0
 10
-7.91791
 20
-0.86917
 30
0.0
 10
-7.91791
 20
-0.86917
 30
0.0
 10
-7.80488
 20
-1.02185
 30
0.0
 10
-7.80488
 20
-1.02185
 30
0.0
 10
-7.80488
 20
-1.02185
 30
0.0
 10
-7.80488
 20
-1.02185
 30
0.0
 10
-7.87573
 20
-1.11802
 30
0.0
 10
-7.87573
 20
-1.11802
 30
0.0
 10
-7.87573
 20
-1.11802
 30
0.0
 10
-7.87573
 20
-1.11802
 30
0.0
 10
-7.80488
 20
-1.21418
 30
0.0
 10
-7.80488
 20
-1.21418
 30
0.0
  0
SPLINE
  5
7F
330
1F
100
AcDbEntity
  8
Capa 1
 62
   250
100
AcDbSpline
210
0.0
220
0.0
230
1.0
 70
    11
 71
     3
 72
    24
 73
    20
 74
     0
 42
0.0000000001
 43
0.0000000001
 40
0.0
 40
0.0
 40
0.0
 40
0.0
 40
0.1666666666666667
 40
0.1666666666666667
 40
0.1666666666666667
 40
0.1666666666666667
 40
0.3333333333333333
 40
0.3333333333333333
 40
0.3333333333333333
 40
0.3333333333333333
 40
0.5
 40
0.5
 40
0.5
 40
0.5
 40
0.6666666666666666
 40
0.6666666666666666
 40
0.6666666666666666
 40
0.6666666666666666
 40
1.0
 40
1.0
 40
1.0
 40
1.0
 10
-7.96937
 20
-1.02185
 30
0.0
 10
-7.96937
 20
-1.02185
 30
0.0
 10
-8.00564
 20
-0.98052
 30
0.0
 10
-8.00564
 20
-0.98052
 30
0.0
 10
-8.00564
 20
-0.98052
 30
0.0
 10
-8.00564
 20
-0.98052
 30
0.0
 10
-8.29413
 20
-0.98052
 30
0.0
 10
-8.29413
 20
-0.98052
 30
0.0
 10
-8.29413
 20
-0.98052
 30
0.0
 10
-8.29413
 20
-0.98052
 30
0.0
 10
-8.29413
 20
-1.06741
 30
0.0
 10
-8.29413
 20
-1.06741
 30
0.0
 10
-8.29413
 20
-1.06741
 30
0.0
 10
-8.29413
 20
-1.06741
 30
0.0
 10
-8.00564
 20
-1.06741
 30
0.0
 10
-8.00564
 20
-1.06741
 30
0.0
 10
-8.00564
 20
-1.06741
 30
0.0
 10
-8.00564
 20
-1.06741
 30
0.0
 10
-7.96937
 20
-1.02185
 30
0.0
 10
-7.96937
 20
-1.02185
 30
0.0
  0
SPLINE
  5
80
330
1F
100
AcDbEntity
  8
Capa 1
 62
   250
100
AcDbSpline
210
0.0
220
0.0
230
1.0
 70
    11
 71
     3
 72
    24
 73
    20
 74
     0
 42
0.0000000001
 43
0.0000000001
 40
0.0
 40
0.0
 40
0.0
 40
0.0
 40
0.1666666666666667
 40
0.1666666666666667
 40
0.1666666666666667
 40
0.1666666666666667
 40
0.3333333333333333
 40
0.3333333333333333
 40
0.3333333333333333
 40
0.3333333333333333
 40
0.5
 40
0.5
 40
0.5
 40
0.5
 40
0.6666666666666666
 40
0.6666666666666666
 40
0.6666666666666666
 40
0.6666666666666666
 40
1.0
 40
1.0
 40
1.0
 40
1.0
 10
-7.96937
 20
-1.21418
 30
0.0
 10
-7.96937
 20
-1.21418
 30
0.0
 10
-8.00564
 20
-1.16863
 30
0.0
 10
-8.00564
 20
-1.16863
 30
0.0
 10
-8.00564
 20
-1.16863
 30
0.0
 10
-8.00564
 20
-1.16863
 30
0.0
 10
-8.29413
 20
-1.16863
 30
0.0
 10
-8.29413
 20
-1.16863
 30
0.0
 10
-8.29413
 20
-1.16863
 30
0.0
 10
-8.29413
 20
-1.16863
 30
0.0
 10
-8.29413
 20
-1.25552
 30
0.0
 10
-8.29413
 20
-1.25552
 30
0.0
 10
-8.29413
 20
-1.25552
 30
0.0
 10
-8.29413
 20
-1.25552
 30
0.0
 10
-8.00564
 20
-1.25552
 30
0.0
 10
-8.00564
 20
-1.25552
 30
0.0
 10
-8.00564
 20
-1.25552
 30
0.0
 10
-8.00564
 20
-1.25552
 30
0.0
 10
-7.96937
 20
-1.21418
 30
0.0
 10
-7.96937
 20
-1.21418
 30
0.0
  0
SPLINE
  5
81
330
1F
100
AcDbEntity
  8
Capa 1
 62
   250
100
AcDbSpline
210
0.0
220
0.0
230
1.0
 70
    11
 71
     3
 72
    44
 73
    40
 74
     0
 42
0.0000000001
 43
0.0000000001
 40
0.0
 40
0.0
 40
0.0
 40
0.0
 40
0.0909090909090909
 40
0.0909090909090909
 40
0.0909090909090909
 40
0.0909090909090909
 40
0.1818181818181818
 40
0.1818181818181818
 40
0.1818181818181818
 40
0.1818181818181818
 40
0.2727272727272727
 40
0.2727272727272727
 40
0.2727272727272727
 40
0.2727272727272727
 40
0.3636363636363636
 40
0.3636363636363636
 40
0.3636363636363636
 40
0.3636363636363636
 40
0.4545454545454545
 40
0.4545454545454545
 40
0.4545454545454545
 40
0.4545454545454545
 40
0.5454545454545454
 40
0.5454545454545454
 40
0.5454545454545454
 40
0.5454545454545454
 40
0.6363636363636364
 40
0.6363636363636364
 40
0.6363636363636364
 40
0.6363636363636364
 40
0.7272727272727273
 40
0.7272727272727273
 40
0.7272727272727273
 40
0.7272727272727273
 40
0.8181818181818182
 40
0.8181818181818182
 40
0.8181818181818182
 40
0.8181818181818182
 40
1.0
 40
1.0
 40
1.0
 40
1.0
 10
-7.1039
 20
-1.45206
 30
0.0
 10
-7.1039
 20
-1.45206
 30
0.0
 10
-7.25489
 20
-1.36686
 30
0.0
 10
-7.25489
 20
-1.36686
 30
0.0
 10
-7.25489
 20
-1.36686
 30
0.0
 10
-7.25489
 20
-1.36686
 30
0.0
 10
-7.25489
 20
-1.22346
 30
0.0
 10
-7.25489
 20
-1.22346
 30
0.0
 10
-7.25489
 20
-1.22346
 30
0.0
 10
-7.25489
 20
-1.22346
 30
0.0
 10
-7.55688
 20
-1.22346
 30
0.0
 10
-7.55688
 20
-1.22346
 30
0.0
 10
-7.55688
 20
-1.22346
 30
0.0
 10
-7.55688
 20
-1.22346
 30
0.0
 10
-7.55688
 20
-1.36686
 30
0.0
 10
-7.55688
 20
-1.36686
 30
0.0
 10
-7.55688
 20
-1.36686
 30
0.0
 10
-7.55688
 20
-1.36686
 30
0.0
 10
-7.70703
 20
-1.36602
 30
0.0
 10
-7.70703
 20
-1.36602
 30
0.0
 10
-7.70703
 20
-1.36602
 30
0.0
 10
-7.70703
 20
-1.36602
 30
0.0
 10
-7.70703
 20
-0.98052
 30
0.0
 10
-7.70703
 20
-0.98052
 30
0.0
 10
-7.70703
 20
-0.98052
 30
0.0
 10
-7.70703
 20
-0.98052
 30
0.0
 10
-7.594
 20
-0.86917
 30
0.0
 10
-7.594
 20
-0.86917
 30
0.0
 10
-7.594
 20
-0.86917
 30
0.0
 10
-7.594
 20
-0.86917
 30
0.0
 10
-7.21693
 20
-0.86917
 30
0.0
 10
-7.21693
 20
-0.86917
 30
0.0
 10
-7.21693
 20
-0.86917
 30
0.0
 10
-7.21693
 20
-0.86917
 30
0.0
 10
-7.1039
 20
-0.98052
 30
0.0
 10
-7.1039
 20
-0.98052
 30
0.0
 10
-7.1039
 20
-0.98052
 30
0.0
 10
-7.1039
 20
-0.98052
 30
0.0
 10
-7.1039
 20
-1.45206
 30
0.0
 10
-7.1039
 20
-1.45206
 30
0.0
  0
SPLINE
  5
82
330
1F
100
AcDbEntity
  8
Capa 1
 62
   250
100
AcDbSpline
210
0.0
220
0.0
230
1.0
 70
    11
 71
     3
 72
    20
 73
    16
 74
     0
 42
0.0000000001
 43
0.0000000001
 40
0.0
 40
0.0
 40
0.0
 40
0.0
 40
0.2
 40
0.2
 40
0.2
 40
0.2
 40
0.4
 40
0.4
 40
0.4
 40
0.4
 40
0.6
 40
0.6
 40
0.6
 40
0.6
 40
1.0
 40
1.0
 40
1.0
 40
1.0
 10
-7.25489
 20
-1.1138
 30
0.0
 10
-7.25489
 20
-1.1138
 30
0.0
 10
-7.25489
 20
-0.98052
 30
0.0
 10
-7.25489
 20
-0.98052
 30
0.0
 10
-7.25489
 20
-0.98052
 30
0.0
 10
-7.25489
 20
-0.98052
 30
0.0
 10
-7.55688
 20
-0.98052
 30
0.0
 10
-7.55688
 20
-0.98052
 30
0.0
 10
-7.55688
 20
-0.98052
 30
0.0
 10
-7.55688
 20
-0.98052
 30
0.0
 10
-7.55688
 20
-1.1138
 30
0.0
 10
-7.55688
 20
-1.1138
 30
0.0
 10
-7.55688
 20
-1.1138
 30
0.0
 10
-7.55688
 20
-1.1138
 30
0.0
 10
-7.25489
 20
-1.1138
 30
0.0
 10
-7.25489
 20
-1.1138
 30
0.0
  0
SPLINE
  5
83
330
1F
100
AcDbEntity
  8
Capa 1
 62
   250
100
AcDbSpline
210
0.0
220
0.0
230
1.0
 70
    11
 71
     3
 72
    44
 73
    40
 74
     0
 42
0.0000000001
 43
0.0000000001
 40
0.0
 40
0.0
 40
0.0
 40
0.0
 40
0.0909090909090909
 40
0.0909090909090909
 40
0.0909090909090909
 40
0.0909090909090909
 40
0.1818181818181818
 40
0.1818181818181818
 40
0.1818181818181818
 40
0.1818181818181818
 40
0.2727272727272727
 40
0.2727272727272727
 40
0.2727272727272727
 40
0.2727272727272727
 40
0.3636363636363636
 40
0.3636363636363636
 40
0.3636363636363636
 40
0.3636363636363636
 40
0.4545454545454545
 40
0.4545454545454545
 40
0.4545454545454545
 40
0.4545454545454545
 40
0.5454545454545454
 40
0.5454545454545454
 40
0.5454545454545454
 40
0.5454545454545454
 40
0.6363636363636364
 40
0.6363636363636364
 40
0.6363636363636364
 40
0.6363636363636364
 40
0.7272727272727273
 40
0.7272727272727273
 40
0.7272727272727273
 40
0.7272727272727273
 40
0.8181818181818182
 40
0.8181818181818182
 40
0.8181818181818182
 40
0.8181818181818182
 40
1.0
 40
1.0
 40
1.0
 40
1.0
 10
-6.42231
 20
-0.86917
 30
0.0
 10
-6.42231
 20
-0.86917
 30
0.0
 10
-6.53282
 20
-0.98052
 30
0.0
 10
-6.53282
 20
-0.98052
 30
0.0
 10
-6.53282
 20
-0.98052
 30
0.0
 10
-6.53282
 20
-0.98052
 30
0.0
 10
-6.86686
 20
-0.98052
 30
0.0
 10
-6.86686
 20
-0.98052
 30
0.0
 10
-6.86686
 20
-0.98052
 30
0.0
 10
-6.86686
 20
-0.98052
 30
0.0
 10
-6.86686
 20
-1.25552
 30
0.0
 10
-6.86686
 20
-1.25552
 30
0.0
 10
-6.86686
 20
-1.25552
 30
0.0
 10
-6.86686
 20
-1.25552
 30
0.0
 10
-6.44003
 20
-1.25552
 30
0.0
 10
-6.44003
 20
-1.25552
 30
0.0
 10
-6.44003
 20
-1.25552
 30
0.0
 10
-6.44003
 20
-1.25552
 30
0.0
 10
-6.55138
 20
-1.36686
 30
0.0
 10
-6.55138
 20
-1.36686
 30
0.0
 10
-6.55138
 20
-1.36686
 30
0.0
 10
-6.55138
 20
-1.36686
 30
0.0
 10
-6.90398
 20
-1.36686
 30
0.0
 10
-6.90398
 20
-1.36686
 30
0.0
 10
-6.90398
 20
-1.36686
 30
0.0
 10
-6.90398
 20
-1.36686
 30
0.0
 10
-7.01701
 20
-1.25552
 30
0.0
 10
-7.01701
 20
-1.25552
 30
0.0
 10
-7.01701
 20
-1.25552
 30
0.0
 10
-7.01701
 20
-1.25552
 30
0.0
 10
-7.01701
 20
-0.98277
 30
0.0
 10
-7.01701
 20
-0.98277
 30
0.0
 10
-7.01701
 20
-0.98277
 30
0.0
 10
-7.01701
 20
-0.98277
 30
0.0
 10
-6.90398
 20
-0.86917
 30
0.0
 10
-6.90398
 20
-0.86917
 30
0.0
 10
-6.90398
 20
-0.86917
 30
0.0
 10
-6.90398
 20
-0.86917
 30
0.0
 10
-6.42231
 20
-0.86917
 30
0.0
 10
-6.42231
 20
-0.86917
 30
0.0
  0
SPLINE
  5
84
330
1F
100
AcDbEntity
  8
Capa 1
 62
   250
100
AcDbSpline
210
0.0
220
0.0
230
1.0
 70
    11
 71
     3
 72
    60
 73
    56
 74
     0
 42
0.0000000001
 43
0.0000000001
 40
0.0
 40
0.0
 40
0.0
 40
0.0
 40
0.0666666666666667
 40
0.0666666666666667
 40
0.0666666666666667
 40
0.0666666666666667
 40
0.1333333333333333
 40
0.1333333333333333
 40
0.1333333333333333
 40
0.1333333333333333
 40
0.2
 40
0.2
 40
0.2
 40
0.2
 40
0.2666666666666667
 40
0.2666666666666667
 40
0.2666666666666667
 40
0.2666666666666667
 40
0.3333333333333333
 40
0.3333333333333333
 40
0.3333333333333333
 40
0.3333333333333333
 40
0.4
 40
0.4
 40
0.4
 40
0.4
 40
0.4666666666666667
 40
0.4666666666666667
 40
0.4666666666666667
 40
0.4666666666666667
 40
0.5333333333333333
 40
0.5333333333333333
 40
0.5333333333333333
 40
0.5333333333333333
 40
0.6
 40
0.6
 40
0.6
 40
0.6
 40
0.6666666666666666
 40
0.6666666666666666
 40
0.6666666666666666
 40
0.6666666666666666
 40
0.7333333333333333
 40
0.7333333333333333
 40
0.7333333333333333
 40
0.7333333333333333
 40
0.8
 40
0.8
 40
0.8
 40
0.8
 40
0.8666666666666667
 40
0.8666666666666667
 40
0.8666666666666667
 40
0.8666666666666667
 40
1.0
 40
1.0
 40
1.0
 40
1.0
 10
-5.77715
 20
-0.86917
 30
0.0
 10
-5.77715
 20
-0.86917
 30
0.0
 10
-5.96666
 20
-1.04983
 30
0.0
 10
-5.96666
 20
-1.04983
 30
0.0
 10
-5.96666
 20
-1.04983
 30
0.0
 10
-5.96666
 20
-1.04983
 30
0.0
 10
-5.79303
 20
-1.22346
 30
0.0
 10
-5.79303
 20
-1.22346
 30
0.0
 10
-5.79303
 20
-1.22346
 30
0.0
 10
-5.79303
 20
-1.22346
 30
0.0
 10
-5.79303
 20
-1.36686
 30
0.0
 10
-5.79303
 20
-1.36686
 30
0.0
 10
-5.79303
 20
-1.36686
 30
0.0
 10
-5.79303
 20
-1.36686
 30
0.0
 10
-5.94318
 20
-1.45206
 30
0.0
 10
-5.94318
 20
-1.45206
 30
0.0
 10
-5.94318
 20
-1.45206
 30
0.0
 10
-5.94318
 20
-1.45206
 30
0.0
 10
-5.94318
 20
-1.24525
 30
0.0
 10
-5.94318
 20
-1.24525
 30
0.0
 10
-5.94318
 20
-1.24525
 30
0.0
 10
-5.94318
 20
-1.24525
 30
0.0
 10
-6.05397
 20
-1.13447
 30
0.0
 10
-6.05397
 20
-1.13447
 30
0.0
 10
-6.05397
 20
-1.13447
 30
0.0
 10
-6.05397
 20
-1.13447
 30
0.0
 10
-6.21396
 20
-1.28504
 30
0.0
 10
-6.21396
 20
-1.28504
 30
0.0
 10
-6.21396
 20
-1.28504
 30
0.0
 10
-6.21396
 20
-1.28504
 30
0.0
 10
-6.21396
 20
-1.36686
 30
0.0
 10
-6.21396
 20
-1.36686
 30
0.0
 10
-6.21396
 20
-1.36686
 30
0.0
 10
-6.21396
 20
-1.36686
 30
0.0
 10
-6.36411
 20
-1.36602
 30
0.0
 10
-6.36411
 20
-1.36602
 30
0.0
 10
-6.36411
 20
-1.36602
 30
0.0
 10
-6.36411
 20
-1.36602
 30
0.0
 10
-6.36411
 20
-0.86917
 30
0.0
 10
-6.36411
 20
-0.86917
 30
0.0
 10
-6.36411
 20
-0.86917
 30
0.0
 10
-6.36411
 20
-0.86917
 30
0.0
 10
-6.21396
 20
-0.86917
 30
0.0
 10
-6.21396
 20
-0.86917
 30
0.0
 10
-6.21396
 20
-0.86917
 30
0.0
 10
-6.21396
 20
-0.86917
 30
0.0
 10
-6.21396
 20
-1.11296
 30
0.0
 10
-6.21396
 20
-1.11296
 30
0.0
 10
-6.21396
 20
-1.11296
 30
0.0
 10
-6.21396
 20
-1.11296
 30
0.0
 10
-5.95499
 20
-0.86917
 30
0.0
 10
-5.95499
 20
-0.86917
 30
0.0
 10
-5.95499
 20
-0.86917
 30
0.0
 10
-5.95499
 20
-0.86917
 30
0.0
 10
-5.77715
 20
-0.86917
 30
0.0
 10
-5.77715
 20
-0.86917
 30
0.0
  0
SPLINE
  5
85
330
1F
100
AcDbEntity
  8
Capa 1
 62
   250
100
AcDbSpline
210
0.0
220
0.0
230
1.0
 70
    11
 71
     3
 72
    68
 73
    64
 74
     0
 42
0.0000000001
 43
0.0000000001
 40
0.0
 40
0.0
 40
0.0
 40
0.0
 40
0.0588235294117647
 40
0.0588235294117647
 40
0.0588235294117647
 40
0.0588235294117647
 40
0.1176470588235294
 40
0.1176470588235294
 40
0.1176470588235294
 40
0.1176470588235294
 40
0.1764705882352941
 40
0.1764705882352941
 40
0.1764705882352941
 40
0.1764705882352941
 40
0.2352941176470588
 40
0.2352941176470588
 40
0.2352941176470588
 40
0.2352941176470588
 40
0.2941176470588235
 40
0.2941176470588235
 40
0.2941176470588235
 40
0.2941176470588235
 40
0.3529411764705883
 40
0.3529411764705883
 40
0.3529411764705883
 40
0.3529411764705883
 40
0.4117647058823529
 40
0.4117647058823529
 40
0.4117647058823529
 40
0.4117647058823529
 40
0.4705882352941176
 40
0.4705882352941176
 40
0.4705882352941176
 40
0.4705882352941176
 40
0.5294117647058824
 40
0.5294117647058824
 40
0.5294117647058824
 40
0.5294117647058824
 40
0.5882352941176471
 40
0.5882352941176471
 40
0.5882352941176471
 40
0.5882352941176471
 40
0.6470588235294118
 40
0.6470588235294118
 40
0.6470588235294118
 40
0.6470588235294118
 40
0.7058823529411765
 40
0.7058823529411765
 40
0.7058823529411765
 40
0.7058823529411765
 40
0.7647058823529411
 40
0.7647058823529411
 40
0.7647058823529411
 40
0.7647058823529411
 40
0.8235294117647058
 40
0.8235294117647058
 40
0.8235294117647058
 40
0.8235294117647058
 40
0.8823529411764706
 40
0.8823529411764706
 40
0.8823529411764706
 40
0.8823529411764706
 40
1.0
 40
1.0
 40
1.0
 40
1.0
 10
9.94563
 20
-3.36448
 30
0.0
 10
9.94563
 20
-3.36448
 30
0.0
 10
9.83259
 20
-3.51716
 30
0.0
 10
9.83259
 20
-3.51716
 30
0.0
 10
9.83259
 20
-3.51716
 30
0.0
 10
9.83259
 20
-3.51716
 30
0.0
 10
9.25561
 20
-3.51716
 30
0.0
 10
9.25561
 20
-3.51716
 30
0.0
 10
9.25561
 20
-3.51716
 30
0.0
 10
9.25561
 20
-3.51716
 30
0.0
 10
9.36611
 20
-3.40666
 30
0.0
 10
9.36611
 20
-3.40666
 30
0.0
 10
9.36611
 20
-3.40666
 30
0.0
 10
9.36611
 20
-3.40666
 30
0.0
 10
9.74486
 20
-3.40666
 30
0.0
 10
9.74486
 20
-3.40666
 30
0.0
 10
9.74486
 20
-3.40666
 30
0.0
 10
9.74486
 20
-3.40666
 30
0.0
 10
9.78029
 20
-3.36448
 30
0.0
 10
9.78029
 20
-3.36448
 30
0.0
 10
9.78029
 20
-3.36448
 30
0.0
 10
9.78029
 20
-3.36448
 30
0.0
 10
9.74486
 20
-3.31977
 30
0.0
 10
9.74486
 20
-3.31977
 30
0.0
 10
9.74486
 20
-3.31977
 30
0.0
 10
9.74486
 20
-3.31977
 30
0.0
 10
9.36527
 20
-3.31977
 30
0.0
 10
9.36527
 20
-3.31977
 30
0.0
 10
9.36527
 20
-3.31977
 30
0.0
 10
9.36527
 20
-3.31977
 30
0.0
 10
9.25561
 20
-3.17299
 30
0.0
 10
9.25561
 20
-3.17299
 30
0.0
 10
9.25561
 20
-3.17299
 30
0.0
 10
9.25561
 20
-3.17299
 30
0.0
 10
9.36864
 20
-3.02031
 30
0.0
 10
9.36864
 20
-3.02031
 30
0.0
 10
9.36864
 20
-3.02031
 30
0.0
 10
9.36864
 20
-3.02031
 30
0.0
 10
9.94563
 20
-3.02031
 30
0.0
 10
9.94563
 20
-3.02031
 30
0.0
 10
9.94563
 20
-3.02031
 30
0.0
 10
9.94563
 20
-3.02031
 30
0.0
 10
9.83428
 20
-3.13082
 30
0.0
 10
9.83428
 20
-3.13082
 30
0.0
 10
9.83428
 20
-3.13082
 30
0.0
 10
9.83428
 20
-3.13082
 30
0.0
 10
9.45637
 20
-3.13082
 30
0.0
 10
9.45637
 20
-3.13082
 30
0.0
 10
9.45637
 20
-3.13082
 30
0.0
 10
9.45637
 20
-3.13082
 30
0.0
 10
9.4201
 20
-3.17299
 30
0.0
 10
9.4201
 20
-3.17299
 30
0.0
 10
9.4201
 20
-3.17299
 30
0.0
 10
9.4201
 20
-3.17299
 30
0.0
 10
9.45637
 20
-3.2177
 30
0.0
 10
9.45637
 20
-3.2177
 30
0.0
 10
9.45637
 20
-3.2177
 30
0.0
 10
9.45637
 20
-3.2177
 30
0.0
 10
9.83597
 20
-3.2177
 30
0.0
 10
9.83597
 20
-3.2177
 30
0.0
 10
9.83597
 20
-3.2177
 30
0.0
 10
9.83597
 20
-3.2177
 30
0.0
 10
9.94563
 20
-3.36448
 30
0.0
 10
9.94563
 20
-3.36448
 30
0.0
  0
SPLINE
  5
86
330
1F
100
AcDbEntity
  8
Capa 1
 62
   250
100
AcDbSpline
210
0.0
220
0.0
230
1.0
 70
    11
 71
     3
 72
    20
 73
    16
 74
     0
 42
0.0000000001
 43
0.0000000001
 40
0.0
 40
0.0
 40
0.0
 40
0.0
 40
0.2
 40
0.2
 40
0.2
 40
0.2
 40
0.4
 40
0.4
 40
0.4
 40
0.4
 40
0.6
 40
0.6
 40
0.6
 40
0.6
 40
1.0
 40
1.0
 40
1.0
 40
1.0
 10
10.18266
 20
-3.518
 30
0.0
 10
10.18266
 20
-3.518
 30
0.0
 10
10.03251
 20
-3.51716
 30
0.0
 10
10.03251
 20
-3.51716
 30
0.0
 10
10.03251
 20
-3.51716
 30
0.0
 10
10.03251
 20
-3.51716
 30
0.0
 10
10.03251
 20
-3.02031
 30
0.0
 10
10.03251
 20
-3.02031
 30
0.0
 10
10.03251
 20
-3.02031
 30
0.0
 10
10.03251
 20
-3.02031
 30
0.0
 10
10.18266
 20
-2.93343
 30
0.0
 10
10.18266
 20
-2.93343
 30
0.0
 10
10.18266
 20
-2.93343
 30
0.0
 10
10.18266
 20
-2.93343
 30
0.0
 10
10.18266
 20
-3.518
 30
0.0
 10
10.18266
 20
-3.518
 30
0.0
  0
SPLINE
  5
87
330
1F
100
AcDbEntity
  8
Capa 1
 62
   250
100
AcDbSpline
210
0.0
220
0.0
230
1.0
 70
    11
 71
     3
 72
    24
 73
    20
 74
     0
 42
0.0000000001
 43
0.0000000001
 40
0.0
 40
0.0
 40
0.0
 40
0.0
 40
0.1666666666666667
 40
0.1666666666666667
 40
0.1666666666666667
 40
0.1666666666666667
 40
0.3333333333333333
 40
0.3333333333333333
 40
0.3333333333333333
 40
0.3333333333333333
 40
0.5
 40
0.5
 40
0.5
 40
0.5
 40
0.6666666666666666
 40
0.6666666666666666
 40
0.6666666666666666
 40
0.6666666666666666
 40
1.0
 40
1.0
 40
1.0
 40
1.0
 10
10.93172
 20
-3.26916
 30
0.0
 10
10.93172
 20
-3.26916
 30
0.0
 10
10.79085
 20
-3.518
 30
0.0
 10
10.79085
 20
-3.518
 30
0.0
 10
10.79085
 20
-3.518
 30
0.0
 10
10.79085
 20
-3.518
 30
0.0
 10
10.29232
 20
-3.518
 30
0.0
 10
10.29232
 20
-3.518
 30
0.0
 10
10.29232
 20
-3.518
 30
0.0
 10
10.29232
 20
-3.518
 30
0.0
 10
10.29232
 20
-3.02031
 30
0.0
 10
10.29232
 20
-3.02031
 30
0.0
 10
10.29232
 20
-3.02031
 30
0.0
 10
10.29232
 20
-3.02031
 30
0.0
 10
10.79085
 20
-3.02031
 30
0.0
 10
10.79085
 20
-3.02031
 30
0.0
 10
10.79085
 20
-3.02031
 30
0.0
 10
10.79085
 20
-3.02031
 30
0.0
 10
10.93172
 20
-3.26916
 30
0.0
 10
10.93172
 20
-3.26916
 30
0.0
  0
SPLINE
  5
88
330
1F
100
AcDbEntity
  8
Capa 1
 62
   250
100
AcDbSpline
210
0.0
220
0.0
230
1.0
 70
    11
 71
     3
 72
    24
 73
    20
 74
     0
 42
0.0000000001
 43
0.0000000001
 40
0.0
 40
0.0
 40
0.0
 40
0.0
 40
0.1666666666666667
 40
0.1666666666666667
 40
0.1666666666666667
 40
0.1666666666666667
 40
0.3333333333333333
 40
0.3333333333333333
 40
0.3333333333333333
 40
0.3333333333333333
 40
0.5
 40
0.5
 40
0.5
 40
0.5
 40
0.6666666666666666
 40
0.6666666666666666
 40
0.6666666666666666
 40
0.6666666666666666
 40
1.0
 40
1.0
 40
1.0
 40
1.0
 10
10.76906
 20
-3.26888
 30
0.0
 10
10.76906
 20
-3.26888
 30
0.0
 10
10.69132
 20
-3.13166
 30
0.0
 10
10.69132
 20
-3.13166
 30
0.0
 10
10.69132
 20
-3.13166
 30
0.0
 10
10.69132
 20
-3.13166
 30
0.0
 10
10.44247
 20
-3.13166
 30
0.0
 10
10.44247
 20
-3.13166
 30
0.0
 10
10.44247
 20
-3.13166
 30
0.0
 10
10.44247
 20
-3.13166
 30
0.0
 10
10.44247
 20
-3.40666
 30
0.0
 10
10.44247
 20
-3.40666
 30
0.0
 10
10.44247
 20
-3.40666
 30
0.0
 10
10.44247
 20
-3.40666
 30
0.0
 10
10.69103
 20
-3.40666
 30
0.0
 10
10.69103
 20
-3.40666
 30
0.0
 10
10.69103
 20
-3.40666
 30
0.0
 10
10.69103
 20
-3.40666
 30
0.0
 10
10.76906
 20
-3.26888
 30
0.0
 10
10.76906
 20
-3.26888
 30
0.0
  0
SPLINE
  5
89
330
1F
100
AcDbEntity
  8
Capa 1
 62
   250
100
AcDbSpline
210
0.0
220
0.0
230
1.0
 70
    11
 71
     3
 72
    52
 73
    48
 74
     0
 42
0.0000000001
 43
0.0000000001
 40
0.0
 40
0.0
 40
0.0
 40
0.0
 40
0.0769230769230769
 40
0.0769230769230769
 40
0.0769230769230769
 40
0.0769230769230769
 40
0.1538461538461539
 40
0.1538461538461539
 40
0.1538461538461539
 40
0.1538461538461539
 40
0.2307692307692308
 40
0.2307692307692308
 40
0.2307692307692308
 40
0.2307692307692308
 40
0.3076923076923077
 40
0.3076923076923077
 40
0.3076923076923077
 40
0.3076923076923077
 40
0.3846153846153846
 40
0.3846153846153846
 40
0.3846153846153846
 40
0.3846153846153846
 40
0.4615384615384616
 40
0.4615384615384616
 40
0.4615384615384616
 40
0.4615384615384616
 40
0.5384615384615384
 40
0.5384615384615384
 40
0.5384615384615384
 40
0.5384615384615384
 40
0.6153846153846154
 40
0.6153846153846154
 40
0.6153846153846154
 40
0.6153846153846154
 40
0.6923076923076923
 40
0.6923076923076923
 40
0.6923076923076923
 40
0.6923076923076923
 40
0.7692307692307693
 40
0.7692307692307693
 40
0.7692307692307693
 40
0.7692307692307693
 40
0.8461538461538461
 40
0.8461538461538461
 40
0.8461538461538461
 40
0.8461538461538461
 40
1.0
 40
1.0
 40
1.0
 40
1.0
 10
11.62258
 20
-3.02031
 30
0.0
 10
11.62258
 20
-3.02031
 30
0.0
 10
11.51207
 20
-3.13166
 30
0.0
 10
11.51207
 20
-3.13166
 30
0.0
 10
11.51207
 20
-3.13166
 30
0.0
 10
11.51207
 20
-3.13166
 30
0.0
 10
11.17803
 20
-3.13166
 30
0.0
 10
11.17803
 20
-3.13166
 30
0.0
 10
11.17803
 20
-3.13166
 30
0.0
 10
11.17803
 20
-3.13166
 30
0.0
 10
11.17803
 20
-3.21855
 30
0.0
 10
11.17803
 20
-3.21855
 30
0.0
 10
11.17803
 20
-3.21855
 30
0.0
 10
11.17803
 20
-3.21855
 30
0.0
 10
11.55003
 20
-3.21855
 30
0.0
 10
11.55003
 20
-3.21855
 30
0.0
 10
11.55003
 20
-3.21855
 30
0.0
 10
11.55003
 20
-3.21855
 30
0.0
 10
11.44881
 20
-3.31977
 30
0.0
 10
11.44881
 20
-3.31977
 30
0.0
 10
11.44881
 20
-3.31977
 30
0.0
 10
11.44881
 20
-3.31977
 30
0.0
 10
11.17803
 20
-3.31977
 30
0.0
 10
11.17803
 20
-3.31977
 30
0.0
 10
11.17803
 20
-3.31977
 30
0.0
 10
11.17803
 20
-3.31977
 30
0.0
 10
11.17803
 20
-3.40666
 30
0.0
 10
11.17803
 20
-3.40666
 30
0.0
 10
11.17803
 20
-3.40666
 30
0.0
 10
11.17803
 20
-3.40666
 30
0.0
 10
11.60486
 20
-3.40666
 30
0.0
 10
11.60486
 20
-3.40666
 30
0.0
 10
11.60486
 20
-3.40666
 30
0.0
 10
11.60486
 20
-3.40666
 30
0.0
 10
11.49351
 20
-3.518
 30
0.0
 10
11.49351
 20
-3.518
 30
0.0
 10
11.49351
 20
-3.518
 30
0.0
 10
11.49351
 20
-3.518
 30
0.0
 10
11.02788
 20
-3.518
 30
0.0
 10
11.02788
 20
-3.518
 30
0.0
 10
11.02788
 20
-3.518
 30
0.0
 10
11.02788
 20
-3.518
 30
0.0
 10
11.02788
 20
-3.02031
 30
0.0
 10
11.02788
 20
-3.02031
 30
0.0
 10
11.02788
 20
-3.02031
 30
0.0
 10
11.02788
 20
-3.02031
 30
0.0
 10
11.62258
 20
-3.02031
 30
0.0
 10
11.62258
 20
-3.02031
 30
0.0
  0
SPLINE
  5
8A
330
1F
100
AcDbEntity
  8
Capa 1
 62
   250
100
AcDbSpline
210
0.0
220
0.0
230
1.0
 70
    11
 71
     3
 72
    32
 73
    28
 74
     0
 42
0.0000000001
 43
0.0000000001
 40
0.0
 40
0.0
 40
0.0
 40
0.0
 40
0.125
 40
0.125
 40
0.125
 40
0.125
 40
0.25
 40
0.25
 40
0.25
 40
0.25
 40
0.375
 40
0.375
 40
0.375
 40
0.375
 40
0.5
 40
0.5
 40
0.5
 40
0.5
 40
0.625
 40
0.625
 40
0.625
 40
0.625
 40
0.75
 40
0.75
 40
0.75
 40
0.75
 40
1.0
 40
1.0
 40
1.0
 40
1.0
 10
-0.54054
 20
-9.09809
 30
0.0
 10
-0.54054
 20
-9.09809
 30
0.0
 10
-0.65357
 20
-9.25077
 30
0.0
 10
-0.65357
 20
-9.25077
 30
0.0
 10
-0.65357
 20
-9.25077
 30
0.0
 10
-0.65357
 20
-9.25077
 30
0.0
 10
-1.17994
 20
-9.25077
 30
0.0
 10
-1.17994
 20
-9.25077
 30
0.0
 10
-1.17994
 20
-9.25077
 30
0.0
 10
-1.17994
 20
-9.25077
 30
0.0
 10
-1.17994
 20
-8.75308
 30
0.0
 10
-1.17994
 20
-8.75308
 30
0.0
 10
-1.17994
 20
-8.75308
 30
0.0
 10
-1.17994
 20
-8.75308
 30
0.0
 10
-0.65357
 20
-8.75308
 30
0.0
 10
-0.65357
 20
-8.75308
 30
0.0
 10
-0.65357
 20
-8.75308
 30
0.0
 10
-0.65357
 20
-8.75308
 30
0.0
 10
-0.54054
 20
-8.90576
 30
0.0
 10
-0.54054
 20
-8.90576
 30
0.0
 10
-0.54054
 20
-8.90576
 30
0.0
 10
-0.54054
 20
-8.90576
 30
0.0
 10
-0.61139
 20
-9.00193
 30
0.0
 10
-0.61139
 20
-9.00193
 30
0.0
 10
-0.61139
 20
-9.00193
 30
0.0
 10
-0.61139
 20
-9.00193
 30
0.0
 10
-0.54054
 20
-9.09809
 30
0.0
 10
-0.54054
 20
-9.09809
 30
0.0
  0
SPLINE
  5
8B
330
1F
100
AcDbEntity
  8
Capa 1
 62
   250
100
AcDbSpline
210
0.0
220
0.0
230
1.0
 70
    11
 71
     3
 72
    24
 73
    20
 74
     0
 42
0.0000000001
 43
0.0000000001
 40
0.0
 40
0.0
 40
0.0
 40
0.0
 40
0.1666666666666667
 40
0.1666666666666667
 40
0.1666666666666667
 40
0.1666666666666667
 40
0.3333333333333333
 40
0.3333333333333333
 40
0.3333333333333333
 40
0.3333333333333333
 40
0.5
 40
0.5
 40
0.5
 40
0.5
 40
0.6666666666666666
 40
0.6666666666666666
 40
0.6666666666666666
 40
0.6666666666666666
 40
1.0
 40
1.0
 40
1.0
 40
1.0
 10
-0.70503
 20
-8.90576
 30
0.0
 10
-0.70503
 20
-8.90576
 30
0.0
 10
-0.7413
 20
-8.86443
 30
0.0
 10
-0.7413
 20
-8.86443
 30
0.0
 10
-0.7413
 20
-8.86443
 30
0.0
 10
-0.7413
 20
-8.86443
 30
0.0
 10
-1.02979
 20
-8.86443
 30
0.0
 10
-1.02979
 20
-8.86443
 30
0.0
 10
-1.02979
 20
-8.86443
 30
0.0
 10
-1.02979
 20
-8.86443
 30
0.0
 10
-1.02979
 20
-8.95132
 30
0.0
 10
-1.02979
 20
-8.95132
 30
0.0
 10
-1.02979
 20
-8.95132
 30
0.0
 10
-1.02979
 20
-8.95132
 30
0.0
 10
-0.7413
 20
-8.95132
 30
0.0
 10
-0.7413
 20
-8.95132
 30
0.0
 10
-0.7413
 20
-8.95132
 30
0.0
 10
-0.7413
 20
-8.95132
 30
0.0
 10
-0.70503
 20
-8.90576
 30
0.0
 10
-0.70503
 20
-8.90576
 30
0.0
  0
SPLINE
  5
8C
330
1F
100
AcDbEntity
  8
Capa 1
 62
   250
100
AcDbSpline
210
0.0
220
0.0
230
1.0
 70
    11
 71
     3
 72
    24
 73
    20
 74
     0
 42
0.0000000001
 43
0.0000000001
 40
0.0
 40
0.0
 40
0.0
 40
0.0
 40
0.1666666666666667
 40
0.1666666666666667
 40
0.1666666666666667
 40
0.1666666666666667
 40
0.3333333333333333
 40
0.3333333333333333
 40
0.3333333333333333
 40
0.3333333333333333
 40
0.5
 40
0.5
 40
0.5
 40
0.5
 40
0.6666666666666666
 40
0.6666666666666666
 40
0.6666666666666666
 40
0.6666666666666666
 40
1.0
 40
1.0
 40
1.0
 40
1.0
 10
-0.70503
 20
-9.09809
 30
0.0
 10
-0.70503
 20
-9.09809
 30
0.0
 10
-0.7413
 20
-9.05254
 30
0.0
 10
-0.7413
 20
-9.05254
 30
0.0
 10
-0.7413
 20
-9.05254
 30
0.0
 10
-0.7413
 20
-9.05254
 30
0.0
 10
-1.02979
 20
-9.05254
 30
0.0
 10
-1.02979
 20
-9.05254
 30
0.0
 10
-1.02979
 20
-9.05254
 30
0.0
 10
-1.02979
 20
-9.05254
 30
0.0
 10
-1.02979
 20
-9.13943
 30
0.0
 10
-1.02979
 20
-9.13943
 30
0.0
 10
-1.02979
 20
-9.13943
 30
0.0
 10
-1.02979
 20
-9.13943
 30
0.0
 10
-0.7413
 20
-9.13943
 30
0.0
 10
-0.7413
 20
-9.13943
 30
0.0
 10
-0.7413
 20
-9.13943
 30
0.0
 10
-0.7413
 20
-9.13943
 30
0.0
 10
-0.70503
 20
-9.09809
 30
0.0
 10
-0.70503
 20
-9.09809
 30
0.0
  0
SPLINE
  5
8D
330
1F
100
AcDbEntity
  8
Capa 1
 62
   250
100
AcDbSpline
210
0.0
220
0.0
230
1.0
 70
    11
 71
     3
 72
    44
 73
    40
 74
     0
 42
0.0000000001
 43
0.0000000001
 40
0.0
 40
0.0
 40
0.0
 40
0.0
 40
0.0909090909090909
 40
0.0909090909090909
 40
0.0909090909090909
 40
0.0909090909090909
 40
0.1818181818181818
 40
0.1818181818181818
 40
0.1818181818181818
 40
0.1818181818181818
 40
0.2727272727272727
 40
0.2727272727272727
 40
0.2727272727272727
 40
0.2727272727272727
 40
0.3636363636363636
 40
0.3636363636363636
 40
0.3636363636363636
 40
0.3636363636363636
 40
0.4545454545454545
 40
0.4545454545454545
 40
0.4545454545454545
 40
0.4545454545454545
 40
0.5454545454545454
 40
0.5454545454545454
 40
0.5454545454545454
 40
0.5454545454545454
 40
0.6363636363636364
 40
0.6363636363636364
 40
0.6363636363636364
 40
0.6363636363636364
 40
0.7272727272727273
 40
0.7272727272727273
 40
0.7272727272727273
 40
0.7272727272727273
 40
0.8181818181818182
 40
0.8181818181818182
 40
0.8181818181818182
 40
0.8181818181818182
 40
1.0
 40
1.0
 40
1.0
 40
1.0
 10
0.16044
 20
-9.33597
 30
0.0
 10
0.16044
 20
-9.33597
 30
0.0
 10
0.00945
 20
-9.25077
 30
0.0
 10
0.00945
 20
-9.25077
 30
0.0
 10
0.00945
 20
-9.25077
 30
0.0
 10
0.00945
 20
-9.25077
 30
0.0
 10
0.00945
 20
-9.10737
 30
0.0
 10
0.00945
 20
-9.10737
 30
0.0
 10
0.00945
 20
-9.10737
 30
0.0
 10
0.00945
 20
-9.10737
 30
0.0
 10
-0.29254
 20
-9.10737
 30
0.0
 10
-0.29254
 20
-9.10737
 30
0.0
 10
-0.29254
 20
-9.10737
 30
0.0
 10
-0.29254
 20
-9.10737
 30
0.0
 10
-0.29254
 20
-9.25077
 30
0.0
 10
-0.29254
 20
-9.25077
 30
0.0
 10
-0.29254
 20
-9.25077
 30
0.0
 10
-0.29254
 20
-9.25077
 30
0.0
 10
-0.44269
 20
-9.24993
 30
0.0
 10
-0.44269
 20
-9.24993
 30
0.0
 10
-0.44269
 20
-9.24993
 30
0.0
 10
-0.44269
 20
-9.24993
 30
0.0
 10
-0.44269
 20
-8.86443
 30
0.0
 10
-0.44269
 20
-8.86443
 30
0.0
 10
-0.44269
 20
-8.86443
 30
0.0
 10
-0.44269
 20
-8.86443
 30
0.0
 10
-0.32966
 20
-8.75308
 30
0.0
 10
-0.32966
 20
-8.75308
 30
0.0
 10
-0.32966
 20
-8.75308
 30
0.0
 10
-0.32966
 20
-8.75308
 30
0.0
 10
0.04741
 20
-8.75308
 30
0.0
 10
0.04741
 20
-8.75308
 30
0.0
 10
0.04741
 20
-8.75308
 30
0.0
 10
0.04741
 20
-8.75308
 30
0.0
 10
0.16044
 20
-8.86443
 30
0.0
 10
0.16044
 20
-8.86443
 30
0.0
 10
0.16044
 20
-8.86443
 30
0.0
 10
0.16044
 20
-8.86443
 30
0.0
 10
0.16044
 20
-9.33597
 30
0.0
 10
0.16044
 20
-9.33597
 30
0.0
  0
SPLINE
  5
8E
330
1F
100
AcDbEntity
  8
Capa 1
 62
   250
100
AcDbSpline
210
0.0
220
0.0
230
1.0
 70
    11
 71
     3
 72
    20
 73
    16
 74
     0
 42
0.0000000001
 43
0.0000000001
 40
0.0
 40
0.0
 40
0.0
 40
0.0
 40
0.2
 40
0.2
 40
0.2
 40
0.2
 40
0.4
 40
0.4
 40
0.4
 40
0.4
 40
0.6
 40
0.6
 40
0.6
 40
0.6
 40
1.0
 40
1.0
 40
1.0
 40
1.0
 10
0.00945
 20
-8.99771
 30
0.0
 10
0.00945
 20
-8.99771
 30
0.0
 10
0.00945
 20
-8.86443
 30
0.0
 10
0.00945
 20
-8.86443
 30
0.0
 10
0.00945
 20
-8.86443
 30
0.0
 10
0.00945
 20
-8.86443
 30
0.0
 10
-0.29254
 20
-8.86443
 30
0.0
 10
-0.29254
 20
-8.86443
 30
0.0
 10
-0.29254
 20
-8.86443
 30
0.0
 10
-0.29254
 20
-8.86443
 30
0.0
 10
-0.29254
 20
-8.99771
 30
0.0
 10
-0.29254
 20
-8.99771
 30
0.0
 10
-0.29254
 20
-8.99771
 30
0.0
 10
-0.29254
 20
-8.99771
 30
0.0
 10
0.00945
 20
-8.99771
 30
0.0
 10
0.00945
 20
-8.99771
 30
0.0
  0
SPLINE
  5
8F
330
1F
100
AcDbEntity
  8
Capa 1
 62
   250
100
AcDbSpline
210
0.0
220
0.0
230
1.0
 70
    11
 71
     3
 72
    68
 73
    64
 74
     0
 42
0.0000000001
 43
0.0000000001
 40
0.0
 40
0.0
 40
0.0
 40
0.0
 40
0.0588235294117647
 40
0.0588235294117647
 40
0.0588235294117647
 40
0.0588235294117647
 40
0.1176470588235294
 40
0.1176470588235294
 40
0.1176470588235294
 40
0.1176470588235294
 40
0.1764705882352941
 40
0.1764705882352941
 40
0.1764705882352941
 40
0.1764705882352941
 40
0.2352941176470588
 40
0.2352941176470588
 40
0.2352941176470588
 40
0.2352941176470588
 40
0.2941176470588235
 40
0.2941176470588235
 40
0.2941176470588235
 40
0.2941176470588235
 40
0.3529411764705883
 40
0.3529411764705883
 40
0.3529411764705883
 40
0.3529411764705883
 40
0.4117647058823529
 40
0.4117647058823529
 40
0.4117647058823529
 40
0.4117647058823529
 40
0.4705882352941176
 40
0.4705882352941176
 40
0.4705882352941176
 40
0.4705882352941176
 40
0.5294117647058824
 40
0.5294117647058824
 40
0.5294117647058824
 40
0.5294117647058824
 40
0.5882352941176471
 40
0.5882352941176471
 40
0.5882352941176471
 40
0.5882352941176471
 40
0.6470588235294118
 40
0.6470588235294118
 40
0.6470588235294118
 40
0.6470588235294118
 40
0.7058823529411765
 40
0.7058823529411765
 40
0.7058823529411765
 40
0.7058823529411765
 40
0.7647058823529411
 40
0.7647058823529411
 40
0.7647058823529411
 40
0.7647058823529411
 40
0.8235294117647058
 40
0.8235294117647058
 40
0.8235294117647058
 40
0.8235294117647058
 40
0.8823529411764706
 40
0.8823529411764706
 40
0.8823529411764706
 40
0.8823529411764706
 40
1.0
 40
1.0
 40
1.0
 40
1.0
 10
0.93735
 20
-9.09725
 30
0.0
 10
0.93735
 20
-9.09725
 30
0.0
 10
0.82431
 20
-9.24993
 30
0.0
 10
0.82431
 20
-9.24993
 30
0.0
 10
0.82431
 20
-9.24993
 30
0.0
 10
0.82431
 20
-9.24993
 30
0.0
 10
0.24733
 20
-9.24993
 30
0.0
 10
0.24733
 20
-9.24993
 30
0.0
 10
0.24733
 20
-9.24993
 30
0.0
 10
0.24733
 20
-9.24993
 30
0.0
 10
0.35783
 20
-9.13943
 30
0.0
 10
0.35783
 20
-9.13943
 30
0.0
 10
0.35783
 20
-9.13943
 30
0.0
 10
0.35783
 20
-9.13943
 30
0.0
 10
0.73658
 20
-9.13943
 30
0.0
 10
0.73658
 20
-9.13943
 30
0.0
 10
0.73658
 20
-9.13943
 30
0.0
 10
0.73658
 20
-9.13943
 30
0.0
 10
0.77201
 20
-9.09725
 30
0.0
 10
0.77201
 20
-9.09725
 30
0.0
 10
0.77201
 20
-9.09725
 30
0.0
 10
0.77201
 20
-9.09725
 30
0.0
 10
0.73658
 20
-9.05254
 30
0.0
 10
0.73658
 20
-9.05254
 30
0.0
 10
0.73658
 20
-9.05254
 30
0.0
 10
0.73658
 20
-9.05254
 30
0.0
 10
0.35699
 20
-9.05254
 30
0.0
 10
0.35699
 20
-9.05254
 30
0.0
 10
0.35699
 20
-9.05254
 30
0.0
 10
0.35699
 20
-9.05254
 30
0.0
 10
0.24733
 20
-8.90576
 30
0.0
 10
0.24733
 20
-8.90576
 30
0.0
 10
0.24733
 20
-8.90576
 30
0.0
 10
0.24733
 20
-8.90576
 30
0.0
 10
0.36036
 20
-8.75308
 30
0.0
 10
0.36036
 20
-8.75308
 30
0.0
 10
0.36036
 20
-8.75308
 30
0.0
 10
0.36036
 20
-8.75308
 30
0.0
 10
0.93735
 20
-8.75308
 30
0.0
 10
0.93735
 20
-8.75308
 30
0.0
 10
0.93735
 20
-8.75308
 30
0.0
 10
0.93735
 20
-8.75308
 30
0.0
 10
0.826
 20
-8.86359
 30
0.0
 10
0.826
 20
-8.86359
 30
0.0
 10
0.826
 20
-8.86359
 30
0.0
 10
0.826
 20
-8.86359
 30
0.0
 10
0.44809
 20
-8.86359
 30
0.0
 10
0.44809
 20
-8.86359
 30
0.0
 10
0.44809
 20
-8.86359
 30
0.0
 10
0.44809
 20
-8.86359
 30
0.0
 10
0.41182
 20
-8.90576
 30
0.0
 10
0.41182
 20
-8.90576
 30
0.0
 10
0.41182
 20
-8.90576
 30
0.0
 10
0.41182
 20
-8.90576
 30
0.0
 10
0.44809
 20
-8.95047
 30
0.0
 10
0.44809
 20
-8.95047
 30
0.0
 10
0.44809
 20
-8.95047
 30
0.0
 10
0.44809
 20
-8.95047
 30
0.0
 10
0.82769
 20
-8.95047
 30
0.0
 10
0.82769
 20
-8.95047
 30
0.0
 10
0.82769
 20
-8.95047
 30
0.0
 10
0.82769
 20
-8.95047
 30
0.0
 10
0.93735
 20
-9.09725
 30
0.0
 10
0.93735
 20
-9.09725
 30
0.0
  0
SPLINE
  5
90
330
1F
100
AcDbEntity
  8
Capa 1
 62
   250
100
AcDbSpline
210
0.0
220
0.0
230
1.0
 70
    11
 71
     3
 72
    52
 73
    48
 74
     0
 42
0.0000000001
 43
0.0000000001
 40
0.0
 40
0.0
 40
0.0
 40
0.0
 40
0.0769230769230769
 40
0.0769230769230769
 40
0.0769230769230769
 40
0.0769230769230769
 40
0.1538461538461539
 40
0.1538461538461539
 40
0.1538461538461539
 40
0.1538461538461539
 40
0.2307692307692308
 40
0.2307692307692308
 40
0.2307692307692308
 40
0.2307692307692308
 40
0.3076923076923077
 40
0.3076923076923077
 40
0.3076923076923077
 40
0.3076923076923077
 40
0.3846153846153846
 40
0.3846153846153846
 40
0.3846153846153846
 40
0.3846153846153846
 40
0.4615384615384616
 40
0.4615384615384616
 40
0.4615384615384616
 40
0.4615384615384616
 40
0.5384615384615384
 40
0.5384615384615384
 40
0.5384615384615384
 40
0.5384615384615384
 40
0.6153846153846154
 40
0.6153846153846154
 40
0.6153846153846154
 40
0.6153846153846154
 40
0.6923076923076923
 40
0.6923076923076923
 40
0.6923076923076923
 40
0.6923076923076923
 40
0.7692307692307693
 40
0.7692307692307693
 40
0.7692307692307693
 40
0.7692307692307693
 40
0.8461538461538461
 40
0.8461538461538461
 40
0.8461538461538461
 40
0.8461538461538461
 40
1.0
 40
1.0
 40
1.0
 40
1.0
 10
1.61893
 20
-8.75308
 30
0.0
 10
1.61893
 20
-8.75308
 30
0.0
 10
1.50842
 20
-8.86443
 30
0.0
 10
1.50842
 20
-8.86443
 30
0.0
 10
1.50842
 20
-8.86443
 30
0.0
 10
1.50842
 20
-8.86443
 30
0.0
 10
1.17438
 20
-8.86443
 30
0.0
 10
1.17438
 20
-8.86443
 30
0.0
 10
1.17438
 20
-8.86443
 30
0.0
 10
1.17438
 20
-8.86443
 30
0.0
 10
1.17438
 20
-8.95132
 30
0.0
 10
1.17438
 20
-8.95132
 30
0.0
 10
1.17438
 20
-8.95132
 30
0.0
 10
1.17438
 20
-8.95132
 30
0.0
 10
1.54638
 20
-8.95132
 30
0.0
 10
1.54638
 20
-8.95132
 30
0.0
 10
1.54638
 20
-8.95132
 30
0.0
 10
1.54638
 20
-8.95132
 30
0.0
 10
1.44516
 20
-9.05254
 30
0.0
 10
1.44516
 20
-9.05254
 30
0.0
 10
1.44516
 20
-9.05254
 30
0.0
 10
1.44516
 20
-9.05254
 30
0.0
 10
1.17438
 20
-9.05254
 30
0.0
 10
1.17438
 20
-9.05254
 30
0.0
 10
1.17438
 20
-9.05254
 30
0.0
 10
1.17438
 20
-9.05254
 30
0.0
 10
1.17438
 20
-9.13943
 30
0.0
 10
1.17438
 20
-9.13943
 30
0.0
 10
1.17438
 20
-9.13943
 30
0.0
 10
1.17438
 20
-9.13943
 30
0.0
 10
1.60121
 20
-9.13943
 30
0.0
 10
1.60121
 20
-9.13943
 30
0.0
 10
1.60121
 20
-9.13943
 30
0.0
 10
1.60121
 20
-9.13943
 30
0.0
 10
1.48986
 20
-9.25077
 30
0.0
 10
1.48986
 20
-9.25077
 30
0.0
 10
1.48986
 20
-9.25077
 30
0.0
 10
1.48986
 20
-9.25077
 30
0.0
 10
1.02423
 20
-9.25077
 30
0.0
 10
1.02423
 20
-9.25077
 30
0.0
 10
1.02423
 20
-9.25077
 30
0.0
 10
1.02423
 20
-9.25077
 30
0.0
 10
1.02423
 20
-8.75308
 30
0.0
 10
1.02423
 20
-8.75308
 30
0.0
 10
1.02423
 20
-8.75308
 30
0.0
 10
1.02423
 20
-8.75308
 30
0.0
 10
1.61893
 20
-8.75308
 30
0.0
 10
1.61893
 20
-8.75308
 30
0.0
  0
ENDSEC
  0
SECTION
  2
OBJECTS
  0
DICTIONARY
  5
C
330
0
100
AcDbDictionary
281
     1
  3
ACAD_GROUP
350
D
  3
ACAD_LAYOUT
350
1A
  3
ACAD_MATERIAL
350
3B
  3
ACAD_MLEADERSTYLE
350
B2
  3
ACAD_MLINESTYLE
350
17
  3
ACAD_PLOTSETTINGS
350
19
  3
ACAD_PLOTSTYLENAME
350
E
  3
ACAD_TABLESTYLE
350
B1
  3
ACAD_VISUALSTYLE
350
2A
  0
DICTIONARY
  5
D
102
{ACAD_REACTORS
330
C
102
}
330
C
100
AcDbDictionary
281
     1
  0
DICTIONARY
  5
1A
102
{ACAD_REACTORS
330
C
102
}
330
C
100
AcDbDictionary
281
     1
  3
Layout1
350
1E
  3
Layout2
350
26
  3
Model
350
22
  0
DICTIONARY
  5
3B
102
{ACAD_REACTORS
330
C
102
}
330
C
100
AcDbDictionary
281
     1
  3
ByBlock
350
3D
  3
ByLayer
350
3C
  3
Global
350
3E
  0
DICTIONARY
  5
B2
102
{ACAD_REACTORS
330
C
102
}
330
C
100
AcDbDictionary
281
     1
  0
DICTIONARY
  5
17
102
{ACAD_REACTORS
330
C
102
}
330
C
100
AcDbDictionary
281
     1
  3
Standard
350
18
  0
DICTIONARY
  5
19
102
{ACAD_REACTORS
330
C
102
}
330
C
100
AcDbDictionary
281
     1
  0
ACDBDICTIONARYWDFLT
  5
E
102
{ACAD_REACTORS
330
C
102
}
330
C
100
AcDbDictionary
281
     1
  3
Normal
350
F
100
AcDbDictionaryWithDefault
340
F
  0
DICTIONARY
  5
B1
102
{ACAD_REACTORS
330
C
102
}
330
C
100
AcDbDictionary
281
     1
  0
DICTIONARY
  5
2A
102
{ACAD_REACTORS
330
C
102
}
330
C
100
AcDbDictionary
281
     1
  3
2dWireframe
350
2F
  3
3D Hidden
350
31
  3
3dWireframe
350
30
  3
Basic
350
32
  3
Brighten
350
36
  3
ColorChange
350
3A
  3
Conceptual
350
34
  3
Dim
350
35
  3
Facepattern
350
39
  3
Flat
350
2B
  3
FlatWithEdges
350
2C
  3
Gouraud
350
2D
  3
GouraudWithEdges
350
2E
  3
Linepattern
350
38
  3
Realistic
350
33
  3
Thicken
350
37
  0
LAYOUT
  5
1E
102
{ACAD_REACTORS
330
1A
102
}
330
1A
100
AcDbPlotSettings
  1

  2
none_device
  4

  6

 40
0.0
 41
0.0
 42
0.0
 43
0.0
 44
0.0
 45
0.0
 46
0.0
 47
0.0
 48
0.0
 49
0.0
140
0.0
141
0.0
142
1.0
143
1.0
 70
   688
 72
     0
 73
     0
 74
     5
  7

 75
    16
 76
     0
 77
     2
 78
   300
147
1.0
148
0.0
149
0.0
100
AcDbLayout
  1
Layout1
 70
     1
 71
     1
 10
0.0
 20
0.0
 11
12.0
 21
9.0
 12
0.0
 22
0.0
 32
0.0
 14
1.000000000000000E+20
 24
1.000000000000000E+20
 34
1.000000000000000E+20
 15
-1.000000000000000E+20
 25
-1.000000000000000E+20
 35
-1.000000000000000E+20
146
0.0
 13
0.0
 23
0.0
 33
0.0
 16
1.0
 26
0.0
 36
0.0
 17
0.0
 27
1.0
 37
0.0
 76
     0
330
1B
  0
LAYOUT
  5
26
102
{ACAD_REACTORS
330
1A
102
}
330
1A
100
AcDbPlotSettings
  1

  2
none_device
  4

  6

 40
0.0
 41
0.0
 42
0.0
 43
0.0
 44
0.0
 45
0.0
 46
0.0
 47
0.0
 48
0.0
 49
0.0
140
0.0
141
0.0
142
1.0
143
1.0
 70
   688
 72
     0
 73
     0
 74
     5
  7

 75
    16
 76
     0
 77
     2
 78
   300
147
1.0
148
0.0
149
0.0
100
AcDbLayout
  1
Layout2
 70
     1
 71
     2
 10
0.0
 20
0.0
 11
0.0
 21
0.0
 12
0.0
 22
0.0
 32
0.0
 14
0.0
 24
0.0
 34
0.0
 15
0.0
 25
0.0
 35
0.0
146
0.0
 13
0.0
 23
0.0
 33
0.0
 16
1.0
 26
0.0
 36
0.0
 17
0.0
 27
1.0
 37
0.0
 76
     0
330
23
  0
LAYOUT
  5
22
102
{ACAD_REACTORS
330
1A
102
}
330
1A
100
AcDbPlotSettings
  1

  2
none_device
  4

  6

 40
0.0
 41
0.0
 42
0.0
 43
0.0
 44
0.0
 45
0.0
 46
0.0
 47
0.0
 48
0.0
 49
0.0
140
0.0
141
0.0
142
1.0
143
1.0
 70
  1712
 72
     0
 73
     0
 74
     0
  7

 75
     0
 76
     0
 77
     2
 78
   300
147
1.0
148
0.0
149
0.0
100
AcDbLayout
  1
Model
 70
     1
 71
     0
 10
0.0
 20
0.0
 11
12.0
 21
9.0
 12
0.0
 22
0.0
 32
0.0
 14
-14.99616
 24
-9.33597
 34
0.0
 15
14.1142
 25
9.9124
 35
0.0
146
0.0
 13
0.0
 23
0.0
 33
0.0
 16
1.0
 26
0.0
 36
0.0
 17
0.0
 27
1.0
 37
0.0
 76
     0
330
1F
331
29
  0
MATERIAL
  5
3D
102
{ACAD_REACTORS
330
3B
102
}
330
3B
100
AcDbMaterial
  1
ByBlock
 72
     1
 94
      127
  0
MATERIAL
  5
3C
102
{ACAD_REACTORS
330
3B
102
}
330
3B
100
AcDbMaterial
  1
ByLayer
 72
     1
 94
      127
  0
MATERIAL
  5
3E
102
{ACAD_REACTORS
330
3B
102
}
330
3B
100
AcDbMaterial
  1
Global
 72
     1
 94
      127
  0
MLINESTYLE
  5
18
102
{ACAD_REACTORS
330
17
102
}
330
17
100
AcDbMlineStyle
  2
Standard
 70
     0
  3

 62
   256
 51
90.0
 52
90.0
 71
     2
 49
0.5
 62
   256
  6
BYLAYER
 49
-0.5
 62
   256
  6
BYLAYER
  0
ACDBPLACEHOLDER
  5
F
102
{ACAD_REACTORS
330
E
102
}
330
E
  0
VISUALSTYLE
  5
2F
102
{ACAD_REACTORS
330
2A
102
}
102
{ACAD_XDICTIONARY
360
99
102
}
330
2A
100
AcDbVisualStyle
  2
2dWireframe
 70
     4
 71
     0
 72
     2
 73
     0
 90
        0
 40
-0.6
 41
-30.0
 62
     5
 63
     7
421
 16777215
 74
     1
 91
        4
 64
     7
 65
   257
 75
     1
175
     1
 42
1.0
 92
        0
 66
   257
 43
1.0
 76
     1
 77
     6
 78
     2
 67
     7
 79
     5
170
     0
171
     0
290
     0
174
     0
 93
        1
 44
0.0
173
     0
291
     0
 45
0.0
  0
VISUALSTYLE
  5
31
102
{ACAD_REACTORS
330
2A
102
}
102
{ACAD_XDICTIONARY
360
9D
102
}
330
2A
100
AcDbVisualStyle
  2
3D Hidden
 70
     6
 71
     1
 72
     2
 73
     2
 90
        0
 40
-0.6
 41
-30.0
 62
     5
 63
     7
421
 16777215
 74
     2
 91
        2
 64
     7
 65
   257
 75
     2
175
     1
 42
40.0
 92
        0
 66
   257
 43
1.0
 76
     1
 77
     6
 78
     2
 67
     7
 79
     3
170
     0
171
     0
290
     0
174
     0
 93
        1
 44
0.0
173
     0
291
     0
 45
0.0
  0
VISUALSTYLE
  5
30
102
{ACAD_REACTORS
330
2A
102
}
102
{ACAD_XDICTIONARY
360
9B
102
}
330
2A
100
AcDbVisualStyle
  2
3dWireframe
 70
     5
 71
     0
 72
     2
 73
     0
 90
        0
 40
-0.6
 41
-30.0
 62
     5
 63
     7
421
 16777215
 74
     1
 91
        4
 64
     7
 65
   257
 75
     1
175
     1
 42
1.0
 92
        0
 66
   257
 43
1.0
 76
     1
 77
     6
 78
     2
 67
     7
 79
     5
170
     0
171
     0
290
     0
174
     0
 93
        1
 44
0.0
173
     0
291
     0
 45
0.0
  0
VISUALSTYLE
  5
32
102
{ACAD_REACTORS
330
2A
102
}
102
{ACAD_XDICTIONARY
360
9F
102
}
330
2A
100
AcDbVisualStyle
  2
Basic
 70
     7
 71
     1
 72
     0
 73
     1
 90
        0
 40
-0.6
 41
-30.0
 62
     5
 63
     7
421
 16777215
 74
     0
 91
        4
 64
     7
 65
   257
 75
     1
175
     1
 42
1.0
 92
        8
 66
     7
 43
1.0
 76
     1
 77
     6
 78
     2
 67
     7
 79
     5
170
     0
171
     0
290
     0
174
     0
 93
        1
 44
0.0
173
     0
291
     1
 45
0.0
  0
VISUALSTYLE
  5
36
102
{ACAD_REACTORS
330
2A
102
}
102
{ACAD_XDICTIONARY
360
A7
102
}
330
2A
100
AcDbVisualStyle
  2
Brighten
 70
    12
 71
     2
 72
     2
 73
     0
 90
        0
 40
-0.6
 41
-30.0
 62
     5
 63
     7
421
 16777215
 74
     1
 91
        4
 64
     7
 65
   257
 75
     1
175
     1
 42
1.0
 92
        8
 66
     7
 43
1.0
 76
     1
 77
     6
 78
     2
 67
     7
 79
     5
170
     0
171
     0
290
     0
174
     0
 93
        1
 44
50.0
173
     0
291
     1
 45
0.0
  0
VISUALSTYLE
  5
3A
102
{ACAD_REACTORS
330
2A
102
}
102
{ACAD_XDICTIONARY
360
AF
102
}
330
2A
100
AcDbVisualStyle
  2
ColorChange
 70
    16
 71
     2
 72
     2
 73
     3
 90
        0
 40
-0.6
 41
-30.0
 62
     5
 63
     8
421
  8421504
 74
     1
 91
        4
 64
     7
 65
   257
 75
     1
175
     1
 42
1.0
 92
        8
 66
     8
424
  8421504
 43
1.0
 76
     1
 77
     6
 78
     2
 67
     7
 79
     5
170
     0
171
     0
290
     0
174
     0
 93
        1
 44
0.0
173
     0
291
     1
 45
0.0
  0
VISUALSTYLE
  5
34
102
{ACAD_REACTORS
330
2A
102
}
102
{ACAD_XDICTIONARY
360
A3
102
}
330
2A
100
AcDbVisualStyle
  2
Conceptual
 70
     9
 71
     3
 72
     2
 73
     0
 90
        0
 40
-0.6
 41
-30.0
 62
     5
 63
     7
421
 16777215
 74
     2
 91
        2
 64
     7
 65
   257
 75
     1
175
     1
 42
40.0
 92
        8
 66
     7
 43
1.0
 76
     1
 77
     6
 78
     2
 67
     7
 79
     3
170
     0
171
     0
290
     0
174
     0
 93
        1
 44
0.0
173
     0
291
     0
 45
0.0
  0
VISUALSTYLE
  5
35
102
{ACAD_REACTORS
330
2A
102
}
102
{ACAD_XDICTIONARY
360
A5
102
}
330
2A
100
AcDbVisualStyle
  2
Dim
 70
    11
 71
     2
 72
     2
 73
     0
 90
        0
 40
-0.6
 41
-30.0
 62
     5
 63
     7
421
 16777215
 74
     1
 91
        4
 64
     7
 65
   257
 75
     1
175
     1
 42
1.0
 92
        8
 66
     7
 43
1.0
 76
     1
 77
     6
 78
     2
 67
     7
 79
     5
170
     0
171
     0
290
     0
174
     0
 93
        1
 44
-50.0
173
     0
291
     1
 45
0.0
  0
VISUALSTYLE
  5
39
102
{ACAD_REACTORS
330
2A
102
}
102
{ACAD_XDICTIONARY
360
AD
102
}
330
2A
100
AcDbVisualStyle
  2
Facepattern
 70
    15
 71
     2
 72
     2
 73
     0
 90
        0
 40
-0.6
 41
-30.0
 62
     5
 63
     7
421
 16777215
 74
     1
 91
        4
 64
     7
 65
   257
 75
     1
175
     1
 42
1.0
 92
        8
 66
     7
 43
1.0
 76
     1
 77
     6
 78
     2
 67
     7
 79
     5
170
     0
171
     0
290
     0
174
     0
 93
        1
 44
0.0
173
     0
291
     1
 45
0.0
  0
VISUALSTYLE
  5
2B
102
{ACAD_REACTORS
330
2A
102
}
102
{ACAD_XDICTIONARY
360
91
102
}
330
2A
100
AcDbVisualStyle
  2
Flat
 70
     0
 71
     2
 72
     1
 73
     1
 90
        2
 40
-0.6
 41
30.0
 62
     5
 63
     7
421
 16777215
 74
     0
 91
        4
 64
     7
 65
   257
 75
     1
175
     1
 42
1.0
 92
        8
 66
     7
 43
1.0
 76
     1
 77
     6
 78
     2
 67
     7
 79
     5
170
     0
171
     0
290
     0
174
     0
 93
       13
 44
0.0
173
     0
291
     1
 45
0.0
  0
VISUALSTYLE
  5
2C
102
{ACAD_REACTORS
330
2A
102
}
102
{ACAD_XDICTIONARY
360
93
102
}
330
2A
100
AcDbVisualStyle
  2
FlatWithEdges
 70
     1
 71
     2
 72
     1
 73
     1
 90
        2
 40
-0.6
 41
30.0
 62
     5
 63
     7
421
 16777215
 74
     1
 91
        4
 64
     7
 65
   257
 75
     1
175
     1
 42
1.0
 92
        0
 66
   257
 43
1.0
 76
     1
 77
     6
 78
     2
 67
     7
 79
     5
170
     0
171
     0
290
     0
174
     0
 93
       13
 44
0.0
173
     0
291
     1
 45
0.0
  0
VISUALSTYLE
  5
2D
102
{ACAD_REACTORS
330
2A
102
}
102
{ACAD_XDICTIONARY
360
95
102
}
330
2A
100
AcDbVisualStyle
  2
Gouraud
 70
     2
 71
     2
 72
     2
 73
     1
 90
        2
 40
-0.6
 41
30.0
 62
     5
 63
     7
421
 16777215
 74
     0
 91
        4
 64
     7
 65
   257
 75
     1
175
     1
 42
1.0
 92
        0
 66
     7
 43
1.0
 76
     1
 77
     6
 78
     2
 67
     7
 79
     5
170
     0
171
     0
290
     0
174
     0
 93
       13
 44
0.0
173
     0
291
     1
 45
0.0
  0
VISUALSTYLE
  5
2E
102
{ACAD_REACTORS
330
2A
102
}
102
{ACAD_XDICTIONARY
360
97
102
}
330
2A
100
AcDbVisualStyle
  2
GouraudWithEdges
 70
     3
 71
     2
 72
     2
 73
     1
 90
        2
 40
-0.6
 41
30.0
 62
     5
 63
     7
421
 16777215
 74
     1
 91
        4
 64
     7
 65
   257
 75
     1
175
     1
 42
1.0
 92
        0
 66
   257
 43
1.0
 76
     1
 77
     6
 78
     2
 67
     7
 79
     5
170
     0
171
     0
290
     0
174
     0
 93
       13
 44
0.0
173
     0
291
     1
 45
0.0
  0
VISUALSTYLE
  5
38
102
{ACAD_REACTORS
330
2A
102
}
102
{ACAD_XDICTIONARY
360
AB
102
}
330
2A
100
AcDbVisualStyle
  2
Linepattern
 70
    14
 71
     2
 72
     2
 73
     0
 90
        0
 40
-0.6
 41
-30.0
 62
     5
 63
     7
421
 16777215
 74
     1
 91
        4
 64
     7
 65
   257
 75
     7
175
     7
 42
1.0
 92
        8
 66
     7
 43
1.0
 76
     1
 77
     6
 78
     2
 67
     7
 79
     5
170
     0
171
     0
290
     0
174
     0
 93
        1
 44
0.0
173
     0
291
     1
 45
0.0
  0
VISUALSTYLE
  5
33
102
{ACAD_REACTORS
330
2A
102
}
102
{ACAD_XDICTIONARY
360
A1
102
}
330
2A
100
AcDbVisualStyle
  2
Realistic
 70
     8
 71
     2
 72
     2
 73
     0
 90
        0
 40
-0.6
 41
-30.0
 62
     5
 63
     7
421
 16777215
 74
     1
 91
        0
 64
     7
 65
   257
 75
     1
175
     1
 42
1.0
 92
        8
 66
     8
424
  7895160
 43
1.0
 76
     1
 77
     6
 78
     2
 67
     7
 79
     5
170
     0
171
     0
290
     0
174
     0
 93
       13
 44
0.0
173
     0
291
     0
 45
0.0
  0
VISUALSTYLE
  5
37
102
{ACAD_REACTORS
330
2A
102
}
102
{ACAD_XDICTIONARY
360
A9
102
}
330
2A
100
AcDbVisualStyle
  2
Thicken
 70
    13
 71
     2
 72
     2
 73
     0
 90
        0
 40
-0.6
 41
-30.0
 62
     5
 63
     7
421
 16777215
 74
     1
 91
        4
 64
     7
 65
   257
 75
     1
175
     1
 42
1.0
 92
       12
 66
     7
 43
1.0
 76
     1
 77
     6
 78
     2
 67
     7
 79
     5
170
     0
171
     0
290
     0
174
     0
 93
        1
 44
0.0
173
     0
291
     1
 45
0.0
  0
DICTIONARY
  5
99
330
2F
100
AcDbDictionary
280
     1
281
     1
  3
ACAD_XREC_ROUNDTRIP
360
9A
  0
DICTIONARY
  5
9D
330
31
100
AcDbDictionary
280
     1
281
     1
  3
ACAD_XREC_ROUNDTRIP
360
9E
  0
DICTIONARY
  5
9B
330
30
100
AcDbDictionary
280
     1
281
     1
  3
ACAD_XREC_ROUNDTRIP
360
9C
  0
DICTIONARY
  5
9F
330
32
100
AcDbDictionary
280
     1
281
     1
  3
ACAD_XREC_ROUNDTRIP
360
A0
  0
DICTIONARY
  5
A7
330
36
100
AcDbDictionary
280
     1
281
     1
  3
ACAD_XREC_ROUNDTRIP
360
A8
  0
DICTIONARY
  5
AF
330
3A
100
AcDbDictionary
280
     1
281
     1
  3
ACAD_XREC_ROUNDTRIP
360
B0
  0
DICTIONARY
  5
A3
330
34
100
AcDbDictionary
280
     1
281
     1
  3
ACAD_XREC_ROUNDTRIP
360
A4
  0
DICTIONARY
  5
A5
330
35
100
AcDbDictionary
280
     1
281
     1
  3
ACAD_XREC_ROUNDTRIP
360
A6
  0
DICTIONARY
  5
AD
330
39
100
AcDbDictionary
280
     1
281
     1
  3
ACAD_XREC_ROUNDTRIP
360
AE
  0
DICTIONARY
  5
91
330
2B
100
AcDbDictionary
280
     1
281
     1
  3
ACAD_XREC_ROUNDTRIP
360
92
  0
DICTIONARY
  5
93
330
2C
100
AcDbDictionary
280
     1
281
     1
  3
ACAD_XREC_ROUNDTRIP
360
94
  0
DICTIONARY
  5
95
330
2D
100
AcDbDictionary
280
     1
281
     1
  3
ACAD_XREC_ROUNDTRIP
360
96
  0
DICTIONARY
  5
97
330
2E
100
AcDbDictionary
280
     1
281
     1
  3
ACAD_XREC_ROUNDTRIP
360
98
  0
DICTIONARY
  5
AB
330
38
100
AcDbDictionary
280
     1
281
     1
  3
ACAD_XREC_ROUNDTRIP
360
AC
  0
DICTIONARY
  5
A1
330
33
100
AcDbDictionary
280
     1
281
     1
  3
ACAD_XREC_ROUNDTRIP
360
A2
  0
DICTIONARY
  5
A9
330
37
100
AcDbDictionary
280
     1
281
     1
  3
ACAD_XREC_ROUNDTRIP
360
AA
  0
XRECORD
  5
9A
102
{ACAD_REACTORS
330
99
102
}
330
99
100
AcDbXrecord
280
     1
102
RTVSPropertyOp0
 70
     1
102
RTVSPropertyOp1
 70
     1
102
RTVSPropertyOp2
 70
     1
102
RTVSPropertyOp3
 70
     1
102
RTVSPropertyOp4
 70
     1
102
RTVSPropertyOp5
 70
     1
102
RTVSPropertyOp6
 70
     1
102
RTVSPropertyOp7
 70
     1
102
RTVSPropertyOp8
 70
     1
102
RTVSPropertyOp9
 70
     1
102
RTVSPropertyOp10
 70
     1
102
RTVSPropertyOp11
 70
     1
102
RTVSPropertyOp12
 70
     1
102
RTVSPropertyOp13
 70
     1
102
RTVSPropertyOp14
 70
     1
102
RTVSPropertyOp15
 70
     1
102
RTVSPropertyOp16
 70
     1
102
RTVSPropertyOp17
 70
     1
102
RTVSPropertyOp18
 70
     1
102
RTVSPropertyOp19
 70
     1
102
RTVSPropertyOp20
 70
     1
102
RTVSPropertyOp21
 70
     1
102
RTVSPropertyOp22
 70
     1
102
RTVSPropertyOp23
 70
     1
102
RTVSPropertyOp24
 70
     1
102
RTVSPropertyOp25
 70
     1
102
RTVSPropertyOp26
 70
     1
102
RTVSPropertyOp27
 70
     1
  0
XRECORD
  5
9E
102
{ACAD_REACTORS
330
9D
102
}
330
9D
100
AcDbXrecord
280
     1
102
RTVSPropertyOp0
 70
     1
102
RTVSPropertyOp1
 70
     1
102
RTVSPropertyOp2
 70
     1
102
RTVSPropertyOp3
 70
     1
102
RTVSPropertyOp4
 70
     1
102
RTVSPropertyOp5
 70
     1
102
RTVSPropertyOp6
 70
     1
102
RTVSPropertyOp7
 70
     1
102
RTVSPropertyOp8
 70
     1
102
RTVSPropertyOp9
 70
     1
102
RTVSPropertyOp10
 70
     1
102
RTVSPropertyOp11
 70
     1
102
RTVSPropertyOp12
 70
     1
102
RTVSPropertyOp13
 70
     1
102
RTVSPropertyOp14
 70
     1
102
RTVSPropertyOp15
 70
     1
102
RTVSPropertyOp16
 70
     1
102
RTVSPropertyOp17
 70
     1
102
RTVSPropertyOp18
 70
     1
102
RTVSPropertyOp19
 70
     1
102
RTVSPropertyOp20
 70
     1
102
RTVSPropertyOp21
 70
     1
102
RTVSPropertyOp22
 70
     1
102
RTVSPropertyOp23
 70
     1
102
RTVSPropertyOp24
 70
     1
102
RTVSPropertyOp25
 70
     1
102
RTVSPropertyOp26
 70
     1
102
RTVSPropertyOp27
 70
     1
  0
XRECORD
  5
9C
102
{ACAD_REACTORS
330
9B
102
}
330
9B
100
AcDbXrecord
280
     1
102
RTVSPropertyOp0
 70
     1
102
RTVSPropertyOp1
 70
     1
102
RTVSPropertyOp2
 70
     1
102
RTVSPropertyOp3
 70
     1
102
RTVSPropertyOp4
 70
     1
102
RTVSPropertyOp5
 70
     1
102
RTVSPropertyOp6
 70
     1
102
RTVSPropertyOp7
 70
     1
102
RTVSPropertyOp8
 70
     1
102
RTVSPropertyOp9
 70
     1
102
RTVSPropertyOp10
 70
     1
102
RTVSPropertyOp11
 70
     1
102
RTVSPropertyOp12
 70
     1
102
RTVSPropertyOp13
 70
     1
102
RTVSPropertyOp14
 70
     1
102
RTVSPropertyOp15
 70
     1
102
RTVSPropertyOp16
 70
     1
102
RTVSPropertyOp17
 70
     1
102
RTVSPropertyOp18
 70
     1
102
RTVSPropertyOp19
 70
     1
102
RTVSPropertyOp20
 70
     1
102
RTVSPropertyOp21
 70
     1
102
RTVSPropertyOp22
 70
     1
102
RTVSPropertyOp23
 70
     1
102
RTVSPropertyOp24
 70
     1
102
RTVSPropertyOp25
 70
     1
102
RTVSPropertyOp26
 70
     1
102
RTVSPropertyOp27
 70
     1
  0
XRECORD
  5
A0
102
{ACAD_REACTORS
330
9F
102
}
330
9F
100
AcDbXrecord
280
     1
102
RTVSPropertyOp0
 70
     1
102
RTVSPropertyOp1
 70
     1
102
RTVSPropertyOp2
 70
     1
102
RTVSPropertyOp3
 70
     1
102
RTVSPropertyOp4
 70
     1
102
RTVSPropertyOp5
 70
     1
102
RTVSPropertyOp6
 70
     1
102
RTVSPropertyOp7
 70
     1
102
RTVSPropertyOp8
 70
     1
102
RTVSPropertyOp9
 70
     1
102
RTVSPropertyOp10
 70
     1
102
RTVSPropertyOp11
 70
     1
102
RTVSPropertyOp12
 70
     1
102
RTVSPropertyOp13
 70
     1
102
RTVSPropertyOp14
 70
     1
102
RTVSPropertyOp15
 70
     1
102
RTVSPropertyOp16
 70
     1
102
RTVSPropertyOp17
 70
     1
102
RTVSPropertyOp18
 70
     1
102
RTVSPropertyOp19
 70
     1
102
RTVSPropertyOp20
 70
     1
102
RTVSPropertyOp21
 70
     1
102
RTVSPropertyOp22
 70
     1
102
RTVSPropertyOp23
 70
     1
102
RTVSPropertyOp24
 70
     1
102
RTVSPropertyOp25
 70
     1
102
RTVSPropertyOp26
 70
     1
102
RTVSPropertyOp27
 70
     1
  0
XRECORD
  5
A8
102
{ACAD_REACTORS
330
A7
102
}
330
A7
100
AcDbXrecord
280
     1
102
RTVSPropertyOp0
 70
     1
102
RTVSPropertyOp1
 70
     1
102
RTVSPropertyOp2
 70
     1
102
RTVSPropertyOp3
 70
     1
102
RTVSPropertyOp4
 70
     1
102
RTVSPropertyOp5
 70
     1
102
RTVSPropertyOp6
 70
     1
102
RTVSPropertyOp7
 70
     1
102
RTVSPropertyOp8
 70
     1
102
RTVSPropertyOp9
 70
     1
102
RTVSPropertyOp10
 70
     1
102
RTVSPropertyOp11
 70
     1
102
RTVSPropertyOp12
 70
     1
102
RTVSPropertyOp13
 70
     1
102
RTVSPropertyOp14
 70
     1
102
RTVSPropertyOp15
 70
     1
102
RTVSPropertyOp16
 70
     1
102
RTVSPropertyOp17
 70
     1
102
RTVSPropertyOp18
 70
     1
102
RTVSPropertyOp19
 70
     1
102
RTVSPropertyOp20
 70
     1
102
RTVSPropertyOp21
 70
     1
102
RTVSPropertyOp22
 70
     1
102
RTVSPropertyOp23
 70
     1
102
RTVSPropertyOp24
 70
     1
102
RTVSPropertyOp25
 70
     1
102
RTVSPropertyOp26
 70
     1
102
RTVSPropertyOp27
 70
     1
  0
XRECORD
  5
B0
102
{ACAD_REACTORS
330
AF
102
}
330
AF
100
AcDbXrecord
280
     1
102
RTVSPropertyOp0
 70
     1
102
RTVSPropertyOp1
 70
     1
102
RTVSPropertyOp2
 70
     1
102
RTVSPropertyOp3
 70
     1
102
RTVSPropertyOp4
 70
     1
102
RTVSPropertyOp5
 70
     1
102
RTVSPropertyOp6
 70
     1
102
RTVSPropertyOp7
 70
     1
102
RTVSPropertyOp8
 70
     1
102
RTVSPropertyOp9
 70
     1
102
RTVSPropertyOp10
 70
     1
102
RTVSPropertyOp11
 70
     1
102
RTVSPropertyOp12
 70
     1
102
RTVSPropertyOp13
 70
     1
102
RTVSPropertyOp14
 70
     1
102
RTVSPropertyOp15
 70
     1
102
RTVSPropertyOp16
 70
     1
102
RTVSPropertyOp17
 70
     1
102
RTVSPropertyOp18
 70
     1
102
RTVSPropertyOp19
 70
     1
102
RTVSPropertyOp20
 70
     1
102
RTVSPropertyOp21
 70
     1
102
RTVSPropertyOp22
 70
     1
102
RTVSPropertyOp23
 70
     1
102
RTVSPropertyOp24
 70
     1
102
RTVSPropertyOp25
 70
     1
102
RTVSPropertyOp26
 70
     1
102
RTVSPropertyOp27
 70
     1
  0
XRECORD
  5
A4
102
{ACAD_REACTORS
330
A3
102
}
330
A3
100
AcDbXrecord
280
     1
102
RTVSPropertyOp0
 70
     1
102
RTVSPropertyOp1
 70
     1
102
RTVSPropertyOp2
 70
     1
102
RTVSPropertyOp3
 70
     1
102
RTVSPropertyOp4
 70
     1
102
RTVSPropertyOp5
 70
     1
102
RTVSPropertyOp6
 70
     1
102
RTVSPropertyOp7
 70
     1
102
RTVSPropertyOp8
 70
     1
102
RTVSPropertyOp9
 70
     1
102
RTVSPropertyOp10
 70
     1
102
RTVSPropertyOp11
 70
     1
102
RTVSPropertyOp12
 70
     1
102
RTVSPropertyOp13
 70
     1
102
RTVSPropertyOp14
 70
     1
102
RTVSPropertyOp15
 70
     1
102
RTVSPropertyOp16
 70
     1
102
RTVSPropertyOp17
 70
     1
102
RTVSPropertyOp18
 70
     1
102
RTVSPropertyOp19
 70
     1
102
RTVSPropertyOp20
 70
     1
102
RTVSPropertyOp21
 70
     1
102
RTVSPropertyOp22
 70
     1
102
RTVSPropertyOp23
 70
     1
102
RTVSPropertyOp24
 70
     1
102
RTVSPropertyOp25
 70
     1
102
RTVSPropertyOp26
 70
     1
102
RTVSPropertyOp27
 70
     1
  0
XRECORD
  5
A6
102
{ACAD_REACTORS
330
A5
102
}
330
A5
100
AcDbXrecord
280
     1
102
RTVSPropertyOp0
 70
     1
102
RTVSPropertyOp1
 70
     1
102
RTVSPropertyOp2
 70
     1
102
RTVSPropertyOp3
 70
     1
102
RTVSPropertyOp4
 70
     1
102
RTVSPropertyOp5
 70
     1
102
RTVSPropertyOp6
 70
     1
102
RTVSPropertyOp7
 70
     1
102
RTVSPropertyOp8
 70
     1
102
RTVSPropertyOp9
 70
     1
102
RTVSPropertyOp10
 70
     1
102
RTVSPropertyOp11
 70
     1
102
RTVSPropertyOp12
 70
     1
102
RTVSPropertyOp13
 70
     1
102
RTVSPropertyOp14
 70
     1
102
RTVSPropertyOp15
 70
     1
102
RTVSPropertyOp16
 70
     1
102
RTVSPropertyOp17
 70
     1
102
RTVSPropertyOp18
 70
     1
102
RTVSPropertyOp19
 70
     1
102
RTVSPropertyOp20
 70
     1
102
RTVSPropertyOp21
 70
     1
102
RTVSPropertyOp22
 70
     1
102
RTVSPropertyOp23
 70
     1
102
RTVSPropertyOp24
 70
     1
102
RTVSPropertyOp25
 70
     1
102
RTVSPropertyOp26
 70
     1
102
RTVSPropertyOp27
 70
     1
  0
XRECORD
  5
AE
102
{ACAD_REACTORS
330
AD
102
}
330
AD
100
AcDbXrecord
280
     1
102
RTVSPropertyOp0
 70
     1
102
RTVSPropertyOp1
 70
     1
102
RTVSPropertyOp2
 70
     1
102
RTVSPropertyOp3
 70
     1
102
RTVSPropertyOp4
 70
     1
102
RTVSPropertyOp5
 70
     1
102
RTVSPropertyOp6
 70
     1
102
RTVSPropertyOp7
 70
     1
102
RTVSPropertyOp8
 70
     1
102
RTVSPropertyOp9
 70
     1
102
RTVSPropertyOp10
 70
     1
102
RTVSPropertyOp11
 70
     1
102
RTVSPropertyOp12
 70
     1
102
RTVSPropertyOp13
 70
     1
102
RTVSPropertyOp14
 70
     1
102
RTVSPropertyOp15
 70
     1
102
RTVSPropertyOp16
 70
     1
102
RTVSPropertyOp17
 70
     1
102
RTVSPropertyOp18
 70
     1
102
RTVSPropertyOp19
 70
     1
102
RTVSPropertyOp20
 70
     1
102
RTVSPropertyOp21
 70
     1
102
RTVSPropertyOp22
 70
     1
102
RTVSPropertyOp23
 70
     1
102
RTVSPropertyOp24
 70
     1
102
RTVSPropertyOp25
 70
     1
102
RTVSPropertyOp26
 70
     1
102
RTVSPropertyOp27
 70
     1
  0
XRECORD
  5
92
102
{ACAD_REACTORS
330
91
102
}
330
91
100
AcDbXrecord
280
     1
102
RTVSPropertyOp0
 70
     1
102
RTVSPropertyOp1
 70
     1
102
RTVSPropertyOp2
 70
     1
102
RTVSPropertyOp3
 70
     1
102
RTVSPropertyOp4
 70
     1
102
RTVSPropertyOp5
 70
     1
102
RTVSPropertyOp6
 70
     1
102
RTVSPropertyOp7
 70
     1
102
RTVSPropertyOp8
 70
     1
102
RTVSPropertyOp9
 70
     1
102
RTVSPropertyOp10
 70
     1
102
RTVSPropertyOp11
 70
     1
102
RTVSPropertyOp12
 70
     1
102
RTVSPropertyOp13
 70
     1
102
RTVSPropertyOp14
 70
     1
102
RTVSPropertyOp15
 70
     1
102
RTVSPropertyOp16
 70
     1
102
RTVSPropertyOp17
 70
     1
102
RTVSPropertyOp18
 70
     1
102
RTVSPropertyOp19
 70
     1
102
RTVSPropertyOp20
 70
     1
102
RTVSPropertyOp21
 70
     1
102
RTVSPropertyOp22
 70
     1
102
RTVSPropertyOp23
 70
     1
102
RTVSPropertyOp24
 70
     1
102
RTVSPropertyOp25
 70
     1
102
RTVSPropertyOp26
 70
     1
102
RTVSPropertyOp27
 70
     1
  0
XRECORD
  5
94
102
{ACAD_REACTORS
330
93
102
}
330
93
100
AcDbXrecord
280
     1
102
RTVSPropertyOp0
 70
     1
102
RTVSPropertyOp1
 70
     1
102
RTVSPropertyOp2
 70
     1
102
RTVSPropertyOp3
 70
     1
102
RTVSPropertyOp4
 70
     1
102
RTVSPropertyOp5
 70
     1
102
RTVSPropertyOp6
 70
     1
102
RTVSPropertyOp7
 70
     1
102
RTVSPropertyOp8
 70
     1
102
RTVSPropertyOp9
 70
     1
102
RTVSPropertyOp10
 70
     1
102
RTVSPropertyOp11
 70
     1
102
RTVSPropertyOp12
 70
     1
102
RTVSPropertyOp13
 70
     1
102
RTVSPropertyOp14
 70
     1
102
RTVSPropertyOp15
 70
     1
102
RTVSPropertyOp16
 70
     1
102
RTVSPropertyOp17
 70
     1
102
RTVSPropertyOp18
 70
     1
102
RTVSPropertyOp19
 70
     1
102
RTVSPropertyOp20
 70
     1
102
RTVSPropertyOp21
 70
     1
102
RTVSPropertyOp22
 70
     1
102
RTVSPropertyOp23
 70
     1
102
RTVSPropertyOp24
 70
     1
102
RTVSPropertyOp25
 70
     1
102
RTVSPropertyOp26
 70
     1
102
RTVSPropertyOp27
 70
     1
  0
XRECORD
  5
96
102
{ACAD_REACTORS
330
95
102
}
330
95
100
AcDbXrecord
280
     1
102
RTVSPropertyOp0
 70
     1
102
RTVSPropertyOp1
 70
     1
102
RTVSPropertyOp2
 70
     1
102
RTVSPropertyOp3
 70
     1
102
RTVSPropertyOp4
 70
     1
102
RTVSPropertyOp5
 70
     1
102
RTVSPropertyOp6
 70
     1
102
RTVSPropertyOp7
 70
     1
102
RTVSPropertyOp8
 70
     1
102
RTVSPropertyOp9
 70
     1
102
RTVSPropertyOp10
 70
     1
102
RTVSPropertyOp11
 70
     1
102
RTVSPropertyOp12
 70
     1
102
RTVSPropertyOp13
 70
     1
102
RTVSPropertyOp14
 70
     1
102
RTVSPropertyOp15
 70
     1
102
RTVSPropertyOp16
 70
     1
102
RTVSPropertyOp17
 70
     1
102
RTVSPropertyOp18
 70
     1
102
RTVSPropertyOp19
 70
     1
102
RTVSPropertyOp20
 70
     1
102
RTVSPropertyOp21
 70
     1
102
RTVSPropertyOp22
 70
     1
102
RTVSPropertyOp23
 70
     1
102
RTVSPropertyOp24
 70
     1
102
RTVSPropertyOp25
 70
     1
102
RTVSPropertyOp26
 70
     1
102
RTVSPropertyOp27
 70
     1
  0
XRECORD
  5
98
102
{ACAD_REACTORS
330
97
102
}
330
97
100
AcDbXrecord
280
     1
102
RTVSPropertyOp0
 70
     1
102
RTVSPropertyOp1
 70
     1
102
RTVSPropertyOp2
 70
     1
102
RTVSPropertyOp3
 70
     1
102
RTVSPropertyOp4
 70
     1
102
RTVSPropertyOp5
 70
     1
102
RTVSPropertyOp6
 70
     1
102
RTVSPropertyOp7
 70
     1
102
RTVSPropertyOp8
 70
     1
102
RTVSPropertyOp9
 70
     1
102
RTVSPropertyOp10
 70
     1
102
RTVSPropertyOp11
 70
     1
102
RTVSPropertyOp12
 70
     1
102
RTVSPropertyOp13
 70
     1
102
RTVSPropertyOp14
 70
     1
102
RTVSPropertyOp15
 70
     1
102
RTVSPropertyOp16
 70
     1
102
RTVSPropertyOp17
 70
     1
102
RTVSPropertyOp18
 70
     1
102
RTVSPropertyOp19
 70
     1
102
RTVSPropertyOp20
 70
     1
102
RTVSPropertyOp21
 70
     1
102
RTVSPropertyOp22
 70
     1
102
RTVSPropertyOp23
 70
     1
102
RTVSPropertyOp24
 70
     1
102
RTVSPropertyOp25
 70
     1
102
RTVSPropertyOp26
 70
     1
102
RTVSPropertyOp27
 70
     1
  0
XRECORD
  5
AC
102
{ACAD_REACTORS
330
AB
102
}
330
AB
100
AcDbXrecord
280
     1
102
RTVSPropertyOp0
 70
     1
102
RTVSPropertyOp1
 70
     1
102
RTVSPropertyOp2
 70
     1
102
RTVSPropertyOp3
 70
     1
102
RTVSPropertyOp4
 70
     1
102
RTVSPropertyOp5
 70
     1
102
RTVSPropertyOp6
 70
     1
102
RTVSPropertyOp7
 70
     1
102
RTVSPropertyOp8
 70
     1
102
RTVSPropertyOp9
 70
     1
102
RTVSPropertyOp10
 70
     1
102
RTVSPropertyOp11
 70
     1
102
RTVSPropertyOp12
 70
     1
102
RTVSPropertyOp13
 70
     1
102
RTVSPropertyOp14
 70
     1
102
RTVSPropertyOp15
 70
     1
102
RTVSPropertyOp16
 70
     1
102
RTVSPropertyOp17
 70
     1
102
RTVSPropertyOp18
 70
     1
102
RTVSPropertyOp19
 70
     1
102
RTVSPropertyOp20
 70
     1
102
RTVSPropertyOp21
 70
     1
102
RTVSPropertyOp22
 70
     1
102
RTVSPropertyOp23
 70
     1
102
RTVSPropertyOp24
 70
     1
102
RTVSPropertyOp25
 70
     1
102
RTVSPropertyOp26
 70
     1
102
RTVSPropertyOp27
 70
     1
  0
XRECORD
  5
A2
102
{ACAD_REACTORS
330
A1
102
}
330
A1
100
AcDbXrecord
280
     1
102
RTVSPropertyOp0
 70
     1
102
RTVSPropertyOp1
 70
     1
102
RTVSPropertyOp2
 70
     1
102
RTVSPropertyOp3
 70
     1
102
RTVSPropertyOp4
 70
     1
102
RTVSPropertyOp5
 70
     1
102
RTVSPropertyOp6
 70
     1
102
RTVSPropertyOp7
 70
     1
102
RTVSPropertyOp8
 70
     1
102
RTVSPropertyOp9
 70
     1
102
RTVSPropertyOp10
 70
     1
102
RTVSPropertyOp11
 70
     1
102
RTVSPropertyOp12
 70
     1
102
RTVSPropertyOp13
 70
     1
102
RTVSPropertyOp14
 70
     1
102
RTVSPropertyOp15
 70
     1
102
RTVSPropertyOp16
 70
     1
102
RTVSPropertyOp17
 70
     1
102
RTVSPropertyOp18
 70
     1
102
RTVSPropertyOp19
 70
     1
102
RTVSPropertyOp20
 70
     1
102
RTVSPropertyOp21
 70
     1
102
RTVSPropertyOp22
 70
     1
102
RTVSPropertyOp23
 70
     1
102
RTVSPropertyOp24
 70
     1
102
RTVSPropertyOp25
 70
     1
102
RTVSPropertyOp26
 70
     1
102
RTVSPropertyOp27
 70
     1
  0
XRECORD
  5
AA
102
{ACAD_REACTORS
330
A9
102
}
330
A9
100
AcDbXrecord
280
     1
102
RTVSPropertyOp0
 70
     1
102
RTVSPropertyOp1
 70
     1
102
RTVSPropertyOp2
 70
     1
102
RTVSPropertyOp3
 70
     1
102
RTVSPropertyOp4
 70
     1
102
RTVSPropertyOp5
 70
     1
102
RTVSPropertyOp6
 70
     1
102
RTVSPropertyOp7
 70
     1
102
RTVSPropertyOp8
 70
     1
102
RTVSPropertyOp9
 70
     1
102
RTVSPropertyOp10
 70
     1
102
RTVSPropertyOp11
 70
     1
102
RTVSPropertyOp12
 70
     1
102
RTVSPropertyOp13
 70
     1
102
RTVSPropertyOp14
 70
     1
102
RTVSPropertyOp15
 70
     1
102
RTVSPropertyOp16
 70
     1
102
RTVSPropertyOp17
 70
     1
102
RTVSPropertyOp18
 70
     1
102
RTVSPropertyOp19
 70
     1
102
RTVSPropertyOp20
 70
     1
102
RTVSPropertyOp21
 70
     1
102
RTVSPropertyOp22
 70
     1
102
RTVSPropertyOp23
 70
     1
102
RTVSPropertyOp24
 70
     1
102
RTVSPropertyOp25
 70
     1
102
RTVSPropertyOp26
 70
     1
102
RTVSPropertyOp27
 70
     1
  0
ENDSEC
  0
EOF
