  0
SECTION
  2
HEADER
  9
$ACADVER
  1
AC1014
  9
$HANDSEED
  5
FFFF
  9
$MEASUREMENT
 70
     1
  0
ENDSEC
  0
SECTION
  2
TABLES
  0
TABLE
  2
VPORT
  5
8
330
0
100
AcDbSymbolTable
 70
     4
  0
VPORT
  5
2E
330
8
100
AcDbSymbolTableRecord
100
AcDbViewportTableRecord
  2
*ACTIVE
 70
     0
 10
0.0
 20
0.0
 11
1.0
 21
1.0
 12
210.0
 22
148.5
 13
0.0
 23
0.0
 14
10.0
 24
10.0
 15
10.0
 25
10.0
 16
0.0
 26
0.0
 36
1.0
 17
0.0
 27
0.0
 37
0.0
 40
341.0
 41
1.24
 42
50.0
 43
0.0
 44
0.0
 50
0.0
 51
0.0
 71
     0
 72
   100
 73
     1
 74
     3
 75
     0
 76
     0
 77
     0
 78
     0
  0
ENDTAB
  0
TABLE
  2
LTYPE
  5
5
330
0
100
AcDbSymbolTable
 70
     1
  0
LTYPE
  5
14
330
5
100
AcDbSymbolTableRecord
100
AcDbLinetypeTableRecord
  2
BYBLOCK
 70
     0
  3

 72
    65
 73
     0
 40
0.0
  0
LTYPE
  5
15
330
5
100
AcDbSymbolTableRecord
100
AcDbLinetypeTableRecord
  2
BYLAYER
 70
     0
  3

 72
    65
 73
     0
 40
0.0
  0
LTYPE
  5
16
330
5
100
AcDbSymbolTableRecord
100
AcDbLinetypeTableRecord
  2
CONTINUOUS
 70
     0
  3
Solid line
 72
    65
 73
     0
 40
0.0
  0
ENDTAB
  0
TABLE
  2
LAYER
  5
2
100
AcDbSymbolTable
 70
1
  0
LAYER
  5
50
100
AcDbSymbolTableRecord
100
AcDbLayerTableRecord
  2
0
 70
0
  6
CONTINUOUS
  0
ENDTAB
  0
TABLE
  2
STYLE
  5
3
330
0
100
AcDbSymbolTable
 70
     1
  0
STYLE
  5
11
330
3
100
AcDbSymbolTableRecord
100
AcDbTextStyleTableRecord
  2
STANDARD
 70
     0
 40
0.0
 41
1.0
 50
0.0
 71
     0
 42
2.5
  3
txt
  4

  0
ENDTAB
  0
TABLE
  2
VIEW
  5
6
330
0
100
AcDbSymbolTable
 70
     0
  0
ENDTAB
  0
TABLE
  2
UCS
  5
7
330
0
100
AcDbSymbolTable
 70
     0
  0
ENDTAB
  0
TABLE
  2
APPID
  5
9
330
0
100
AcDbSymbolTable
 70
     2
  0
APPID
  5
12
330
9
100
AcDbSymbolTableRecord
100
AcDbRegAppTableRecord
  2
ACAD
 70
     0
  0
ENDTAB
  0
TABLE
  2
DIMSTYLE
  5
A
330
0
100
AcDbSymbolTable
 70
     1
  0
DIMSTYLE
105
27
330
A
100
AcDbSymbolTableRecord
100
AcDbDimStyleTableRecord
  2
ISO-25
 70
     0
  3

  4

  5

  6

  7

 40
1.0
 41
2.5
 42
0.625
 43
3.75
 44
1.25
 45
0.0
 46
0.0
 47
0.0
 48
0.0
140
2.5
141
2.5
142
0.0
143
0.03937007874016
144
1.0
145
0.0
146
1.0
147
0.625
 71
     0
 72
     0
 73
     0
 74
     0
 75
     0
 76
     0
 77
     1
 78
     8
170
     0
171
     3
172
     1
173
     0
174
     0
175
     0
176
     0
177
     0
178
     0
270
     2
271
     2
272
     2
273
     2
274
     3
340
11
275
     0
280
     0
281
     0
282
     0
283
     0
284
     8
285
     0
286
     0
287
     3
288
     0
  0
ENDTAB
  0
TABLE
  2
BLOCK_RECORD
  5
1
330
0
100
AcDbSymbolTable
 70
     1
  0
BLOCK_RECORD
  5
1F
330
1
100
AcDbSymbolTableRecord
100
AcDbBlockTableRecord
  2
*MODEL_SPACE
  0
BLOCK_RECORD
  5
1B
330
1
100
AcDbSymbolTableRecord
100
AcDbBlockTableRecord
  2
*PAPER_SPACE
  0
ENDTAB
  0
ENDSEC
  0
SECTION
  2
BLOCKS
  0
BLOCK
  5
20
330
1F
100
AcDbEntity
  8
0
100
AcDbBlockBegin
  2
*MODEL_SPACE
 70
     0
 10
0.0
 20
0.0
 30
0.0
  3
*MODEL_SPACE
  1

  0
ENDBLK
  5
21
330
1F
100
AcDbEntity
  8
0
100
AcDbBlockEnd
  0
BLOCK
  5
1C
330
1B
100
AcDbEntity
 67
     1
  8
0
100
AcDbBlockBegin
  2
*PAPER_SPACE
  1

  0
ENDBLK
  5
1D
330
1B
100
AcDbEntity
 67
     1
  8
0
100
AcDbBlockEnd
  0
ENDSEC
  0
SECTION
  2
ENTITIES
  0
LINE
  5
100
100
AcDbEntity
  8
0
 62
7
100
AcDbLine
 10
0.000000
 20
14.554200
 30
0.0
 11
0.000000
 21
29.108400
 31
0.0
  0
LINE
  5
101
100
AcDbEntity
  8
0
 62
7
100
AcDbLine
 10
0.000000
 20
29.108400
 30
0.0
 11
25.044399
 21
29.108400
 31
0.0
  0
LINE
  5
102
100
AcDbEntity
  8
0
 62
7
100
AcDbLine
 10
25.044399
 20
29.108400
 30
0.0
 11
50.088800
 21
29.108400
 31
0.0
  0
LINE
  5
103
100
AcDbEntity
  8
0
 62
7
100
AcDbLine
 10
50.088800
 20
29.108400
 30
0.0
 11
50.088800
 21
14.554200
 31
0.0
  0
LINE
  5
104
100
AcDbEntity
  8
0
 62
7
100
AcDbLine
 10
50.088800
 20
14.554200
 30
0.0
 11
50.088800
 21
-0.000000
 31
0.0
  0
LINE
  5
105
100
AcDbEntity
  8
0
 62
7
100
AcDbLine
 10
50.088800
 20
-0.000000
 30
0.0
 11
25.044399
 21
-0.000000
 31
0.0
  0
LINE
  5
106
100
AcDbEntity
  8
0
 62
7
100
AcDbLine
 10
25.044399
 20
-0.000000
 30
0.0
 11
0.000000
 21
-0.000000
 31
0.0
  0
LINE
  5
107
100
AcDbEntity
  8
0
 62
7
100
AcDbLine
 10
0.000000
 20
-0.000000
 30
0.0
 11
0.000000
 21
14.554200
 31
0.0
  0
LINE
  5
108
100
AcDbEntity
  8
0
 62
7
100
AcDbLine
 10
0.000000
 20
14.554200
 30
0.0
 11
0.000000
 21
14.554200
 31
0.0
  0
LINE
  5
109
100
AcDbEntity
  8
0
 62
7
100
AcDbLine
 10
45.897800
 20
3.683000
 30
0.0
 11
45.897800
 21
4.495800
 31
0.0
  0
LINE
  5
10a
100
AcDbEntity
  8
0
 62
7
100
AcDbLine
 10
45.897800
 20
4.495800
 30
0.0
 11
45.618400
 21
4.521200
 31
0.0
  0
LINE
  5
10b
100
AcDbEntity
  8
0
 62
7
100
AcDbLine
 10
45.618400
 20
4.521200
 30
0.0
 11
45.339000
 21
4.546600
 31
0.0
  0
LINE
  5
10c
100
AcDbEntity
  8
0
 62
7
100
AcDbLine
 10
45.339000
 20
4.546600
 30
0.0
 11
45.339000
 21
8.153400
 31
0.0
  0
LINE
  5
10d
100
AcDbEntity
  8
0
 62
7
100
AcDbLine
 10
45.339000
 20
8.153400
 30
0.0
 11
45.339000
 21
11.760200
 31
0.0
  0
LINE
  5
10e
100
AcDbEntity
  8
0
 62
7
100
AcDbLine
 10
45.339000
 20
11.760200
 30
0.0
 11
45.643800
 21
11.785600
 31
0.0
  0
LINE
  5
10f
100
AcDbEntity
  8
0
 62
7
100
AcDbLine
 10
45.643800
 20
11.785600
 30
0.0
 11
45.948600
 21
11.811000
 31
0.0
  0
LINE
  5
110
100
AcDbEntity
  8
0
 62
7
100
AcDbLine
 10
45.948600
 20
11.811000
 30
0.0
 11
45.948600
 21
12.725400
 31
0.0
  0
LINE
  5
111
100
AcDbEntity
  8
0
 62
7
100
AcDbLine
 10
45.948600
 20
12.725400
 30
0.0
 11
45.948600
 21
13.639800
 31
0.0
  0
LINE
  5
112
100
AcDbEntity
  8
0
 62
7
100
AcDbLine
 10
45.948600
 20
13.639800
 30
0.0
 11
45.135800
 21
13.639800
 31
0.0
  0
LINE
  5
113
100
AcDbEntity
  8
0
 62
7
100
AcDbLine
 10
45.135800
 20
13.639800
 30
0.0
 11
44.323000
 21
13.639800
 31
0.0
  0
LINE
  5
114
100
AcDbEntity
  8
0
 62
7
100
AcDbLine
 10
44.323000
 20
13.639800
 30
0.0
 11
44.323000
 21
12.725400
 31
0.0
  0
LINE
  5
115
100
AcDbEntity
  8
0
 62
7
100
AcDbLine
 10
44.323000
 20
12.725400
 30
0.0
 11
44.323000
 21
11.811000
 31
0.0
  0
LINE
  5
116
100
AcDbEntity
  8
0
 62
7
100
AcDbLine
 10
44.323000
 20
11.811000
 30
0.0
 11
44.627800
 21
11.785600
 31
0.0
  0
LINE
  5
117
100
AcDbEntity
  8
0
 62
7
100
AcDbLine
 10
44.627800
 20
11.785600
 30
0.0
 11
44.932600
 21
11.760200
 31
0.0
  0
LINE
  5
118
100
AcDbEntity
  8
0
 62
7
100
AcDbLine
 10
44.932600
 20
11.760200
 30
0.0
 11
44.945639
 21
8.168070
 31
0.0
  0
SPLINE
  5
119
100
AcDbEntity
  8
0
 62
7
100
AcDbSpline
 70
8
 71
3
 72
8
 73
4
 74
0
 40
0
 40
0
 40
0
 40
0
 40
1
 40
1
 40
1
 40
1
 10
44.945639
 20
8.168070
 30
0.0
 10
44.958395
 20
4.652066
 30
0.0
 10
44.956589
 20
4.574816
 30
0.0
 10
44.859646
 20
4.522941
 30
0.0
  0
SPLINE
  5
11a
100
AcDbEntity
  8
0
 62
7
100
AcDbSpline
 70
8
 71
3
 72
8
 73
4
 74
0
 40
0
 40
0
 40
0
 40
0
 40
1
 40
1
 40
1
 40
1
 10
44.859646
 20
4.522941
 30
0.0
 10
44.790222
 20
4.485786
 30
0.0
 10
44.755949
 20
4.405463
 30
0.0
 10
44.745007
 20
4.254271
 30
0.0
  0
LINE
  5
11b
100
AcDbEntity
  8
0
 62
7
100
AcDbLine
 10
44.745007
 20
4.254271
 30
0.0
 11
44.729400
 21
4.038600
 31
0.0
  0
LINE
  5
11c
100
AcDbEntity
  8
0
 62
7
100
AcDbLine
 10
44.729400
 20
4.038600
 30
0.0
 11
41.864418
 21
4.025476
 31
0.0
  0
LINE
  5
11d
100
AcDbEntity
  8
0
 62
7
100
AcDbLine
 10
41.864418
 20
4.025476
 30
0.0
 11
38.999437
 21
4.012353
 31
0.0
  0
LINE
  5
11e
100
AcDbEntity
  8
0
 62
7
100
AcDbLine
 10
38.999437
 20
4.012353
 30
0.0
 11
38.779453
 21
3.809579
 31
0.0
  0
LINE
  5
11f
100
AcDbEntity
  8
0
 62
7
100
AcDbLine
 10
38.779453
 20
3.809579
 30
0.0
 11
38.559469
 21
3.606805
 31
0.0
  0
LINE
  5
120
100
AcDbEntity
  8
0
 62
7
100
AcDbLine
 10
38.559469
 20
3.606805
 30
0.0
 11
33.237548
 21
3.606805
 31
0.0
  0
LINE
  5
121
100
AcDbEntity
  8
0
 62
7
100
AcDbLine
 10
33.237548
 20
3.606805
 30
0.0
 11
27.915624
 21
3.606805
 31
0.0
  0
LINE
  5
122
100
AcDbEntity
  8
0
 62
7
100
AcDbLine
 10
27.915624
 20
3.606805
 30
0.0
 11
25.108410
 21
6.414018
 31
0.0
  0
LINE
  5
123
100
AcDbEntity
  8
0
 62
7
100
AcDbLine
 10
25.108410
 20
6.414018
 30
0.0
 11
22.301199
 21
9.221231
 31
0.0
  0
LINE
  5
124
100
AcDbEntity
  8
0
 62
7
100
AcDbLine
 10
22.301199
 20
9.221231
 30
0.0
 11
22.301199
 21
10.742730
 31
0.0
  0
LINE
  5
125
100
AcDbEntity
  8
0
 62
7
100
AcDbLine
 10
22.301199
 20
10.742730
 30
0.0
 11
22.301199
 21
12.264230
 31
0.0
  0
LINE
  5
126
100
AcDbEntity
  8
0
 62
7
100
AcDbLine
 10
22.301199
 20
12.264230
 30
0.0
 11
23.774399
 21
13.740543
 31
0.0
  0
LINE
  5
127
100
AcDbEntity
  8
0
 62
7
100
AcDbLine
 10
23.774399
 20
13.740543
 30
0.0
 11
25.247599
 21
15.216857
 31
0.0
  0
LINE
  5
128
100
AcDbEntity
  8
0
 62
7
100
AcDbLine
 10
25.247599
 20
15.216857
 30
0.0
 11
25.247599
 21
15.679412
 31
0.0
  0
SPLINE
  5
129
100
AcDbEntity
  8
0
 62
7
100
AcDbSpline
 70
8
 71
3
 72
8
 73
4
 74
0
 40
0
 40
0
 40
0
 40
0
 40
1
 40
1
 40
1
 40
1
 10
25.247599
 20
15.679412
 30
0.0
 10
25.247599
 20
16.031184
 30
0.0
 10
25.266085
 20
16.157304
 30
0.0
 10
25.324770
 20
16.206012
 30
0.0
  0
SPLINE
  5
12a
100
AcDbEntity
  8
0
 62
7
100
AcDbSpline
 70
8
 71
3
 72
8
 73
4
 74
0
 40
0
 40
0
 40
0
 40
0
 40
1
 40
1
 40
1
 40
1
 10
25.324770
 20
16.206012
 30
0.0
 10
25.390251
 20
16.260356
 30
0.0
 10
25.399870
 20
16.436377
 30
0.0
 10
25.388270
 20
17.367932
 30
0.0
  0
LINE
  5
12b
100
AcDbEntity
  8
0
 62
7
100
AcDbLine
 10
25.388270
 20
17.367932
 30
0.0
 11
25.374611
 21
18.465806
 31
0.0
  0
LINE
  5
12c
100
AcDbEntity
  8
0
 62
7
100
AcDbLine
 10
25.374611
 20
18.465806
 30
0.0
 11
25.069811
 21
18.465806
 31
0.0
  0
LINE
  5
12d
100
AcDbEntity
  8
0
 62
7
100
AcDbLine
 10
25.069811
 20
18.465806
 30
0.0
 11
24.765011
 21
18.465806
 31
0.0
  0
LINE
  5
12e
100
AcDbEntity
  8
0
 62
7
100
AcDbLine
 10
24.765011
 20
18.465806
 30
0.0
 11
24.751351
 21
17.367932
 31
0.0
  0
SPLINE
  5
12f
100
AcDbEntity
  8
0
 62
7
100
AcDbSpline
 70
8
 71
3
 72
8
 73
4
 74
0
 40
0
 40
0
 40
0
 40
0
 40
1
 40
1
 40
1
 40
1
 10
24.751351
 20
17.367932
 30
0.0
 10
24.739752
 20
16.436377
 30
0.0
 10
24.749376
 20
16.260356
 30
0.0
 10
24.814851
 20
16.206012
 30
0.0
  0
SPLINE
  5
130
100
AcDbEntity
  8
0
 62
7
100
AcDbSpline
 70
8
 71
3
 72
8
 73
4
 74
0
 40
0
 40
0
 40
0
 40
0
 40
1
 40
1
 40
1
 40
1
 10
24.814851
 20
16.206012
 30
0.0
 10
24.872269
 20
16.158358
 30
0.0
 10
24.892022
 20
16.036521
 30
0.0
 10
24.892022
 20
15.729985
 30
0.0
  0
LINE
  5
131
100
AcDbEntity
  8
0
 62
7
100
AcDbLine
 10
24.892022
 20
15.729985
 30
0.0
 11
24.892022
 21
15.318005
 31
0.0
  0
LINE
  5
132
100
AcDbEntity
  8
0
 62
7
100
AcDbLine
 10
24.892022
 20
15.318005
 30
0.0
 11
23.302848
 21
13.728833
 31
0.0
  0
LINE
  5
133
100
AcDbEntity
  8
0
 62
7
100
AcDbLine
 10
23.302848
 20
13.728833
 30
0.0
 11
21.713675
 21
12.139660
 31
0.0
  0
LINE
  5
134
100
AcDbEntity
  8
0
 62
7
100
AcDbLine
 10
21.713675
 20
12.139660
 30
0.0
 11
20.191348
 21
12.153133
 31
0.0
  0
LINE
  5
135
100
AcDbEntity
  8
0
 62
7
100
AcDbLine
 10
20.191348
 20
12.153133
 30
0.0
 11
18.669023
 21
12.166606
 31
0.0
  0
LINE
  5
136
100
AcDbEntity
  8
0
 62
7
100
AcDbLine
 10
18.669023
 20
12.166606
 30
0.0
 11
18.643623
 21
12.471406
 31
0.0
  0
LINE
  5
137
100
AcDbEntity
  8
0
 62
7
100
AcDbLine
 10
18.643623
 20
12.471406
 30
0.0
 11
18.618223
 21
12.776206
 31
0.0
  0
LINE
  5
138
100
AcDbEntity
  8
0
 62
7
100
AcDbLine
 10
18.618223
 20
12.776206
 30
0.0
 11
17.703823
 21
12.776206
 31
0.0
  0
LINE
  5
139
100
AcDbEntity
  8
0
 62
7
100
AcDbLine
 10
17.703823
 20
12.776206
 30
0.0
 11
16.789423
 21
12.776206
 31
0.0
  0
LINE
  5
13a
100
AcDbEntity
  8
0
 62
7
100
AcDbLine
 10
16.789423
 20
12.776206
 30
0.0
 11
16.764023
 21
12.395206
 31
0.0
  0
LINE
  5
13b
100
AcDbEntity
  8
0
 62
7
100
AcDbLine
 10
16.764023
 20
12.395206
 30
0.0
 11
16.738623
 21
12.014206
 31
0.0
  0
LINE
  5
13c
100
AcDbEntity
  8
0
 62
7
100
AcDbLine
 10
16.738623
 20
12.014206
 30
0.0
 11
14.757423
 21
12.026706
 31
0.0
  0
SPLINE
  5
13d
100
AcDbEntity
  8
0
 62
7
100
AcDbSpline
 70
8
 71
3
 72
8
 73
4
 74
0
 40
0
 40
0
 40
0
 40
0
 40
1
 40
1
 40
1
 40
1
 10
14.757423
 20
12.026706
 30
0.0
 10
13.667763
 20
12.033581
 30
0.0
 10
12.747414
 20
12.050097
 30
0.0
 10
12.712204
 20
12.063411
 30
0.0
  0
SPLINE
  5
13e
100
AcDbEntity
  8
0
 62
7
100
AcDbSpline
 70
8
 71
3
 72
8
 73
4
 74
0
 40
0
 40
0
 40
0
 40
0
 40
1
 40
1
 40
1
 40
1
 10
12.712204
 20
12.063411
 30
0.0
 10
12.661741
 20
12.082492
 30
0.0
 10
12.650984
 20
12.574653
 30
0.0
 10
12.661404
 20
14.387712
 30
0.0
  0
LINE
  5
13f
100
AcDbEntity
  8
0
 62
7
100
AcDbLine
 10
12.661404
 20
14.387712
 30
0.0
 11
12.674623
 21
16.687806
 31
0.0
  0
LINE
  5
140
100
AcDbEntity
  8
0
 62
7
100
AcDbLine
 10
12.674623
 20
16.687806
 30
0.0
 11
13.004823
 21
16.713206
 31
0.0
  0
LINE
  5
141
100
AcDbEntity
  8
0
 62
7
100
AcDbLine
 10
13.004823
 20
16.713206
 30
0.0
 11
13.335023
 21
16.738606
 31
0.0
  0
LINE
  5
142
100
AcDbEntity
  8
0
 62
7
100
AcDbLine
 10
13.335023
 20
16.738606
 30
0.0
 11
13.335023
 21
17.653006
 31
0.0
  0
LINE
  5
143
100
AcDbEntity
  8
0
 62
7
100
AcDbLine
 10
13.335023
 20
17.653006
 30
0.0
 11
13.335023
 21
18.567406
 31
0.0
  0
LINE
  5
144
100
AcDbEntity
  8
0
 62
7
100
AcDbLine
 10
13.335023
 20
18.567406
 30
0.0
 11
12.522223
 21
18.567406
 31
0.0
  0
LINE
  5
145
100
AcDbEntity
  8
0
 62
7
100
AcDbLine
 10
12.522223
 20
18.567406
 30
0.0
 11
11.709423
 21
18.567406
 31
0.0
  0
LINE
  5
146
100
AcDbEntity
  8
0
 62
7
100
AcDbLine
 10
11.709423
 20
18.567406
 30
0.0
 11
11.709423
 21
17.653006
 31
0.0
  0
LINE
  5
147
100
AcDbEntity
  8
0
 62
7
100
AcDbLine
 10
11.709423
 20
17.653006
 30
0.0
 11
11.709423
 21
16.738606
 31
0.0
  0
LINE
  5
148
100
AcDbEntity
  8
0
 62
7
100
AcDbLine
 10
11.709423
 20
16.738606
 30
0.0
 11
11.988823
 21
16.713206
 31
0.0
  0
LINE
  5
149
100
AcDbEntity
  8
0
 62
7
100
AcDbLine
 10
11.988823
 20
16.713206
 30
0.0
 11
12.268223
 21
16.687806
 31
0.0
  0
LINE
  5
14a
100
AcDbEntity
  8
0
 62
7
100
AcDbLine
 10
12.268223
 20
16.687806
 30
0.0
 11
12.268223
 21
14.173206
 31
0.0
  0
LINE
  5
14b
100
AcDbEntity
  8
0
 62
7
100
AcDbLine
 10
12.268223
 20
14.173206
 30
0.0
 11
12.268223
 21
11.658606
 31
0.0
  0
LINE
  5
14c
100
AcDbEntity
  8
0
 62
7
100
AcDbLine
 10
12.268223
 20
11.658606
 30
0.0
 11
10.117142
 21
11.624107
 31
0.0
  0
SPLINE
  5
14d
100
AcDbEntity
  8
0
 62
7
100
AcDbSpline
 70
8
 71
3
 72
8
 73
4
 74
0
 40
0
 40
0
 40
0
 40
0
 40
1
 40
1
 40
1
 40
1
 10
10.117142
 20
11.624107
 30
0.0
 10
8.934048
 20
11.605133
 30
0.0
 10
7.932392
 20
11.576688
 30
0.0
 10
7.891240
 20
11.560896
 30
0.0
  0
SPLINE
  5
14e
100
AcDbEntity
  8
0
 62
7
100
AcDbSpline
 70
8
 71
3
 72
8
 73
4
 74
0
 40
0
 40
0
 40
0
 40
0
 40
1
 40
1
 40
1
 40
1
 10
7.891240
 20
11.560896
 30
0.0
 10
7.844171
 20
11.542834
 30
0.0
 10
7.822391
 20
11.480261
 30
0.0
 10
7.832521
 20
11.392195
 30
0.0
  0
LINE
  5
14f
100
AcDbEntity
  8
0
 62
7
100
AcDbLine
 10
7.832521
 20
11.392195
 30
0.0
 11
7.848622
 21
11.252206
 31
0.0
  0
LINE
  5
150
100
AcDbEntity
  8
0
 62
7
100
AcDbLine
 10
7.848622
 20
11.252206
 30
0.0
 11
10.058422
 21
11.252206
 31
0.0
  0
LINE
  5
151
100
AcDbEntity
  8
0
 62
7
100
AcDbLine
 10
10.058422
 20
11.252206
 30
0.0
 11
12.268222
 21
11.252206
 31
0.0
  0
LINE
  5
152
100
AcDbEntity
  8
0
 62
7
100
AcDbLine
 10
12.268222
 20
11.252206
 30
0.0
 11
12.293622
 21
10.820406
 31
0.0
  0
LINE
  5
153
100
AcDbEntity
  8
0
 62
7
100
AcDbLine
 10
12.293622
 20
10.820406
 30
0.0
 11
12.319022
 21
10.388606
 31
0.0
  0
LINE
  5
154
100
AcDbEntity
  8
0
 62
7
100
AcDbLine
 10
12.319022
 20
10.388606
 30
0.0
 11
13.233422
 21
10.388606
 31
0.0
  0
LINE
  5
155
100
AcDbEntity
  8
0
 62
7
100
AcDbLine
 10
13.233422
 20
10.388606
 30
0.0
 11
14.147822
 21
10.388606
 31
0.0
  0
LINE
  5
156
100
AcDbEntity
  8
0
 62
7
100
AcDbLine
 10
14.147822
 20
10.388606
 30
0.0
 11
14.173222
 21
10.998206
 31
0.0
  0
LINE
  5
157
100
AcDbEntity
  8
0
 62
7
100
AcDbLine
 10
14.173222
 20
10.998206
 30
0.0
 11
14.198622
 21
11.607806
 31
0.0
  0
LINE
  5
158
100
AcDbEntity
  8
0
 62
7
100
AcDbLine
 10
14.198622
 20
11.607806
 30
0.0
 11
15.468622
 21
11.607806
 31
0.0
  0
LINE
  5
159
100
AcDbEntity
  8
0
 62
7
100
AcDbLine
 10
15.468622
 20
11.607806
 30
0.0
 11
16.738622
 21
11.607806
 31
0.0
  0
LINE
  5
15a
100
AcDbEntity
  8
0
 62
7
100
AcDbLine
 10
16.738622
 20
11.607806
 30
0.0
 11
16.764022
 21
11.379206
 31
0.0
  0
LINE
  5
15b
100
AcDbEntity
  8
0
 62
7
100
AcDbLine
 10
16.764022
 20
11.379206
 30
0.0
 11
16.789422
 21
11.150606
 31
0.0
  0
LINE
  5
15c
100
AcDbEntity
  8
0
 62
7
100
AcDbLine
 10
16.789422
 20
11.150606
 30
0.0
 11
17.703822
 21
11.150606
 31
0.0
  0
LINE
  5
15d
100
AcDbEntity
  8
0
 62
7
100
AcDbLine
 10
17.703822
 20
11.150606
 30
0.0
 11
18.618222
 21
11.150606
 31
0.0
  0
LINE
  5
15e
100
AcDbEntity
  8
0
 62
7
100
AcDbLine
 10
18.618222
 20
11.150606
 30
0.0
 11
18.643622
 21
11.455406
 31
0.0
  0
LINE
  5
15f
100
AcDbEntity
  8
0
 62
7
100
AcDbLine
 10
18.643622
 20
11.455406
 30
0.0
 11
18.669022
 21
11.760206
 31
0.0
  0
LINE
  5
160
100
AcDbEntity
  8
0
 62
7
100
AcDbLine
 10
18.669022
 20
11.760206
 30
0.0
 11
20.286226
 21
11.785606
 31
0.0
  0
SPLINE
  5
161
100
AcDbEntity
  8
0
 62
7
100
AcDbSpline
 70
8
 71
3
 72
8
 73
4
 74
0
 40
0
 40
0
 40
0
 40
0
 40
1
 40
1
 40
1
 40
1
 10
20.286226
 20
11.785606
 30
0.0
 10
21.175689
 20
11.799576
 30
0.0
 10
21.912924
 20
11.801481
 30
0.0
 10
21.924526
 20
11.789837
 30
0.0
  0
SPLINE
  5
162
100
AcDbEntity
  8
0
 62
7
100
AcDbSpline
 70
8
 71
3
 72
8
 73
4
 74
0
 40
0
 40
0
 40
0
 40
0
 40
1
 40
1
 40
1
 40
1
 10
21.924526
 20
11.789837
 30
0.0
 10
21.936125
 20
11.778195
 30
0.0
 10
21.945636
 20
11.172479
 30
0.0
 10
21.945636
 20
10.443800
 30
0.0
  0
LINE
  5
163
100
AcDbEntity
  8
0
 62
7
100
AcDbLine
 10
21.945636
 20
10.443800
 30
0.0
 11
21.945636
 21
9.118929
 31
0.0
  0
LINE
  5
164
100
AcDbEntity
  8
0
 62
7
100
AcDbLine
 10
21.945636
 20
9.118929
 30
0.0
 11
24.879172
 21
6.185067
 31
0.0
  0
LINE
  5
165
100
AcDbEntity
  8
0
 62
7
100
AcDbLine
 10
24.879172
 20
6.185067
 30
0.0
 11
27.812709
 21
3.251205
 31
0.0
  0
LINE
  5
166
100
AcDbEntity
  8
0
 62
7
100
AcDbLine
 10
27.812709
 20
3.251205
 30
0.0
 11
33.242792
 21
3.251205
 31
0.0
  0
LINE
  5
167
100
AcDbEntity
  8
0
 62
7
100
AcDbLine
 10
33.242792
 20
3.251205
 30
0.0
 11
38.672874
 21
3.251205
 31
0.0
  0
LINE
  5
168
100
AcDbEntity
  8
0
 62
7
100
AcDbLine
 10
38.672874
 20
3.251205
 30
0.0
 11
38.893787
 21
3.454834
 31
0.0
  0
LINE
  5
169
100
AcDbEntity
  8
0
 62
7
100
AcDbLine
 10
38.893787
 20
3.454834
 30
0.0
 11
39.114702
 21
3.658466
 31
0.0
  0
LINE
  5
16a
100
AcDbEntity
  8
0
 62
7
100
AcDbLine
 10
39.114702
 20
3.658466
 30
0.0
 11
41.922068
 21
3.645343
 31
0.0
  0
LINE
  5
16b
100
AcDbEntity
  8
0
 62
7
100
AcDbLine
 10
41.922068
 20
3.645343
 30
0.0
 11
44.729437
 21
3.632219
 31
0.0
  0
LINE
  5
16c
100
AcDbEntity
  8
0
 62
7
100
AcDbLine
 10
44.729437
 20
3.632219
 30
0.0
 11
44.743350
 21
3.302019
 31
0.0
  0
SPLINE
  5
16d
100
AcDbEntity
  8
0
 62
7
100
AcDbSpline
 70
8
 71
3
 72
8
 73
4
 74
0
 40
0
 40
0
 40
0
 40
0
 40
1
 40
1
 40
1
 40
1
 10
44.743350
 20
3.302019
 30
0.0
 10
44.750998
 20
3.120409
 30
0.0
 10
44.767734
 20
2.942466
 30
0.0
 10
44.780519
 20
2.906589
 30
0.0
  0
SPLINE
  5
16e
100
AcDbEntity
  8
0
 62
7
100
AcDbSpline
 70
8
 71
3
 72
8
 73
4
 74
0
 40
0
 40
0
 40
0
 40
0
 40
1
 40
1
 40
1
 40
1
 10
44.780519
 20
2.906589
 30
0.0
 10
44.797960
 20
2.857714
 30
0.0
 10
44.940903
 20
2.844980
 30
0.0
 10
45.350811
 20
2.855789
 30
0.0
  0
LINE
  5
16f
100
AcDbEntity
  8
0
 62
7
100
AcDbLine
 10
45.350811
 20
2.855789
 30
0.0
 11
45.897837
 21
2.870211
 31
0.0
  0
LINE
  5
170
100
AcDbEntity
  8
0
 62
7
100
AcDbLine
 10
45.897837
 20
2.870211
 30
0.0
 11
45.897837
 21
3.683011
 31
0.0
  0
LINE
  5
171
100
AcDbEntity
  8
0
 62
7
100
AcDbLine
 10
45.897837
 20
3.683011
 30
0.0
 11
45.897800
 21
3.683000
 31
0.0
  0
LINE
  5
172
100
AcDbEntity
  8
0
 62
7
100
AcDbLine
 10
47.472600
 20
3.683000
 30
0.0
 11
47.472600
 21
4.495800
 31
0.0
  0
LINE
  5
173
100
AcDbEntity
  8
0
 62
7
100
AcDbLine
 10
47.472600
 20
4.495800
 30
0.0
 11
47.294800
 21
4.521200
 31
0.0
  0
LINE
  5
174
100
AcDbEntity
  8
0
 62
7
100
AcDbLine
 10
47.294800
 20
4.521200
 30
0.0
 11
47.117000
 21
4.546600
 31
0.0
  0
LINE
  5
175
100
AcDbEntity
  8
0
 62
7
100
AcDbLine
 10
47.117000
 20
4.546600
 30
0.0
 11
47.104159
 21
13.490586
 31
0.0
  0
LINE
  5
176
100
AcDbEntity
  8
0
 62
7
100
AcDbLine
 10
47.104159
 20
13.490586
 30
0.0
 11
47.091318
 21
22.434571
 31
0.0
  0
LINE
  5
177
100
AcDbEntity
  8
0
 62
7
100
AcDbLine
 10
47.091318
 20
22.434571
 30
0.0
 11
46.186220
 21
23.330861
 31
0.0
  0
SPLINE
  5
178
100
AcDbEntity
  8
0
 62
7
100
AcDbSpline
 70
8
 71
3
 72
8
 73
4
 74
0
 40
0
 40
0
 40
0
 40
0
 40
1
 40
1
 40
1
 40
1
 10
46.186220
 20
23.330861
 30
0.0
 10
45.688414
 20
23.823820
 30
0.0
 10
45.221215
 20
24.249926
 30
0.0
 10
45.147998
 20
24.277762
 30
0.0
  0
SPLINE
  5
179
100
AcDbEntity
  8
0
 62
7
100
AcDbSpline
 70
8
 71
3
 72
8
 73
4
 74
0
 40
0
 40
0
 40
0
 40
0
 40
1
 40
1
 40
1
 40
1
 10
45.147998
 20
24.277762
 30
0.0
 10
45.037141
 20
24.319910
 30
0.0
 10
45.012246
 20
24.364886
 30
0.0
 10
44.999140
 20
24.546687
 30
0.0
  0
LINE
  5
17a
100
AcDbEntity
  8
0
 62
7
100
AcDbLine
 10
44.999140
 20
24.546687
 30
0.0
 11
44.983392
 21
24.765000
 31
0.0
  0
LINE
  5
17b
100
AcDbEntity
  8
0
 62
7
100
AcDbLine
 10
44.983392
 20
24.765000
 30
0.0
 11
43.713392
 21
24.765000
 31
0.0
  0
LINE
  5
17c
100
AcDbEntity
  8
0
 62
7
100
AcDbLine
 10
43.713392
 20
24.765000
 30
0.0
 11
42.443392
 21
24.765000
 31
0.0
  0
LINE
  5
17d
100
AcDbEntity
  8
0
 62
7
100
AcDbLine
 10
42.443392
 20
24.765000
 30
0.0
 11
42.443392
 21
24.155400
 31
0.0
  0
LINE
  5
17e
100
AcDbEntity
  8
0
 62
7
100
AcDbLine
 10
42.443392
 20
24.155400
 30
0.0
 11
42.443392
 21
23.545800
 31
0.0
  0
LINE
  5
17f
100
AcDbEntity
  8
0
 62
7
100
AcDbLine
 10
42.443392
 20
23.545800
 30
0.0
 11
43.713392
 21
23.545800
 31
0.0
  0
LINE
  5
180
100
AcDbEntity
  8
0
 62
7
100
AcDbLine
 10
43.713392
 20
23.545800
 30
0.0
 11
44.983392
 21
23.545800
 31
0.0
  0
LINE
  5
181
100
AcDbEntity
  8
0
 62
7
100
AcDbLine
 10
44.983392
 20
23.545800
 30
0.0
 11
44.999309
 21
23.710900
 31
0.0
  0
SPLINE
  5
182
100
AcDbEntity
  8
0
 62
7
100
AcDbSpline
 70
8
 71
3
 72
8
 73
4
 74
0
 40
0
 40
0
 40
0
 40
0
 40
1
 40
1
 40
1
 40
1
 10
44.999309
 20
23.710900
 30
0.0
 10
45.008058
 20
23.801705
 30
0.0
 10
45.042624
 20
23.876000
 30
0.0
 10
45.076104
 20
23.876000
 30
0.0
  0
SPLINE
  5
183
100
AcDbEntity
  8
0
 62
7
100
AcDbSpline
 70
8
 71
3
 72
8
 73
4
 74
0
 40
0
 40
0
 40
0
 40
0
 40
1
 40
1
 40
1
 40
1
 10
45.076104
 20
23.876000
 30
0.0
 10
45.109587
 20
23.876000
 30
0.0
 10
45.496824
 20
23.515630
 30
0.0
 10
45.936631
 20
23.075179
 30
0.0
  0
LINE
  5
184
100
AcDbEntity
  8
0
 62
7
100
AcDbLine
 10
45.936631
 20
23.075179
 30
0.0
 11
46.736279
 21
22.274358
 31
0.0
  0
LINE
  5
185
100
AcDbEntity
  8
0
 62
7
100
AcDbLine
 10
46.736279
 20
22.274358
 30
0.0
 11
46.723438
 21
13.410479
 31
0.0
  0
LINE
  5
186
100
AcDbEntity
  8
0
 62
7
100
AcDbLine
 10
46.723438
 20
13.410479
 30
0.0
 11
46.710597
 21
4.546600
 31
0.0
  0
LINE
  5
187
100
AcDbEntity
  8
0
 62
7
100
AcDbLine
 10
46.710597
 20
4.546600
 30
0.0
 11
46.532797
 21
4.521200
 31
0.0
  0
LINE
  5
188
100
AcDbEntity
  8
0
 62
7
100
AcDbLine
 10
46.532797
 20
4.521200
 30
0.0
 11
46.354997
 21
4.495800
 31
0.0
  0
LINE
  5
189
100
AcDbEntity
  8
0
 62
7
100
AcDbLine
 10
46.354997
 20
4.495800
 30
0.0
 11
46.340886
 21
3.736032
 31
0.0
  0
SPLINE
  5
18a
100
AcDbEntity
  8
0
 62
7
100
AcDbSpline
 70
8
 71
3
 72
8
 73
4
 74
0
 40
0
 40
0
 40
0
 40
0
 40
1
 40
1
 40
1
 40
1
 10
46.340886
 20
3.736032
 30
0.0
 10
46.333125
 20
3.318160
 30
0.0
 10
46.338346
 20
2.945909
 30
0.0
 10
46.352655
 20
2.908805
 30
0.0
  0
SPLINE
  5
18b
100
AcDbEntity
  8
0
 62
7
100
AcDbSpline
 70
8
 71
3
 72
8
 73
4
 74
0
 40
0
 40
0
 40
0
 40
0
 40
1
 40
1
 40
1
 40
1
 10
46.352655
 20
2.908805
 30
0.0
 10
46.372439
 20
2.857223
 30
0.0
 10
46.507293
 20
2.844740
 30
0.0
 10
46.925571
 20
2.855773
 30
0.0
  0
LINE
  5
18c
100
AcDbEntity
  8
0
 62
7
100
AcDbLine
 10
46.925571
 20
2.855773
 30
0.0
 11
47.472597
 21
2.870194
 31
0.0
  0
LINE
  5
18d
100
AcDbEntity
  8
0
 62
7
100
AcDbLine
 10
47.472597
 20
2.870194
 30
0.0
 11
47.472597
 21
3.682994
 31
0.0
  0
LINE
  5
18e
100
AcDbEntity
  8
0
 62
7
100
AcDbLine
 10
47.472597
 20
3.682994
 30
0.0
 11
47.472600
 21
3.683000
 31
0.0
  0
LINE
  5
18f
100
AcDbEntity
  8
0
 62
7
100
AcDbLine
 10
41.113052
 20
6.801317
 30
0.0
 11
43.890636
 21
9.589434
 31
0.0
  0
LINE
  5
190
100
AcDbEntity
  8
0
 62
7
100
AcDbLine
 10
43.890636
 20
9.589434
 30
0.0
 11
43.903618
 21
14.002217
 31
0.0
  0
LINE
  5
191
100
AcDbEntity
  8
0
 62
7
100
AcDbLine
 10
43.903618
 20
14.002217
 30
0.0
 11
43.916600
 21
18.415000
 31
0.0
  0
LINE
  5
192
100
AcDbEntity
  8
0
 62
7
100
AcDbLine
 10
43.916600
 20
18.415000
 30
0.0
 11
44.450000
 21
18.440400
 31
0.0
  0
LINE
  5
193
100
AcDbEntity
  8
0
 62
7
100
AcDbLine
 10
44.450000
 20
18.440400
 30
0.0
 11
44.983400
 21
18.465800
 31
0.0
  0
LINE
  5
194
100
AcDbEntity
  8
0
 62
7
100
AcDbLine
 10
44.983400
 20
18.465800
 30
0.0
 11
44.997709
 21
19.063672
 31
0.0
  0
SPLINE
  5
195
100
AcDbEntity
  8
0
 62
7
100
AcDbSpline
 70
8
 71
3
 72
8
 73
4
 74
0
 40
0
 40
0
 40
0
 40
0
 40
1
 40
1
 40
1
 40
1
 10
44.997709
 20
19.063672
 30
0.0
 10
45.009675
 20
19.562757
 30
0.0
 10
44.999120
 20
19.666479
 30
0.0
 10
44.934209
 20
19.691407
 30
0.0
  0
SPLINE
  5
196
100
AcDbEntity
  8
0
 62
7
100
AcDbSpline
 70
8
 71
3
 72
8
 73
4
 74
0
 40
0
 40
0
 40
0
 40
0
 40
1
 40
1
 40
1
 40
1
 10
44.934209
 20
19.691407
 30
0.0
 10
44.891407
 20
19.707833
 30
0.0
 10
44.856389
 20
19.747851
 30
0.0
 10
44.856389
 20
19.780338
 30
0.0
  0
SPLINE
  5
197
100
AcDbEntity
  8
0
 62
7
100
AcDbSpline
 70
8
 71
3
 72
8
 73
4
 74
0
 40
0
 40
0
 40
0
 40
0
 40
1
 40
1
 40
1
 40
1
 10
44.856389
 20
19.780338
 30
0.0
 10
44.856389
 20
19.812826
 30
0.0
 10
45.073559
 20
20.055674
 30
0.0
 10
45.338989
 20
20.320000
 30
0.0
  0
LINE
  5
198
100
AcDbEntity
  8
0
 62
7
100
AcDbLine
 10
45.338989
 20
20.320000
 30
0.0
 11
45.821589
 21
20.800593
 31
0.0
  0
LINE
  5
199
100
AcDbEntity
  8
0
 62
7
100
AcDbLine
 10
45.821589
 20
20.800593
 30
0.0
 11
45.821589
 21
21.663599
 31
0.0
  0
LINE
  5
19a
100
AcDbEntity
  8
0
 62
7
100
AcDbLine
 10
45.821589
 20
21.663599
 30
0.0
 11
45.821589
 21
22.526605
 31
0.0
  0
LINE
  5
19b
100
AcDbEntity
  8
0
 62
7
100
AcDbLine
 10
45.821589
 20
22.526605
 30
0.0
 11
45.556624
 21
22.794902
 31
0.0
  0
LINE
  5
19c
100
AcDbEntity
  8
0
 62
7
100
AcDbLine
 10
45.556624
 20
22.794902
 30
0.0
 11
45.291660
 21
23.063200
 31
0.0
  0
LINE
  5
19d
100
AcDbEntity
  8
0
 62
7
100
AcDbLine
 10
45.291660
 20
23.063200
 30
0.0
 11
43.768967
 21
23.063200
 31
0.0
  0
LINE
  5
19e
100
AcDbEntity
  8
0
 62
7
100
AcDbLine
 10
43.768967
 20
23.063200
 30
0.0
 11
42.246271
 21
23.063200
 31
0.0
  0
LINE
  5
19f
100
AcDbEntity
  8
0
 62
7
100
AcDbLine
 10
42.246271
 20
23.063200
 30
0.0
 11
41.290731
 21
24.013944
 31
0.0
  0
SPLINE
  5
1a0
100
AcDbEntity
  8
0
 62
7
100
AcDbSpline
 70
8
 71
3
 72
8
 73
4
 74
0
 40
0
 40
0
 40
0
 40
0
 40
1
 40
1
 40
1
 40
1
 10
41.290731
 20
24.013944
 30
0.0
 10
40.765194
 20
24.536853
 30
0.0
 10
40.335200
 20
24.987722
 30
0.0
 10
40.335200
 20
25.015877
 30
0.0
  0
SPLINE
  5
1a1
100
AcDbEntity
  8
0
 62
7
100
AcDbSpline
 70
8
 71
3
 72
8
 73
4
 74
0
 40
0
 40
0
 40
0
 40
0
 40
1
 40
1
 40
1
 40
1
 10
40.335200
 20
25.015877
 30
0.0
 10
40.335200
 20
25.044031
 30
0.0
 10
40.192985
 20
25.210556
 30
0.0
 10
40.019168
 20
25.385933
 30
0.0
  0
LINE
  5
1a2
100
AcDbEntity
  8
0
 62
7
100
AcDbLine
 10
40.019168
 20
25.385933
 30
0.0
 11
39.703135
 21
25.704800
 31
0.0
  0
LINE
  5
1a3
100
AcDbEntity
  8
0
 62
7
100
AcDbLine
 10
39.703135
 20
25.704800
 30
0.0
 11
27.642994
 21
25.704800
 31
0.0
  0
LINE
  5
1a4
100
AcDbEntity
  8
0
 62
7
100
AcDbLine
 10
27.642994
 20
25.704800
 30
0.0
 11
15.582854
 21
25.704800
 31
0.0
  0
LINE
  5
1a5
100
AcDbEntity
  8
0
 62
7
100
AcDbLine
 10
15.582854
 20
25.704800
 30
0.0
 11
14.175021
 21
24.307800
 31
0.0
  0
LINE
  5
1a6
100
AcDbEntity
  8
0
 62
7
100
AcDbLine
 10
14.175021
 20
24.307800
 30
0.0
 11
12.767189
 21
22.910800
 31
0.0
  0
LINE
  5
1a7
100
AcDbEntity
  8
0
 62
7
100
AcDbLine
 10
12.767189
 20
22.910800
 30
0.0
 11
10.873557
 21
22.910800
 31
0.0
  0
LINE
  5
1a8
100
AcDbEntity
  8
0
 62
7
100
AcDbLine
 10
10.873557
 20
22.910800
 30
0.0
 11
8.979926
 21
22.910800
 31
0.0
  0
LINE
  5
1a9
100
AcDbEntity
  8
0
 62
7
100
AcDbLine
 10
8.979926
 20
22.910800
 30
0.0
 11
8.223763
 21
22.165080
 31
0.0
  0
LINE
  5
1aa
100
AcDbEntity
  8
0
 62
7
100
AcDbLine
 10
8.223763
 20
22.165080
 30
0.0
 11
7.467600
 21
21.419360
 31
0.0
  0
LINE
  5
1ab
100
AcDbEntity
  8
0
 62
7
100
AcDbLine
 10
7.467600
 20
21.419360
 30
0.0
 11
7.467600
 21
18.677480
 31
0.0
  0
LINE
  5
1ac
100
AcDbEntity
  8
0
 62
7
100
AcDbLine
 10
7.467600
 20
18.677480
 30
0.0
 11
7.467600
 21
15.935599
 31
0.0
  0
LINE
  5
1ad
100
AcDbEntity
  8
0
 62
7
100
AcDbLine
 10
7.467600
 20
15.935599
 30
0.0
 11
6.908800
 21
15.369224
 31
0.0
  0
LINE
  5
1ae
100
AcDbEntity
  8
0
 62
7
100
AcDbLine
 10
6.908800
 20
15.369224
 30
0.0
 11
6.350000
 21
14.802848
 31
0.0
  0
LINE
  5
1af
100
AcDbEntity
  8
0
 62
7
100
AcDbLine
 10
6.350000
 20
14.802848
 30
0.0
 11
6.350000
 21
12.010762
 31
0.0
  0
LINE
  5
1b0
100
AcDbEntity
  8
0
 62
7
100
AcDbLine
 10
6.350000
 20
12.010762
 30
0.0
 11
6.350000
 21
9.218675
 31
0.0
  0
LINE
  5
1b1
100
AcDbEntity
  8
0
 62
7
100
AcDbLine
 10
6.350000
 20
9.218675
 30
0.0
 11
6.972511
 21
8.597659
 31
0.0
  0
LINE
  5
1b2
100
AcDbEntity
  8
0
 62
7
100
AcDbLine
 10
6.972511
 20
8.597659
 30
0.0
 11
7.595023
 21
7.976642
 31
0.0
  0
LINE
  5
1b3
100
AcDbEntity
  8
0
 62
7
100
AcDbLine
 10
7.595023
 20
7.976642
 30
0.0
 11
9.931611
 21
7.963420
 31
0.0
  0
LINE
  5
1b4
100
AcDbEntity
  8
0
 62
7
100
AcDbLine
 10
9.931611
 20
7.963420
 30
0.0
 11
12.268200
 21
7.950201
 31
0.0
  0
LINE
  5
1b5
100
AcDbEntity
  8
0
 62
7
100
AcDbLine
 10
12.268200
 20
7.950201
 30
0.0
 11
12.293600
 21
7.772401
 31
0.0
  0
LINE
  5
1b6
100
AcDbEntity
  8
0
 62
7
100
AcDbLine
 10
12.293600
 20
7.772401
 30
0.0
 11
12.319000
 21
7.594601
 31
0.0
  0
LINE
  5
1b7
100
AcDbEntity
  8
0
 62
7
100
AcDbLine
 10
12.319000
 20
7.594601
 30
0.0
 11
13.213531
 21
7.580758
 31
0.0
  0
SPLINE
  5
1b8
100
AcDbEntity
  8
0
 62
7
100
AcDbSpline
 70
8
 71
3
 72
8
 73
4
 74
0
 40
0
 40
0
 40
0
 40
0
 40
1
 40
1
 40
1
 40
1
 10
13.213531
 20
7.580758
 30
0.0
 10
13.964309
 20
7.569138
 30
0.0
 10
14.118378
 20
7.579346
 30
0.0
 10
14.172251
 20
7.644258
 30
0.0
  0
SPLINE
  5
1b9
100
AcDbEntity
  8
0
 62
7
100
AcDbSpline
 70
8
 71
3
 72
8
 73
4
 74
0
 40
0
 40
0
 40
0
 40
0
 40
1
 40
1
 40
1
 40
1
 10
14.172251
 20
7.644258
 30
0.0
 10
14.224806
 20
7.707581
 30
0.0
 10
14.382868
 20
7.721601
 30
0.0
 10
15.044278
 20
7.721601
 30
0.0
  0
LINE
  5
1ba
100
AcDbEntity
  8
0
 62
7
100
AcDbLine
 10
15.044278
 20
7.721601
 30
0.0
 11
15.852115
 21
7.721601
 31
0.0
  0
LINE
  5
1bb
100
AcDbEntity
  8
0
 62
7
100
AcDbLine
 10
15.852115
 20
7.721601
 30
0.0
 11
15.900892
 21
7.593307
 31
0.0
  0
LINE
  5
1bc
100
AcDbEntity
  8
0
 62
7
100
AcDbLine
 10
15.900892
 20
7.593307
 30
0.0
 11
15.949670
 21
7.465013
 31
0.0
  0
LINE
  5
1bd
100
AcDbEntity
  8
0
 62
7
100
AcDbLine
 10
15.949670
 20
7.465013
 30
0.0
 11
16.750536
 21
7.479005
 31
0.0
  0
LINE
  5
1be
100
AcDbEntity
  8
0
 62
7
100
AcDbLine
 10
16.750536
 20
7.479005
 30
0.0
 11
17.551401
 21
7.493001
 31
0.0
  0
LINE
  5
1bf
100
AcDbEntity
  8
0
 62
7
100
AcDbLine
 10
17.551401
 20
7.493001
 30
0.0
 11
17.551401
 21
7.899401
 31
0.0
  0
LINE
  5
1c0
100
AcDbEntity
  8
0
 62
7
100
AcDbLine
 10
17.551401
 20
7.899401
 30
0.0
 11
17.551401
 21
8.305801
 31
0.0
  0
LINE
  5
1c1
100
AcDbEntity
  8
0
 62
7
100
AcDbLine
 10
17.551401
 20
8.305801
 30
0.0
 11
16.750536
 21
8.319793
 31
0.0
  0
LINE
  5
1c2
100
AcDbEntity
  8
0
 62
7
100
AcDbLine
 10
16.750536
 20
8.319793
 30
0.0
 11
15.949670
 21
8.333786
 31
0.0
  0
LINE
  5
1c3
100
AcDbEntity
  8
0
 62
7
100
AcDbLine
 10
15.949670
 20
8.333786
 30
0.0
 11
15.900412
 21
8.204230
 31
0.0
  0
LINE
  5
1c4
100
AcDbEntity
  8
0
 62
7
100
AcDbLine
 10
15.900412
 20
8.204230
 30
0.0
 11
15.851155
 21
8.074674
 31
0.0
  0
LINE
  5
1c5
100
AcDbEntity
  8
0
 62
7
100
AcDbLine
 10
15.851155
 20
8.074674
 30
0.0
 11
15.024877
 21
8.088636
 31
0.0
  0
LINE
  5
1c6
100
AcDbEntity
  8
0
 62
7
100
AcDbLine
 10
15.024877
 20
8.088636
 30
0.0
 11
14.198600
 21
8.102600
 31
0.0
  0
LINE
  5
1c7
100
AcDbEntity
  8
0
 62
7
100
AcDbLine
 10
14.198600
 20
8.102600
 30
0.0
 11
14.173200
 21
8.661400
 31
0.0
  0
LINE
  5
1c8
100
AcDbEntity
  8
0
 62
7
100
AcDbLine
 10
14.173200
 20
8.661400
 30
0.0
 11
14.147800
 21
9.220200
 31
0.0
  0
LINE
  5
1c9
100
AcDbEntity
  8
0
 62
7
100
AcDbLine
 10
14.147800
 20
9.220200
 30
0.0
 11
13.233400
 21
9.220200
 31
0.0
  0
LINE
  5
1ca
100
AcDbEntity
  8
0
 62
7
100
AcDbLine
 10
13.233400
 20
9.220200
 30
0.0
 11
12.319000
 21
9.220200
 31
0.0
  0
LINE
  5
1cb
100
AcDbEntity
  8
0
 62
7
100
AcDbLine
 10
12.319000
 20
9.220200
 30
0.0
 11
12.293600
 21
8.788400
 31
0.0
  0
LINE
  5
1cc
100
AcDbEntity
  8
0
 62
7
100
AcDbLine
 10
12.293600
 20
8.788400
 30
0.0
 11
12.268200
 21
8.356600
 31
0.0
  0
LINE
  5
1cd
100
AcDbEntity
  8
0
 62
7
100
AcDbLine
 10
12.268200
 20
8.356600
 30
0.0
 11
9.956800
 21
8.371436
 31
0.0
  0
LINE
  5
1ce
100
AcDbEntity
  8
0
 62
7
100
AcDbLine
 10
9.956800
 20
8.371436
 30
0.0
 11
7.645400
 21
8.386273
 31
0.0
  0
LINE
  5
1cf
100
AcDbEntity
  8
0
 62
7
100
AcDbLine
 10
7.645400
 20
8.386273
 30
0.0
 11
7.175500
 21
8.859134
 31
0.0
  0
LINE
  5
1d0
100
AcDbEntity
  8
0
 62
7
100
AcDbLine
 10
7.175500
 20
8.859134
 30
0.0
 11
6.705600
 21
9.331996
 31
0.0
  0
LINE
  5
1d1
100
AcDbEntity
  8
0
 62
7
100
AcDbLine
 10
6.705600
 20
9.331996
 30
0.0
 11
6.705600
 21
12.014398
 31
0.0
  0
LINE
  5
1d2
100
AcDbEntity
  8
0
 62
7
100
AcDbLine
 10
6.705600
 20
12.014398
 30
0.0
 11
6.705600
 21
14.696801
 31
0.0
  0
LINE
  5
1d3
100
AcDbEntity
  8
0
 62
7
100
AcDbLine
 10
6.705600
 20
14.696801
 30
0.0
 11
7.264400
 21
15.263176
 31
0.0
  0
LINE
  5
1d4
100
AcDbEntity
  8
0
 62
7
100
AcDbLine
 10
7.264400
 20
15.263176
 30
0.0
 11
7.823200
 21
15.829552
 31
0.0
  0
LINE
  5
1d5
100
AcDbEntity
  8
0
 62
7
100
AcDbLine
 10
7.823200
 20
15.829552
 30
0.0
 11
7.823200
 21
18.547186
 31
0.0
  0
LINE
  5
1d6
100
AcDbEntity
  8
0
 62
7
100
AcDbLine
 10
7.823200
 20
18.547186
 30
0.0
 11
7.823200
 21
21.264820
 31
0.0
  0
LINE
  5
1d7
100
AcDbEntity
  8
0
 62
7
100
AcDbLine
 10
7.823200
 20
21.264820
 30
0.0
 11
8.475265
 21
21.910010
 31
0.0
  0
LINE
  5
1d8
100
AcDbEntity
  8
0
 62
7
100
AcDbLine
 10
8.475265
 20
21.910010
 30
0.0
 11
9.127331
 21
22.555200
 31
0.0
  0
LINE
  5
1d9
100
AcDbEntity
  8
0
 62
7
100
AcDbLine
 10
9.127331
 20
22.555200
 30
0.0
 11
13.566209
 21
22.555200
 31
0.0
  0
LINE
  5
1da
100
AcDbEntity
  8
0
 62
7
100
AcDbLine
 10
13.566209
 20
22.555200
 30
0.0
 11
18.005087
 21
22.555200
 31
0.0
  0
LINE
  5
1db
100
AcDbEntity
  8
0
 62
7
100
AcDbLine
 10
18.005087
 20
22.555200
 30
0.0
 11
19.695945
 21
20.867117
 31
0.0
  0
SPLINE
  5
1dc
100
AcDbEntity
  8
0
 62
7
100
AcDbSpline
 70
8
 71
3
 72
8
 73
4
 74
0
 40
0
 40
0
 40
0
 40
0
 40
1
 40
1
 40
1
 40
1
 10
19.695945
 20
20.867117
 30
0.0
 10
20.625914
 20
19.938671
 30
0.0
 10
21.386799
 20
19.155358
 30
0.0
 10
21.386799
 20
19.126422
 30
0.0
  0
SPLINE
  5
1dd
100
AcDbEntity
  8
0
 62
7
100
AcDbSpline
 70
8
 71
3
 72
8
 73
4
 74
0
 40
0
 40
0
 40
0
 40
0
 40
1
 40
1
 40
1
 40
1
 10
21.386799
 20
19.126422
 30
0.0
 10
21.386799
 20
19.097487
 30
0.0
 10
21.112223
 20
18.799849
 30
0.0
 10
20.776629
 20
18.465006
 30
0.0
  0
LINE
  5
1de
100
AcDbEntity
  8
0
 62
7
100
AcDbLine
 10
20.776629
 20
18.465006
 30
0.0
 11
20.166462
 21
17.856200
 31
0.0
  0
LINE
  5
1df
100
AcDbEntity
  8
0
 62
7
100
AcDbLine
 10
20.166462
 20
17.856200
 30
0.0
 11
19.697130
 21
17.830800
 31
0.0
  0
LINE
  5
1e0
100
AcDbEntity
  8
0
 62
7
100
AcDbLine
 10
19.697130
 20
17.830800
 30
0.0
 11
19.227801
 21
17.805400
 31
0.0
  0
LINE
  5
1e1
100
AcDbEntity
  8
0
 62
7
100
AcDbLine
 10
19.227801
 20
17.805400
 30
0.0
 11
19.227801
 21
17.399000
 31
0.0
  0
SPLINE
  5
1e2
100
AcDbEntity
  8
0
 62
7
100
AcDbSpline
 70
8
 71
3
 72
8
 73
4
 74
0
 40
0
 40
0
 40
0
 40
0
 40
1
 40
1
 40
1
 40
1
 10
19.227801
 20
17.399000
 30
0.0
 10
19.227801
 20
17.016225
 30
0.0
 10
19.234433
 20
16.991656
 30
0.0
 10
19.342101
 20
16.976367
 30
0.0
  0
SPLINE
  5
1e3
100
AcDbEntity
  8
0
 62
7
100
AcDbSpline
 70
8
 71
3
 72
8
 73
4
 74
0
 40
0
 40
0
 40
0
 40
0
 40
1
 40
1
 40
1
 40
1
 10
19.342101
 20
16.976367
 30
0.0
 10
19.404966
 20
16.967437
 30
0.0
 10
19.456401
 20
16.932791
 30
0.0
 10
19.456401
 20
16.899373
 30
0.0
  0
SPLINE
  5
1e4
100
AcDbEntity
  8
0
 62
7
100
AcDbSpline
 70
8
 71
3
 72
8
 73
4
 74
0
 40
0
 40
0
 40
0
 40
0
 40
1
 40
1
 40
1
 40
1
 10
19.456401
 20
16.899373
 30
0.0
 10
19.456401
 20
16.865954
 30
0.0
 10
19.181812
 20
16.564649
 30
0.0
 10
18.846202
 20
16.229806
 30
0.0
  0
LINE
  5
1e5
100
AcDbEntity
  8
0
 62
7
100
AcDbLine
 10
18.846202
 20
16.229806
 30
0.0
 11
18.236004
 21
15.621000
 31
0.0
  0
LINE
  5
1e6
100
AcDbEntity
  8
0
 62
7
100
AcDbLine
 10
18.236004
 20
15.621000
 30
0.0
 11
17.512702
 21
15.595600
 31
0.0
  0
LINE
  5
1e7
100
AcDbEntity
  8
0
 62
7
100
AcDbLine
 10
17.512702
 20
15.595600
 30
0.0
 11
16.789401
 21
15.570200
 31
0.0
  0
LINE
  5
1e8
100
AcDbEntity
  8
0
 62
7
100
AcDbLine
 10
16.789401
 20
15.570200
 30
0.0
 11
16.789401
 21
14.757400
 31
0.0
  0
LINE
  5
1e9
100
AcDbEntity
  8
0
 62
7
100
AcDbLine
 10
16.789401
 20
14.757400
 30
0.0
 11
16.789401
 21
13.944600
 31
0.0
  0
LINE
  5
1ea
100
AcDbEntity
  8
0
 62
7
100
AcDbLine
 10
16.789401
 20
13.944600
 30
0.0
 11
17.703801
 21
13.944600
 31
0.0
  0
LINE
  5
1eb
100
AcDbEntity
  8
0
 62
7
100
AcDbLine
 10
17.703801
 20
13.944600
 30
0.0
 11
18.618201
 21
13.944600
 31
0.0
  0
LINE
  5
1ec
100
AcDbEntity
  8
0
 62
7
100
AcDbLine
 10
18.618201
 20
13.944600
 30
0.0
 11
18.643601
 21
14.770035
 31
0.0
  0
LINE
  5
1ed
100
AcDbEntity
  8
0
 62
7
100
AcDbLine
 10
18.643601
 20
14.770035
 30
0.0
 11
18.669001
 21
15.595471
 31
0.0
  0
LINE
  5
1ee
100
AcDbEntity
  8
0
 62
7
100
AcDbLine
 10
18.669001
 20
15.595471
 30
0.0
 11
19.342137
 21
16.268635
 31
0.0
  0
LINE
  5
1ef
100
AcDbEntity
  8
0
 62
7
100
AcDbLine
 10
19.342137
 20
16.268635
 30
0.0
 11
20.015274
 21
16.941800
 31
0.0
  0
LINE
  5
1f0
100
AcDbEntity
  8
0
 62
7
100
AcDbLine
 10
20.015274
 20
16.941800
 30
0.0
 11
20.434336
 21
16.967200
 31
0.0
  0
LINE
  5
1f1
100
AcDbEntity
  8
0
 62
7
100
AcDbLine
 10
20.434336
 20
16.967200
 30
0.0
 11
20.853399
 21
16.992600
 31
0.0
  0
LINE
  5
1f2
100
AcDbEntity
  8
0
 62
7
100
AcDbLine
 10
20.853399
 20
16.992600
 30
0.0
 11
20.868244
 21
17.387069
 31
0.0
  0
SPLINE
  5
1f3
100
AcDbEntity
  8
0
 62
7
100
AcDbSpline
 70
8
 71
3
 72
8
 73
4
 74
0
 40
0
 40
0
 40
0
 40
0
 40
1
 40
1
 40
1
 40
1
 10
20.868244
 20
17.387069
 30
0.0
 10
20.880211
 20
17.705081
 30
0.0
 10
20.867962
 20
17.787365
 30
0.0
 10
20.804744
 20
17.811604
 30
0.0
  0
SPLINE
  5
1f4
100
AcDbEntity
  8
0
 62
7
100
AcDbSpline
 70
8
 71
3
 72
8
 73
4
 74
0
 40
0
 40
0
 40
0
 40
0
 40
1
 40
1
 40
1
 40
1
 10
20.804744
 20
17.811604
 30
0.0
 10
20.761652
 20
17.828139
 30
0.0
 10
20.726430
 20
17.867799
 30
0.0
 10
20.726476
 20
17.899735
 30
0.0
  0
SPLINE
  5
1f5
100
AcDbEntity
  8
0
 62
7
100
AcDbSpline
 70
8
 71
3
 72
8
 73
4
 74
0
 40
0
 40
0
 40
0
 40
0
 40
1
 40
1
 40
1
 40
1
 10
20.726476
 20
17.899735
 30
0.0
 10
20.726580
 20
17.971099
 30
0.0
 10
24.609201
 20
21.793200
 30
0.0
 10
24.681594
 20
21.793200
 30
0.0
  0
SPLINE
  5
1f6
100
AcDbEntity
  8
0
 62
7
100
AcDbSpline
 70
8
 71
3
 72
8
 73
4
 74
0
 40
0
 40
0
 40
0
 40
0
 40
1
 40
1
 40
1
 40
1
 10
24.681594
 20
21.793200
 30
0.0
 10
24.710119
 20
21.793200
 30
0.0
 10
24.740556
 20
21.707475
 30
0.0
 10
24.749226
 20
21.602700
 30
0.0
  0
LINE
  5
1f7
100
AcDbEntity
  8
0
 62
7
100
AcDbLine
 10
24.749226
 20
21.602700
 30
0.0
 11
24.765002
 21
21.412200
 31
0.0
  0
LINE
  5
1f8
100
AcDbEntity
  8
0
 62
7
100
AcDbLine
 10
24.765002
 20
21.412200
 30
0.0
 11
25.069802
 21
21.412200
 31
0.0
  0
LINE
  5
1f9
100
AcDbEntity
  8
0
 62
7
100
AcDbLine
 10
25.069802
 20
21.412200
 30
0.0
 11
25.374602
 21
21.412200
 31
0.0
  0
LINE
  5
1fa
100
AcDbEntity
  8
0
 62
7
100
AcDbLine
 10
25.374602
 20
21.412200
 30
0.0
 11
25.374602
 21
22.529800
 31
0.0
  0
LINE
  5
1fb
100
AcDbEntity
  8
0
 62
7
100
AcDbLine
 10
25.374602
 20
22.529800
 30
0.0
 11
25.374602
 21
23.647400
 31
0.0
  0
LINE
  5
1fc
100
AcDbEntity
  8
0
 62
7
100
AcDbLine
 10
25.374602
 20
23.647400
 30
0.0
 11
25.069802
 21
23.647400
 31
0.0
  0
LINE
  5
1fd
100
AcDbEntity
  8
0
 62
7
100
AcDbLine
 10
25.069802
 20
23.647400
 30
0.0
 11
24.765002
 21
23.647400
 31
0.0
  0
LINE
  5
1fe
100
AcDbEntity
  8
0
 62
7
100
AcDbLine
 10
24.765002
 20
23.647400
 30
0.0
 11
24.739602
 21
23.025203
 31
0.0
  0
LINE
  5
1ff
100
AcDbEntity
  8
0
 62
7
100
AcDbLine
 10
24.739602
 20
23.025203
 30
0.0
 11
24.714202
 21
22.403006
 31
0.0
  0
LINE
  5
200
100
AcDbEntity
  8
0
 62
7
100
AcDbLine
 10
24.714202
 20
22.403006
 30
0.0
 11
23.215927
 21
20.904303
 31
0.0
  0
SPLINE
  5
201
100
AcDbEntity
  8
0
 62
7
100
AcDbSpline
 70
8
 71
3
 72
8
 73
4
 74
0
 40
0
 40
0
 40
0
 40
0
 40
1
 40
1
 40
1
 40
1
 10
23.215927
 20
20.904303
 30
0.0
 10
22.391872
 20
20.080016
 30
0.0
 10
21.694518
 20
19.405600
 30
0.0
 10
21.666247
 20
19.405600
 30
0.0
  0
SPLINE
  5
202
100
AcDbEntity
  8
0
 62
7
100
AcDbSpline
 70
8
 71
3
 72
8
 73
4
 74
0
 40
0
 40
0
 40
0
 40
0
 40
1
 40
1
 40
1
 40
1
 10
21.666247
 20
19.405600
 30
0.0
 10
21.637980
 20
19.405600
 30
0.0
 10
20.826427
 20
20.194270
 30
0.0
 10
19.862803
 20
21.158200
 30
0.0
  0
LINE
  5
203
100
AcDbEntity
  8
0
 62
7
100
AcDbLine
 10
19.862803
 20
21.158200
 30
0.0
 11
18.110757
 21
22.910800
 31
0.0
  0
LINE
  5
204
100
AcDbEntity
  8
0
 62
7
100
AcDbLine
 10
18.110757
 20
22.910800
 30
0.0
 11
15.763977
 21
22.910800
 31
0.0
  0
SPLINE
  5
205
100
AcDbEntity
  8
0
 62
7
100
AcDbSpline
 70
8
 71
3
 72
8
 73
4
 74
0
 40
0
 40
0
 40
0
 40
0
 40
1
 40
1
 40
1
 40
1
 10
15.763977
 20
22.910800
 30
0.0
 10
14.473249
 20
22.910800
 30
0.0
 10
13.405524
 20
22.929692
 30
0.0
 10
13.391255
 20
22.952779
 30
0.0
  0
SPLINE
  5
206
100
AcDbEntity
  8
0
 62
7
100
AcDbSpline
 70
8
 71
3
 72
8
 73
4
 74
0
 40
0
 40
0
 40
0
 40
0
 40
1
 40
1
 40
1
 40
1
 10
13.391255
 20
22.952779
 30
0.0
 10
13.376986
 20
22.975867
 30
0.0
 10
13.896816
 20
23.524507
 30
0.0
 10
14.546435
 20
24.171979
 30
0.0
  0
LINE
  5
207
100
AcDbEntity
  8
0
 62
7
100
AcDbLine
 10
14.546435
 20
24.171979
 30
0.0
 11
15.727559
 21
25.349200
 31
0.0
  0
LINE
  5
208
100
AcDbEntity
  8
0
 62
7
100
AcDbLine
 10
15.727559
 20
25.349200
 30
0.0
 11
27.648613
 21
25.349200
 31
0.0
  0
LINE
  5
209
100
AcDbEntity
  8
0
 62
7
100
AcDbLine
 10
27.648613
 20
25.349200
 30
0.0
 11
39.569667
 21
25.349200
 31
0.0
  0
LINE
  5
20a
100
AcDbEntity
  8
0
 62
7
100
AcDbLine
 10
39.569667
 20
25.349200
 30
0.0
 11
39.749688
 21
25.191140
 31
0.0
  0
SPLINE
  5
20b
100
AcDbEntity
  8
0
 62
7
100
AcDbSpline
 70
8
 71
3
 72
8
 73
4
 74
0
 40
0
 40
0
 40
0
 40
0
 40
1
 40
1
 40
1
 40
1
 10
39.749688
 20
25.191140
 30
0.0
 10
39.848700
 20
25.104207
 30
0.0
 10
39.942866
 20
24.980654
 30
0.0
 10
39.958950
 20
24.916577
 30
0.0
  0
SPLINE
  5
20c
100
AcDbEntity
  8
0
 62
7
100
AcDbSpline
 70
8
 71
3
 72
8
 73
4
 74
0
 40
0
 40
0
 40
0
 40
0
 40
1
 40
1
 40
1
 40
1
 10
39.958950
 20
24.916577
 30
0.0
 10
39.975036
 20
24.852500
 30
0.0
 10
40.463828
 20
24.329267
 30
0.0
 10
41.045164
 20
23.753837
 30
0.0
  0
LINE
  5
20d
100
AcDbEntity
  8
0
 62
7
100
AcDbLine
 10
41.045164
 20
23.753837
 30
0.0
 11
42.102137
 21
22.707600
 31
0.0
  0
LINE
  5
20e
100
AcDbEntity
  8
0
 62
7
100
AcDbLine
 10
42.102137
 20
22.707600
 30
0.0
 11
43.635577
 21
22.707600
 31
0.0
  0
LINE
  5
20f
100
AcDbEntity
  8
0
 62
7
100
AcDbLine
 10
43.635577
 20
22.707600
 30
0.0
 11
45.169018
 21
22.707600
 31
0.0
  0
LINE
  5
210
100
AcDbEntity
  8
0
 62
7
100
AcDbLine
 10
45.169018
 20
22.707600
 30
0.0
 11
45.317512
 21
22.559108
 31
0.0
  0
LINE
  5
211
100
AcDbEntity
  8
0
 62
7
100
AcDbLine
 10
45.317512
 20
22.559108
 30
0.0
 11
45.466003
 21
22.410616
 31
0.0
  0
LINE
  5
212
100
AcDbEntity
  8
0
 62
7
100
AcDbLine
 10
45.466003
 20
22.410616
 30
0.0
 11
45.466003
 21
21.661693
 31
0.0
  0
LINE
  5
213
100
AcDbEntity
  8
0
 62
7
100
AcDbLine
 10
45.466003
 20
21.661693
 30
0.0
 11
45.466003
 21
20.912771
 31
0.0
  0
LINE
  5
214
100
AcDbEntity
  8
0
 62
7
100
AcDbLine
 10
45.466003
 20
20.912771
 30
0.0
 11
44.883637
 21
20.324285
 31
0.0
  0
LINE
  5
215
100
AcDbEntity
  8
0
 62
7
100
AcDbLine
 10
44.883637
 20
20.324285
 30
0.0
 11
44.301272
 21
19.735800
 31
0.0
  0
LINE
  5
216
100
AcDbEntity
  8
0
 62
7
100
AcDbLine
 10
44.301272
 20
19.735800
 30
0.0
 11
43.372337
 21
19.710400
 31
0.0
  0
LINE
  5
217
100
AcDbEntity
  8
0
 62
7
100
AcDbLine
 10
43.372337
 20
19.710400
 30
0.0
 11
42.443403
 21
19.685000
 31
0.0
  0
LINE
  5
218
100
AcDbEntity
  8
0
 62
7
100
AcDbLine
 10
42.443403
 20
19.685000
 30
0.0
 11
42.443403
 21
19.075400
 31
0.0
  0
LINE
  5
219
100
AcDbEntity
  8
0
 62
7
100
AcDbLine
 10
42.443403
 20
19.075400
 30
0.0
 11
42.443403
 21
18.465800
 31
0.0
  0
LINE
  5
21a
100
AcDbEntity
  8
0
 62
7
100
AcDbLine
 10
42.443403
 20
18.465800
 30
0.0
 11
42.976803
 21
18.440400
 31
0.0
  0
LINE
  5
21b
100
AcDbEntity
  8
0
 62
7
100
AcDbLine
 10
42.976803
 20
18.440400
 30
0.0
 11
43.510203
 21
18.415000
 31
0.0
  0
LINE
  5
21c
100
AcDbEntity
  8
0
 62
7
100
AcDbLine
 10
43.510203
 20
18.415000
 30
0.0
 11
43.523185
 21
14.105703
 31
0.0
  0
SPLINE
  5
21d
100
AcDbEntity
  8
0
 62
7
100
AcDbSpline
 70
8
 71
3
 72
8
 73
4
 74
0
 40
0
 40
0
 40
0
 40
0
 40
1
 40
1
 40
1
 40
1
 10
43.523185
 20
14.105703
 30
0.0
 10
43.530325
 20
11.735591
 30
0.0
 10
43.517202
 20
9.762511
 30
0.0
 10
43.494017
 20
9.721082
 30
0.0
  0
SPLINE
  5
21e
100
AcDbEntity
  8
0
 62
7
100
AcDbSpline
 70
8
 71
3
 72
8
 73
4
 74
0
 40
0
 40
0
 40
0
 40
0
 40
1
 40
1
 40
1
 40
1
 10
43.494017
 20
9.721082
 30
0.0
 10
43.470819
 20
9.679653
 30
0.0
 10
42.265352
 20
8.458441
 30
0.0
 10
40.815167
 20
7.007278
 30
0.0
  0
LINE
  5
21f
100
AcDbEntity
  8
0
 62
7
100
AcDbLine
 10
40.815167
 20
7.007278
 30
0.0
 11
38.178466
 21
4.368800
 31
0.0
  0
LINE
  5
220
100
AcDbEntity
  8
0
 62
7
100
AcDbLine
 10
38.178466
 20
4.368800
 30
0.0
 11
37.242629
 21
4.368800
 31
0.0
  0
LINE
  5
221
100
AcDbEntity
  8
0
 62
7
100
AcDbLine
 10
37.242629
 20
4.368800
 30
0.0
 11
36.306794
 21
4.368800
 31
0.0
  0
LINE
  5
222
100
AcDbEntity
  8
0
 62
7
100
AcDbLine
 10
36.306794
 20
4.368800
 30
0.0
 11
35.819094
 21
4.849215
 31
0.0
  0
LINE
  5
223
100
AcDbEntity
  8
0
 62
7
100
AcDbLine
 10
35.819094
 20
4.849215
 30
0.0
 11
35.331403
 21
5.329630
 31
0.0
  0
LINE
  5
224
100
AcDbEntity
  8
0
 62
7
100
AcDbLine
 10
35.331403
 20
5.329630
 30
0.0
 11
35.306003
 21
5.979515
 31
0.0
  0
LINE
  5
225
100
AcDbEntity
  8
0
 62
7
100
AcDbLine
 10
35.306003
 20
5.979515
 30
0.0
 11
35.280603
 21
6.629400
 31
0.0
  0
LINE
  5
226
100
AcDbEntity
  8
0
 62
7
100
AcDbLine
 10
35.280603
 20
6.629400
 30
0.0
 11
34.467803
 21
6.629400
 31
0.0
  0
LINE
  5
227
100
AcDbEntity
  8
0
 62
7
100
AcDbLine
 10
34.467803
 20
6.629400
 30
0.0
 11
33.655003
 21
6.629400
 31
0.0
  0
LINE
  5
228
100
AcDbEntity
  8
0
 62
7
100
AcDbLine
 10
33.655003
 20
6.629400
 30
0.0
 11
33.629603
 21
6.273800
 31
0.0
  0
LINE
  5
229
100
AcDbEntity
  8
0
 62
7
100
AcDbLine
 10
33.629603
 20
6.273800
 30
0.0
 11
33.604203
 21
5.918200
 31
0.0
  0
LINE
  5
22a
100
AcDbEntity
  8
0
 62
7
100
AcDbLine
 10
33.604203
 20
5.918200
 30
0.0
 11
32.689803
 21
5.918200
 31
0.0
  0
LINE
  5
22b
100
AcDbEntity
  8
0
 62
7
100
AcDbLine
 10
32.689803
 20
5.918200
 30
0.0
 11
31.775403
 21
5.918200
 31
0.0
  0
LINE
  5
22c
100
AcDbEntity
  8
0
 62
7
100
AcDbLine
 10
31.775403
 20
5.918200
 30
0.0
 11
31.750003
 21
6.273800
 31
0.0
  0
LINE
  5
22d
100
AcDbEntity
  8
0
 62
7
100
AcDbLine
 10
31.750003
 20
6.273800
 30
0.0
 11
31.724603
 21
6.629400
 31
0.0
  0
LINE
  5
22e
100
AcDbEntity
  8
0
 62
7
100
AcDbLine
 10
31.724603
 20
6.629400
 30
0.0
 11
30.911803
 21
6.629400
 31
0.0
  0
LINE
  5
22f
100
AcDbEntity
  8
0
 62
7
100
AcDbLine
 10
30.911803
 20
6.629400
 30
0.0
 11
30.099003
 21
6.629400
 31
0.0
  0
LINE
  5
230
100
AcDbEntity
  8
0
 62
7
100
AcDbLine
 10
30.099003
 20
6.629400
 30
0.0
 11
30.099003
 21
5.715000
 31
0.0
  0
LINE
  5
231
100
AcDbEntity
  8
0
 62
7
100
AcDbLine
 10
30.099003
 20
5.715000
 30
0.0
 11
30.099003
 21
4.800600
 31
0.0
  0
LINE
  5
232
100
AcDbEntity
  8
0
 62
7
100
AcDbLine
 10
30.099003
 20
4.800600
 30
0.0
 11
30.911803
 21
4.800600
 31
0.0
  0
LINE
  5
233
100
AcDbEntity
  8
0
 62
7
100
AcDbLine
 10
30.911803
 20
4.800600
 30
0.0
 11
31.724603
 21
4.800600
 31
0.0
  0
LINE
  5
234
100
AcDbEntity
  8
0
 62
7
100
AcDbLine
 10
31.724603
 20
4.800600
 30
0.0
 11
31.750003
 21
5.156199
 31
0.0
  0
LINE
  5
235
100
AcDbEntity
  8
0
 62
7
100
AcDbLine
 10
31.750003
 20
5.156199
 30
0.0
 11
31.775403
 21
5.511800
 31
0.0
  0
LINE
  5
236
100
AcDbEntity
  8
0
 62
7
100
AcDbLine
 10
31.775403
 20
5.511800
 30
0.0
 11
32.689803
 21
5.511800
 31
0.0
  0
LINE
  5
237
100
AcDbEntity
  8
0
 62
7
100
AcDbLine
 10
32.689803
 20
5.511800
 30
0.0
 11
33.604203
 21
5.511800
 31
0.0
  0
LINE
  5
238
100
AcDbEntity
  8
0
 62
7
100
AcDbLine
 10
33.604203
 20
5.511800
 30
0.0
 11
33.629603
 21
5.156199
 31
0.0
  0
LINE
  5
239
100
AcDbEntity
  8
0
 62
7
100
AcDbLine
 10
33.629603
 20
5.156199
 30
0.0
 11
33.655003
 21
4.800600
 31
0.0
  0
LINE
  5
23a
100
AcDbEntity
  8
0
 62
7
100
AcDbLine
 10
33.655003
 20
4.800600
 30
0.0
 11
34.538031
 21
4.793459
 31
0.0
  0
LINE
  5
23b
100
AcDbEntity
  8
0
 62
7
100
AcDbLine
 10
34.538031
 20
4.793459
 30
0.0
 11
35.421059
 21
4.786319
 31
0.0
  0
LINE
  5
23c
100
AcDbEntity
  8
0
 62
7
100
AcDbLine
 10
35.421059
 20
4.786319
 30
0.0
 11
35.807622
 21
4.399757
 31
0.0
  0
LINE
  5
23d
100
AcDbEntity
  8
0
 62
7
100
AcDbLine
 10
35.807622
 20
4.399757
 30
0.0
 11
36.194184
 21
4.013194
 31
0.0
  0
LINE
  5
23e
100
AcDbEntity
  8
0
 62
7
100
AcDbLine
 10
36.194184
 20
4.013194
 30
0.0
 11
37.264825
 21
4.013194
 31
0.0
  0
LINE
  5
23f
100
AcDbEntity
  8
0
 62
7
100
AcDbLine
 10
37.264825
 20
4.013194
 30
0.0
 11
38.335469
 21
4.013194
 31
0.0
  0
LINE
  5
240
100
AcDbEntity
  8
0
 62
7
100
AcDbLine
 10
38.335469
 20
4.013194
 30
0.0
 11
41.113055
 21
6.801311
 31
0.0
  0
LINE
  5
241
100
AcDbEntity
  8
0
 62
7
100
AcDbLine
 10
41.113055
 20
6.801311
 30
0.0
 11
41.113052
 21
6.801317
 31
0.0
  0
LINE
  5
242
100
AcDbEntity
  8
0
 62
7
100
AcDbLine
 10
4.902200
 20
5.308600
 30
0.0
 11
4.902200
 21
6.324600
 31
0.0
  0
LINE
  5
243
100
AcDbEntity
  8
0
 62
7
100
AcDbLine
 10
4.902200
 20
6.324600
 30
0.0
 11
3.632200
 21
6.324600
 31
0.0
  0
LINE
  5
244
100
AcDbEntity
  8
0
 62
7
100
AcDbLine
 10
3.632200
 20
6.324600
 30
0.0
 11
2.362200
 21
6.324600
 31
0.0
  0
LINE
  5
245
100
AcDbEntity
  8
0
 62
7
100
AcDbLine
 10
2.362200
 20
6.324600
 30
0.0
 11
2.348337
 21
5.360964
 31
0.0
  0
SPLINE
  5
246
100
AcDbEntity
  8
0
 62
7
100
AcDbSpline
 70
8
 71
3
 72
8
 73
4
 74
0
 40
0
 40
0
 40
0
 40
0
 40
1
 40
1
 40
1
 40
1
 10
2.348337
 20
5.360964
 30
0.0
 10
2.340714
 20
4.830967
 30
0.0
 10
2.345854
 20
4.367651
 30
0.0
 10
2.359784
 20
4.331374
 30
0.0
  0
SPLINE
  5
247
100
AcDbEntity
  8
0
 62
7
100
AcDbSpline
 70
8
 71
3
 72
8
 73
4
 74
0
 40
0
 40
0
 40
0
 40
0
 40
1
 40
1
 40
1
 40
1
 10
2.359784
 20
4.331374
 30
0.0
 10
2.379788
 20
4.279245
 30
0.0
 10
2.648877
 20
4.268269
 30
0.0
 10
3.643646
 20
4.279011
 30
0.0
  0
LINE
  5
248
100
AcDbEntity
  8
0
 62
7
100
AcDbLine
 10
3.643646
 20
4.279011
 30
0.0
 11
4.902199
 21
4.292586
 31
0.0
  0
LINE
  5
249
100
AcDbEntity
  8
0
 62
7
100
AcDbLine
 10
4.902199
 20
4.292586
 30
0.0
 11
4.902199
 21
5.308586
 31
0.0
  0
LINE
  5
24a
100
AcDbEntity
  8
0
 62
7
100
AcDbLine
 10
4.902199
 20
5.308586
 30
0.0
 11
4.902200
 21
5.308600
 31
0.0
  0
LINE
  5
24b
100
AcDbEntity
  8
0
 62
7
100
AcDbLine
 10
10.388600
 20
5.308600
 30
0.0
 11
10.388600
 21
6.324600
 31
0.0
  0
LINE
  5
24c
100
AcDbEntity
  8
0
 62
7
100
AcDbLine
 10
10.388600
 20
6.324600
 30
0.0
 11
9.118600
 21
6.324600
 31
0.0
  0
LINE
  5
24d
100
AcDbEntity
  8
0
 62
7
100
AcDbLine
 10
9.118600
 20
6.324600
 30
0.0
 11
7.848600
 21
6.324600
 31
0.0
  0
LINE
  5
24e
100
AcDbEntity
  8
0
 62
7
100
AcDbLine
 10
7.848600
 20
6.324600
 30
0.0
 11
7.834737
 21
5.360964
 31
0.0
  0
SPLINE
  5
24f
100
AcDbEntity
  8
0
 62
7
100
AcDbSpline
 70
8
 71
3
 72
8
 73
4
 74
0
 40
0
 40
0
 40
0
 40
0
 40
1
 40
1
 40
1
 40
1
 10
7.834737
 20
5.360964
 30
0.0
 10
7.827114
 20
4.830967
 30
0.0
 10
7.832254
 20
4.367651
 30
0.0
 10
7.846184
 20
4.331374
 30
0.0
  0
SPLINE
  5
250
100
AcDbEntity
  8
0
 62
7
100
AcDbSpline
 70
8
 71
3
 72
8
 73
4
 74
0
 40
0
 40
0
 40
0
 40
0
 40
1
 40
1
 40
1
 40
1
 10
7.846184
 20
4.331374
 30
0.0
 10
7.866188
 20
4.279245
 30
0.0
 10
8.135277
 20
4.268269
 30
0.0
 10
9.130046
 20
4.279011
 30
0.0
  0
LINE
  5
251
100
AcDbEntity
  8
0
 62
7
100
AcDbLine
 10
9.130046
 20
4.279011
 30
0.0
 11
10.388600
 21
4.292586
 31
0.0
  0
LINE
  5
252
100
AcDbEntity
  8
0
 62
7
100
AcDbLine
 10
10.388600
 20
4.292586
 30
0.0
 11
10.388600
 21
5.308586
 31
0.0
  0
LINE
  5
253
100
AcDbEntity
  8
0
 62
7
100
AcDbLine
 10
10.388600
 20
5.308586
 30
0.0
 11
10.388600
 21
5.308600
 31
0.0
  0
LINE
  5
254
100
AcDbEntity
  8
0
 62
7
100
AcDbLine
 10
28.930600
 20
5.715000
 30
0.0
 11
28.930600
 21
6.629400
 31
0.0
  0
LINE
  5
255
100
AcDbEntity
  8
0
 62
7
100
AcDbLine
 10
28.930600
 20
6.629400
 30
0.0
 11
28.549600
 21
6.654800
 31
0.0
  0
LINE
  5
256
100
AcDbEntity
  8
0
 62
7
100
AcDbLine
 10
28.549600
 20
6.654800
 30
0.0
 11
28.168599
 21
6.680200
 31
0.0
  0
LINE
  5
257
100
AcDbEntity
  8
0
 62
7
100
AcDbLine
 10
28.168599
 20
6.680200
 30
0.0
 11
28.168599
 21
7.924800
 31
0.0
  0
LINE
  5
258
100
AcDbEntity
  8
0
 62
7
100
AcDbLine
 10
28.168599
 20
7.924800
 30
0.0
 11
28.168599
 21
9.169400
 31
0.0
  0
LINE
  5
259
100
AcDbEntity
  8
0
 62
7
100
AcDbLine
 10
28.168599
 20
9.169400
 30
0.0
 11
29.362400
 21
9.194800
 31
0.0
  0
LINE
  5
25a
100
AcDbEntity
  8
0
 62
7
100
AcDbLine
 10
29.362400
 20
9.194800
 30
0.0
 11
30.556200
 21
9.220200
 31
0.0
  0
LINE
  5
25b
100
AcDbEntity
  8
0
 62
7
100
AcDbLine
 10
30.556200
 20
9.220200
 30
0.0
 11
30.556200
 21
10.185400
 31
0.0
  0
LINE
  5
25c
100
AcDbEntity
  8
0
 62
7
100
AcDbLine
 10
30.556200
 20
10.185400
 30
0.0
 11
30.556200
 21
11.150600
 31
0.0
  0
LINE
  5
25d
100
AcDbEntity
  8
0
 62
7
100
AcDbLine
 10
30.556200
 20
11.150600
 30
0.0
 11
28.864377
 21
11.176000
 31
0.0
  0
LINE
  5
25e
100
AcDbEntity
  8
0
 62
7
100
AcDbLine
 10
28.864377
 20
11.176000
 30
0.0
 11
27.172553
 21
11.201400
 31
0.0
  0
LINE
  5
25f
100
AcDbEntity
  8
0
 62
7
100
AcDbLine
 10
27.172553
 20
11.201400
 30
0.0
 11
26.845076
 21
11.538732
 31
0.0
  0
LINE
  5
260
100
AcDbEntity
  8
0
 62
7
100
AcDbLine
 10
26.845076
 20
11.538732
 30
0.0
 11
26.517599
 21
11.876065
 31
0.0
  0
LINE
  5
261
100
AcDbEntity
  8
0
 62
7
100
AcDbLine
 10
26.517599
 20
11.876065
 30
0.0
 11
26.517599
 21
14.009012
 31
0.0
  0
SPLINE
  5
262
100
AcDbEntity
  8
0
 62
7
100
AcDbSpline
 70
8
 71
3
 72
8
 73
4
 74
0
 40
0
 40
0
 40
0
 40
0
 40
1
 40
1
 40
1
 40
1
 10
26.517599
 20
14.009012
 30
0.0
 10
26.517599
 20
15.854922
 30
0.0
 10
26.527985
 20
16.150578
 30
0.0
 10
26.594770
 20
16.206006
 30
0.0
  0
SPLINE
  5
263
100
AcDbEntity
  8
0
 62
7
100
AcDbSpline
 70
8
 71
3
 72
8
 73
4
 74
0
 40
0
 40
0
 40
0
 40
0
 40
1
 40
1
 40
1
 40
1
 10
26.594770
 20
16.206006
 30
0.0
 10
26.660251
 20
16.260350
 30
0.0
 10
26.669870
 20
16.436371
 30
0.0
 10
26.658270
 20
17.367926
 30
0.0
  0
LINE
  5
264
100
AcDbEntity
  8
0
 62
7
100
AcDbLine
 10
26.658270
 20
17.367926
 30
0.0
 11
26.644611
 21
18.465800
 31
0.0
  0
LINE
  5
265
100
AcDbEntity
  8
0
 62
7
100
AcDbLine
 10
26.644611
 20
18.465800
 30
0.0
 11
26.339811
 21
18.465800
 31
0.0
  0
LINE
  5
266
100
AcDbEntity
  8
0
 62
7
100
AcDbLine
 10
26.339811
 20
18.465800
 30
0.0
 11
26.035011
 21
18.465800
 31
0.0
  0
LINE
  5
267
100
AcDbEntity
  8
0
 62
7
100
AcDbLine
 10
26.035011
 20
18.465800
 30
0.0
 11
26.021351
 21
17.367926
 31
0.0
  0
SPLINE
  5
268
100
AcDbEntity
  8
0
 62
7
100
AcDbSpline
 70
8
 71
3
 72
8
 73
4
 74
0
 40
0
 40
0
 40
0
 40
0
 40
1
 40
1
 40
1
 40
1
 10
26.021351
 20
17.367926
 30
0.0
 10
26.009752
 20
16.436371
 30
0.0
 10
26.019376
 20
16.260350
 30
0.0
 10
26.084851
 20
16.206006
 30
0.0
  0
SPLINE
  5
269
100
AcDbEntity
  8
0
 62
7
100
AcDbSpline
 70
8
 71
3
 72
8
 73
4
 74
0
 40
0
 40
0
 40
0
 40
0
 40
1
 40
1
 40
1
 40
1
 10
26.084851
 20
16.206006
 30
0.0
 10
26.151698
 20
16.150528
 30
0.0
 10
26.162022
 20
15.848585
 30
0.0
 10
26.162022
 20
13.948957
 30
0.0
  0
LINE
  5
26a
100
AcDbEntity
  8
0
 62
7
100
AcDbLine
 10
26.162022
 20
13.948957
 30
0.0
 11
26.162022
 21
11.755954
 31
0.0
  0
LINE
  5
26b
100
AcDbEntity
  8
0
 62
7
100
AcDbLine
 10
26.162022
 20
11.755954
 30
0.0
 11
26.390622
 21
11.531600
 31
0.0
  0
SPLINE
  5
26c
100
AcDbEntity
  8
0
 62
7
100
AcDbSpline
 70
8
 71
3
 72
8
 73
4
 74
0
 40
0
 40
0
 40
0
 40
0
 40
1
 40
1
 40
1
 40
1
 10
26.390622
 20
11.531600
 30
0.0
 10
26.516352
 20
11.408205
 30
0.0
 10
26.619222
 20
11.278343
 30
0.0
 10
26.619222
 20
11.243018
 30
0.0
  0
SPLINE
  5
26d
100
AcDbEntity
  8
0
 62
7
100
AcDbSpline
 70
8
 71
3
 72
8
 73
4
 74
0
 40
0
 40
0
 40
0
 40
0
 40
1
 40
1
 40
1
 40
1
 10
26.619222
 20
11.243018
 30
0.0
 10
26.619222
 20
11.194911
 30
0.0
 10
26.437522
 20
11.175252
 30
0.0
 10
25.895322
 20
11.164695
 30
0.0
  0
LINE
  5
26e
100
AcDbEntity
  8
0
 62
7
100
AcDbLine
 10
25.895322
 20
11.164695
 30
0.0
 11
25.171422
 21
11.150601
 31
0.0
  0
LINE
  5
26f
100
AcDbEntity
  8
0
 62
7
100
AcDbLine
 10
25.171422
 20
11.150601
 30
0.0
 11
25.171422
 21
10.185401
 31
0.0
  0
LINE
  5
270
100
AcDbEntity
  8
0
 62
7
100
AcDbLine
 10
25.171422
 20
10.185401
 30
0.0
 11
25.171422
 21
9.220201
 31
0.0
  0
LINE
  5
271
100
AcDbEntity
  8
0
 62
7
100
AcDbLine
 10
25.171422
 20
9.220201
 30
0.0
 11
26.466822
 21
9.194801
 31
0.0
  0
LINE
  5
272
100
AcDbEntity
  8
0
 62
7
100
AcDbLine
 10
26.466822
 20
9.194801
 30
0.0
 11
27.762222
 21
9.169401
 31
0.0
  0
LINE
  5
273
100
AcDbEntity
  8
0
 62
7
100
AcDbLine
 10
27.762222
 20
9.169401
 30
0.0
 11
27.762222
 21
7.924801
 31
0.0
  0
LINE
  5
274
100
AcDbEntity
  8
0
 62
7
100
AcDbLine
 10
27.762222
 20
7.924801
 30
0.0
 11
27.762222
 21
6.680201
 31
0.0
  0
LINE
  5
275
100
AcDbEntity
  8
0
 62
7
100
AcDbLine
 10
27.762222
 20
6.680201
 30
0.0
 11
27.533622
 21
6.654801
 31
0.0
  0
LINE
  5
276
100
AcDbEntity
  8
0
 62
7
100
AcDbLine
 10
27.533622
 20
6.654801
 30
0.0
 11
27.305022
 21
6.629401
 31
0.0
  0
LINE
  5
277
100
AcDbEntity
  8
0
 62
7
100
AcDbLine
 10
27.305022
 20
6.629401
 30
0.0
 11
27.291052
 21
5.767666
 31
0.0
  0
SPLINE
  5
278
100
AcDbEntity
  8
0
 62
7
100
AcDbSpline
 70
8
 71
3
 72
8
 73
4
 74
0
 40
0
 40
0
 40
0
 40
0
 40
1
 40
1
 40
1
 40
1
 10
27.291052
 20
5.767666
 30
0.0
 10
27.283376
 20
5.293712
 30
0.0
 10
27.288512
 20
4.875933
 30
0.0
 10
27.302651
 20
4.839270
 30
0.0
  0
SPLINE
  5
279
100
AcDbEntity
  8
0
 62
7
100
AcDbSpline
 70
8
 71
3
 72
8
 73
4
 74
0
 40
0
 40
0
 40
0
 40
0
 40
1
 40
1
 40
1
 40
1
 10
27.302651
 20
4.839270
 30
0.0
 10
27.322576
 20
4.787316
 30
0.0
 10
27.504985
 20
4.775696
 30
0.0
 10
28.129427
 20
4.786604
 30
0.0
  0
LINE
  5
27a
100
AcDbEntity
  8
0
 62
7
100
AcDbLine
 10
28.129427
 20
4.786604
 30
0.0
 11
28.930628
 21
4.800603
 31
0.0
  0
LINE
  5
27b
100
AcDbEntity
  8
0
 62
7
100
AcDbLine
 10
28.930628
 20
4.800603
 30
0.0
 11
28.930628
 21
5.715004
 31
0.0
  0
LINE
  5
27c
100
AcDbEntity
  8
0
 62
7
100
AcDbLine
 10
28.930628
 20
5.715004
 30
0.0
 11
28.930600
 21
5.715000
 31
0.0
  0
LINE
  5
27d
100
AcDbEntity
  8
0
 62
7
100
AcDbLine
 10
38.074600
 20
5.715000
 30
0.0
 11
38.074600
 21
6.629400
 31
0.0
  0
LINE
  5
27e
100
AcDbEntity
  8
0
 62
7
100
AcDbLine
 10
38.074600
 20
6.629400
 30
0.0
 11
37.820600
 21
6.654800
 31
0.0
  0
LINE
  5
27f
100
AcDbEntity
  8
0
 62
7
100
AcDbLine
 10
37.820600
 20
6.654800
 30
0.0
 11
37.566600
 21
6.680200
 31
0.0
  0
LINE
  5
280
100
AcDbEntity
  8
0
 62
7
100
AcDbLine
 10
37.566600
 20
6.680200
 30
0.0
 11
37.566600
 21
7.924800
 31
0.0
  0
LINE
  5
281
100
AcDbEntity
  8
0
 62
7
100
AcDbLine
 10
37.566600
 20
7.924800
 30
0.0
 11
37.566600
 21
9.169400
 31
0.0
  0
LINE
  5
282
100
AcDbEntity
  8
0
 62
7
100
AcDbLine
 10
37.566600
 20
9.169400
 30
0.0
 11
38.887400
 21
9.194800
 31
0.0
  0
LINE
  5
283
100
AcDbEntity
  8
0
 62
7
100
AcDbLine
 10
38.887400
 20
9.194800
 30
0.0
 11
40.208200
 21
9.220200
 31
0.0
  0
LINE
  5
284
100
AcDbEntity
  8
0
 62
7
100
AcDbLine
 10
40.208200
 20
9.220200
 30
0.0
 11
40.208200
 21
10.185400
 31
0.0
  0
LINE
  5
285
100
AcDbEntity
  8
0
 62
7
100
AcDbLine
 10
40.208200
 20
10.185400
 30
0.0
 11
40.208200
 21
11.150600
 31
0.0
  0
LINE
  5
286
100
AcDbEntity
  8
0
 62
7
100
AcDbLine
 10
40.208200
 20
11.150600
 30
0.0
 11
37.515800
 21
11.150600
 31
0.0
  0
LINE
  5
287
100
AcDbEntity
  8
0
 62
7
100
AcDbLine
 10
37.515800
 20
11.150600
 30
0.0
 11
34.823400
 21
11.150600
 31
0.0
  0
LINE
  5
288
100
AcDbEntity
  8
0
 62
7
100
AcDbLine
 10
34.823400
 20
11.150600
 30
0.0
 11
34.798000
 21
10.693400
 31
0.0
  0
LINE
  5
289
100
AcDbEntity
  8
0
 62
7
100
AcDbLine
 10
34.798000
 20
10.693400
 30
0.0
 11
34.772600
 21
10.236200
 31
0.0
  0
LINE
  5
28a
100
AcDbEntity
  8
0
 62
7
100
AcDbLine
 10
34.772600
 20
10.236200
 30
0.0
 11
34.394908
 21
10.221084
 31
0.0
  0
LINE
  5
28b
100
AcDbEntity
  8
0
 62
7
100
AcDbLine
 10
34.394908
 20
10.221084
 30
0.0
 11
34.017212
 21
10.205968
 31
0.0
  0
LINE
  5
28c
100
AcDbEntity
  8
0
 62
7
100
AcDbLine
 10
34.017212
 20
10.205968
 30
0.0
 11
30.991308
 21
13.230497
 31
0.0
  0
LINE
  5
28d
100
AcDbEntity
  8
0
 62
7
100
AcDbLine
 10
30.991308
 20
13.230497
 30
0.0
 11
27.965399
 21
16.255024
 31
0.0
  0
LINE
  5
28e
100
AcDbEntity
  8
0
 62
7
100
AcDbLine
 10
27.965399
 20
16.255024
 30
0.0
 11
27.939999
 21
17.360412
 31
0.0
  0
LINE
  5
28f
100
AcDbEntity
  8
0
 62
7
100
AcDbLine
 10
27.939999
 20
17.360412
 30
0.0
 11
27.914599
 21
18.465800
 31
0.0
  0
LINE
  5
290
100
AcDbEntity
  8
0
 62
7
100
AcDbLine
 10
27.914599
 20
18.465800
 30
0.0
 11
27.609799
 21
18.465800
 31
0.0
  0
LINE
  5
291
100
AcDbEntity
  8
0
 62
7
100
AcDbLine
 10
27.609799
 20
18.465800
 30
0.0
 11
27.304999
 21
18.465800
 31
0.0
  0
LINE
  5
292
100
AcDbEntity
  8
0
 62
7
100
AcDbLine
 10
27.304999
 20
18.465800
 30
0.0
 11
27.304999
 21
17.351855
 31
0.0
  0
LINE
  5
293
100
AcDbEntity
  8
0
 62
7
100
AcDbLine
 10
27.304999
 20
17.351855
 30
0.0
 11
27.304999
 21
16.237910
 31
0.0
  0
LINE
  5
294
100
AcDbEntity
  8
0
 62
7
100
AcDbLine
 10
27.304999
 20
16.237910
 30
0.0
 11
27.455833
 21
16.197571
 31
0.0
  0
SPLINE
  5
295
100
AcDbEntity
  8
0
 62
7
100
AcDbSpline
 70
8
 71
3
 72
8
 73
4
 74
0
 40
0
 40
0
 40
0
 40
0
 40
1
 40
1
 40
1
 40
1
 10
27.455833
 20
16.197571
 30
0.0
 10
27.561630
 20
16.169276
 30
0.0
 10
28.547506
 20
15.216903
 30
0.0
 10
30.757834
 20
13.007773
 30
0.0
  0
LINE
  5
296
100
AcDbEntity
  8
0
 62
7
100
AcDbLine
 10
30.757834
 20
13.007773
 30
0.0
 11
33.909000
 21
9.858313
 31
0.0
  0
LINE
  5
297
100
AcDbEntity
  8
0
 62
7
100
AcDbLine
 10
33.909000
 20
9.858313
 30
0.0
 11
34.340800
 21
9.844056
 31
0.0
  0
LINE
  5
298
100
AcDbEntity
  8
0
 62
7
100
AcDbLine
 10
34.340800
 20
9.844056
 30
0.0
 11
34.772600
 21
9.829798
 31
0.0
  0
LINE
  5
299
100
AcDbEntity
  8
0
 62
7
100
AcDbLine
 10
34.772600
 20
9.829798
 30
0.0
 11
34.798000
 21
9.524998
 31
0.0
  0
LINE
  5
29a
100
AcDbEntity
  8
0
 62
7
100
AcDbLine
 10
34.798000
 20
9.524998
 30
0.0
 11
34.823400
 21
9.220198
 31
0.0
  0
LINE
  5
29b
100
AcDbEntity
  8
0
 62
7
100
AcDbLine
 10
34.823400
 20
9.220198
 30
0.0
 11
35.991800
 21
9.194798
 31
0.0
  0
LINE
  5
29c
100
AcDbEntity
  8
0
 62
7
100
AcDbLine
 10
35.991800
 20
9.194798
 30
0.0
 11
37.160200
 21
9.169398
 31
0.0
  0
LINE
  5
29d
100
AcDbEntity
  8
0
 62
7
100
AcDbLine
 10
37.160200
 20
9.169398
 30
0.0
 11
37.160200
 21
7.924798
 31
0.0
  0
LINE
  5
29e
100
AcDbEntity
  8
0
 62
7
100
AcDbLine
 10
37.160200
 20
7.924798
 30
0.0
 11
37.160200
 21
6.680198
 31
0.0
  0
LINE
  5
29f
100
AcDbEntity
  8
0
 62
7
100
AcDbLine
 10
37.160200
 20
6.680198
 30
0.0
 11
36.804600
 21
6.654798
 31
0.0
  0
LINE
  5
2a0
100
AcDbEntity
  8
0
 62
7
100
AcDbLine
 10
36.804600
 20
6.654798
 30
0.0
 11
36.449000
 21
6.629398
 31
0.0
  0
LINE
  5
2a1
100
AcDbEntity
  8
0
 62
7
100
AcDbLine
 10
36.449000
 20
6.629398
 30
0.0
 11
36.435030
 21
5.767663
 31
0.0
  0
SPLINE
  5
2a2
100
AcDbEntity
  8
0
 62
7
100
AcDbSpline
 70
8
 71
3
 72
8
 73
4
 74
0
 40
0
 40
0
 40
0
 40
0
 40
1
 40
1
 40
1
 40
1
 10
36.435030
 20
5.767663
 30
0.0
 10
36.427354
 20
5.293709
 30
0.0
 10
36.432490
 20
4.875933
 30
0.0
 10
36.446629
 20
4.839270
 30
0.0
  0
SPLINE
  5
2a3
100
AcDbEntity
  8
0
 62
7
100
AcDbSpline
 70
8
 71
3
 72
8
 73
4
 74
0
 40
0
 40
0
 40
0
 40
0
 40
1
 40
1
 40
1
 40
1
 10
36.446629
 20
4.839270
 30
0.0
 10
36.466554
 20
4.787313
 30
0.0
 10
36.648963
 20
4.775696
 30
0.0
 10
37.273405
 20
4.786604
 30
0.0
  0
LINE
  5
2a4
100
AcDbEntity
  8
0
 62
7
100
AcDbLine
 10
37.273405
 20
4.786604
 30
0.0
 11
38.074600
 21
4.800603
 31
0.0
  0
LINE
  5
2a5
100
AcDbEntity
  8
0
 62
7
100
AcDbLine
 10
38.074600
 20
4.800603
 30
0.0
 11
38.074600
 21
5.715003
 31
0.0
  0
LINE
  5
2a6
100
AcDbEntity
  8
0
 62
7
100
AcDbLine
 10
38.074600
 20
5.715003
 30
0.0
 11
38.074600
 21
5.715000
 31
0.0
  0
LINE
  5
2a7
100
AcDbEntity
  8
0
 62
7
100
AcDbLine
 10
20.954999
 20
7.899400
 30
0.0
 11
20.954999
 21
8.305800
 31
0.0
  0
LINE
  5
2a8
100
AcDbEntity
  8
0
 62
7
100
AcDbLine
 10
20.954999
 20
8.305800
 30
0.0
 11
20.700999
 21
8.331200
 31
0.0
  0
LINE
  5
2a9
100
AcDbEntity
  8
0
 62
7
100
AcDbLine
 10
20.700999
 20
8.331200
 30
0.0
 11
20.446999
 21
8.356600
 31
0.0
  0
LINE
  5
2aa
100
AcDbEntity
  8
0
 62
7
100
AcDbLine
 10
20.446999
 20
8.356600
 30
0.0
 11
20.446999
 21
9.017000
 31
0.0
  0
LINE
  5
2ab
100
AcDbEntity
  8
0
 62
7
100
AcDbLine
 10
20.446999
 20
9.017000
 30
0.0
 11
20.446999
 21
9.677400
 31
0.0
  0
LINE
  5
2ac
100
AcDbEntity
  8
0
 62
7
100
AcDbLine
 10
20.446999
 20
9.677400
 30
0.0
 11
20.980399
 21
9.702800
 31
0.0
  0
LINE
  5
2ad
100
AcDbEntity
  8
0
 62
7
100
AcDbLine
 10
20.980399
 20
9.702800
 30
0.0
 11
21.513799
 21
9.728200
 31
0.0
  0
LINE
  5
2ae
100
AcDbEntity
  8
0
 62
7
100
AcDbLine
 10
21.513799
 20
9.728200
 30
0.0
 11
21.513799
 21
10.541000
 31
0.0
  0
LINE
  5
2af
100
AcDbEntity
  8
0
 62
7
100
AcDbLine
 10
21.513799
 20
10.541000
 30
0.0
 11
21.513799
 21
11.353800
 31
0.0
  0
LINE
  5
2b0
100
AcDbEntity
  8
0
 62
7
100
AcDbLine
 10
21.513799
 20
11.353800
 30
0.0
 11
20.599399
 21
11.353800
 31
0.0
  0
LINE
  5
2b1
100
AcDbEntity
  8
0
 62
7
100
AcDbLine
 10
20.599399
 20
11.353800
 30
0.0
 11
19.685001
 21
11.353800
 31
0.0
  0
LINE
  5
2b2
100
AcDbEntity
  8
0
 62
7
100
AcDbLine
 10
19.685001
 20
11.353800
 30
0.0
 11
19.659601
 21
10.668000
 31
0.0
  0
LINE
  5
2b3
100
AcDbEntity
  8
0
 62
7
100
AcDbLine
 10
19.659601
 20
10.668000
 30
0.0
 11
19.634201
 21
9.982200
 31
0.0
  0
LINE
  5
2b4
100
AcDbEntity
  8
0
 62
7
100
AcDbLine
 10
19.634201
 20
9.982200
 30
0.0
 11
13.741400
 21
9.956800
 31
0.0
  0
LINE
  5
2b5
100
AcDbEntity
  8
0
 62
7
100
AcDbLine
 10
13.741400
 20
9.956800
 30
0.0
 11
7.848600
 21
9.931400
 31
0.0
  0
LINE
  5
2b6
100
AcDbEntity
  8
0
 62
7
100
AcDbLine
 10
7.848600
 20
9.931400
 30
0.0
 11
7.848600
 21
9.779000
 31
0.0
  0
LINE
  5
2b7
100
AcDbEntity
  8
0
 62
7
100
AcDbLine
 10
7.848600
 20
9.779000
 30
0.0
 11
7.848600
 21
9.626600
 31
0.0
  0
LINE
  5
2b8
100
AcDbEntity
  8
0
 62
7
100
AcDbLine
 10
7.848600
 20
9.626600
 30
0.0
 11
13.944600
 21
9.601200
 31
0.0
  0
LINE
  5
2b9
100
AcDbEntity
  8
0
 62
7
100
AcDbLine
 10
13.944600
 20
9.601200
 30
0.0
 11
20.040601
 21
9.575800
 31
0.0
  0
LINE
  5
2ba
100
AcDbEntity
  8
0
 62
7
100
AcDbLine
 10
20.040601
 20
9.575800
 30
0.0
 11
20.040601
 21
8.966200
 31
0.0
  0
LINE
  5
2bb
100
AcDbEntity
  8
0
 62
7
100
AcDbLine
 10
20.040601
 20
8.966200
 30
0.0
 11
20.040601
 21
8.356600
 31
0.0
  0
LINE
  5
2bc
100
AcDbEntity
  8
0
 62
7
100
AcDbLine
 10
20.040601
 20
8.356600
 30
0.0
 11
19.685001
 21
8.331200
 31
0.0
  0
LINE
  5
2bd
100
AcDbEntity
  8
0
 62
7
100
AcDbLine
 10
19.685001
 20
8.331200
 30
0.0
 11
19.329401
 21
8.305800
 31
0.0
  0
LINE
  5
2be
100
AcDbEntity
  8
0
 62
7
100
AcDbLine
 10
19.329401
 20
8.305800
 30
0.0
 11
19.314217
 21
7.955240
 31
0.0
  0
SPLINE
  5
2bf
100
AcDbEntity
  8
0
 62
7
100
AcDbSpline
 70
8
 71
3
 72
8
 73
4
 74
0
 40
0
 40
0
 40
0
 40
0
 40
1
 40
1
 40
1
 40
1
 10
19.314217
 20
7.955240
 30
0.0
 10
19.305863
 20
7.762432
 30
0.0
 10
19.311084
 20
7.573254
 30
0.0
 10
19.325816
 20
7.534845
 30
0.0
  0
SPLINE
  5
2c0
100
AcDbEntity
  8
0
 62
7
100
AcDbSpline
 70
8
 71
3
 72
8
 73
4
 74
0
 40
0
 40
0
 40
0
 40
0
 40
1
 40
1
 40
1
 40
1
 10
19.325816
 20
7.534845
 30
0.0
 10
19.347293
 20
7.478841
 30
0.0
 10
19.511310
 20
7.467781
 30
0.0
 10
20.153810
 20
7.479005
 30
0.0
  0
LINE
  5
2c1
100
AcDbEntity
  8
0
 62
7
100
AcDbLine
 10
20.153810
 20
7.479005
 30
0.0
 11
20.955008
 21
7.493000
 31
0.0
  0
LINE
  5
2c2
100
AcDbEntity
  8
0
 62
7
100
AcDbLine
 10
20.955008
 20
7.493000
 30
0.0
 11
20.955008
 21
7.899400
 31
0.0
  0
LINE
  5
2c3
100
AcDbEntity
  8
0
 62
7
100
AcDbLine
 10
20.955008
 20
7.899400
 30
0.0
 11
20.954999
 21
7.899400
 31
0.0
  0
LINE
  5
2c4
100
AcDbEntity
  8
0
 62
7
100
AcDbLine
 10
10.388600
 20
9.017000
 30
0.0
 11
10.388600
 21
9.169400
 31
0.0
  0
LINE
  5
2c5
100
AcDbEntity
  8
0
 62
7
100
AcDbLine
 10
10.388600
 20
9.169400
 30
0.0
 11
9.119296
 21
9.169400
 31
0.0
  0
SPLINE
  5
2c6
100
AcDbEntity
  8
0
 62
7
100
AcDbSpline
 70
8
 71
3
 72
8
 73
4
 74
0
 40
0
 40
0
 40
0
 40
0
 40
1
 40
1
 40
1
 40
1
 10
9.119296
 20
9.169400
 30
0.0
 10
7.935204
 20
9.169400
 30
0.0
 10
7.848804
 20
9.163233
 30
0.0
 10
7.832299
 20
9.077533
 30
0.0
  0
SPLINE
  5
2c7
100
AcDbEntity
  8
0
 62
7
100
AcDbSpline
 70
8
 71
3
 72
8
 73
4
 74
0
 40
0
 40
0
 40
0
 40
0
 40
1
 40
1
 40
1
 40
1
 10
7.832299
 20
9.077533
 30
0.0
 10
7.786067
 20
8.837466
 30
0.0
 10
7.791291
 20
8.836553
 30
0.0
 10
9.130047
 20
8.851010
 30
0.0
  0
LINE
  5
2c8
100
AcDbEntity
  8
0
 62
7
100
AcDbLine
 10
9.130047
 20
8.851010
 30
0.0
 11
10.388600
 21
8.864599
 31
0.0
  0
LINE
  5
2c9
100
AcDbEntity
  8
0
 62
7
100
AcDbLine
 10
10.388600
 20
8.864599
 30
0.0
 11
10.388600
 21
9.016999
 31
0.0
  0
LINE
  5
2ca
100
AcDbEntity
  8
0
 62
7
100
AcDbLine
 10
10.388600
 20
9.016999
 30
0.0
 11
10.388600
 21
9.017000
 31
0.0
  0
LINE
  5
2cb
100
AcDbEntity
  8
0
 62
7
100
AcDbLine
 10
9.677400
 20
10.407498
 30
0.0
 11
10.388600
 21
10.439400
 31
0.0
  0
LINE
  5
2cc
100
AcDbEntity
  8
0
 62
7
100
AcDbLine
 10
10.388600
 20
10.439400
 30
0.0
 11
10.388600
 21
10.591800
 31
0.0
  0
LINE
  5
2cd
100
AcDbEntity
  8
0
 62
7
100
AcDbLine
 10
10.388600
 20
10.591800
 30
0.0
 11
10.388600
 21
10.744200
 31
0.0
  0
LINE
  5
2ce
100
AcDbEntity
  8
0
 62
7
100
AcDbLine
 10
10.388600
 20
10.744200
 30
0.0
 11
9.032739
 21
10.757724
 31
0.0
  0
LINE
  5
2cf
100
AcDbEntity
  8
0
 62
7
100
AcDbLine
 10
9.032739
 20
10.757724
 30
0.0
 11
7.676878
 21
10.771248
 31
0.0
  0
LINE
  5
2d0
100
AcDbEntity
  8
0
 62
7
100
AcDbLine
 10
7.676878
 20
10.771248
 30
0.0
 11
7.572239
 21
10.904275
 31
0.0
  0
SPLINE
  5
2d1
100
AcDbEntity
  8
0
 62
7
100
AcDbSpline
 70
8
 71
3
 72
8
 73
4
 74
0
 40
0
 40
0
 40
0
 40
0
 40
1
 40
1
 40
1
 40
1
 10
7.572239
 20
10.904275
 30
0.0
 10
7.489071
 20
11.010005
 30
0.0
 10
7.467600
 20
11.110757
 30
0.0
 10
7.467600
 20
11.395287
 30
0.0
  0
LINE
  5
2d2
100
AcDbEntity
  8
0
 62
7
100
AcDbLine
 10
7.467600
 20
11.395287
 30
0.0
 11
7.467600
 21
11.753273
 31
0.0
  0
LINE
  5
2d3
100
AcDbEntity
  8
0
 62
7
100
AcDbLine
 10
7.467600
 20
11.753273
 30
0.0
 11
7.864763
 21
12.150437
 31
0.0
  0
LINE
  5
2d4
100
AcDbEntity
  8
0
 62
7
100
AcDbLine
 10
7.864763
 20
12.150437
 30
0.0
 11
8.261927
 21
12.547600
 31
0.0
  0
LINE
  5
2d5
100
AcDbEntity
  8
0
 62
7
100
AcDbLine
 10
8.261927
 20
12.547600
 30
0.0
 11
9.517940
 21
12.547600
 31
0.0
  0
LINE
  5
2d6
100
AcDbEntity
  8
0
 62
7
100
AcDbLine
 10
9.517940
 20
12.547600
 30
0.0
 11
10.773952
 21
12.547600
 31
0.0
  0
LINE
  5
2d7
100
AcDbEntity
  8
0
 62
7
100
AcDbLine
 10
10.773952
 20
12.547600
 30
0.0
 11
11.025776
 21
12.783151
 31
0.0
  0
LINE
  5
2d8
100
AcDbEntity
  8
0
 62
7
100
AcDbLine
 10
11.025776
 20
12.783151
 30
0.0
 11
11.277600
 21
13.018703
 31
0.0
  0
LINE
  5
2d9
100
AcDbEntity
  8
0
 62
7
100
AcDbLine
 10
11.277600
 20
13.018703
 30
0.0
 11
11.277600
 21
16.263698
 31
0.0
  0
LINE
  5
2da
100
AcDbEntity
  8
0
 62
7
100
AcDbLine
 10
11.277600
 20
16.263698
 30
0.0
 11
11.277600
 21
19.508692
 31
0.0
  0
LINE
  5
2db
100
AcDbEntity
  8
0
 62
7
100
AcDbLine
 10
11.277600
 20
19.508692
 30
0.0
 11
11.451342
 21
19.698446
 31
0.0
  0
LINE
  5
2dc
100
AcDbEntity
  8
0
 62
7
100
AcDbLine
 10
11.451342
 20
19.698446
 30
0.0
 11
11.625084
 21
19.888200
 31
0.0
  0
LINE
  5
2dd
100
AcDbEntity
  8
0
 62
7
100
AcDbLine
 10
11.625084
 20
19.888200
 30
0.0
 11
12.480042
 21
19.913600
 31
0.0
  0
LINE
  5
2de
100
AcDbEntity
  8
0
 62
7
100
AcDbLine
 10
12.480042
 20
19.913600
 30
0.0
 11
13.335000
 21
19.939000
 31
0.0
  0
LINE
  5
2df
100
AcDbEntity
  8
0
 62
7
100
AcDbLine
 10
13.335000
 20
19.939000
 30
0.0
 11
13.360400
 21
20.294600
 31
0.0
  0
LINE
  5
2e0
100
AcDbEntity
  8
0
 62
7
100
AcDbLine
 10
13.360400
 20
20.294600
 30
0.0
 11
13.385800
 21
20.650200
 31
0.0
  0
LINE
  5
2e1
100
AcDbEntity
  8
0
 62
7
100
AcDbLine
 10
13.385800
 20
20.650200
 30
0.0
 11
14.590024
 21
20.663814
 31
0.0
  0
SPLINE
  5
2e2
100
AcDbEntity
  8
0
 62
7
100
AcDbSpline
 70
8
 71
3
 72
8
 73
4
 74
0
 40
0
 40
0
 40
0
 40
0
 40
1
 40
1
 40
1
 40
1
 10
14.590024
 20
20.663814
 30
0.0
 10
15.744003
 20
20.676862
 30
0.0
 10
15.796485
 20
20.673249
 30
0.0
 10
15.847875
 20
20.577223
 30
0.0
  0
SPLINE
  5
2e3
100
AcDbEntity
  8
0
 62
7
100
AcDbSpline
 70
8
 71
3
 72
8
 73
4
 74
0
 40
0
 40
0
 40
0
 40
0
 40
1
 40
1
 40
1
 40
1
 10
15.847875
 20
20.577223
 30
0.0
 10
15.891666
 20
20.495400
 30
0.0
 10
15.964307
 20
20.474264
 30
0.0
 10
16.243851
 20
20.462009
 30
0.0
  0
LINE
  5
2e4
100
AcDbEntity
  8
0
 62
7
100
AcDbLine
 10
16.243851
 20
20.462009
 30
0.0
 11
16.586201
 21
20.447000
 31
0.0
  0
LINE
  5
2e5
100
AcDbEntity
  8
0
 62
7
100
AcDbLine
 10
16.586201
 20
20.447000
 30
0.0
 11
16.586201
 21
19.151600
 31
0.0
  0
LINE
  5
2e6
100
AcDbEntity
  8
0
 62
7
100
AcDbLine
 10
16.586201
 20
19.151600
 30
0.0
 11
16.586201
 21
17.856200
 31
0.0
  0
LINE
  5
2e7
100
AcDbEntity
  8
0
 62
7
100
AcDbLine
 10
16.586201
 20
17.856200
 30
0.0
 11
16.205200
 21
17.830800
 31
0.0
  0
LINE
  5
2e8
100
AcDbEntity
  8
0
 62
7
100
AcDbLine
 10
16.205200
 20
17.830800
 30
0.0
 11
15.824200
 21
17.805400
 31
0.0
  0
LINE
  5
2e9
100
AcDbEntity
  8
0
 62
7
100
AcDbLine
 10
15.824200
 20
17.805400
 30
0.0
 11
15.824200
 21
17.399000
 31
0.0
  0
LINE
  5
2ea
100
AcDbEntity
  8
0
 62
7
100
AcDbLine
 10
15.824200
 20
17.399000
 30
0.0
 11
15.824200
 21
16.992600
 31
0.0
  0
LINE
  5
2eb
100
AcDbEntity
  8
0
 62
7
100
AcDbLine
 10
15.824200
 20
16.992600
 30
0.0
 11
16.637001
 21
16.992600
 31
0.0
  0
LINE
  5
2ec
100
AcDbEntity
  8
0
 62
7
100
AcDbLine
 10
16.637001
 20
16.992600
 30
0.0
 11
17.449801
 21
16.992600
 31
0.0
  0
LINE
  5
2ed
100
AcDbEntity
  8
0
 62
7
100
AcDbLine
 10
17.449801
 20
16.992600
 30
0.0
 11
17.449801
 21
17.399000
 31
0.0
  0
LINE
  5
2ee
100
AcDbEntity
  8
0
 62
7
100
AcDbLine
 10
17.449801
 20
17.399000
 30
0.0
 11
17.449801
 21
17.805400
 31
0.0
  0
LINE
  5
2ef
100
AcDbEntity
  8
0
 62
7
100
AcDbLine
 10
17.449801
 20
17.805400
 30
0.0
 11
17.221201
 21
17.830800
 31
0.0
  0
LINE
  5
2f0
100
AcDbEntity
  8
0
 62
7
100
AcDbLine
 10
17.221201
 20
17.830800
 30
0.0
 11
16.992601
 21
17.856200
 31
0.0
  0
LINE
  5
2f1
100
AcDbEntity
  8
0
 62
7
100
AcDbLine
 10
16.992601
 20
17.856200
 30
0.0
 11
16.992601
 21
19.151600
 31
0.0
  0
LINE
  5
2f2
100
AcDbEntity
  8
0
 62
7
100
AcDbLine
 10
16.992601
 20
19.151600
 30
0.0
 11
16.992601
 21
20.447000
 31
0.0
  0
LINE
  5
2f3
100
AcDbEntity
  8
0
 62
7
100
AcDbLine
 10
16.992601
 20
20.447000
 30
0.0
 11
17.348201
 21
20.472400
 31
0.0
  0
LINE
  5
2f4
100
AcDbEntity
  8
0
 62
7
100
AcDbLine
 10
17.348201
 20
20.472400
 30
0.0
 11
17.703801
 21
20.497800
 31
0.0
  0
LINE
  5
2f5
100
AcDbEntity
  8
0
 62
7
100
AcDbLine
 10
17.703801
 20
20.497800
 30
0.0
 11
17.703801
 21
21.310600
 31
0.0
  0
LINE
  5
2f6
100
AcDbEntity
  8
0
 62
7
100
AcDbLine
 10
17.703801
 20
21.310600
 30
0.0
 11
17.703801
 21
22.123400
 31
0.0
  0
LINE
  5
2f7
100
AcDbEntity
  8
0
 62
7
100
AcDbLine
 10
17.703801
 20
22.123400
 30
0.0
 11
16.789401
 21
22.123400
 31
0.0
  0
LINE
  5
2f8
100
AcDbEntity
  8
0
 62
7
100
AcDbLine
 10
16.789401
 20
22.123400
 30
0.0
 11
15.875000
 21
22.123400
 31
0.0
  0
LINE
  5
2f9
100
AcDbEntity
  8
0
 62
7
100
AcDbLine
 10
15.875000
 20
22.123400
 30
0.0
 11
15.849600
 21
21.590000
 31
0.0
  0
LINE
  5
2fa
100
AcDbEntity
  8
0
 62
7
100
AcDbLine
 10
15.849600
 20
21.590000
 30
0.0
 11
15.824200
 21
21.056600
 31
0.0
  0
LINE
  5
2fb
100
AcDbEntity
  8
0
 62
7
100
AcDbLine
 10
15.824200
 20
21.056600
 30
0.0
 11
14.605000
 21
21.056600
 31
0.0
  0
LINE
  5
2fc
100
AcDbEntity
  8
0
 62
7
100
AcDbLine
 10
14.605000
 20
21.056600
 30
0.0
 11
13.385800
 21
21.056600
 31
0.0
  0
LINE
  5
2fd
100
AcDbEntity
  8
0
 62
7
100
AcDbLine
 10
13.385800
 20
21.056600
 30
0.0
 11
13.360400
 21
21.412200
 31
0.0
  0
LINE
  5
2fe
100
AcDbEntity
  8
0
 62
7
100
AcDbLine
 10
13.360400
 20
21.412200
 30
0.0
 11
13.335000
 21
21.767800
 31
0.0
  0
LINE
  5
2ff
100
AcDbEntity
  8
0
 62
7
100
AcDbLine
 10
13.335000
 20
21.767800
 30
0.0
 11
12.522200
 21
21.767800
 31
0.0
  0
LINE
  5
300
100
AcDbEntity
  8
0
 62
7
100
AcDbLine
 10
12.522200
 20
21.767800
 30
0.0
 11
11.709400
 21
21.767800
 31
0.0
  0
LINE
  5
301
100
AcDbEntity
  8
0
 62
7
100
AcDbLine
 10
11.709400
 20
21.767800
 30
0.0
 11
11.684000
 21
21.070375
 31
0.0
  0
LINE
  5
302
100
AcDbEntity
  8
0
 62
7
100
AcDbLine
 10
11.684000
 20
21.070375
 30
0.0
 11
11.658600
 21
20.372949
 31
0.0
  0
LINE
  5
303
100
AcDbEntity
  8
0
 62
7
100
AcDbLine
 10
11.658600
 20
20.372949
 30
0.0
 11
11.290300
 21
20.002380
 31
0.0
  0
LINE
  5
304
100
AcDbEntity
  8
0
 62
7
100
AcDbLine
 10
11.290300
 20
20.002380
 30
0.0
 11
10.922000
 21
19.631811
 31
0.0
  0
LINE
  5
305
100
AcDbEntity
  8
0
 62
7
100
AcDbLine
 10
10.922000
 20
19.631811
 30
0.0
 11
10.922000
 21
16.415998
 31
0.0
  0
LINE
  5
306
100
AcDbEntity
  8
0
 62
7
100
AcDbLine
 10
10.922000
 20
16.415998
 30
0.0
 11
10.922000
 21
13.200185
 31
0.0
  0
LINE
  5
307
100
AcDbEntity
  8
0
 62
7
100
AcDbLine
 10
10.922000
 20
13.200185
 30
0.0
 11
10.773508
 21
13.051693
 31
0.0
  0
LINE
  5
308
100
AcDbEntity
  8
0
 62
7
100
AcDbLine
 10
10.773508
 20
13.051693
 30
0.0
 11
10.625016
 21
12.903200
 31
0.0
  0
LINE
  5
309
100
AcDbEntity
  8
0
 62
7
100
AcDbLine
 10
10.625016
 20
12.903200
 30
0.0
 11
9.358781
 21
12.903200
 31
0.0
  0
LINE
  5
30a
100
AcDbEntity
  8
0
 62
7
100
AcDbLine
 10
9.358781
 20
12.903200
 30
0.0
 11
8.092546
 21
12.903200
 31
0.0
  0
LINE
  5
30b
100
AcDbEntity
  8
0
 62
7
100
AcDbLine
 10
8.092546
 20
12.903200
 30
0.0
 11
7.602273
 21
12.397950
 31
0.0
  0
LINE
  5
30c
100
AcDbEntity
  8
0
 62
7
100
AcDbLine
 10
7.602273
 20
12.397950
 30
0.0
 11
7.112000
 21
11.892700
 31
0.0
  0
LINE
  5
30d
100
AcDbEntity
  8
0
 62
7
100
AcDbLine
 10
7.112000
 20
11.892700
 30
0.0
 11
7.112000
 21
11.379774
 31
0.0
  0
LINE
  5
30e
100
AcDbEntity
  8
0
 62
7
100
AcDbLine
 10
7.112000
 20
11.379774
 30
0.0
 11
7.112000
 21
10.866848
 31
0.0
  0
LINE
  5
30f
100
AcDbEntity
  8
0
 62
7
100
AcDbLine
 10
7.112000
 20
10.866848
 30
0.0
 11
7.347551
 21
10.615024
 31
0.0
  0
LINE
  5
310
100
AcDbEntity
  8
0
 62
7
100
AcDbLine
 10
7.347551
 20
10.615024
 30
0.0
 11
7.583103
 21
10.363200
 31
0.0
  0
LINE
  5
311
100
AcDbEntity
  8
0
 62
7
100
AcDbLine
 10
7.583103
 20
10.363200
 30
0.0
 11
8.274651
 21
10.369398
 31
0.0
  0
SPLINE
  5
312
100
AcDbEntity
  8
0
 62
7
100
AcDbSpline
 70
8
 71
3
 72
8
 73
4
 74
0
 40
0
 40
0
 40
0
 40
0
 40
1
 40
1
 40
1
 40
1
 10
8.274651
 20
10.369398
 30
0.0
 10
8.655003
 20
10.372807
 30
0.0
 10
9.286240
 20
10.389952
 30
0.0
 10
9.677400
 20
10.407498
 30
0.0
  0
LINE
  5
313
100
AcDbEntity
  8
0
 62
7
100
AcDbLine
 10
9.677400
 20
10.407498
 30
0.0
 11
9.677400
 21
10.407498
 31
0.0
  0
LINE
  5
314
100
AcDbEntity
  8
0
 62
7
100
AcDbLine
 10
43.103800
 20
12.725400
 30
0.0
 11
43.103800
 21
13.639800
 31
0.0
  0
LINE
  5
315
100
AcDbEntity
  8
0
 62
7
100
AcDbLine
 10
43.103800
 20
13.639800
 30
0.0
 11
42.291000
 21
13.639800
 31
0.0
  0
LINE
  5
316
100
AcDbEntity
  8
0
 62
7
100
AcDbLine
 10
42.291000
 20
13.639800
 30
0.0
 11
41.478200
 21
13.639800
 31
0.0
  0
LINE
  5
317
100
AcDbEntity
  8
0
 62
7
100
AcDbLine
 10
41.478200
 20
13.639800
 30
0.0
 11
41.452800
 21
13.284200
 31
0.0
  0
LINE
  5
318
100
AcDbEntity
  8
0
 62
7
100
AcDbLine
 10
41.452800
 20
13.284200
 30
0.0
 11
41.427400
 21
12.928600
 31
0.0
  0
LINE
  5
319
100
AcDbEntity
  8
0
 62
7
100
AcDbLine
 10
41.427400
 20
12.928600
 30
0.0
 11
37.734917
 21
12.915570
 31
0.0
  0
LINE
  5
31a
100
AcDbEntity
  8
0
 62
7
100
AcDbLine
 10
37.734917
 20
12.915570
 30
0.0
 11
34.042435
 21
12.902540
 31
0.0
  0
LINE
  5
31b
100
AcDbEntity
  8
0
 62
7
100
AcDbLine
 10
34.042435
 20
12.902540
 30
0.0
 11
33.900725
 21
13.024434
 31
0.0
  0
SPLINE
  5
31c
100
AcDbEntity
  8
0
 62
7
100
AcDbSpline
 70
8
 71
3
 72
8
 73
4
 74
0
 40
0
 40
0
 40
0
 40
0
 40
1
 40
1
 40
1
 40
1
 10
33.900725
 20
13.024434
 30
0.0
 10
33.773711
 20
13.133686
 30
0.0
 10
33.765640
 20
13.158748
 30
0.0
 10
33.822894
 20
13.266065
 30
0.0
  0
SPLINE
  5
31d
100
AcDbEntity
  8
0
 62
7
100
AcDbSpline
 70
8
 71
3
 72
8
 73
4
 74
0
 40
0
 40
0
 40
0
 40
0
 40
1
 40
1
 40
1
 40
1
 10
33.822894
 20
13.266065
 30
0.0
 10
33.868081
 20
13.350762
 30
0.0
 10
33.882592
 20
13.608791
 30
0.0
 10
33.872486
 20
14.147801
 30
0.0
  0
LINE
  5
31e
100
AcDbEntity
  8
0
 62
7
100
AcDbLine
 10
33.872486
 20
14.147801
 30
0.0
 11
33.858206
 21
14.909801
 31
0.0
  0
LINE
  5
31f
100
AcDbEntity
  8
0
 62
7
100
AcDbLine
 10
33.858206
 20
14.909801
 30
0.0
 11
33.299406
 21
14.909801
 31
0.0
  0
LINE
  5
320
100
AcDbEntity
  8
0
 62
7
100
AcDbLine
 10
33.299406
 20
14.909801
 30
0.0
 11
32.740606
 21
14.909801
 31
0.0
  0
LINE
  5
321
100
AcDbEntity
  8
0
 62
7
100
AcDbLine
 10
32.740606
 20
14.909801
 30
0.0
 11
32.715206
 21
14.605001
 31
0.0
  0
LINE
  5
322
100
AcDbEntity
  8
0
 62
7
100
AcDbLine
 10
32.715206
 20
14.605001
 30
0.0
 11
32.689806
 21
14.300201
 31
0.0
  0
LINE
  5
323
100
AcDbEntity
  8
0
 62
7
100
AcDbLine
 10
32.689806
 20
14.300201
 30
0.0
 11
31.957278
 21
14.286054
 31
0.0
  0
LINE
  5
324
100
AcDbEntity
  8
0
 62
7
100
AcDbLine
 10
31.957278
 20
14.286054
 30
0.0
 11
31.224748
 21
14.271906
 31
0.0
  0
LINE
  5
325
100
AcDbEntity
  8
0
 62
7
100
AcDbLine
 10
31.224748
 20
14.271906
 30
0.0
 11
30.230078
 21
15.262778
 31
0.0
  0
LINE
  5
326
100
AcDbEntity
  8
0
 62
7
100
AcDbLine
 10
30.230078
 20
15.262778
 30
0.0
 11
29.235400
 21
16.253650
 31
0.0
  0
LINE
  5
327
100
AcDbEntity
  8
0
 62
7
100
AcDbLine
 10
29.235400
 20
16.253650
 30
0.0
 11
29.210000
 21
17.359725
 31
0.0
  0
LINE
  5
328
100
AcDbEntity
  8
0
 62
7
100
AcDbLine
 10
29.210000
 20
17.359725
 30
0.0
 11
29.184600
 21
18.465800
 31
0.0
  0
LINE
  5
329
100
AcDbEntity
  8
0
 62
7
100
AcDbLine
 10
29.184600
 20
18.465800
 30
0.0
 11
28.879800
 21
18.465800
 31
0.0
  0
LINE
  5
32a
100
AcDbEntity
  8
0
 62
7
100
AcDbLine
 10
28.879800
 20
18.465800
 30
0.0
 11
28.575000
 21
18.465800
 31
0.0
  0
LINE
  5
32b
100
AcDbEntity
  8
0
 62
7
100
AcDbLine
 10
28.575000
 20
18.465800
 30
0.0
 11
28.561312
 21
17.362256
 31
0.0
  0
LINE
  5
32c
100
AcDbEntity
  8
0
 62
7
100
AcDbLine
 10
28.561312
 20
17.362256
 30
0.0
 11
28.547624
 21
16.258712
 31
0.0
  0
LINE
  5
32d
100
AcDbEntity
  8
0
 62
7
100
AcDbLine
 10
28.547624
 20
16.258712
 30
0.0
 11
28.789909
 21
16.133963
 31
0.0
  0
SPLINE
  5
32e
100
AcDbEntity
  8
0
 62
7
100
AcDbSpline
 70
8
 71
3
 72
8
 73
4
 74
0
 40
0
 40
0
 40
0
 40
0
 40
1
 40
1
 40
1
 40
1
 10
28.789909
 20
16.133963
 30
0.0
 10
28.949766
 20
16.051657
 30
0.0
 10
29.386349
 20
15.653676
 30
0.0
 10
30.073132
 20
14.964207
 30
0.0
  0
LINE
  5
32f
100
AcDbEntity
  8
0
 62
7
100
AcDbLine
 10
30.073132
 20
14.964207
 30
0.0
 11
31.114069
 21
13.919200
 31
0.0
  0
LINE
  5
330
100
AcDbEntity
  8
0
 62
7
100
AcDbLine
 10
31.114069
 20
13.919200
 30
0.0
 11
31.836645
 21
13.919200
 31
0.0
  0
SPLINE
  5
331
100
AcDbEntity
  8
0
 62
7
100
AcDbSpline
 70
8
 71
3
 72
8
 73
4
 74
0
 40
0
 40
0
 40
0
 40
0
 40
1
 40
1
 40
1
 40
1
 10
31.836645
 20
13.919200
 30
0.0
 10
32.651638
 20
13.919200
 30
0.0
 10
32.652592
 20
13.918748
 30
0.0
 10
32.712414
 20
13.487400
 30
0.0
  0
SPLINE
  5
332
100
AcDbEntity
  8
0
 62
7
100
AcDbSpline
 70
8
 71
3
 72
8
 73
4
 74
0
 40
0
 40
0
 40
0
 40
0
 40
1
 40
1
 40
1
 40
1
 10
32.712414
 20
13.487400
 30
0.0
 10
32.739338
 20
13.293232
 30
0.0
 10
32.750021
 20
13.282942
 30
0.0
 10
32.952634
 20
13.255898
 30
0.0
  0
SPLINE
  5
333
100
AcDbEntity
  8
0
 62
7
100
AcDbSpline
 70
8
 71
3
 72
8
 73
4
 74
0
 40
0
 40
0
 40
0
 40
0
 40
1
 40
1
 40
1
 40
1
 10
32.952634
 20
13.255898
 30
0.0
 10
33.126172
 20
13.232736
 30
0.0
 10
33.230047
 20
13.165923
 30
0.0
 10
33.524740
 20
12.887923
 30
0.0
  0
LINE
  5
334
100
AcDbEntity
  8
0
 62
7
100
AcDbLine
 10
33.524740
 20
12.887923
 30
0.0
 11
33.884811
 21
12.548251
 31
0.0
  0
LINE
  5
335
100
AcDbEntity
  8
0
 62
7
100
AcDbLine
 10
33.884811
 20
12.548251
 30
0.0
 11
37.656104
 21
12.535226
 31
0.0
  0
LINE
  5
336
100
AcDbEntity
  8
0
 62
7
100
AcDbLine
 10
37.656104
 20
12.535226
 30
0.0
 11
41.427397
 21
12.522202
 31
0.0
  0
LINE
  5
337
100
AcDbEntity
  8
0
 62
7
100
AcDbLine
 10
41.427397
 20
12.522202
 30
0.0
 11
41.441395
 21
12.217402
 31
0.0
  0
SPLINE
  5
338
100
AcDbEntity
  8
0
 62
7
100
AcDbSpline
 70
8
 71
3
 72
8
 73
4
 74
0
 40
0
 40
0
 40
0
 40
0
 40
1
 40
1
 40
1
 40
1
 10
41.441395
 20
12.217402
 30
0.0
 10
41.449100
 20
12.049762
 30
0.0
 10
41.465751
 20
11.883444
 30
0.0
 10
41.478398
 20
11.847806
 30
0.0
  0
SPLINE
  5
339
100
AcDbEntity
  8
0
 62
7
100
AcDbSpline
 70
8
 71
3
 72
8
 73
4
 74
0
 40
0
 40
0
 40
0
 40
0
 40
1
 40
1
 40
1
 40
1
 10
41.478398
 20
11.847806
 30
0.0
 10
41.496036
 20
11.798171
 30
0.0
 10
41.688859
 20
11.786285
 30
0.0
 10
42.302602
 20
11.797006
 30
0.0
  0
LINE
  5
33a
100
AcDbEntity
  8
0
 62
7
100
AcDbLine
 10
42.302602
 20
11.797006
 30
0.0
 11
43.103800
 21
11.810999
 31
0.0
  0
LINE
  5
33b
100
AcDbEntity
  8
0
 62
7
100
AcDbLine
 10
43.103800
 20
11.810999
 30
0.0
 11
43.103800
 21
12.725399
 31
0.0
  0
LINE
  5
33c
100
AcDbEntity
  8
0
 62
7
100
AcDbLine
 10
43.103800
 20
12.725399
 30
0.0
 11
43.103800
 21
12.725400
 31
0.0
  0
LINE
  5
33d
100
AcDbEntity
  8
0
 62
7
100
AcDbLine
 10
21.513799
 20
13.385800
 30
0.0
 11
21.513799
 21
14.198600
 31
0.0
  0
LINE
  5
33e
100
AcDbEntity
  8
0
 62
7
100
AcDbLine
 10
21.513799
 20
14.198600
 30
0.0
 11
21.158199
 21
14.224000
 31
0.0
  0
LINE
  5
33f
100
AcDbEntity
  8
0
 62
7
100
AcDbLine
 10
21.158199
 20
14.224000
 30
0.0
 11
20.802599
 21
14.249400
 31
0.0
  0
LINE
  5
340
100
AcDbEntity
  8
0
 62
7
100
AcDbLine
 10
20.802599
 20
14.249400
 30
0.0
 11
20.787585
 21
14.652742
 31
0.0
  0
LINE
  5
341
100
AcDbEntity
  8
0
 62
7
100
AcDbLine
 10
20.787585
 20
14.652742
 30
0.0
 11
20.772571
 21
15.056085
 31
0.0
  0
LINE
  5
342
100
AcDbEntity
  8
0
 62
7
100
AcDbLine
 10
20.772571
 20
15.056085
 30
0.0
 11
22.693327
 21
16.976842
 31
0.0
  0
LINE
  5
343
100
AcDbEntity
  8
0
 62
7
100
AcDbLine
 10
22.693327
 20
16.976842
 30
0.0
 11
24.614087
 21
18.897600
 31
0.0
  0
LINE
  5
344
100
AcDbEntity
  8
0
 62
7
100
AcDbLine
 10
24.614087
 20
18.897600
 30
0.0
 11
27.136741
 21
18.897600
 31
0.0
  0
LINE
  5
345
100
AcDbEntity
  8
0
 62
7
100
AcDbLine
 10
27.136741
 20
18.897600
 30
0.0
 11
29.659397
 21
18.897600
 31
0.0
  0
LINE
  5
346
100
AcDbEntity
  8
0
 62
7
100
AcDbLine
 10
29.659397
 20
18.897600
 30
0.0
 11
29.815694
 21
18.766084
 31
0.0
  0
SPLINE
  5
347
100
AcDbEntity
  8
0
 62
7
100
AcDbSpline
 70
8
 71
3
 72
8
 73
4
 74
0
 40
0
 40
0
 40
0
 40
0
 40
1
 40
1
 40
1
 40
1
 10
29.815694
 20
18.766084
 30
0.0
 10
29.986656
 20
18.622228
 30
0.0
 10
30.014621
 20
18.518428
 30
0.0
 10
29.894798
 20
18.472448
 30
0.0
  0
SPLINE
  5
348
100
AcDbEntity
  8
0
 62
7
100
AcDbSpline
 70
8
 71
3
 72
8
 73
4
 74
0
 40
0
 40
0
 40
0
 40
0
 40
1
 40
1
 40
1
 40
1
 10
29.894798
 20
18.472448
 30
0.0
 10
29.828417
 20
18.446974
 30
0.0
 10
29.819521
 20
18.287888
 30
0.0
 10
29.831298
 20
17.336713
 30
0.0
  0
LINE
  5
349
100
AcDbEntity
  8
0
 62
7
100
AcDbLine
 10
29.831298
 20
17.336713
 30
0.0
 11
29.844986
 21
16.230600
 31
0.0
  0
LINE
  5
34a
100
AcDbEntity
  8
0
 62
7
100
AcDbLine
 10
29.844986
 20
16.230600
 30
0.0
 11
30.149786
 21
16.230600
 31
0.0
  0
LINE
  5
34b
100
AcDbEntity
  8
0
 62
7
100
AcDbLine
 10
30.149786
 20
16.230600
 30
0.0
 11
30.454586
 21
16.230600
 31
0.0
  0
LINE
  5
34c
100
AcDbEntity
  8
0
 62
7
100
AcDbLine
 10
30.454586
 20
16.230600
 30
0.0
 11
30.479986
 21
16.873210
 31
0.0
  0
SPLINE
  5
34d
100
AcDbEntity
  8
0
 62
7
100
AcDbSpline
 70
8
 71
3
 72
8
 73
4
 74
0
 40
0
 40
0
 40
0
 40
0
 40
1
 40
1
 40
1
 40
1
 10
30.479986
 20
16.873210
 30
0.0
 10
30.501237
 20
17.411148
 30
0.0
 10
30.521148
 20
17.533198
 30
0.0
 10
30.602160
 20
17.622510
 30
0.0
  0
SPLINE
  5
34e
100
AcDbEntity
  8
0
 62
7
100
AcDbSpline
 70
8
 71
3
 72
8
 73
4
 74
0
 40
0
 40
0
 40
0
 40
0
 40
1
 40
1
 40
1
 40
1
 10
30.602160
 20
17.622510
 30
0.0
 10
30.725062
 20
17.758007
 30
0.0
 10
30.844510
 20
17.758007
 30
0.0
 10
30.967412
 20
17.622510
 30
0.0
  0
SPLINE
  5
34f
100
AcDbEntity
  8
0
 62
7
100
AcDbSpline
 70
8
 71
3
 72
8
 73
4
 74
0
 40
0
 40
0
 40
0
 40
0
 40
1
 40
1
 40
1
 40
1
 10
30.967412
 20
17.622510
 30
0.0
 10
31.048424
 20
17.533198
 30
0.0
 10
31.068323
 20
17.411148
 30
0.0
 10
31.089586
 20
16.873210
 30
0.0
  0
LINE
  5
350
100
AcDbEntity
  8
0
 62
7
100
AcDbLine
 10
31.089586
 20
16.873210
 30
0.0
 11
31.114986
 21
16.230600
 31
0.0
  0
LINE
  5
351
100
AcDbEntity
  8
0
 62
7
100
AcDbLine
 10
31.114986
 20
16.230600
 30
0.0
 11
31.419786
 21
16.230600
 31
0.0
  0
LINE
  5
352
100
AcDbEntity
  8
0
 62
7
100
AcDbLine
 10
31.419786
 20
16.230600
 30
0.0
 11
31.724586
 21
16.230600
 31
0.0
  0
LINE
  5
353
100
AcDbEntity
  8
0
 62
7
100
AcDbLine
 10
31.724586
 20
16.230600
 30
0.0
 11
31.724586
 21
17.348200
 31
0.0
  0
LINE
  5
354
100
AcDbEntity
  8
0
 62
7
100
AcDbLine
 10
31.724586
 20
17.348200
 30
0.0
 11
31.724586
 21
18.465800
 31
0.0
  0
LINE
  5
355
100
AcDbEntity
  8
0
 62
7
100
AcDbLine
 10
31.724586
 20
18.465800
 30
0.0
 11
31.419786
 21
18.465800
 31
0.0
  0
LINE
  5
356
100
AcDbEntity
  8
0
 62
7
100
AcDbLine
 10
31.419786
 20
18.465800
 30
0.0
 11
31.114986
 21
18.465800
 31
0.0
  0
LINE
  5
357
100
AcDbEntity
  8
0
 62
7
100
AcDbLine
 10
31.114986
 20
18.465800
 30
0.0
 11
31.099210
 21
18.275300
 31
0.0
  0
SPLINE
  5
358
100
AcDbEntity
  8
0
 62
7
100
AcDbSpline
 70
8
 71
3
 72
8
 73
4
 74
0
 40
0
 40
0
 40
0
 40
0
 40
1
 40
1
 40
1
 40
1
 10
31.099210
 20
18.275300
 30
0.0
 10
31.090433
 20
18.169194
 30
0.0
 10
31.056303
 20
18.084800
 30
0.0
 10
31.022183
 20
18.084800
 30
0.0
  0
SPLINE
  5
359
100
AcDbEntity
  8
0
 62
7
100
AcDbSpline
 70
8
 71
3
 72
8
 73
4
 74
0
 40
0
 40
0
 40
0
 40
0
 40
1
 40
1
 40
1
 40
1
 10
31.022183
 20
18.084800
 30
0.0
 10
30.988488
 20
18.084800
 30
0.0
 10
30.698776
 20
18.347690
 30
0.0
 10
30.378377
 20
18.669000
 30
0.0
  0
LINE
  5
35a
100
AcDbEntity
  8
0
 62
7
100
AcDbLine
 10
30.378377
 20
18.669000
 30
0.0
 11
29.795834
 21
19.253200
 31
0.0
  0
LINE
  5
35b
100
AcDbEntity
  8
0
 62
7
100
AcDbLine
 10
29.795834
 20
19.253200
 30
0.0
 11
27.153170
 21
19.253200
 31
0.0
  0
LINE
  5
35c
100
AcDbEntity
  8
0
 62
7
100
AcDbLine
 10
27.153170
 20
19.253200
 30
0.0
 11
24.510506
 21
19.253200
 31
0.0
  0
LINE
  5
35d
100
AcDbEntity
  8
0
 62
7
100
AcDbLine
 10
24.510506
 20
19.253200
 30
0.0
 11
22.467561
 21
17.208500
 31
0.0
  0
LINE
  5
35e
100
AcDbEntity
  8
0
 62
7
100
AcDbLine
 10
22.467561
 20
17.208500
 30
0.0
 11
20.424614
 21
15.163800
 31
0.0
  0
LINE
  5
35f
100
AcDbEntity
  8
0
 62
7
100
AcDbLine
 10
20.424614
 20
15.163800
 30
0.0
 11
20.410390
 21
14.706600
 31
0.0
  0
LINE
  5
360
100
AcDbEntity
  8
0
 62
7
100
AcDbLine
 10
20.410390
 20
14.706600
 30
0.0
 11
20.396166
 21
14.249400
 31
0.0
  0
LINE
  5
361
100
AcDbEntity
  8
0
 62
7
100
AcDbLine
 10
20.396166
 20
14.249400
 30
0.0
 11
20.040567
 21
14.224000
 31
0.0
  0
LINE
  5
362
100
AcDbEntity
  8
0
 62
7
100
AcDbLine
 10
20.040567
 20
14.224000
 30
0.0
 11
19.684967
 21
14.198600
 31
0.0
  0
LINE
  5
363
100
AcDbEntity
  8
0
 62
7
100
AcDbLine
 10
19.684967
 20
14.198600
 30
0.0
 11
19.670856
 21
13.438832
 31
0.0
  0
SPLINE
  5
364
100
AcDbEntity
  8
0
 62
7
100
AcDbSpline
 70
8
 71
3
 72
8
 73
4
 74
0
 40
0
 40
0
 40
0
 40
0
 40
1
 40
1
 40
1
 40
1
 10
19.670856
 20
13.438832
 30
0.0
 10
19.663094
 20
13.020959
 30
0.0
 10
19.668316
 20
12.648955
 30
0.0
 10
19.682398
 20
12.612155
 30
0.0
  0
SPLINE
  5
365
100
AcDbEntity
  8
0
 62
7
100
AcDbSpline
 70
8
 71
3
 72
8
 73
4
 74
0
 40
0
 40
0
 40
0
 40
0
 40
1
 40
1
 40
1
 40
1
 10
19.682398
 20
12.612155
 30
0.0
 10
19.702577
 20
12.559547
 30
0.0
 10
19.901039
 20
12.548212
 30
0.0
 10
20.610917
 20
12.559123
 30
0.0
  0
LINE
  5
366
100
AcDbEntity
  8
0
 62
7
100
AcDbLine
 10
20.610917
 20
12.559123
 30
0.0
 11
21.513766
 21
12.573000
 31
0.0
  0
LINE
  5
367
100
AcDbEntity
  8
0
 62
7
100
AcDbLine
 10
21.513766
 20
12.573000
 30
0.0
 11
21.513766
 21
13.385800
 31
0.0
  0
LINE
  5
368
100
AcDbEntity
  8
0
 62
7
100
AcDbLine
 10
21.513766
 20
13.385800
 30
0.0
 11
21.513799
 21
13.385800
 31
0.0
  0
LINE
  5
369
100
AcDbEntity
  8
0
 62
7
100
AcDbLine
 10
4.902200
 20
14.300200
 30
0.0
 11
4.902200
 21
15.316200
 31
0.0
  0
LINE
  5
36a
100
AcDbEntity
  8
0
 62
7
100
AcDbLine
 10
4.902200
 20
15.316200
 30
0.0
 11
3.632200
 21
15.316200
 31
0.0
  0
LINE
  5
36b
100
AcDbEntity
  8
0
 62
7
100
AcDbLine
 10
3.632200
 20
15.316200
 30
0.0
 11
2.362200
 21
15.316200
 31
0.0
  0
LINE
  5
36c
100
AcDbEntity
  8
0
 62
7
100
AcDbLine
 10
2.362200
 20
15.316200
 30
0.0
 11
2.348337
 21
14.352564
 31
0.0
  0
SPLINE
  5
36d
100
AcDbEntity
  8
0
 62
7
100
AcDbSpline
 70
8
 71
3
 72
8
 73
4
 74
0
 40
0
 40
0
 40
0
 40
0
 40
1
 40
1
 40
1
 40
1
 10
2.348337
 20
14.352564
 30
0.0
 10
2.340714
 20
13.822565
 30
0.0
 10
2.345854
 20
13.359249
 30
0.0
 10
2.359784
 20
13.322974
 30
0.0
  0
SPLINE
  5
36e
100
AcDbEntity
  8
0
 62
7
100
AcDbSpline
 70
8
 71
3
 72
8
 73
4
 74
0
 40
0
 40
0
 40
0
 40
0
 40
1
 40
1
 40
1
 40
1
 10
2.359784
 20
13.322974
 30
0.0
 10
2.379788
 20
13.270843
 30
0.0
 10
2.648877
 20
13.259868
 30
0.0
 10
3.643646
 20
13.270610
 30
0.0
  0
LINE
  5
36f
100
AcDbEntity
  8
0
 62
7
100
AcDbLine
 10
3.643646
 20
13.270610
 30
0.0
 11
4.902199
 21
13.284199
 31
0.0
  0
LINE
  5
370
100
AcDbEntity
  8
0
 62
7
100
AcDbLine
 10
4.902199
 20
13.284199
 30
0.0
 11
4.902199
 21
14.300199
 31
0.0
  0
LINE
  5
371
100
AcDbEntity
  8
0
 62
7
100
AcDbLine
 10
4.902199
 20
14.300199
 30
0.0
 11
4.902200
 21
14.300200
 31
0.0
  0
LINE
  5
372
100
AcDbEntity
  8
0
 62
7
100
AcDbLine
 10
10.388600
 20
14.300200
 30
0.0
 11
10.388600
 21
15.316200
 31
0.0
  0
LINE
  5
373
100
AcDbEntity
  8
0
 62
7
100
AcDbLine
 10
10.388600
 20
15.316200
 30
0.0
 11
9.118600
 21
15.316200
 31
0.0
  0
LINE
  5
374
100
AcDbEntity
  8
0
 62
7
100
AcDbLine
 10
9.118600
 20
15.316200
 30
0.0
 11
7.848600
 21
15.316200
 31
0.0
  0
LINE
  5
375
100
AcDbEntity
  8
0
 62
7
100
AcDbLine
 10
7.848600
 20
15.316200
 30
0.0
 11
7.834737
 21
14.352564
 31
0.0
  0
SPLINE
  5
376
100
AcDbEntity
  8
0
 62
7
100
AcDbSpline
 70
8
 71
3
 72
8
 73
4
 74
0
 40
0
 40
0
 40
0
 40
0
 40
1
 40
1
 40
1
 40
1
 10
7.834737
 20
14.352564
 30
0.0
 10
7.827114
 20
13.822565
 30
0.0
 10
7.832254
 20
13.359249
 30
0.0
 10
7.846184
 20
13.322974
 30
0.0
  0
SPLINE
  5
377
100
AcDbEntity
  8
0
 62
7
100
AcDbSpline
 70
8
 71
3
 72
8
 73
4
 74
0
 40
0
 40
0
 40
0
 40
0
 40
1
 40
1
 40
1
 40
1
 10
7.846184
 20
13.322974
 30
0.0
 10
7.866188
 20
13.270843
 30
0.0
 10
8.135277
 20
13.259868
 30
0.0
 10
9.130046
 20
13.270610
 30
0.0
  0
LINE
  5
378
100
AcDbEntity
  8
0
 62
7
100
AcDbLine
 10
9.130046
 20
13.270610
 30
0.0
 11
10.388600
 21
13.284199
 31
0.0
  0
LINE
  5
379
100
AcDbEntity
  8
0
 62
7
100
AcDbLine
 10
10.388600
 20
13.284199
 30
0.0
 11
10.388600
 21
14.300199
 31
0.0
  0
LINE
  5
37a
100
AcDbEntity
  8
0
 62
7
100
AcDbLine
 10
10.388600
 20
14.300199
 30
0.0
 11
10.388600
 21
14.300200
 31
0.0
  0
LINE
  5
37b
100
AcDbEntity
  8
0
 62
7
100
AcDbLine
 10
35.458400
 20
13.589000
 30
0.0
 11
35.483800
 21
13.893800
 31
0.0
  0
LINE
  5
37c
100
AcDbEntity
  8
0
 62
7
100
AcDbLine
 10
35.483800
 20
13.893800
 30
0.0
 11
36.449000
 21
13.893800
 31
0.0
  0
LINE
  5
37d
100
AcDbEntity
  8
0
 62
7
100
AcDbLine
 10
36.449000
 20
13.893800
 30
0.0
 11
37.414200
 21
13.893800
 31
0.0
  0
LINE
  5
37e
100
AcDbEntity
  8
0
 62
7
100
AcDbLine
 10
37.414200
 20
13.893800
 30
0.0
 11
37.439600
 21
13.589000
 31
0.0
  0
LINE
  5
37f
100
AcDbEntity
  8
0
 62
7
100
AcDbLine
 10
37.439600
 20
13.589000
 30
0.0
 11
37.465000
 21
13.284200
 31
0.0
  0
LINE
  5
380
100
AcDbEntity
  8
0
 62
7
100
AcDbLine
 10
37.465000
 20
13.284200
 30
0.0
 11
38.379400
 21
13.284200
 31
0.0
  0
LINE
  5
381
100
AcDbEntity
  8
0
 62
7
100
AcDbLine
 10
38.379400
 20
13.284200
 30
0.0
 11
39.293800
 21
13.284200
 31
0.0
  0
LINE
  5
382
100
AcDbEntity
  8
0
 62
7
100
AcDbLine
 10
39.293800
 20
13.284200
 30
0.0
 11
39.293800
 21
14.097000
 31
0.0
  0
LINE
  5
383
100
AcDbEntity
  8
0
 62
7
100
AcDbLine
 10
39.293800
 20
14.097000
 30
0.0
 11
39.293800
 21
14.909800
 31
0.0
  0
LINE
  5
384
100
AcDbEntity
  8
0
 62
7
100
AcDbLine
 10
39.293800
 20
14.909800
 30
0.0
 11
38.379400
 21
14.909800
 31
0.0
  0
LINE
  5
385
100
AcDbEntity
  8
0
 62
7
100
AcDbLine
 10
38.379400
 20
14.909800
 30
0.0
 11
37.465000
 21
14.909800
 31
0.0
  0
LINE
  5
386
100
AcDbEntity
  8
0
 62
7
100
AcDbLine
 10
37.465000
 20
14.909800
 30
0.0
 11
37.439600
 21
14.605000
 31
0.0
  0
LINE
  5
387
100
AcDbEntity
  8
0
 62
7
100
AcDbLine
 10
37.439600
 20
14.605000
 30
0.0
 11
37.414200
 21
14.300200
 31
0.0
  0
LINE
  5
388
100
AcDbEntity
  8
0
 62
7
100
AcDbLine
 10
37.414200
 20
14.300200
 30
0.0
 11
36.449000
 21
14.300200
 31
0.0
  0
LINE
  5
389
100
AcDbEntity
  8
0
 62
7
100
AcDbLine
 10
36.449000
 20
14.300200
 30
0.0
 11
35.483800
 21
14.300200
 31
0.0
  0
LINE
  5
38a
100
AcDbEntity
  8
0
 62
7
100
AcDbLine
 10
35.483800
 20
14.300200
 30
0.0
 11
35.458400
 21
14.605000
 31
0.0
  0
LINE
  5
38b
100
AcDbEntity
  8
0
 62
7
100
AcDbLine
 10
35.458400
 20
14.605000
 30
0.0
 11
35.433000
 21
14.909800
 31
0.0
  0
LINE
  5
38c
100
AcDbEntity
  8
0
 62
7
100
AcDbLine
 10
35.433000
 20
14.909800
 30
0.0
 11
34.874200
 21
14.909800
 31
0.0
  0
LINE
  5
38d
100
AcDbEntity
  8
0
 62
7
100
AcDbLine
 10
34.874200
 20
14.909800
 30
0.0
 11
34.315400
 21
14.909800
 31
0.0
  0
LINE
  5
38e
100
AcDbEntity
  8
0
 62
7
100
AcDbLine
 10
34.315400
 20
14.909800
 30
0.0
 11
34.301289
 21
14.150032
 31
0.0
  0
SPLINE
  5
38f
100
AcDbEntity
  8
0
 62
7
100
AcDbSpline
 70
8
 71
3
 72
8
 73
4
 74
0
 40
0
 40
0
 40
0
 40
0
 40
1
 40
1
 40
1
 40
1
 10
34.301289
 20
14.150032
 30
0.0
 10
34.293528
 20
13.732159
 30
0.0
 10
34.298749
 20
13.359907
 30
0.0
 10
34.313058
 20
13.322803
 30
0.0
  0
SPLINE
  5
390
100
AcDbEntity
  8
0
 62
7
100
AcDbSpline
 70
8
 71
3
 72
8
 73
4
 74
0
 40
0
 40
0
 40
0
 40
0
 40
1
 40
1
 40
1
 40
1
 10
34.313058
 20
13.322803
 30
0.0
 10
34.332841
 20
13.271222
 30
0.0
 10
34.467696
 20
13.258740
 30
0.0
 10
34.885974
 20
13.269772
 30
0.0
  0
LINE
  5
391
100
AcDbEntity
  8
0
 62
7
100
AcDbLine
 10
34.885974
 20
13.269772
 30
0.0
 11
35.433000
 21
13.284199
 31
0.0
  0
LINE
  5
392
100
AcDbEntity
  8
0
 62
7
100
AcDbLine
 10
35.433000
 20
13.284199
 30
0.0
 11
35.458400
 21
13.588999
 31
0.0
  0
LINE
  5
393
100
AcDbEntity
  8
0
 62
7
100
AcDbLine
 10
35.458400
 20
13.588999
 30
0.0
 11
35.458400
 21
13.589000
 31
0.0
  0
LINE
  5
394
100
AcDbEntity
  8
0
 62
7
100
AcDbLine
 10
40.804711
 20
16.547703
 30
0.0
 11
42.011600
 21
17.753806
 31
0.0
  0
LINE
  5
395
100
AcDbEntity
  8
0
 62
7
100
AcDbLine
 10
42.011600
 20
17.753806
 30
0.0
 11
42.011600
 21
18.816347
 31
0.0
  0
LINE
  5
396
100
AcDbEntity
  8
0
 62
7
100
AcDbLine
 10
42.011600
 20
18.816347
 30
0.0
 11
42.011600
 21
19.878888
 31
0.0
  0
LINE
  5
397
100
AcDbEntity
  8
0
 62
7
100
AcDbLine
 10
42.011600
 20
19.878888
 30
0.0
 11
42.543036
 21
20.416944
 31
0.0
  0
LINE
  5
398
100
AcDbEntity
  8
0
 62
7
100
AcDbLine
 10
42.543036
 20
20.416944
 30
0.0
 11
43.074471
 21
20.955000
 31
0.0
  0
LINE
  5
399
100
AcDbEntity
  8
0
 62
7
100
AcDbLine
 10
43.074471
 20
20.955000
 30
0.0
 11
44.028936
 21
20.980400
 31
0.0
  0
LINE
  5
39a
100
AcDbEntity
  8
0
 62
7
100
AcDbLine
 10
44.028936
 20
20.980400
 30
0.0
 11
44.983400
 21
21.005800
 31
0.0
  0
LINE
  5
39b
100
AcDbEntity
  8
0
 62
7
100
AcDbLine
 10
44.983400
 20
21.005800
 30
0.0
 11
44.983400
 21
21.615400
 31
0.0
  0
LINE
  5
39c
100
AcDbEntity
  8
0
 62
7
100
AcDbLine
 10
44.983400
 20
21.615400
 30
0.0
 11
44.983400
 21
22.225000
 31
0.0
  0
LINE
  5
39d
100
AcDbEntity
  8
0
 62
7
100
AcDbLine
 10
44.983400
 20
22.225000
 30
0.0
 11
43.713400
 21
22.225000
 31
0.0
  0
LINE
  5
39e
100
AcDbEntity
  8
0
 62
7
100
AcDbLine
 10
43.713400
 20
22.225000
 30
0.0
 11
42.443400
 21
22.225000
 31
0.0
  0
LINE
  5
39f
100
AcDbEntity
  8
0
 62
7
100
AcDbLine
 10
42.443400
 20
22.225000
 30
0.0
 11
42.428866
 21
21.666310
 31
0.0
  0
SPLINE
  5
3a0
100
AcDbEntity
  8
0
 62
7
100
AcDbSpline
 70
8
 71
3
 72
8
 73
4
 74
0
 40
0
 40
0
 40
0
 40
0
 40
1
 40
1
 40
1
 40
1
 10
42.428866
 20
21.666310
 30
0.0
 10
42.419214
 20
21.296110
 30
0.0
 10
42.435328
 20
21.068347
 30
0.0
 10
42.476618
 20
20.991213
 30
0.0
  0
SPLINE
  5
3a1
100
AcDbEntity
  8
0
 62
7
100
AcDbSpline
 70
8
 71
3
 72
8
 73
4
 74
0
 40
0
 40
0
 40
0
 40
0
 40
1
 40
1
 40
1
 40
1
 10
42.476618
 20
20.991213
 30
0.0
 10
42.534609
 20
20.882854
 30
0.0
 10
42.508393
 20
20.844140
 30
0.0
 10
42.097463
 20
20.431298
 30
0.0
  0
LINE
  5
3a2
100
AcDbEntity
  8
0
 62
7
100
AcDbLine
 10
42.097463
 20
20.431298
 30
0.0
 11
41.656011
 21
19.987790
 31
0.0
  0
LINE
  5
3a3
100
AcDbEntity
  8
0
 62
7
100
AcDbLine
 10
41.656011
 20
19.987790
 30
0.0
 11
41.656011
 21
18.923309
 31
0.0
  0
LINE
  5
3a4
100
AcDbEntity
  8
0
 62
7
100
AcDbLine
 10
41.656011
 20
18.923309
 30
0.0
 11
41.656011
 21
17.858827
 31
0.0
  0
LINE
  5
3a5
100
AcDbEntity
  8
0
 62
7
100
AcDbLine
 10
41.656011
 20
17.858827
 30
0.0
 11
40.575199
 21
16.778014
 31
0.0
  0
LINE
  5
3a6
100
AcDbEntity
  8
0
 62
7
100
AcDbLine
 10
40.575199
 20
16.778014
 30
0.0
 11
39.494384
 21
15.697200
 31
0.0
  0
LINE
  5
3a7
100
AcDbEntity
  8
0
 62
7
100
AcDbLine
 10
39.494384
 20
15.697200
 30
0.0
 11
38.406699
 21
15.697200
 31
0.0
  0
LINE
  5
3a8
100
AcDbEntity
  8
0
 62
7
100
AcDbLine
 10
38.406699
 20
15.697200
 30
0.0
 11
37.319018
 21
15.697200
 31
0.0
  0
LINE
  5
3a9
100
AcDbEntity
  8
0
 62
7
100
AcDbLine
 10
37.319018
 20
15.697200
 30
0.0
 11
36.425962
 21
16.585270
 31
0.0
  0
LINE
  5
3aa
100
AcDbEntity
  8
0
 62
7
100
AcDbLine
 10
36.425962
 20
16.585270
 30
0.0
 11
35.532907
 21
17.473340
 31
0.0
  0
LINE
  5
3ab
100
AcDbEntity
  8
0
 62
7
100
AcDbLine
 10
35.532907
 20
17.473340
 30
0.0
 11
34.289159
 21
17.486971
 31
0.0
  0
LINE
  5
3ac
100
AcDbEntity
  8
0
 62
7
100
AcDbLine
 10
34.289159
 20
17.486971
 30
0.0
 11
33.045400
 21
17.500599
 31
0.0
  0
LINE
  5
3ad
100
AcDbEntity
  8
0
 62
7
100
AcDbLine
 10
33.045400
 20
17.500599
 30
0.0
 11
33.020000
 21
17.983199
 31
0.0
  0
LINE
  5
3ae
100
AcDbEntity
  8
0
 62
7
100
AcDbLine
 10
33.020000
 20
17.983199
 30
0.0
 11
32.994600
 21
18.465799
 31
0.0
  0
LINE
  5
3af
100
AcDbEntity
  8
0
 62
7
100
AcDbLine
 10
32.994600
 20
18.465799
 30
0.0
 11
32.689800
 21
18.465799
 31
0.0
  0
LINE
  5
3b0
100
AcDbEntity
  8
0
 62
7
100
AcDbLine
 10
32.689800
 20
18.465799
 30
0.0
 11
32.385000
 21
18.465799
 31
0.0
  0
LINE
  5
3b1
100
AcDbEntity
  8
0
 62
7
100
AcDbLine
 10
32.385000
 20
18.465799
 30
0.0
 11
32.385000
 21
17.348199
 31
0.0
  0
LINE
  5
3b2
100
AcDbEntity
  8
0
 62
7
100
AcDbLine
 10
32.385000
 20
17.348199
 30
0.0
 11
32.385000
 21
16.230599
 31
0.0
  0
LINE
  5
3b3
100
AcDbEntity
  8
0
 62
7
100
AcDbLine
 10
32.385000
 20
16.230599
 30
0.0
 11
32.689800
 21
16.230599
 31
0.0
  0
LINE
  5
3b4
100
AcDbEntity
  8
0
 62
7
100
AcDbLine
 10
32.689800
 20
16.230599
 30
0.0
 11
32.994600
 21
16.230599
 31
0.0
  0
LINE
  5
3b5
100
AcDbEntity
  8
0
 62
7
100
AcDbLine
 10
32.994600
 20
16.230599
 30
0.0
 11
33.020000
 21
16.662399
 31
0.0
  0
LINE
  5
3b6
100
AcDbEntity
  8
0
 62
7
100
AcDbLine
 10
33.020000
 20
16.662399
 30
0.0
 11
33.045400
 21
17.094199
 31
0.0
  0
LINE
  5
3b7
100
AcDbEntity
  8
0
 62
7
100
AcDbLine
 10
33.045400
 20
17.094199
 30
0.0
 11
34.235336
 21
17.107856
 31
0.0
  0
LINE
  5
3b8
100
AcDbEntity
  8
0
 62
7
100
AcDbLine
 10
34.235336
 20
17.107856
 30
0.0
 11
35.425276
 21
17.121513
 31
0.0
  0
LINE
  5
3b9
100
AcDbEntity
  8
0
 62
7
100
AcDbLine
 10
35.425276
 20
17.121513
 30
0.0
 11
36.318136
 21
16.231943
 31
0.0
  0
LINE
  5
3ba
100
AcDbEntity
  8
0
 62
7
100
AcDbLine
 10
36.318136
 20
16.231943
 30
0.0
 11
37.211000
 21
15.342373
 31
0.0
  0
LINE
  5
3bb
100
AcDbEntity
  8
0
 62
7
100
AcDbLine
 10
37.211000
 20
15.342373
 30
0.0
 11
38.404411
 21
15.341978
 31
0.0
  0
LINE
  5
3bc
100
AcDbEntity
  8
0
 62
7
100
AcDbLine
 10
38.404411
 20
15.341978
 30
0.0
 11
39.597821
 21
15.341583
 31
0.0
  0
LINE
  5
3bd
100
AcDbEntity
  8
0
 62
7
100
AcDbLine
 10
39.597821
 20
15.341583
 30
0.0
 11
40.804711
 21
16.547686
 31
0.0
  0
LINE
  5
3be
100
AcDbEntity
  8
0
 62
7
100
AcDbLine
 10
40.804711
 20
16.547686
 30
0.0
 11
40.804711
 21
16.547703
 31
0.0
  0
LINE
  5
3bf
100
AcDbEntity
  8
0
 62
7
100
AcDbLine
 10
39.293800
 20
16.941800
 30
0.0
 11
39.293800
 21
17.754600
 31
0.0
  0
LINE
  5
3c0
100
AcDbEntity
  8
0
 62
7
100
AcDbLine
 10
39.293800
 20
17.754600
 30
0.0
 11
38.938200
 21
17.780000
 31
0.0
  0
LINE
  5
3c1
100
AcDbEntity
  8
0
 62
7
100
AcDbLine
 10
38.938200
 20
17.780000
 30
0.0
 11
38.582600
 21
17.805400
 31
0.0
  0
LINE
  5
3c2
100
AcDbEntity
  8
0
 62
7
100
AcDbLine
 10
38.582600
 20
17.805400
 30
0.0
 11
38.582600
 21
18.110200
 31
0.0
  0
LINE
  5
3c3
100
AcDbEntity
  8
0
 62
7
100
AcDbLine
 10
38.582600
 20
18.110200
 30
0.0
 11
38.582600
 21
18.415000
 31
0.0
  0
LINE
  5
3c4
100
AcDbEntity
  8
0
 62
7
100
AcDbLine
 10
38.582600
 20
18.415000
 30
0.0
 11
39.039800
 21
18.440400
 31
0.0
  0
LINE
  5
3c5
100
AcDbEntity
  8
0
 62
7
100
AcDbLine
 10
39.039800
 20
18.440400
 30
0.0
 11
39.497000
 21
18.465800
 31
0.0
  0
LINE
  5
3c6
100
AcDbEntity
  8
0
 62
7
100
AcDbLine
 10
39.497000
 20
18.465800
 30
0.0
 11
39.497000
 21
19.075400
 31
0.0
  0
LINE
  5
3c7
100
AcDbEntity
  8
0
 62
7
100
AcDbLine
 10
39.497000
 20
19.075400
 30
0.0
 11
39.497000
 21
19.685000
 31
0.0
  0
LINE
  5
3c8
100
AcDbEntity
  8
0
 62
7
100
AcDbLine
 10
39.497000
 20
19.685000
 30
0.0
 11
38.227500
 21
19.685000
 31
0.0
  0
LINE
  5
3c9
100
AcDbEntity
  8
0
 62
7
100
AcDbLine
 10
38.227500
 20
19.685000
 30
0.0
 11
36.957999
 21
19.685000
 31
0.0
  0
LINE
  5
3ca
100
AcDbEntity
  8
0
 62
7
100
AcDbLine
 10
36.957999
 20
19.685000
 30
0.0
 11
36.931611
 21
19.532600
 31
0.0
  0
LINE
  5
3cb
100
AcDbEntity
  8
0
 62
7
100
AcDbLine
 10
36.931611
 20
19.532600
 30
0.0
 11
36.905224
 21
19.380200
 31
0.0
  0
LINE
  5
3cc
100
AcDbEntity
  8
0
 62
7
100
AcDbLine
 10
36.905224
 20
19.380200
 30
0.0
 11
34.389452
 21
19.367032
 31
0.0
  0
LINE
  5
3cd
100
AcDbEntity
  8
0
 62
7
100
AcDbLine
 10
34.389452
 20
19.367032
 30
0.0
 11
31.873678
 21
19.353863
 31
0.0
  0
LINE
  5
3ce
100
AcDbEntity
  8
0
 62
7
100
AcDbLine
 10
31.873678
 20
19.353863
 30
0.0
 11
31.100643
 21
20.132726
 31
0.0
  0
SPLINE
  5
3cf
100
AcDbEntity
  8
0
 62
7
100
AcDbSpline
 70
8
 71
3
 72
8
 73
4
 74
0
 40
0
 40
0
 40
0
 40
0
 40
1
 40
1
 40
1
 40
1
 10
31.100643
 20
20.132726
 30
0.0
 10
30.358949
 20
20.880012
 30
0.0
 10
30.327608
 20
20.919940
 30
0.0
 10
30.327608
 20
21.117574
 30
0.0
  0
SPLINE
  5
3d0
100
AcDbEntity
  8
0
 62
7
100
AcDbSpline
 70
8
 71
3
 72
8
 73
4
 74
0
 40
0
 40
0
 40
0
 40
0
 40
1
 40
1
 40
1
 40
1
 10
30.327608
 20
21.117574
 30
0.0
 10
30.327608
 20
21.239850
 30
0.0
 10
30.358969
 20
21.349586
 30
0.0
 10
30.404779
 20
21.387605
 30
0.0
  0
SPLINE
  5
3d1
100
AcDbEntity
  8
0
 62
7
100
AcDbSpline
 70
8
 71
3
 72
8
 73
4
 74
0
 40
0
 40
0
 40
0
 40
0
 40
1
 40
1
 40
1
 40
1
 10
30.404779
 20
21.387605
 30
0.0
 10
30.470261
 20
21.441949
 30
0.0
 10
30.479879
 20
21.617970
 30
0.0
 10
30.468279
 20
22.549525
 30
0.0
  0
LINE
  5
3d2
100
AcDbEntity
  8
0
 62
7
100
AcDbLine
 10
30.468279
 20
22.549525
 30
0.0
 11
30.454592
 21
23.647400
 31
0.0
  0
LINE
  5
3d3
100
AcDbEntity
  8
0
 62
7
100
AcDbLine
 10
30.454592
 20
23.647400
 30
0.0
 11
30.149792
 21
23.647400
 31
0.0
  0
LINE
  5
3d4
100
AcDbEntity
  8
0
 62
7
100
AcDbLine
 10
30.149792
 20
23.647400
 30
0.0
 11
29.844992
 21
23.647400
 31
0.0
  0
LINE
  5
3d5
100
AcDbEntity
  8
0
 62
7
100
AcDbLine
 10
29.844992
 20
23.647400
 30
0.0
 11
29.831332
 21
22.549526
 31
0.0
  0
SPLINE
  5
3d6
100
AcDbEntity
  8
0
 62
7
100
AcDbSpline
 70
8
 71
3
 72
8
 73
4
 74
0
 40
0
 40
0
 40
0
 40
0
 40
1
 40
1
 40
1
 40
1
 10
29.831332
 20
22.549526
 30
0.0
 10
29.819733
 20
21.617971
 30
0.0
 10
29.829356
 20
21.441950
 30
0.0
 10
29.894832
 20
21.387606
 30
0.0
  0
SPLINE
  5
3d7
100
AcDbEntity
  8
0
 62
7
100
AcDbSpline
 70
8
 71
3
 72
8
 73
4
 74
0
 40
0
 40
0
 40
0
 40
0
 40
1
 40
1
 40
1
 40
1
 10
29.894832
 20
21.387606
 30
0.0
 10
29.946620
 20
21.344626
 30
0.0
 10
29.972003
 20
21.232316
 30
0.0
 10
29.972003
 20
21.046163
 30
0.0
  0
LINE
  5
3d8
100
AcDbEntity
  8
0
 62
7
100
AcDbLine
 10
29.972003
 20
21.046163
 30
0.0
 11
29.972003
 21
20.768767
 31
0.0
  0
LINE
  5
3d9
100
AcDbEntity
  8
0
 62
7
100
AcDbLine
 10
29.972003
 20
20.768767
 30
0.0
 11
30.843632
 21
19.884440
 31
0.0
  0
LINE
  5
3da
100
AcDbEntity
  8
0
 62
7
100
AcDbLine
 10
30.843632
 20
19.884440
 30
0.0
 11
31.715258
 21
19.000114
 31
0.0
  0
LINE
  5
3db
100
AcDbEntity
  8
0
 62
7
100
AcDbLine
 10
31.715258
 20
19.000114
 30
0.0
 11
34.310732
 21
18.986957
 31
0.0
  0
LINE
  5
3dc
100
AcDbEntity
  8
0
 62
7
100
AcDbLine
 10
34.310732
 20
18.986957
 30
0.0
 11
36.906203
 21
18.973799
 31
0.0
  0
LINE
  5
3dd
100
AcDbEntity
  8
0
 62
7
100
AcDbLine
 10
36.906203
 20
18.973799
 30
0.0
 11
36.931603
 21
18.719799
 31
0.0
  0
LINE
  5
3de
100
AcDbEntity
  8
0
 62
7
100
AcDbLine
 10
36.931603
 20
18.719799
 30
0.0
 11
36.957003
 21
18.465799
 31
0.0
  0
LINE
  5
3df
100
AcDbEntity
  8
0
 62
7
100
AcDbLine
 10
36.957003
 20
18.465799
 30
0.0
 11
37.566603
 21
18.440399
 31
0.0
  0
LINE
  5
3e0
100
AcDbEntity
  8
0
 62
7
100
AcDbLine
 10
37.566603
 20
18.440399
 30
0.0
 11
38.176203
 21
18.414999
 31
0.0
  0
LINE
  5
3e1
100
AcDbEntity
  8
0
 62
7
100
AcDbLine
 10
38.176203
 20
18.414999
 30
0.0
 11
38.176203
 21
18.110199
 31
0.0
  0
LINE
  5
3e2
100
AcDbEntity
  8
0
 62
7
100
AcDbLine
 10
38.176203
 20
18.110199
 30
0.0
 11
38.176203
 21
17.805399
 31
0.0
  0
LINE
  5
3e3
100
AcDbEntity
  8
0
 62
7
100
AcDbLine
 10
38.176203
 20
17.805399
 30
0.0
 11
37.820603
 21
17.779999
 31
0.0
  0
LINE
  5
3e4
100
AcDbEntity
  8
0
 62
7
100
AcDbLine
 10
37.820603
 20
17.779999
 30
0.0
 11
37.465003
 21
17.754599
 31
0.0
  0
LINE
  5
3e5
100
AcDbEntity
  8
0
 62
7
100
AcDbLine
 10
37.465003
 20
17.754599
 30
0.0
 11
37.450892
 21
16.994831
 31
0.0
  0
SPLINE
  5
3e6
100
AcDbEntity
  8
0
 62
7
100
AcDbSpline
 70
8
 71
3
 72
8
 73
4
 74
0
 40
0
 40
0
 40
0
 40
0
 40
1
 40
1
 40
1
 40
1
 10
37.450892
 20
16.994831
 30
0.0
 10
37.443131
 20
16.576959
 30
0.0
 10
37.448352
 20
16.204954
 30
0.0
 10
37.462435
 20
16.168155
 30
0.0
  0
SPLINE
  5
3e7
100
AcDbEntity
  8
0
 62
7
100
AcDbSpline
 70
8
 71
3
 72
8
 73
4
 74
0
 40
0
 40
0
 40
0
 40
0
 40
1
 40
1
 40
1
 40
1
 10
37.462435
 20
16.168155
 30
0.0
 10
37.482613
 20
16.115546
 30
0.0
 10
37.681072
 20
16.104212
 30
0.0
 10
38.390951
 20
16.115122
 30
0.0
  0
LINE
  5
3e8
100
AcDbEntity
  8
0
 62
7
100
AcDbLine
 10
38.390951
 20
16.115122
 30
0.0
 11
39.293792
 21
16.128999
 31
0.0
  0
LINE
  5
3e9
100
AcDbEntity
  8
0
 62
7
100
AcDbLine
 10
39.293792
 20
16.128999
 30
0.0
 11
39.293792
 21
16.941799
 31
0.0
  0
LINE
  5
3ea
100
AcDbEntity
  8
0
 62
7
100
AcDbLine
 10
39.293792
 20
16.941799
 30
0.0
 11
39.293800
 21
16.941800
 31
0.0
  0
LINE
  5
3eb
100
AcDbEntity
  8
0
 62
7
100
AcDbLine
 10
10.490200
 20
17.653000
 30
0.0
 11
10.490200
 21
18.567400
 31
0.0
  0
LINE
  5
3ec
100
AcDbEntity
  8
0
 62
7
100
AcDbLine
 10
10.490200
 20
18.567400
 30
0.0
 11
10.185400
 21
18.592800
 31
0.0
  0
LINE
  5
3ed
100
AcDbEntity
  8
0
 62
7
100
AcDbLine
 10
10.185400
 20
18.592800
 30
0.0
 11
9.880600
 21
18.618200
 31
0.0
  0
LINE
  5
3ee
100
AcDbEntity
  8
0
 62
7
100
AcDbLine
 10
9.880600
 20
18.618200
 30
0.0
 11
9.880600
 21
19.253200
 31
0.0
  0
LINE
  5
3ef
100
AcDbEntity
  8
0
 62
7
100
AcDbLine
 10
9.880600
 20
19.253200
 30
0.0
 11
9.880600
 21
19.888200
 31
0.0
  0
LINE
  5
3f0
100
AcDbEntity
  8
0
 62
7
100
AcDbLine
 10
9.880600
 20
19.888200
 30
0.0
 11
10.185400
 21
19.913600
 31
0.0
  0
LINE
  5
3f1
100
AcDbEntity
  8
0
 62
7
100
AcDbLine
 10
10.185400
 20
19.913600
 30
0.0
 11
10.490200
 21
19.939000
 31
0.0
  0
LINE
  5
3f2
100
AcDbEntity
  8
0
 62
7
100
AcDbLine
 10
10.490200
 20
19.939000
 30
0.0
 11
10.490200
 21
20.853400
 31
0.0
  0
LINE
  5
3f3
100
AcDbEntity
  8
0
 62
7
100
AcDbLine
 10
10.490200
 20
20.853400
 30
0.0
 11
10.490200
 21
21.767800
 31
0.0
  0
LINE
  5
3f4
100
AcDbEntity
  8
0
 62
7
100
AcDbLine
 10
10.490200
 20
21.767800
 30
0.0
 11
9.677400
 21
21.767800
 31
0.0
  0
LINE
  5
3f5
100
AcDbEntity
  8
0
 62
7
100
AcDbLine
 10
9.677400
 20
21.767800
 30
0.0
 11
8.864600
 21
21.767800
 31
0.0
  0
LINE
  5
3f6
100
AcDbEntity
  8
0
 62
7
100
AcDbLine
 10
8.864600
 20
21.767800
 30
0.0
 11
8.864600
 21
20.853400
 31
0.0
  0
LINE
  5
3f7
100
AcDbEntity
  8
0
 62
7
100
AcDbLine
 10
8.864600
 20
20.853400
 30
0.0
 11
8.864600
 21
19.939000
 31
0.0
  0
LINE
  5
3f8
100
AcDbEntity
  8
0
 62
7
100
AcDbLine
 10
8.864600
 20
19.939000
 30
0.0
 11
9.169400
 21
19.913600
 31
0.0
  0
LINE
  5
3f9
100
AcDbEntity
  8
0
 62
7
100
AcDbLine
 10
9.169400
 20
19.913600
 30
0.0
 11
9.474200
 21
19.888200
 31
0.0
  0
LINE
  5
3fa
100
AcDbEntity
  8
0
 62
7
100
AcDbLine
 10
9.474200
 20
19.888200
 30
0.0
 11
9.474200
 21
19.253200
 31
0.0
  0
LINE
  5
3fb
100
AcDbEntity
  8
0
 62
7
100
AcDbLine
 10
9.474200
 20
19.253200
 30
0.0
 11
9.474200
 21
18.618200
 31
0.0
  0
LINE
  5
3fc
100
AcDbEntity
  8
0
 62
7
100
AcDbLine
 10
9.474200
 20
18.618200
 30
0.0
 11
9.169400
 21
18.592800
 31
0.0
  0
LINE
  5
3fd
100
AcDbEntity
  8
0
 62
7
100
AcDbLine
 10
9.169400
 20
18.592800
 30
0.0
 11
8.864600
 21
18.567400
 31
0.0
  0
LINE
  5
3fe
100
AcDbEntity
  8
0
 62
7
100
AcDbLine
 10
8.864600
 20
18.567400
 30
0.0
 11
8.850622
 21
17.705665
 31
0.0
  0
SPLINE
  5
3ff
100
AcDbEntity
  8
0
 62
7
100
AcDbSpline
 70
8
 71
3
 72
8
 73
4
 74
0
 40
0
 40
0
 40
0
 40
0
 40
1
 40
1
 40
1
 40
1
 10
8.850622
 20
17.705665
 30
0.0
 10
8.842934
 20
17.231712
 30
0.0
 10
8.848166
 20
16.813933
 30
0.0
 10
8.862224
 20
16.777270
 30
0.0
  0
SPLINE
  5
400
100
AcDbEntity
  8
0
 62
7
100
AcDbSpline
 70
8
 71
3
 72
8
 73
4
 74
0
 40
0
 40
0
 40
0
 40
0
 40
1
 40
1
 40
1
 40
1
 10
8.862224
 20
16.777270
 30
0.0
 10
8.882160
 20
16.725315
 30
0.0
 10
9.064558
 20
16.713696
 30
0.0
 10
9.689001
 20
16.724605
 30
0.0
  0
LINE
  5
401
100
AcDbEntity
  8
0
 62
7
100
AcDbLine
 10
9.689001
 20
16.724605
 30
0.0
 11
10.490200
 21
16.738600
 31
0.0
  0
LINE
  5
402
100
AcDbEntity
  8
0
 62
7
100
AcDbLine
 10
10.490200
 20
16.738600
 30
0.0
 11
10.490200
 21
17.653000
 31
0.0
  0
LINE
  5
403
100
AcDbEntity
  8
0
 62
7
100
AcDbLine
 10
10.490200
 20
17.653000
 30
0.0
 11
10.490200
 21
17.653000
 31
0.0
  0
SPLINE
  5
404
100
AcDbEntity
  8
0
 62
7
100
AcDbSpline
 70
8
 71
3
 72
8
 73
4
 74
0
 40
0
 40
0
 40
0
 40
0
 40
1
 40
1
 40
1
 40
1
 10
37.554289
 20
20.815300
 30
0.0
 10
37.699524
 20
20.954603
 30
0.0
 10
37.702487
 20
20.955072
 30
0.0
 10
38.598469
 20
20.980400
 30
0.0
  0
LINE
  5
405
100
AcDbEntity
  8
0
 62
7
100
AcDbLine
 10
38.598469
 20
20.980400
 30
0.0
 11
39.497000
 21
21.005800
 31
0.0
  0
LINE
  5
406
100
AcDbEntity
  8
0
 62
7
100
AcDbLine
 10
39.497000
 20
21.005800
 30
0.0
 11
39.497000
 21
21.615400
 31
0.0
  0
LINE
  5
407
100
AcDbEntity
  8
0
 62
7
100
AcDbLine
 10
39.497000
 20
21.615400
 30
0.0
 11
39.497000
 21
22.225000
 31
0.0
  0
LINE
  5
408
100
AcDbEntity
  8
0
 62
7
100
AcDbLine
 10
39.497000
 20
22.225000
 30
0.0
 11
38.227000
 21
22.225000
 31
0.0
  0
LINE
  5
409
100
AcDbEntity
  8
0
 62
7
100
AcDbLine
 10
38.227000
 20
22.225000
 30
0.0
 11
36.957000
 21
22.225000
 31
0.0
  0
LINE
  5
40a
100
AcDbEntity
  8
0
 62
7
100
AcDbLine
 10
36.957000
 20
22.225000
 30
0.0
 11
36.931600
 21
21.640800
 31
0.0
  0
LINE
  5
40b
100
AcDbEntity
  8
0
 62
7
100
AcDbLine
 10
36.931600
 20
21.640800
 30
0.0
 11
36.906200
 21
21.056600
 31
0.0
  0
LINE
  5
40c
100
AcDbEntity
  8
0
 62
7
100
AcDbLine
 10
36.906200
 20
21.056600
 30
0.0
 11
34.264600
 21
21.056600
 31
0.0
  0
LINE
  5
40d
100
AcDbEntity
  8
0
 62
7
100
AcDbLine
 10
34.264600
 20
21.056600
 30
0.0
 11
31.623000
 21
21.056600
 31
0.0
  0
LINE
  5
40e
100
AcDbEntity
  8
0
 62
7
100
AcDbLine
 10
31.623000
 20
21.056600
 30
0.0
 11
31.606208
 21
21.175090
 31
0.0
  0
SPLINE
  5
40f
100
AcDbEntity
  8
0
 62
7
100
AcDbSpline
 70
8
 71
3
 72
8
 73
4
 74
0
 40
0
 40
0
 40
0
 40
0
 40
1
 40
1
 40
1
 40
1
 10
31.606208
 20
21.175090
 30
0.0
 10
31.596979
 20
21.240258
 30
0.0
 10
31.626020
 20
21.334012
 30
0.0
 10
31.670738
 20
21.383430
 30
0.0
  0
SPLINE
  5
410
100
AcDbEntity
  8
0
 62
7
100
AcDbSpline
 70
8
 71
3
 72
8
 73
4
 74
0
 40
0
 40
0
 40
0
 40
0
 40
1
 40
1
 40
1
 40
1
 10
31.670738
 20
21.383430
 30
0.0
 10
31.740921
 20
21.460980
 30
0.0
 10
31.750172
 20
21.622112
 30
0.0
 10
31.738322
 20
22.560340
 30
0.0
  0
LINE
  5
411
100
AcDbEntity
  8
0
 62
7
100
AcDbLine
 10
31.738322
 20
22.560340
 30
0.0
 11
31.724606
 21
23.647400
 31
0.0
  0
LINE
  5
412
100
AcDbEntity
  8
0
 62
7
100
AcDbLine
 10
31.724606
 20
23.647400
 30
0.0
 11
31.419806
 21
23.647400
 31
0.0
  0
LINE
  5
413
100
AcDbEntity
  8
0
 62
7
100
AcDbLine
 10
31.419806
 20
23.647400
 30
0.0
 11
31.115006
 21
23.647400
 31
0.0
  0
LINE
  5
414
100
AcDbEntity
  8
0
 62
7
100
AcDbLine
 10
31.115006
 20
23.647400
 30
0.0
 11
31.101346
 21
22.549526
 31
0.0
  0
SPLINE
  5
415
100
AcDbEntity
  8
0
 62
7
100
AcDbSpline
 70
8
 71
3
 72
8
 73
4
 74
0
 40
0
 40
0
 40
0
 40
0
 40
1
 40
1
 40
1
 40
1
 10
31.101346
 20
22.549526
 30
0.0
 10
31.089747
 20
21.617971
 30
0.0
 10
31.099371
 20
21.441950
 30
0.0
 10
31.164846
 20
21.387606
 30
0.0
  0
SPLINE
  5
416
100
AcDbEntity
  8
0
 62
7
100
AcDbSpline
 70
8
 71
3
 72
8
 73
4
 74
0
 40
0
 40
0
 40
0
 40
0
 40
1
 40
1
 40
1
 40
1
 10
31.164846
 20
21.387606
 30
0.0
 10
31.215691
 20
21.345409
 30
0.0
 10
31.242017
 20
21.233832
 30
0.0
 10
31.242017
 20
21.060540
 30
0.0
  0
SPLINE
  5
417
100
AcDbEntity
  8
0
 62
7
100
AcDbSpline
 70
8
 71
3
 72
8
 73
4
 74
0
 40
0
 40
0
 40
0
 40
0
 40
1
 40
1
 40
1
 40
1
 10
31.242017
 20
21.060540
 30
0.0
 10
31.242017
 20
20.915879
 30
0.0
 10
31.269449
 20
20.770088
 30
0.0
 10
31.302977
 20
20.736560
 30
0.0
  0
SPLINE
  5
418
100
AcDbEntity
  8
0
 62
7
100
AcDbSpline
 70
8
 71
3
 72
8
 73
4
 74
0
 40
0
 40
0
 40
0
 40
0
 40
1
 40
1
 40
1
 40
1
 10
31.302977
 20
20.736560
 30
0.0
 10
31.349024
 20
20.690513
 30
0.0
 10
32.103306
 20
20.675600
 30
0.0
 10
34.386297
 20
20.675600
 30
0.0
  0
LINE
  5
419
100
AcDbEntity
  8
0
 62
7
100
AcDbLine
 10
34.386297
 20
20.675600
 30
0.0
 11
37.408657
 21
20.675600
 31
0.0
  0
LINE
  5
41a
100
AcDbEntity
  8
0
 62
7
100
AcDbLine
 10
37.408657
 20
20.675600
 30
0.0
 11
37.554306
 21
20.815300
 31
0.0
  0
LINE
  5
41b
100
AcDbEntity
  8
0
 62
7
100
AcDbLine
 10
37.554306
 20
20.815300
 30
0.0
 11
37.554289
 21
20.815300
 31
0.0
  0
LINE
  5
41c
100
AcDbEntity
  8
0
 62
7
100
AcDbLine
 10
26.656219
 20
22.504400
 30
0.0
 11
26.667846
 21
23.596600
 31
0.0
  0
LINE
  5
41d
100
AcDbEntity
  8
0
 62
7
100
AcDbLine
 10
26.667846
 20
23.596600
 30
0.0
 11
26.220397
 21
24.003000
 31
0.0
  0
LINE
  5
41e
100
AcDbEntity
  8
0
 62
7
100
AcDbLine
 10
26.220397
 20
24.003000
 30
0.0
 11
25.772948
 21
24.409400
 31
0.0
  0
LINE
  5
41f
100
AcDbEntity
  8
0
 62
7
100
AcDbLine
 10
25.772948
 20
24.409400
 30
0.0
 11
21.763778
 21
24.434800
 31
0.0
  0
LINE
  5
420
100
AcDbEntity
  8
0
 62
7
100
AcDbLine
 10
21.763778
 20
24.434800
 30
0.0
 11
17.754609
 21
24.460200
 31
0.0
  0
LINE
  5
421
100
AcDbEntity
  8
0
 62
7
100
AcDbLine
 10
17.754609
 20
24.460200
 30
0.0
 11
17.729209
 21
24.714200
 31
0.0
  0
LINE
  5
422
100
AcDbEntity
  8
0
 62
7
100
AcDbLine
 10
17.729209
 20
24.714200
 30
0.0
 11
17.703809
 21
24.968200
 31
0.0
  0
LINE
  5
423
100
AcDbEntity
  8
0
 62
7
100
AcDbLine
 10
17.703809
 20
24.968200
 30
0.0
 11
16.789409
 21
24.968200
 31
0.0
  0
LINE
  5
424
100
AcDbEntity
  8
0
 62
7
100
AcDbLine
 10
16.789409
 20
24.968200
 30
0.0
 11
15.875008
 21
24.968200
 31
0.0
  0
LINE
  5
425
100
AcDbEntity
  8
0
 62
7
100
AcDbLine
 10
15.875008
 20
24.968200
 30
0.0
 11
15.875008
 21
24.155400
 31
0.0
  0
LINE
  5
426
100
AcDbEntity
  8
0
 62
7
100
AcDbLine
 10
15.875008
 20
24.155400
 30
0.0
 11
15.875008
 21
23.342600
 31
0.0
  0
LINE
  5
427
100
AcDbEntity
  8
0
 62
7
100
AcDbLine
 10
15.875008
 20
23.342600
 30
0.0
 11
16.789409
 21
23.342600
 31
0.0
  0
LINE
  5
428
100
AcDbEntity
  8
0
 62
7
100
AcDbLine
 10
16.789409
 20
23.342600
 30
0.0
 11
17.703809
 21
23.342600
 31
0.0
  0
LINE
  5
429
100
AcDbEntity
  8
0
 62
7
100
AcDbLine
 10
17.703809
 20
23.342600
 30
0.0
 11
17.729209
 21
23.698200
 31
0.0
  0
LINE
  5
42a
100
AcDbEntity
  8
0
 62
7
100
AcDbLine
 10
17.729209
 20
23.698200
 30
0.0
 11
17.754609
 21
24.053800
 31
0.0
  0
LINE
  5
42b
100
AcDbEntity
  8
0
 62
7
100
AcDbLine
 10
17.754609
 20
24.053800
 30
0.0
 11
21.684569
 21
24.066816
 31
0.0
  0
LINE
  5
42c
100
AcDbEntity
  8
0
 62
7
100
AcDbLine
 10
21.684569
 20
24.066816
 30
0.0
 11
25.614531
 21
24.079832
 31
0.0
  0
LINE
  5
42d
100
AcDbEntity
  8
0
 62
7
100
AcDbLine
 10
25.614531
 20
24.079832
 30
0.0
 11
25.812069
 21
23.882294
 31
0.0
  0
LINE
  5
42e
100
AcDbEntity
  8
0
 62
7
100
AcDbLine
 10
25.812069
 20
23.882294
 30
0.0
 11
26.009608
 21
23.684755
 31
0.0
  0
LINE
  5
42f
100
AcDbEntity
  8
0
 62
7
100
AcDbLine
 10
26.009608
 20
23.684755
 30
0.0
 11
26.009608
 21
22.569646
 31
0.0
  0
SPLINE
  5
430
100
AcDbEntity
  8
0
 62
7
100
AcDbSpline
 70
8
 71
3
 72
8
 73
4
 74
0
 40
0
 40
0
 40
0
 40
0
 40
1
 40
1
 40
1
 40
1
 10
26.009608
 20
22.569646
 30
0.0
 10
26.009608
 20
21.956335
 30
0.0
 10
26.025836
 20
21.438298
 30
0.0
 10
26.045690
 20
21.418453
 30
0.0
  0
SPLINE
  5
431
100
AcDbEntity
  8
0
 62
7
100
AcDbSpline
 70
8
 71
3
 72
8
 73
4
 74
0
 40
0
 40
0
 40
0
 40
0
 40
1
 40
1
 40
1
 40
1
 10
26.045690
 20
21.418453
 30
0.0
 10
26.065530
 20
21.398607
 30
0.0
 10
26.208411
 20
21.389082
 30
0.0
 10
26.363190
 20
21.397286
 30
0.0
  0
LINE
  5
432
100
AcDbEntity
  8
0
 62
7
100
AcDbLine
 10
26.363190
 20
21.397286
 30
0.0
 11
26.644608
 21
21.412199
 31
0.0
  0
LINE
  5
433
100
AcDbEntity
  8
0
 62
7
100
AcDbLine
 10
26.644608
 20
21.412199
 30
0.0
 11
26.656235
 21
22.504399
 31
0.0
  0
LINE
  5
434
100
AcDbEntity
  8
0
 62
7
100
AcDbLine
 10
26.656235
 20
22.504399
 30
0.0
 11
26.656219
 21
22.504400
 31
0.0
  0
LINE
  5
435
100
AcDbEntity
  8
0
 62
7
100
AcDbLine
 10
27.914599
 20
22.529800
 30
0.0
 11
27.914599
 21
23.647400
 31
0.0
  0
LINE
  5
436
100
AcDbEntity
  8
0
 62
7
100
AcDbLine
 10
27.914599
 20
23.647400
 30
0.0
 11
27.609799
 21
23.647400
 31
0.0
  0
LINE
  5
437
100
AcDbEntity
  8
0
 62
7
100
AcDbLine
 10
27.609799
 20
23.647400
 30
0.0
 11
27.304999
 21
23.647400
 31
0.0
  0
LINE
  5
438
100
AcDbEntity
  8
0
 62
7
100
AcDbLine
 10
27.304999
 20
23.647400
 30
0.0
 11
27.291227
 21
22.581913
 31
0.0
  0
SPLINE
  5
439
100
AcDbEntity
  8
0
 62
7
100
AcDbSpline
 70
8
 71
3
 72
8
 73
4
 74
0
 40
0
 40
0
 40
0
 40
0
 40
1
 40
1
 40
1
 40
1
 10
27.291227
 20
22.581913
 30
0.0
 10
27.283663
 20
21.995895
 30
0.0
 10
27.288969
 20
21.486110
 30
0.0
 10
27.303306
 20
21.449059
 30
0.0
  0
SPLINE
  5
43a
100
AcDbEntity
  8
0
 62
7
100
AcDbSpline
 70
8
 71
3
 72
8
 73
4
 74
0
 40
0
 40
0
 40
0
 40
0
 40
1
 40
1
 40
1
 40
1
 10
27.303306
 20
21.449059
 30
0.0
 10
27.321651
 20
21.401284
 30
0.0
 10
27.414282
 20
21.386129
 30
0.0
 10
27.621870
 20
21.396947
 30
0.0
  0
LINE
  5
43b
100
AcDbEntity
  8
0
 62
7
100
AcDbLine
 10
27.621870
 20
21.396947
 30
0.0
 11
27.914588
 21
21.412201
 31
0.0
  0
LINE
  5
43c
100
AcDbEntity
  8
0
 62
7
100
AcDbLine
 10
27.914588
 20
21.412201
 30
0.0
 11
27.914588
 21
22.529801
 31
0.0
  0
LINE
  5
43d
100
AcDbEntity
  8
0
 62
7
100
AcDbLine
 10
27.914588
 20
22.529801
 30
0.0
 11
27.914599
 21
22.529800
 31
0.0
  0
LINE
  5
43e
100
AcDbEntity
  8
0
 62
7
100
AcDbLine
 10
29.184600
 20
22.529800
 30
0.0
 11
29.184600
 21
23.647400
 31
0.0
  0
LINE
  5
43f
100
AcDbEntity
  8
0
 62
7
100
AcDbLine
 10
29.184600
 20
23.647400
 30
0.0
 11
28.879800
 21
23.647400
 31
0.0
  0
LINE
  5
440
100
AcDbEntity
  8
0
 62
7
100
AcDbLine
 10
28.879800
 20
23.647400
 30
0.0
 11
28.575000
 21
23.647400
 31
0.0
  0
LINE
  5
441
100
AcDbEntity
  8
0
 62
7
100
AcDbLine
 10
28.575000
 20
23.647400
 30
0.0
 11
28.561228
 21
22.581913
 31
0.0
  0
SPLINE
  5
442
100
AcDbEntity
  8
0
 62
7
100
AcDbSpline
 70
8
 71
3
 72
8
 73
4
 74
0
 40
0
 40
0
 40
0
 40
0
 40
1
 40
1
 40
1
 40
1
 10
28.561228
 20
22.581913
 30
0.0
 10
28.553664
 20
21.995895
 30
0.0
 10
28.558970
 20
21.486110
 30
0.0
 10
28.573307
 20
21.449059
 30
0.0
  0
SPLINE
  5
443
100
AcDbEntity
  8
0
 62
7
100
AcDbSpline
 70
8
 71
3
 72
8
 73
4
 74
0
 40
0
 40
0
 40
0
 40
0
 40
1
 40
1
 40
1
 40
1
 10
28.573307
 20
21.449059
 30
0.0
 10
28.591651
 20
21.401284
 30
0.0
 10
28.684282
 20
21.386129
 30
0.0
 10
28.891871
 20
21.396947
 30
0.0
  0
LINE
  5
444
100
AcDbEntity
  8
0
 62
7
100
AcDbLine
 10
28.891871
 20
21.396947
 30
0.0
 11
29.184600
 21
21.412201
 31
0.0
  0
LINE
  5
445
100
AcDbEntity
  8
0
 62
7
100
AcDbLine
 10
29.184600
 20
21.412201
 30
0.0
 11
29.184600
 21
22.529801
 31
0.0
  0
LINE
  5
446
100
AcDbEntity
  8
0
 62
7
100
AcDbLine
 10
29.184600
 20
22.529801
 30
0.0
 11
29.184600
 21
22.529800
 31
0.0
  0
LINE
  5
447
100
AcDbEntity
  8
0
 62
7
100
AcDbLine
 10
33.020000
 20
21.920200
 30
0.0
 11
33.045400
 21
22.428200
 31
0.0
  0
LINE
  5
448
100
AcDbEntity
  8
0
 62
7
100
AcDbLine
 10
33.045400
 20
22.428200
 30
0.0
 11
34.797817
 21
22.441583
 31
0.0
  0
LINE
  5
449
100
AcDbEntity
  8
0
 62
7
100
AcDbLine
 10
34.797817
 20
22.441583
 30
0.0
 11
36.550233
 21
22.454963
 31
0.0
  0
LINE
  5
44a
100
AcDbEntity
  8
0
 62
7
100
AcDbLine
 10
36.550233
 20
22.454963
 30
0.0
 11
37.071876
 21
22.974982
 31
0.0
  0
LINE
  5
44b
100
AcDbEntity
  8
0
 62
7
100
AcDbLine
 10
37.071876
 20
22.974982
 30
0.0
 11
37.593521
 21
23.495000
 31
0.0
  0
LINE
  5
44c
100
AcDbEntity
  8
0
 62
7
100
AcDbLine
 10
37.593521
 20
23.495000
 30
0.0
 11
38.545259
 21
23.520400
 31
0.0
  0
LINE
  5
44d
100
AcDbEntity
  8
0
 62
7
100
AcDbLine
 10
38.545259
 20
23.520400
 30
0.0
 11
39.497000
 21
23.545800
 31
0.0
  0
LINE
  5
44e
100
AcDbEntity
  8
0
 62
7
100
AcDbLine
 10
39.497000
 20
23.545800
 30
0.0
 11
39.497000
 21
24.155400
 31
0.0
  0
LINE
  5
44f
100
AcDbEntity
  8
0
 62
7
100
AcDbLine
 10
39.497000
 20
24.155400
 30
0.0
 11
39.497000
 21
24.765000
 31
0.0
  0
LINE
  5
450
100
AcDbEntity
  8
0
 62
7
100
AcDbLine
 10
39.497000
 20
24.765000
 30
0.0
 11
38.227000
 21
24.765000
 31
0.0
  0
LINE
  5
451
100
AcDbEntity
  8
0
 62
7
100
AcDbLine
 10
38.227000
 20
24.765000
 30
0.0
 11
36.957000
 21
24.765000
 31
0.0
  0
LINE
  5
452
100
AcDbEntity
  8
0
 62
7
100
AcDbLine
 10
36.957000
 20
24.765000
 30
0.0
 11
36.942466
 21
24.206311
 31
0.0
  0
SPLINE
  5
453
100
AcDbEntity
  8
0
 62
7
100
AcDbSpline
 70
8
 71
3
 72
8
 73
4
 74
0
 40
0
 40
0
 40
0
 40
0
 40
1
 40
1
 40
1
 40
1
 10
36.942466
 20
24.206311
 30
0.0
 10
36.932672
 20
23.830224
 30
0.0
 10
36.948703
 20
23.608763
 30
0.0
 10
36.991547
 20
23.528732
 30
0.0
  0
SPLINE
  5
454
100
AcDbEntity
  8
0
 62
7
100
AcDbSpline
 70
8
 71
3
 72
8
 73
4
 74
0
 40
0
 40
0
 40
0
 40
0
 40
1
 40
1
 40
1
 40
1
 10
36.991547
 20
23.528732
 30
0.0
 10
37.050771
 20
23.418069
 30
0.0
 10
37.033626
 20
23.389018
 30
0.0
 10
36.743736
 20
23.108832
 30
0.0
  0
LINE
  5
455
100
AcDbEntity
  8
0
 62
7
100
AcDbLine
 10
36.743736
 20
23.108832
 30
0.0
 11
36.432298
 21
22.807820
 31
0.0
  0
LINE
  5
456
100
AcDbEntity
  8
0
 62
7
100
AcDbLine
 10
36.432298
 20
22.807820
 30
0.0
 11
34.738855
 21
22.821209
 31
0.0
  0
LINE
  5
457
100
AcDbEntity
  8
0
 62
7
100
AcDbLine
 10
34.738855
 20
22.821209
 30
0.0
 11
33.045400
 21
22.834600
 31
0.0
  0
LINE
  5
458
100
AcDbEntity
  8
0
 62
7
100
AcDbLine
 10
33.045400
 20
22.834600
 30
0.0
 11
33.020000
 21
23.241000
 31
0.0
  0
LINE
  5
459
100
AcDbEntity
  8
0
 62
7
100
AcDbLine
 10
33.020000
 20
23.241000
 30
0.0
 11
32.994600
 21
23.647400
 31
0.0
  0
LINE
  5
45a
100
AcDbEntity
  8
0
 62
7
100
AcDbLine
 10
32.994600
 20
23.647400
 30
0.0
 11
32.689800
 21
23.647400
 31
0.0
  0
LINE
  5
45b
100
AcDbEntity
  8
0
 62
7
100
AcDbLine
 10
32.689800
 20
23.647400
 30
0.0
 11
32.385000
 21
23.647400
 31
0.0
  0
LINE
  5
45c
100
AcDbEntity
  8
0
 62
7
100
AcDbLine
 10
32.385000
 20
23.647400
 30
0.0
 11
32.371228
 21
22.581913
 31
0.0
  0
SPLINE
  5
45d
100
AcDbEntity
  8
0
 62
7
100
AcDbSpline
 70
8
 71
3
 72
8
 73
4
 74
0
 40
0
 40
0
 40
0
 40
0
 40
1
 40
1
 40
1
 40
1
 10
32.371228
 20
22.581913
 30
0.0
 10
32.363664
 20
21.995895
 30
0.0
 10
32.368970
 20
21.486110
 30
0.0
 10
32.383307
 20
21.449059
 30
0.0
  0
SPLINE
  5
45e
100
AcDbEntity
  8
0
 62
7
100
AcDbSpline
 70
8
 71
3
 72
8
 73
4
 74
0
 40
0
 40
0
 40
0
 40
0
 40
1
 40
1
 40
1
 40
1
 10
32.383307
 20
21.449059
 30
0.0
 10
32.401651
 20
21.401284
 30
0.0
 10
32.494282
 20
21.386129
 30
0.0
 10
32.701871
 20
21.396947
 30
0.0
  0
LINE
  5
45f
100
AcDbEntity
  8
0
 62
7
100
AcDbLine
 10
32.701871
 20
21.396947
 30
0.0
 11
32.994600
 21
21.412201
 31
0.0
  0
LINE
  5
460
100
AcDbEntity
  8
0
 62
7
100
AcDbLine
 10
32.994600
 20
21.412201
 30
0.0
 11
33.020000
 21
21.920201
 31
0.0
  0
LINE
  5
461
100
AcDbEntity
  8
0
 62
7
100
AcDbLine
 10
33.020000
 20
21.920201
 30
0.0
 11
33.020000
 21
21.920200
 31
0.0
  0
LINE
  5
462
100
AcDbEntity
  8
0
 62
7
100
AcDbLine
 10
3.098800
 20
24.206713
 30
0.0
 11
3.124200
 21
24.663400
 31
0.0
  0
LINE
  5
463
100
AcDbEntity
  8
0
 62
7
100
AcDbLine
 10
3.124200
 20
24.663400
 30
0.0
 11
3.393548
 21
24.678846
 31
0.0
  0
SPLINE
  5
464
100
AcDbEntity
  8
0
 62
7
100
AcDbSpline
 70
8
 71
3
 72
8
 73
4
 74
0
 40
0
 40
0
 40
0
 40
0
 40
1
 40
1
 40
1
 40
1
 10
3.393548
 20
24.678846
 30
0.0
 10
3.576463
 20
24.689336
 30
0.0
 10
3.672362
 20
24.718959
 30
0.0
 10
3.692394
 20
24.771161
 30
0.0
  0
SPLINE
  5
465
100
AcDbEntity
  8
0
 62
7
100
AcDbSpline
 70
8
 71
3
 72
8
 73
4
 74
0
 40
0
 40
0
 40
0
 40
0
 40
1
 40
1
 40
1
 40
1
 10
3.692394
 20
24.771161
 30
0.0
 10
3.737544
 20
24.888821
 30
0.0
 10
3.630589
 20
24.960793
 30
0.0
 10
3.365270
 20
24.991290
 30
0.0
  0
LINE
  5
466
100
AcDbEntity
  8
0
 62
7
100
AcDbLine
 10
3.365270
 20
24.991290
 30
0.0
 11
3.124200
 21
25.019001
 31
0.0
  0
LINE
  5
467
100
AcDbEntity
  8
0
 62
7
100
AcDbLine
 10
3.124200
 20
25.019001
 30
0.0
 11
3.124200
 21
25.323801
 31
0.0
  0
LINE
  5
468
100
AcDbEntity
  8
0
 62
7
100
AcDbLine
 10
3.124200
 20
25.323801
 30
0.0
 11
3.124200
 21
25.628601
 31
0.0
  0
LINE
  5
469
100
AcDbEntity
  8
0
 62
7
100
AcDbLine
 10
3.124200
 20
25.628601
 30
0.0
 11
3.723320
 21
25.642932
 31
0.0
  0
SPLINE
  5
46a
100
AcDbEntity
  8
0
 62
7
100
AcDbSpline
 70
8
 71
3
 72
8
 73
4
 74
0
 40
0
 40
0
 40
0
 40
0
 40
1
 40
1
 40
1
 40
1
 10
3.723320
 20
25.642932
 30
0.0
 10
4.218877
 20
25.654786
 30
0.0
 10
4.327874
 20
25.671424
 30
0.0
 10
4.353874
 20
25.739179
 30
0.0
  0
SPLINE
  5
46b
100
AcDbEntity
  8
0
 62
7
100
AcDbSpline
 70
8
 71
3
 72
8
 73
4
 74
0
 40
0
 40
0
 40
0
 40
0
 40
1
 40
1
 40
1
 40
1
 10
4.353874
 20
25.739179
 30
0.0
 10
4.417778
 20
25.905708
 30
0.0
 10
4.229565
 20
25.958801
 30
0.0
 10
3.575319
 20
25.958801
 30
0.0
  0
SPLINE
  5
46c
100
AcDbEntity
  8
0
 62
7
100
AcDbSpline
 70
8
 71
3
 72
8
 73
4
 74
0
 40
0
 40
0
 40
0
 40
0
 40
1
 40
1
 40
1
 40
1
 10
3.575319
 20
25.958801
 30
0.0
 10
3.077905
 20
25.958801
 30
0.0
 10
2.937702
 20
25.942847
 30
0.0
 10
2.873829
 20
25.878973
 30
0.0
  0
SPLINE
  5
46d
100
AcDbEntity
  8
0
 62
7
100
AcDbSpline
 70
8
 71
3
 72
8
 73
4
 74
0
 40
0
 40
0
 40
0
 40
0
 40
1
 40
1
 40
1
 40
1
 10
2.873829
 20
25.878973
 30
0.0
 10
2.806793
 20
25.811937
 30
0.0
 10
2.794000
 20
25.642610
 30
0.0
 10
2.794000
 20
24.822333
 30
0.0
  0
SPLINE
  5
46e
100
AcDbEntity
  8
0
 62
7
100
AcDbSpline
 70
8
 71
3
 72
8
 73
4
 74
0
 40
0
 40
0
 40
0
 40
0
 40
1
 40
1
 40
1
 40
1
 10
2.794000
 20
24.822333
 30
0.0
 10
2.794000
 20
23.821795
 30
0.0
 10
2.816437
 20
23.701149
 30
0.0
 10
2.996143
 20
23.735331
 30
0.0
  0
SPLINE
  5
46f
100
AcDbEntity
  8
0
 62
7
100
AcDbSpline
 70
8
 71
3
 72
8
 73
4
 74
0
 40
0
 40
0
 40
0
 40
0
 40
1
 40
1
 40
1
 40
1
 10
2.996143
 20
23.735331
 30
0.0
 10
3.056128
 20
23.746741
 30
0.0
 10
3.079079
 20
23.852125
 30
0.0
 10
3.098800
 20
24.206714
 30
0.0
  0
LINE
  5
470
100
AcDbEntity
  8
0
 62
7
100
AcDbLine
 10
3.098800
 20
24.206714
 30
0.0
 11
3.098800
 21
24.206713
 31
0.0
  0
LINE
  5
471
100
AcDbEntity
  8
0
 62
7
100
AcDbLine
 10
5.624941
 20
24.333200
 30
0.0
 11
5.636481
 21
24.917400
 31
0.0
  0
LINE
  5
472
100
AcDbEntity
  8
0
 62
7
100
AcDbLine
 10
5.636481
 20
24.917400
 30
0.0
 11
5.458923
 21
25.117425
 31
0.0
  0
SPLINE
  5
473
100
AcDbEntity
  8
0
 62
7
100
AcDbSpline
 70
8
 71
3
 72
8
 73
4
 74
0
 40
0
 40
0
 40
0
 40
0
 40
1
 40
1
 40
1
 40
1
 10
5.458923
 20
25.117425
 30
0.0
 10
5.296790
 20
25.300073
 30
0.0
 10
5.255127
 20
25.319347
 30
0.0
 10
4.979333
 20
25.339297
 30
0.0
  0
SPLINE
  5
474
100
AcDbEntity
  8
0
 62
7
100
AcDbSpline
 70
8
 71
3
 72
8
 73
4
 74
0
 40
0
 40
0
 40
0
 40
0
 40
1
 40
1
 40
1
 40
1
 10
4.979333
 20
25.339297
 30
0.0
 10
4.563064
 20
25.369407
 30
0.0
 10
4.408659
 20
25.325360
 30
0.0
 10
4.429001
 20
25.182305
 30
0.0
  0
SPLINE
  5
475
100
AcDbEntity
  8
0
 62
7
100
AcDbSpline
 70
8
 71
3
 72
8
 73
4
 74
0
 40
0
 40
0
 40
0
 40
0
 40
1
 40
1
 40
1
 40
1
 10
4.429001
 20
25.182305
 30
0.0
 10
4.443310
 20
25.081680
 30
0.0
 10
4.481688
 20
25.067118
 30
0.0
 10
4.792434
 20
25.044400
 30
0.0
  0
SPLINE
  5
476
100
AcDbEntity
  8
0
 62
7
100
AcDbSpline
 70
8
 71
3
 72
8
 73
4
 74
0
 40
0
 40
0
 40
0
 40
0
 40
1
 40
1
 40
1
 40
1
 10
4.792434
 20
25.044400
 30
0.0
 10
5.078328
 20
25.023499
 30
0.0
 10
5.157013
 20
24.997817
 30
0.0
 10
5.236662
 20
24.899408
 30
0.0
  0
SPLINE
  5
477
100
AcDbEntity
  8
0
 62
7
100
AcDbSpline
 70
8
 71
3
 72
8
 73
4
 74
0
 40
0
 40
0
 40
0
 40
0
 40
1
 40
1
 40
1
 40
1
 10
5.236662
 20
24.899408
 30
0.0
 10
5.289898
 20
24.833633
 30
0.0
 10
5.320798
 20
24.759338
 30
0.0
 10
5.305329
 20
24.734308
 30
0.0
  0
SPLINE
  5
478
100
AcDbEntity
  8
0
 62
7
100
AcDbSpline
 70
8
 71
3
 72
8
 73
4
 74
0
 40
0
 40
0
 40
0
 40
0
 40
1
 40
1
 40
1
 40
1
 10
5.305329
 20
24.734308
 30
0.0
 10
5.289860
 20
24.709278
 30
0.0
 10
5.107168
 20
24.688800
 30
0.0
 10
4.899348
 20
24.688800
 30
0.0
  0
SPLINE
  5
479
100
AcDbEntity
  8
0
 62
7
100
AcDbSpline
 70
8
 71
3
 72
8
 73
4
 74
0
 40
0
 40
0
 40
0
 40
0
 40
1
 40
1
 40
1
 40
1
 10
4.899348
 20
24.688800
 30
0.0
 10
4.536550
 20
24.688800
 30
0.0
 10
4.513388
 20
24.681479
 30
0.0
 10
4.318146
 20
24.505089
 30
0.0
  0
SPLINE
  5
47a
100
AcDbEntity
  8
0
 62
7
100
AcDbSpline
 70
8
 71
3
 72
8
 73
4
 74
0
 40
0
 40
0
 40
0
 40
0
 40
1
 40
1
 40
1
 40
1
 10
4.318146
 20
24.505089
 30
0.0
 10
4.206305
 20
24.404048
 30
0.0
 10
4.114799
 20
24.276780
 30
0.0
 10
4.114799
 20
24.222272
 30
0.0
  0
SPLINE
  5
47b
100
AcDbEntity
  8
0
 62
7
100
AcDbSpline
 70
8
 71
3
 72
8
 73
4
 74
0
 40
0
 40
0
 40
0
 40
0
 40
1
 40
1
 40
1
 40
1
 10
4.114799
 20
24.222272
 30
0.0
 10
4.114799
 20
24.167764
 30
0.0
 10
4.189094
 20
24.033198
 30
0.0
 10
4.279899
 20
23.923236
 30
0.0
  0
LINE
  5
47c
100
AcDbEntity
  8
0
 62
7
100
AcDbLine
 10
4.279899
 20
23.923236
 30
0.0
 11
4.444999
 21
23.723306
 31
0.0
  0
LINE
  5
47d
100
AcDbEntity
  8
0
 62
7
100
AcDbLine
 10
4.444999
 20
23.723306
 30
0.0
 11
5.029199
 21
23.736153
 31
0.0
  0
LINE
  5
47e
100
AcDbEntity
  8
0
 62
7
100
AcDbLine
 10
5.029199
 20
23.736153
 30
0.0
 11
5.613399
 21
23.748999
 31
0.0
  0
LINE
  5
47f
100
AcDbEntity
  8
0
 62
7
100
AcDbLine
 10
5.613399
 20
23.748999
 30
0.0
 11
5.624939
 21
24.333199
 31
0.0
  0
LINE
  5
480
100
AcDbEntity
  8
0
 62
7
100
AcDbLine
 10
5.624939
 20
24.333199
 30
0.0
 11
5.624941
 21
24.333200
 31
0.0
  0
SPLINE
  5
481
100
AcDbEntity
  8
0
 62
7
100
AcDbSpline
 70
8
 71
3
 72
8
 73
4
 74
0
 40
0
 40
0
 40
0
 40
0
 40
1
 40
1
 40
1
 40
1
 10
4.584700
 20
24.060976
 30
0.0
 10
4.485547
 20
24.102652
 30
0.0
 10
4.510139
 20
24.272906
 30
0.0
 10
4.624123
 20
24.333908
 30
0.0
  0
SPLINE
  5
482
100
AcDbEntity
  8
0
 62
7
100
AcDbSpline
 70
8
 71
3
 72
8
 73
4
 74
0
 40
0
 40
0
 40
0
 40
0
 40
1
 40
1
 40
1
 40
1
 10
4.624123
 20
24.333908
 30
0.0
 10
4.680731
 20
24.364204
 30
0.0
 10
4.857896
 20
24.382153
 30
0.0
 10
5.017823
 20
24.373796
 30
0.0
  0
SPLINE
  5
483
100
AcDbEntity
  8
0
 62
7
100
AcDbSpline
 70
8
 71
3
 72
8
 73
4
 74
0
 40
0
 40
0
 40
0
 40
0
 40
1
 40
1
 40
1
 40
1
 10
5.017823
 20
24.373796
 30
0.0
 10
5.303665
 20
24.358858
 30
0.0
 10
5.308600
 20
24.356013
 30
0.0
 10
5.308600
 20
24.206200
 30
0.0
  0
LINE
  5
484
100
AcDbEntity
  8
0
 62
7
100
AcDbLine
 10
5.308600
 20
24.206200
 30
0.0
 11
5.308600
 21
24.053800
 31
0.0
  0
LINE
  5
485
100
AcDbEntity
  8
0
 62
7
100
AcDbLine
 10
5.308600
 20
24.053800
 30
0.0
 11
4.978400
 21
24.044044
 31
0.0
  0
SPLINE
  5
486
100
AcDbEntity
  8
0
 62
7
100
AcDbSpline
 70
8
 71
3
 72
8
 73
4
 74
0
 40
0
 40
0
 40
0
 40
0
 40
1
 40
1
 40
1
 40
1
 10
4.978400
 20
24.044044
 30
0.0
 10
4.796790
 20
24.038676
 30
0.0
 10
4.619625
 20
24.046301
 30
0.0
 10
4.584700
 20
24.060977
 30
0.0
  0
LINE
  5
487
100
AcDbEntity
  8
0
 62
7
100
AcDbLine
 10
4.584700
 20
24.060977
 30
0.0
 11
4.584700
 21
24.060976
 31
0.0
  0
SPLINE
  5
488
100
AcDbEntity
  8
0
 62
7
100
AcDbSpline
 70
8
 71
3
 72
8
 73
4
 74
0
 40
0
 40
0
 40
0
 40
0
 40
1
 40
1
 40
1
 40
1
 10
7.454900
 20
23.924299
 30
0.0
 10
7.610720
 20
24.111989
 30
0.0
 10
7.619881
 20
24.145488
 30
0.0
 10
7.617885
 20
24.520283
 30
0.0
  0
SPLINE
  5
489
100
AcDbEntity
  8
0
 62
7
100
AcDbSpline
 70
8
 71
3
 72
8
 73
4
 74
0
 40
0
 40
0
 40
0
 40
0
 40
1
 40
1
 40
1
 40
1
 10
7.617885
 20
24.520283
 30
0.0
 10
7.615853
 20
24.900843
 30
0.0
 10
7.608332
 20
24.925825
 30
0.0
 10
7.437393
 20
25.119478
 30
0.0
  0
SPLINE
  5
48a
100
AcDbEntity
  8
0
 62
7
100
AcDbSpline
 70
8
 71
3
 72
8
 73
4
 74
0
 40
0
 40
0
 40
0
 40
0
 40
1
 40
1
 40
1
 40
1
 10
7.437393
 20
25.119478
 30
0.0
 10
7.260203
 20
25.320211
 30
0.0
 10
7.256076
 20
25.321732
 30
0.0
 10
6.817208
 20
25.348078
 30
0.0
  0
LINE
  5
48b
100
AcDbEntity
  8
0
 62
7
100
AcDbLine
 10
6.817208
 20
25.348078
 30
0.0
 11
6.375400
 21
25.374601
 31
0.0
  0
LINE
  5
48c
100
AcDbEntity
  8
0
 62
7
100
AcDbLine
 10
6.375400
 20
25.374601
 30
0.0
 11
6.359807
 21
25.618606
 31
0.0
  0
SPLINE
  5
48d
100
AcDbEntity
  8
0
 62
7
100
AcDbSpline
 70
8
 71
3
 72
8
 73
4
 74
0
 40
0
 40
0
 40
0
 40
0
 40
1
 40
1
 40
1
 40
1
 10
6.359807
 20
25.618606
 30
0.0
 10
6.343162
 20
25.879060
 30
0.0
 10
6.254331
 20
25.967523
 30
0.0
 10
6.120755
 20
25.856664
 30
0.0
  0
SPLINE
  5
48e
100
AcDbEntity
  8
0
 62
7
100
AcDbSpline
 70
8
 71
3
 72
8
 73
4
 74
0
 40
0
 40
0
 40
0
 40
0
 40
1
 40
1
 40
1
 40
1
 10
6.120755
 20
25.856664
 30
0.0
 10
6.058690
 20
25.805155
 30
0.0
 10
6.045201
 20
25.620033
 30
0.0
 10
6.045201
 20
24.819741
 30
0.0
  0
SPLINE
  5
48f
100
AcDbEntity
  8
0
 62
7
100
AcDbSpline
 70
8
 71
3
 72
8
 73
4
 74
0
 40
0
 40
0
 40
0
 40
0
 40
1
 40
1
 40
1
 40
1
 10
6.045201
 20
24.819741
 30
0.0
 10
6.045201
 20
24.129748
 30
0.0
 10
6.062987
 20
23.827736
 30
0.0
 10
6.106161
 20
23.784561
 30
0.0
  0
SPLINE
  5
490
100
AcDbEntity
  8
0
 62
7
100
AcDbSpline
 70
8
 71
3
 72
8
 73
4
 74
0
 40
0
 40
0
 40
0
 40
0
 40
1
 40
1
 40
1
 40
1
 10
6.106161
 20
23.784561
 30
0.0
 10
6.146341
 20
23.744381
 30
0.0
 10
6.358471
 20
23.723913
 30
0.0
 10
6.728461
 20
23.724517
 30
0.0
  0
LINE
  5
491
100
AcDbEntity
  8
0
 62
7
100
AcDbLine
 10
6.728461
 20
23.724517
 30
0.0
 11
7.289801
 21
23.725420
 31
0.0
  0
LINE
  5
492
100
AcDbEntity
  8
0
 62
7
100
AcDbLine
 10
7.289801
 20
23.725420
 30
0.0
 11
7.454901
 21
23.924288
 31
0.0
  0
LINE
  5
493
100
AcDbEntity
  8
0
 62
7
100
AcDbLine
 10
7.454901
 20
23.924288
 30
0.0
 11
7.454900
 21
23.924299
 31
0.0
  0
SPLINE
  5
494
100
AcDbEntity
  8
0
 62
7
100
AcDbSpline
 70
8
 71
3
 72
8
 73
4
 74
0
 40
0
 40
0
 40
0
 40
0
 40
1
 40
1
 40
1
 40
1
 10
6.371614
 20
24.096146
 30
0.0
 10
6.357317
 20
24.133407
 30
0.0
 10
6.352319
 20
24.356292
 30
0.0
 10
6.360509
 20
24.591446
 30
0.0
  0
LINE
  5
495
100
AcDbEntity
  8
0
 62
7
100
AcDbLine
 10
6.360509
 20
24.591446
 30
0.0
 11
6.375399
 21
25.019000
 31
0.0
  0
LINE
  5
496
100
AcDbEntity
  8
0
 62
7
100
AcDbLine
 10
6.375399
 20
25.019000
 30
0.0
 11
6.718287
 21
25.034020
 31
0.0
  0
SPLINE
  5
497
100
AcDbEntity
  8
0
 62
7
100
AcDbSpline
 70
8
 71
3
 72
8
 73
4
 74
0
 40
0
 40
0
 40
0
 40
0
 40
1
 40
1
 40
1
 40
1
 10
6.718287
 20
25.034020
 30
0.0
 10
7.026826
 20
25.047535
 30
0.0
 10
7.073899
 20
25.036306
 30
0.0
 10
7.188187
 20
24.922029
 30
0.0
  0
SPLINE
  5
498
100
AcDbEntity
  8
0
 62
7
100
AcDbSpline
 70
8
 71
3
 72
8
 73
4
 74
0
 40
0
 40
0
 40
0
 40
0
 40
1
 40
1
 40
1
 40
1
 10
7.188187
 20
24.922029
 30
0.0
 10
7.293131
 20
24.817086
 30
0.0
 10
7.315199
 20
24.746072
 30
0.0
 10
7.315199
 20
24.513309
 30
0.0
  0
SPLINE
  5
499
100
AcDbEntity
  8
0
 62
7
100
AcDbSpline
 70
8
 71
3
 72
8
 73
4
 74
0
 40
0
 40
0
 40
0
 40
0
 40
1
 40
1
 40
1
 40
1
 10
7.315199
 20
24.513309
 30
0.0
 10
7.315199
 20
24.110020
 30
0.0
 10
7.220873
 20
24.028400
 30
0.0
 10
6.754805
 20
24.028400
 30
0.0
  0
SPLINE
  5
49a
100
AcDbEntity
  8
0
 62
7
100
AcDbSpline
 70
8
 71
3
 72
8
 73
4
 74
0
 40
0
 40
0
 40
0
 40
0
 40
1
 40
1
 40
1
 40
1
 10
6.754805
 20
24.028400
 30
0.0
 10
6.503971
 20
24.028400
 30
0.0
 10
6.389869
 20
24.048573
 30
0.0
 10
6.371613
 20
24.096146
 30
0.0
  0
LINE
  5
49b
100
AcDbEntity
  8
0
 62
7
100
AcDbLine
 10
6.371613
 20
24.096146
 30
0.0
 11
6.371614
 21
24.096146
 31
0.0
  0
SPLINE
  5
49c
100
AcDbEntity
  8
0
 62
7
100
AcDbSpline
 70
8
 71
3
 72
8
 73
4
 74
0
 40
0
 40
0
 40
0
 40
0
 40
1
 40
1
 40
1
 40
1
 10
8.981508
 20
23.834962
 30
0.0
 10
8.991851
 20
23.889148
 30
0.0
 10
8.939930
 20
23.950910
 30
0.0
 10
8.841047
 20
24.002045
 30
0.0
  0
LINE
  5
49d
100
AcDbEntity
  8
0
 62
7
100
AcDbLine
 10
8.841047
 20
24.002045
 30
0.0
 11
8.684175
 21
24.083167
 31
0.0
  0
LINE
  5
49e
100
AcDbEntity
  8
0
 62
7
100
AcDbLine
 10
8.684175
 20
24.083167
 30
0.0
 11
8.698187
 21
24.855883
 31
0.0
  0
SPLINE
  5
49f
100
AcDbEntity
  8
0
 62
7
100
AcDbSpline
 70
8
 71
3
 72
8
 73
4
 74
0
 40
0
 40
0
 40
0
 40
0
 40
1
 40
1
 40
1
 40
1
 10
8.698187
 20
24.855883
 30
0.0
 10
8.712042
 20
25.619884
 30
0.0
 10
8.713523
 20
25.628788
 30
0.0
 10
8.829606
 20
25.645240
 30
0.0
  0
SPLINE
  5
4a0
100
AcDbEntity
  8
0
 62
7
100
AcDbSpline
 70
8
 71
3
 72
8
 73
4
 74
0
 40
0
 40
0
 40
0
 40
0
 40
1
 40
1
 40
1
 40
1
 10
8.829606
 20
25.645240
 30
0.0
 10
8.986267
 20
25.667446
 30
0.0
 10
9.032960
 20
25.802920
 30
0.0
 10
8.913945
 20
25.889946
 30
0.0
  0
SPLINE
  5
4a1
100
AcDbEntity
  8
0
 62
7
100
AcDbSpline
 70
8
 71
3
 72
8
 73
4
 74
0
 40
0
 40
0
 40
0
 40
0
 40
1
 40
1
 40
1
 40
1
 10
8.913945
 20
25.889946
 30
0.0
 10
8.818597
 20
25.959666
 30
0.0
 10
8.355932
 20
25.984596
 30
0.0
 10
8.208355
 20
25.927965
 30
0.0
  0
SPLINE
  5
4a2
100
AcDbEntity
  8
0
 62
7
100
AcDbSpline
 70
8
 71
3
 72
8
 73
4
 74
0
 40
0
 40
0
 40
0
 40
0
 40
1
 40
1
 40
1
 40
1
 10
8.208355
 20
25.927965
 30
0.0
 10
8.082697
 20
25.879745
 30
0.0
 10
8.111866
 20
25.708419
 30
0.0
 10
8.255000
 20
25.654000
 30
0.0
  0
LINE
  5
4a3
100
AcDbEntity
  8
0
 62
7
100
AcDbLine
 10
8.255000
 20
25.654000
 30
0.0
 11
8.382000
 21
25.605715
 31
0.0
  0
LINE
  5
4a4
100
AcDbEntity
  8
0
 62
7
100
AcDbLine
 10
8.382000
 20
25.605715
 30
0.0
 11
8.382000
 21
24.841368
 31
0.0
  0
LINE
  5
4a5
100
AcDbEntity
  8
0
 62
7
100
AcDbLine
 10
8.382000
 20
24.841368
 30
0.0
 11
8.382000
 21
24.077022
 31
0.0
  0
LINE
  5
4a6
100
AcDbEntity
  8
0
 62
7
100
AcDbLine
 10
8.382000
 20
24.077022
 30
0.0
 11
8.255000
 21
24.019157
 31
0.0
  0
SPLINE
  5
4a7
100
AcDbEntity
  8
0
 62
7
100
AcDbSpline
 70
8
 71
3
 72
8
 73
4
 74
0
 40
0
 40
0
 40
0
 40
0
 40
1
 40
1
 40
1
 40
1
 10
8.255000
 20
24.019157
 30
0.0
 10
8.133565
 20
23.963827
 30
0.0
 10
8.087806
 20
23.831527
 30
0.0
 10
8.163816
 20
23.755517
 30
0.0
  0
SPLINE
  5
4a8
100
AcDbEntity
  8
0
 62
7
100
AcDbSpline
 70
8
 71
3
 72
8
 73
4
 74
0
 40
0
 40
0
 40
0
 40
0
 40
1
 40
1
 40
1
 40
1
 10
8.163816
 20
23.755517
 30
0.0
 10
8.183515
 20
23.735818
 30
0.0
 10
8.371862
 20
23.726294
 30
0.0
 10
8.582365
 20
23.734350
 30
0.0
  0
SPLINE
  5
4a9
100
AcDbEntity
  8
0
 62
7
100
AcDbSpline
 70
8
 71
3
 72
8
 73
4
 74
0
 40
0
 40
0
 40
0
 40
0
 40
1
 40
1
 40
1
 40
1
 10
8.582365
 20
23.734350
 30
0.0
 10
8.894337
 20
23.746291
 30
0.0
 10
8.968132
 20
23.764892
 30
0.0
 10
8.981508
 20
23.834962
 30
0.0
  0
LINE
  5
4aa
100
AcDbEntity
  8
0
 62
7
100
AcDbLine
 10
8.981508
 20
23.834962
 30
0.0
 11
8.981508
 21
23.834962
 31
0.0
  0
SPLINE
  5
4ab
100
AcDbEntity
  8
0
 62
7
100
AcDbSpline
 70
8
 71
3
 72
8
 73
4
 74
0
 40
0
 40
0
 40
0
 40
0
 40
1
 40
1
 40
1
 40
1
 10
10.807700
 20
23.924299
 30
0.0
 10
10.944957
 20
24.089628
 30
0.0
 10
10.972800
 20
24.165583
 30
0.0
 10
10.972800
 20
24.374672
 30
0.0
  0
SPLINE
  5
4ac
100
AcDbEntity
  8
0
 62
7
100
AcDbSpline
 70
8
 71
3
 72
8
 73
4
 74
0
 40
0
 40
0
 40
0
 40
0
 40
1
 40
1
 40
1
 40
1
 10
10.972800
 20
24.374672
 30
0.0
 10
10.972800
 20
24.603662
 30
0.0
 10
10.954597
 20
24.642624
 30
0.0
 10
10.769454
 20
24.809889
 30
0.0
  0
SPLINE
  5
4ad
100
AcDbEntity
  8
0
 62
7
100
AcDbSpline
 70
8
 71
3
 72
8
 73
4
 74
0
 40
0
 40
0
 40
0
 40
0
 40
1
 40
1
 40
1
 40
1
 10
10.769454
 20
24.809889
 30
0.0
 10
10.583079
 20
24.978267
 30
0.0
 10
10.540487
 20
24.993600
 30
0.0
 10
10.259144
 20
24.993600
 30
0.0
  0
SPLINE
  5
4ae
100
AcDbEntity
  8
0
 62
7
100
AcDbSpline
 70
8
 71
3
 72
8
 73
4
 74
0
 40
0
 40
0
 40
0
 40
0
 40
1
 40
1
 40
1
 40
1
 10
10.259144
 20
24.993600
 30
0.0
 10
10.000967
 20
24.993600
 30
0.0
 10
9.932365
 20
25.013418
 30
0.0
 10
9.827491
 20
25.118291
 30
0.0
  0
SPLINE
  5
4af
100
AcDbEntity
  8
0
 62
7
100
AcDbSpline
 70
8
 71
3
 72
8
 73
4
 74
0
 40
0
 40
0
 40
0
 40
0
 40
1
 40
1
 40
1
 40
1
 10
9.827491
 20
25.118291
 30
0.0
 10
9.667743
 20
25.278039
 30
0.0
 10
9.670619
 20
25.324835
 30
0.0
 10
9.851294
 20
25.505508
 30
0.0
  0
SPLINE
  5
4b0
100
AcDbEntity
  8
0
 62
7
100
AcDbSpline
 70
8
 71
3
 72
8
 73
4
 74
0
 40
0
 40
0
 40
0
 40
0
 40
1
 40
1
 40
1
 40
1
 10
9.851294
 20
25.505508
 30
0.0
 10
10.061514
 20
25.715728
 30
0.0
 10
10.343608
 20
25.712702
 30
0.0
 10
10.588597
 20
25.497600
 30
0.0
  0
SPLINE
  5
4b1
100
AcDbEntity
  8
0
 62
7
100
AcDbSpline
 70
8
 71
3
 72
8
 73
4
 74
0
 40
0
 40
0
 40
0
 40
0
 40
1
 40
1
 40
1
 40
1
 10
10.588597
 20
25.497600
 30
0.0
 10
10.785022
 20
25.325137
 30
0.0
 10
10.939185
 20
25.318410
 30
0.0
 10
10.962568
 20
25.481282
 30
0.0
  0
SPLINE
  5
4b2
100
AcDbEntity
  8
0
 62
7
100
AcDbSpline
 70
8
 71
3
 72
8
 73
4
 74
0
 40
0
 40
0
 40
0
 40
0
 40
1
 40
1
 40
1
 40
1
 10
10.962568
 20
25.481282
 30
0.0
 10
10.972705
 20
25.551897
 30
0.0
 10
10.909495
 20
25.648573
 30
0.0
 10
10.771922
 20
25.772863
 30
0.0
  0
SPLINE
  5
4b3
100
AcDbEntity
  8
0
 62
7
100
AcDbSpline
 70
8
 71
3
 72
8
 73
4
 74
0
 40
0
 40
0
 40
0
 40
0
 40
1
 40
1
 40
1
 40
1
 10
10.771922
 20
25.772863
 30
0.0
 10
10.575541
 20
25.950277
 30
0.0
 10
10.549508
 20
25.958800
 30
0.0
 10
10.203969
 20
25.958800
 30
0.0
  0
SPLINE
  5
4b4
100
AcDbEntity
  8
0
 62
7
100
AcDbSpline
 70
8
 71
3
 72
8
 73
4
 74
0
 40
0
 40
0
 40
0
 40
0
 40
1
 40
1
 40
1
 40
1
 10
10.203969
 20
25.958800
 30
0.0
 10
9.844119
 20
25.958800
 30
0.0
 10
9.840430
 20
25.957389
 30
0.0
 10
9.619916
 20
25.736884
 30
0.0
  0
SPLINE
  5
4b5
100
AcDbEntity
  8
0
 62
7
100
AcDbSpline
 70
8
 71
3
 72
8
 73
4
 74
0
 40
0
 40
0
 40
0
 40
0
 40
1
 40
1
 40
1
 40
1
 10
9.619916
 20
25.736884
 30
0.0
 10
9.326232
 20
25.443201
 30
0.0
 10
9.319053
 20
25.257571
 30
0.0
 10
9.588500
 20
24.924602
 30
0.0
  0
SPLINE
  5
4b6
100
AcDbEntity
  8
0
 62
7
100
AcDbSpline
 70
8
 71
3
 72
8
 73
4
 74
0
 40
0
 40
0
 40
0
 40
0
 40
1
 40
1
 40
1
 40
1
 10
9.588500
 20
24.924602
 30
0.0
 10
9.778548
 20
24.689750
 30
0.0
 10
9.779759
 20
24.689191
 30
0.0
 10
10.098809
 20
24.688996
 30
0.0
  0
SPLINE
  5
4b7
100
AcDbEntity
  8
0
 62
7
100
AcDbSpline
 70
8
 71
3
 72
8
 73
4
 74
0
 40
0
 40
0
 40
0
 40
0
 40
1
 40
1
 40
1
 40
1
 10
10.098809
 20
24.688996
 30
0.0
 10
10.370478
 20
24.688828
 30
0.0
 10
10.437387
 20
24.670031
 30
0.0
 10
10.543309
 20
24.564109
 30
0.0
  0
SPLINE
  5
4b8
100
AcDbEntity
  8
0
 62
7
100
AcDbSpline
 70
8
 71
3
 72
8
 73
4
 74
0
 40
0
 40
0
 40
0
 40
0
 40
1
 40
1
 40
1
 40
1
 10
10.543309
 20
24.564109
 30
0.0
 10
10.804259
 20
24.303159
 30
0.0
 10
10.631145
 20
24.028400
 30
0.0
 10
10.205782
 20
24.028400
 30
0.0
  0
SPLINE
  5
4b9
100
AcDbEntity
  8
0
 62
7
100
AcDbSpline
 70
8
 71
3
 72
8
 73
4
 74
0
 40
0
 40
0
 40
0
 40
0
 40
1
 40
1
 40
1
 40
1
 10
10.205782
 20
24.028400
 30
0.0
 10
9.982022
 20
24.028400
 30
0.0
 10
9.926878
 20
24.049688
 30
0.0
 10
9.800686
 20
24.184776
 30
0.0
  0
SPLINE
  5
4ba
100
AcDbEntity
  8
0
 62
7
100
AcDbSpline
 70
8
 71
3
 72
8
 73
4
 74
0
 40
0
 40
0
 40
0
 40
0
 40
1
 40
1
 40
1
 40
1
 10
9.800686
 20
24.184776
 30
0.0
 10
9.508579
 20
24.497477
 30
0.0
 10
9.333547
 20
24.261866
 30
0.0
 10
9.610335
 20
23.928546
 30
0.0
  0
LINE
  5
4bb
100
AcDbEntity
  8
0
 62
7
100
AcDbLine
 10
9.610335
 20
23.928546
 30
0.0
 11
9.779000
 21
23.725431
 31
0.0
  0
LINE
  5
4bc
100
AcDbEntity
  8
0
 62
7
100
AcDbLine
 10
9.779000
 20
23.725431
 30
0.0
 11
10.210800
 21
23.725431
 31
0.0
  0
LINE
  5
4bd
100
AcDbEntity
  8
0
 62
7
100
AcDbLine
 10
10.210800
 20
23.725431
 30
0.0
 11
10.642600
 21
23.725431
 31
0.0
  0
LINE
  5
4be
100
AcDbEntity
  8
0
 62
7
100
AcDbLine
 10
10.642600
 20
23.725431
 30
0.0
 11
10.807700
 21
23.924299
 31
0.0
  0
LINE
  5
4bf
100
AcDbEntity
  8
0
 62
7
100
AcDbLine
 10
10.807700
 20
23.924299
 30
0.0
 11
10.807700
 21
23.924299
 31
0.0
  0
LINE
  5
4c0
100
AcDbEntity
  8
0
 62
7
100
AcDbLine
 10
11.734800
 20
24.054246
 30
0.0
 11
11.760200
 21
24.358600
 31
0.0
  0
LINE
  5
4c1
100
AcDbEntity
  8
0
 62
7
100
AcDbLine
 10
11.760200
 20
24.358600
 30
0.0
 11
12.217211
 21
24.373459
 31
0.0
  0
SPLINE
  5
4c2
100
AcDbEntity
  8
0
 62
7
100
AcDbSpline
 70
8
 71
3
 72
8
 73
4
 74
0
 40
0
 40
0
 40
0
 40
0
 40
1
 40
1
 40
1
 40
1
 10
12.217211
 20
24.373459
 30
0.0
 10
12.652147
 20
24.387601
 30
0.0
 10
12.682204
 20
24.396057
 30
0.0
 10
12.839511
 20
24.548524
 30
0.0
  0
SPLINE
  5
4c3
100
AcDbEntity
  8
0
 62
7
100
AcDbSpline
 70
8
 71
3
 72
8
 73
4
 74
0
 40
0
 40
0
 40
0
 40
0
 40
1
 40
1
 40
1
 40
1
 10
12.839511
 20
24.548524
 30
0.0
 10
13.001052
 20
24.705098
 30
0.0
 10
13.004800
 20
24.718738
 30
0.0
 10
13.004800
 20
25.150054
 30
0.0
  0
LINE
  5
4c4
100
AcDbEntity
  8
0
 62
7
100
AcDbLine
 10
13.004800
 20
25.150054
 30
0.0
 11
13.004800
 21
25.591378
 31
0.0
  0
LINE
  5
4c5
100
AcDbEntity
  8
0
 62
7
100
AcDbLine
 10
13.004800
 20
25.591378
 30
0.0
 11
12.801454
 21
25.775089
 31
0.0
  0
LINE
  5
4c6
100
AcDbEntity
  8
0
 62
7
100
AcDbLine
 10
12.801454
 20
25.775089
 30
0.0
 11
12.598107
 21
25.958800
 31
0.0
  0
LINE
  5
4c7
100
AcDbEntity
  8
0
 62
7
100
AcDbLine
 10
12.598107
 20
25.958800
 30
0.0
 11
12.093882
 21
25.958800
 31
0.0
  0
SPLINE
  5
4c8
100
AcDbEntity
  8
0
 62
7
100
AcDbSpline
 70
8
 71
3
 72
8
 73
4
 74
0
 40
0
 40
0
 40
0
 40
0
 40
1
 40
1
 40
1
 40
1
 10
12.093882
 20
25.958800
 30
0.0
 10
11.703229
 20
25.958800
 30
0.0
 10
11.571677
 20
25.940820
 30
0.0
 10
11.509829
 20
25.878971
 30
0.0
  0
SPLINE
  5
4c9
100
AcDbEntity
  8
0
 62
7
100
AcDbSpline
 70
8
 71
3
 72
8
 73
4
 74
0
 40
0
 40
0
 40
0
 40
0
 40
1
 40
1
 40
1
 40
1
 10
11.509829
 20
25.878971
 30
0.0
 10
11.442793
 20
25.811936
 30
0.0
 10
11.430000
 20
25.642608
 30
0.0
 10
11.430000
 20
24.822331
 30
0.0
  0
SPLINE
  5
4ca
100
AcDbEntity
  8
0
 62
7
100
AcDbSpline
 70
8
 71
3
 72
8
 73
4
 74
0
 40
0
 40
0
 40
0
 40
0
 40
1
 40
1
 40
1
 40
1
 10
11.430000
 20
24.822331
 30
0.0
 10
11.430000
 20
23.821804
 30
0.0
 10
11.452420
 20
23.701232
 30
0.0
 10
11.632143
 20
23.735264
 30
0.0
  0
SPLINE
  5
4cb
100
AcDbEntity
  8
0
 62
7
100
AcDbSpline
 70
8
 71
3
 72
8
 73
4
 74
0
 40
0
 40
0
 40
0
 40
0
 40
1
 40
1
 40
1
 40
1
 10
11.632143
 20
23.735264
 30
0.0
 10
11.687481
 20
23.745743
 30
0.0
 10
11.716606
 20
23.836240
 30
0.0
 10
11.734800
 20
24.054246
 30
0.0
  0
LINE
  5
4cc
100
AcDbEntity
  8
0
 62
7
100
AcDbLine
 10
11.734800
 20
24.054246
 30
0.0
 11
11.734800
 21
24.054246
 31
0.0
  0
SPLINE
  5
4cd
100
AcDbEntity
  8
0
 62
7
100
AcDbSpline
 70
8
 71
3
 72
8
 73
4
 74
0
 40
0
 40
0
 40
0
 40
0
 40
1
 40
1
 40
1
 40
1
 10
11.756322
 20
24.756790
 30
0.0
 10
11.741974
 20
24.794185
 30
0.0
 10
11.736976
 20
25.005640
 30
0.0
 10
11.745217
 20
25.226690
 30
0.0
  0
LINE
  5
4ce
100
AcDbEntity
  8
0
 62
7
100
AcDbLine
 10
11.745217
 20
25.226690
 30
0.0
 11
11.760200
 21
25.628600
 31
0.0
  0
LINE
  5
4cf
100
AcDbEntity
  8
0
 62
7
100
AcDbLine
 10
11.760200
 20
25.628600
 30
0.0
 11
12.103088
 21
25.643620
 31
0.0
  0
SPLINE
  5
4d0
100
AcDbEntity
  8
0
 62
7
100
AcDbSpline
 70
8
 71
3
 72
8
 73
4
 74
0
 40
0
 40
0
 40
0
 40
0
 40
1
 40
1
 40
1
 40
1
 10
12.103088
 20
25.643620
 30
0.0
 10
12.411628
 20
25.657135
 30
0.0
 10
12.458700
 20
25.645906
 30
0.0
 10
12.572988
 20
25.531629
 30
0.0
  0
SPLINE
  5
4d1
100
AcDbEntity
  8
0
 62
7
100
AcDbSpline
 70
8
 71
3
 72
8
 73
4
 74
0
 40
0
 40
0
 40
0
 40
0
 40
1
 40
1
 40
1
 40
1
 10
12.572988
 20
25.531629
 30
0.0
 10
12.674906
 20
25.429712
 30
0.0
 10
12.700000
 20
25.353978
 30
0.0
 10
12.700000
 20
25.148309
 30
0.0
  0
SPLINE
  5
4d2
100
AcDbEntity
  8
0
 62
7
100
AcDbSpline
 70
8
 71
3
 72
8
 73
4
 74
0
 40
0
 40
0
 40
0
 40
0
 40
1
 40
1
 40
1
 40
1
 10
12.700000
 20
25.148309
 30
0.0
 10
12.700000
 20
24.773158
 30
0.0
 10
12.597121
 20
24.688800
 30
0.0
 10
12.139606
 20
24.688800
 30
0.0
  0
SPLINE
  5
4d3
100
AcDbEntity
  8
0
 62
7
100
AcDbSpline
 70
8
 71
3
 72
8
 73
4
 74
0
 40
0
 40
0
 40
0
 40
0
 40
1
 40
1
 40
1
 40
1
 10
12.139606
 20
24.688800
 30
0.0
 10
11.888131
 20
24.688800
 30
0.0
 10
11.774689
 20
24.708922
 30
0.0
 10
11.756321
 20
24.756790
 30
0.0
  0
LINE
  5
4d4
100
AcDbEntity
  8
0
 62
7
100
AcDbLine
 10
11.756321
 20
24.756790
 30
0.0
 11
11.756322
 21
24.756790
 31
0.0
  0
LINE
  5
4d5
100
AcDbEntity
  8
0
 62
7
100
AcDbLine
 10
0.005000
 20
29.123001
 30
0.0
 11
50.104000
 21
29.123001
 31
0.0
  0
LINE
  5
4d6
100
AcDbEntity
  8
0
 62
7
100
AcDbLine
 10
50.104000
 20
29.123001
 30
0.0
 11
50.104000
 21
0.004999
 31
0.0
  0
LINE
  5
4d7
100
AcDbEntity
  8
0
 62
7
100
AcDbLine
 10
50.104000
 20
0.004999
 30
0.0
 11
0.005000
 21
0.004999
 31
0.0
  0
LINE
  5
4d8
100
AcDbEntity
  8
0
 62
7
100
AcDbLine
 10
0.005000
 20
0.004999
 30
0.0
 11
0.005000
 21
29.123001
 31
0.0
  0
ENDSEC
  0
SECTION
  2
OBJECTS
  0
DICTIONARY
  5
C
330
0
100
AcDbDictionary
  3
ACAD_GROUP
350
D
  3
ACAD_MLINESTYLE
350
17
  0
DICTIONARY
  5
D
330
C
100
AcDbDictionary
  0
DICTIONARY
  5
1A
330
C
100
AcDbDictionary
  0
DICTIONARY
  5
17
330
C
100
AcDbDictionary
  3
STANDARD
350
18
  0
DICTIONARY
  5
19
330
C
100
AcDbDictionary
  0
ENDSEC
  0
EOF
