  0
SECTION
  2
HEADER
  9
$ACADVER
  1
AC1018
  9
$ACADMAINTVER
 70
     0
  9
$DWGCODEPAGE
  3
ANSI_950
  9
$INSBASE
 10
0.0
 20
0.0
 30
0.0
  9
$EXTMIN
 10
1.000000000000000E+20
 20
1.000000000000000E+20
 30
1.000000000000000E+20
  9
$EXTMAX
 10
-1.000000000000000E+20
 20
-1.000000000000000E+20
 30
-1.000000000000000E+20
  9
$LIMMIN
 10
0.0
 20
0.0
  9
$LIMMAX
 10
12.0
 20
9.0
  9
$ORTHOMODE
 70
     0
  9
$REGENMODE
 70
     1
  9
$FILLMODE
 70
     1
  9
$QTEXTMODE
 70
     0
  9
$MIRRTEXT
 70
     1
  9
$LTSCALE
 40
1.0
  9
$ATTMODE
 70
     1
  9
$TEXTSIZE
 40
0.2
  9
$TRACEWID
 40
0.05
  9
$TEXTSTYLE
  7
Standard
  9
$CLAYER
  8
0
  9
$CELTYPE
  6
ByLayer
  9
$CECOLOR
 62
   256
  9
$CELTSCALE
 40
1.0
  9
$DISPSILH
 70
     0
  9
$DIMSCALE
 40
1.0
  9
$DIMASZ
 40
0.18
  9
$DIMEXO
 40
0.0625
  9
$DIMDLI
 40
0.38
  9
$DIMRND
 40
0.0
  9
$DIMDLE
 40
0.0
  9
$DIMEXE
 40
0.18
  9
$DIMTP
 40
0.0
  9
$DIMTM
 40
0.0
  9
$DIMTXT
 40
0.18
  9
$DIMCEN
 40
0.09
  9
$DIMTSZ
 40
0.0
  9
$DIMTOL
 70
     0
  9
$DIMLIM
 70
     0
  9
$DIMTIH
 70
     1
  9
$DIMTOH
 70
     1
  9
$DIMSE1
 70
     0
  9
$DIMSE2
 70
     0
  9
$DIMTAD
 70
     0
  9
$DIMZIN
 70
     0
  9
$DIMBLK
  1

  9
$DIMASO
 70
     1
  9
$DIMSHO
 70
     1
  9
$DIMPOST
  1

  9
$DIMAPOST
  1

  9
$DIMALT
 70
     0
  9
$DIMALTD
 70
     2
  9
$DIMALTF
 40
25.4
  9
$DIMLFAC
 40
1.0
  9
$DIMTOFL
 70
     0
  9
$DIMTVP
 40
0.0
  9
$DIMTIX
 70
     0
  9
$DIMSOXD
 70
     0
  9
$DIMSAH
 70
     0
  9
$DIMBLK1
  1

  9
$DIMBLK2
  1

  9
$DIMSTYLE
  2
Standard
  9
$DIMCLRD
 70
     0
  9
$DIMCLRE
 70
     0
  9
$DIMCLRT
 70
     0
  9
$DIMTFAC
 40
1.0
  9
$DIMGAP
 40
0.09
  9
$DIMJUST
 70
     0
  9
$DIMSD1
 70
     0
  9
$DIMSD2
 70
     0
  9
$DIMTOLJ
 70
     1
  9
$DIMTZIN
 70
     0
  9
$DIMALTZ
 70
     0
  9
$DIMALTTZ
 70
     0
  9
$DIMUPT
 70
     0
  9
$DIMDEC
 70
     4
  9
$DIMTDEC
 70
     4
  9
$DIMALTU
 70
     2
  9
$DIMALTTD
 70
     2
  9
$DIMTXSTY
  7
Standard
  9
$DIMAUNIT
 70
     0
  9
$DIMADEC
 70
     0
  9
$DIMALTRND
 40
0.0
  9
$DIMAZIN
 70
     0
  9
$DIMDSEP
 70
    46
  9
$DIMATFIT
 70
     3
  9
$DIMFRAC
 70
     0
  9
$DIMLDRBLK
  1

  9
$DIMLUNIT
 70
     2
  9
$DIMLWD
 70
    -2
  9
$DIMLWE
 70
    -2
  9
$DIMTMOVE
 70
     0
  9
$LUNITS
 70
     2
  9
$LUPREC
 70
     4
  9
$SKETCHINC
 40
0.1
  9
$FILLETRAD
 40
0.5
  9
$AUNITS
 70
     0
  9
$AUPREC
 70
     0
  9
$MENU
  1
.
  9
$ELEVATION
 40
0.0
  9
$PELEVATION
 40
0.0
  9
$THICKNESS
 40
0.0
  9
$LIMCHECK
 70
     0
  9
$CHAMFERA
 40
0.5
  9
$CHAMFERB
 40
0.5
  9
$CHAMFERC
 40
1.0
  9
$CHAMFERD
 40
0.0
  9
$SKPOLY
 70
     0
  9
$TDCREATE
 40
2457117.973406377
  9
$TDUCREATE
 40
2457117.640073044
  9
$TDUPDATE
 40
2457117.973406412
  9
$TDUUPDATE
 40
2457117.640073079
  9
$TDINDWG
 40
0.0000000116
  9
$TDUSRTIMER
 40
0.0000000116
  9
$USRTIMER
 70
     1
  9
$ANGBASE
 50
0.0
  9
$ANGDIR
 70
     0
  9
$PDMODE
 70
     0
  9
$PDSIZE
 40
0.0
  9
$PLINEWID
 40
0.0
  9
$SPLFRAME
 70
     0
  9
$SPLINETYPE
 70
     6
  9
$SPLINESEGS
 70
     8
  9
$HANDSEED
  5
A3
  9
$SURFTAB1
 70
     6
  9
$SURFTAB2
 70
     6
  9
$SURFTYPE
 70
     6
  9
$SURFU
 70
     6
  9
$SURFV
 70
     6
  9
$UCSBASE
  2

  9
$UCSNAME
  2

  9
$UCSORG
 10
0.0
 20
0.0
 30
0.0
  9
$UCSXDIR
 10
1.0
 20
0.0
 30
0.0
  9
$UCSYDIR
 10
0.0
 20
1.0
 30
0.0
  9
$UCSORTHOREF
  2

  9
$UCSORTHOVIEW
 70
     0
  9
$UCSORGTOP
 10
0.0
 20
0.0
 30
0.0
  9
$UCSORGBOTTOM
 10
0.0
 20
0.0
 30
0.0
  9
$UCSORGLEFT
 10
0.0
 20
0.0
 30
0.0
  9
$UCSORGRIGHT
 10
0.0
 20
0.0
 30
0.0
  9
$UCSORGFRONT
 10
0.0
 20
0.0
 30
0.0
  9
$UCSORGBACK
 10
0.0
 20
0.0
 30
0.0
  9
$PUCSBASE
  2

  9
$PUCSNAME
  2

  9
$PUCSORG
 10
0.0
 20
0.0
 30
0.0
  9
$PUCSXDIR
 10
1.0
 20
0.0
 30
0.0
  9
$PUCSYDIR
 10
0.0
 20
1.0
 30
0.0
  9
$PUCSORTHOREF
  2

  9
$PUCSORTHOVIEW
 70
     0
  9
$PUCSORGTOP
 10
0.0
 20
0.0
 30
0.0
  9
$PUCSORGBOTTOM
 10
0.0
 20
0.0
 30
0.0
  9
$PUCSORGLEFT
 10
0.0
 20
0.0
 30
0.0
  9
$PUCSORGRIGHT
 10
0.0
 20
0.0
 30
0.0
  9
$PUCSORGFRONT
 10
0.0
 20
0.0
 30
0.0
  9
$PUCSORGBACK
 10
0.0
 20
0.0
 30
0.0
  9
$USERI1
 70
     0
  9
$USERI2
 70
     0
  9
$USERI3
 70
     0
  9
$USERI4
 70
     0
  9
$USERI5
 70
     0
  9
$USERR1
 40
0.0
  9
$USERR2
 40
0.0
  9
$USERR3
 40
0.0
  9
$USERR4
 40
0.0
  9
$USERR5
 40
0.0
  9
$WORLDVIEW
 70
     1
  9
$SHADEDGE
 70
     3
  9
$SHADEDIF
 70
    70
  9
$TILEMODE
 70
     1
  9
$MAXACTVP
 70
    64
  9
$PINSBASE
 10
0.0
 20
0.0
 30
0.0
  9
$PLIMCHECK
 70
     0
  9
$PEXTMIN
 10
1.000000000000000E+20
 20
1.000000000000000E+20
 30
1.000000000000000E+20
  9
$PEXTMAX
 10
-1.000000000000000E+20
 20
-1.000000000000000E+20
 30
-1.000000000000000E+20
  9
$PLIMMIN
 10
0.0
 20
0.0
  9
$PLIMMAX
 10
12.0
 20
9.0
  9
$UNITMODE
 70
     0
  9
$VISRETAIN
 70
     1
  9
$PLINEGEN
 70
     0
  9
$PSLTSCALE
 70
     1
  9
$TREEDEPTH
 70
  3020
  9
$CMLSTYLE
  2
Standard
  9
$CMLJUST
 70
     0
  9
$CMLSCALE
 40
1.0
  9
$PROXYGRAPHICS
 70
     1
  9
$MEASUREMENT
 70
     0
  9
$CELWEIGHT
370
    -1
  9
$ENDCAPS
280
     0
  9
$JOINSTYLE
280
     0
  9
$LWDISPLAY
290
     1
  9
$INSUNITS
 70
     1
  9
$HYPERLINKBASE
  1

  9
$STYLESHEET
  1

  9
$XEDIT
290
     1
  9
$CEPSNTYPE
380
     0
  9
$PSTYLEMODE
290
     1
  9
$FINGERPRINTGUID
  2
{C84CB3C6-4A63-46BF-901A-BCA94D7FA6F4}
  9
$VERSIONGUID
  2
{FAEB1C32-E019-11D5-929B-00C0DF256EC4}
  9
$EXTNAMES
290
     1
  9
$PSVPSCALE
 40
0.0
  9
$OLESTARTUP
290
     0
  9
$SORTENTS
280
   127
  9
$INDEXCTL
280
     0
  9
$HIDETEXT
280
     1
  9
$XCLIPFRAME
290
     0
  9
$HALOGAP
280
     0
  9
$OBSCOLOR
 70
   257
  9
$OBSLTYPE
280
     0
  9
$INTERSECTIONDISPLAY
280
     0
  9
$INTERSECTIONCOLOR
 70
   257
  9
$DIMASSOC
280
     2
  9
$PROJECTNAME
  1

  0
ENDSEC
  0
SECTION
  2
CLASSES
  0
CLASS
  1
ACDBDICTIONARYWDFLT
  2
AcDbDictionaryWithDefault
  3
ObjectDBX Classes
 90
        0
 91
        4
280
     0
281
     0
  0
CLASS
  1
VISUALSTYLE
  2
AcDbVisualStyle
  3
ObjectDBX Classes
 90
     4095
 91
        4
280
     0
281
     0
  0
CLASS
  1
MATERIAL
  2
AcDbMaterial
  3
ObjectDBX Classes
 90
     1153
 91
        4
280
     0
281
     0
  0
CLASS
  1
SUN
  2
AcDbSun
  3
SCENEOE
 90
     1024
 91
        4
280
     0
281
     0
  0
ENDSEC
  0
SECTION
  2
TABLES
  0
TABLE
  2
VPORT
  5
8
330
0
100
AcDbSymbolTable
 70
     1
  0
VPORT
  5
29
330
8
100
AcDbSymbolTableRecord
100
AcDbViewportTableRecord
  2
*Active
 70
     0
 10
0.0
 20
0.0
 11
1.0
 21
1.0
 12
0.0
 22
0.0
 13
0.0
 23
0.0
 14
0.5
 24
0.5
 15
0.5
 25
0.5
 16
0.0
 26
0.0
 36
1.0
 17
20.00003055055556
 27
-14.99993471847223
 37
0.0
 40
29.99986943694445
 41
1.333341172873624
 42
50.0
 43
0.0
 44
0.0
 50
0.0
 51
0.0
 71
     0
 72
   100
 73
     1
 74
     3
 75
     0
 76
     0
 77
     0
 78
     0
281
     0
 65
     1
110
0.0
120
0.0
130
0.0
111
1.0
121
0.0
131
0.0
112
0.0
122
1.0
132
0.0
 79
     0
146
0.0
  0
ENDTAB
  0
TABLE
  2
LTYPE
  5
5
330
0
100
AcDbSymbolTable
 70
     1
  0
LTYPE
  5
14
330
5
100
AcDbSymbolTableRecord
100
AcDbLinetypeTableRecord
  2
ByBlock
 70
     0
  3

 72
    65
 73
     0
 40
0.0
  0
LTYPE
  5
15
330
5
100
AcDbSymbolTableRecord
100
AcDbLinetypeTableRecord
  2
ByLayer
 70
     0
  3

 72
    65
 73
     0
 40
0.0
  0
LTYPE
  5
16
330
5
100
AcDbSymbolTableRecord
100
AcDbLinetypeTableRecord
  2
Continuous
 70
     0
  3
Solid line
 72
    65
 73
     0
 40
0.0
  0
ENDTAB
  0
TABLE
  2
LAYER
  5
2
330
0
100
AcDbSymbolTable
 70
     2
  0
LAYER
  5
10
330
2
100
AcDbSymbolTableRecord
100
AcDbLayerTableRecord
  2
0
 70
     0
 62
     7
  6
Continuous
370
    -3
390
F
  0
LAYER
  5
40
330
2
100
AcDbSymbolTableRecord
100
AcDbLayerTableRecord
  2
_U+5716_U+5C64 1
 70
     0
 62
     7
  6
Continuous
370
    -3
390
F
  0
ENDTAB
  0
TABLE
  2
STYLE
  5
3
330
0
100
AcDbSymbolTable
 70
     1
  0
STYLE
  5
11
330
3
100
AcDbSymbolTableRecord
100
AcDbTextStyleTableRecord
  2
Standard
 70
     0
 40
0.0
 41
1.0
 50
0.0
 71
     0
 42
0.2
  3
txt
  4

  0
ENDTAB
  0
TABLE
  2
VIEW
  5
6
330
0
100
AcDbSymbolTable
 70
     0
  0
ENDTAB
  0
TABLE
  2
UCS
  5
7
330
0
100
AcDbSymbolTable
 70
     0
  0
ENDTAB
  0
TABLE
  2
APPID
  5
9
330
0
100
AcDbSymbolTable
 70
     1
  0
APPID
  5
12
330
9
100
AcDbSymbolTableRecord
100
AcDbRegAppTableRecord
  2
ACAD
 70
     0
  0
ENDTAB
  0
TABLE
  2
DIMSTYLE
  5
A
330
0
100
AcDbSymbolTable
 70
     1
100
AcDbDimStyleTable
  0
DIMSTYLE
105
27
330
A
100
AcDbSymbolTableRecord
100
AcDbDimStyleTableRecord
  2
Standard
 70
     0
178
     0
340
11
  0
ENDTAB
  0
TABLE
  2
BLOCK_RECORD
  5
1
330
0
100
AcDbSymbolTable
 70
     1
  0
BLOCK_RECORD
  5
1F
330
1
100
AcDbSymbolTableRecord
100
AcDbBlockTableRecord
  2
*Model_Space
340
22
  0
BLOCK_RECORD
  5
1B
330
1
100
AcDbSymbolTableRecord
100
AcDbBlockTableRecord
  2
*Paper_Space
340
1E
  0
BLOCK_RECORD
  5
23
330
1
100
AcDbSymbolTableRecord
100
AcDbBlockTableRecord
  2
*Paper_Space0
340
26
  0
ENDTAB
  0
ENDSEC
  0
SECTION
  2
BLOCKS
  0
BLOCK
  5
20
330
1F
100
AcDbEntity
  8
0
100
AcDbBlockBegin
  2
*Model_Space
 70
     0
 10
0.0
 20
0.0
 30
0.0
  3
*Model_Space
  1

  0
ENDBLK
  5
21
330
1F
100
AcDbEntity
  8
0
100
AcDbBlockEnd
  0
BLOCK
  5
1C
330
1B
100
AcDbEntity
 67
     1
  8
0
100
AcDbBlockBegin
  2
*Paper_Space
 70
     0
 10
0.0
 20
0.0
 30
0.0
  3
*Paper_Space
  1

  0
ENDBLK
  5
1D
330
1B
100
AcDbEntity
 67
     1
  8
0
100
AcDbBlockEnd
  0
BLOCK
  5
24
330
23
100
AcDbEntity
  8
0
100
AcDbBlockBegin
  2
*Paper_Space0
 70
     0
 10
0.0
 20
0.0
 30
0.0
  3
*Paper_Space0
  1

  0
ENDBLK
  5
25
330
23
100
AcDbEntity
  8
0
100
AcDbBlockEnd
  0
ENDSEC
  0
SECTION
  2
ENTITIES
  0
SPLINE
  5
41
330
1F
100
AcDbEntity
  8
_U+5716_U+5C64 1
370
     0
100
AcDbSpline
210
0.0
220
0.0
230
1.0
 70
    11
 71
     3
 72
    71
 73
    67
 74
     0
 42
0.0000000001
 43
0.0000000001
 12
1.0
 22
0.0
 32
0.0
 13
1.0
 23
0.0
 33
0.0
 40
0.0
 40
0.0
 40
0.0
 40
0.0
 40
1.0
 40
1.0
 40
1.0
 40
2.0
 40
2.0
 40
2.0
 40
3.0
 40
3.0
 40
3.0
 40
4.0
 40
4.0
 40
4.0
 40
5.0
 40
5.0
 40
5.0
 40
6.0
 40
6.0
 40
6.0
 40
7.0
 40
7.0
 40
7.0
 40
8.0
 40
8.0
 40
8.0
 40
9.0
 40
9.0
 40
9.0
 40
10.0
 40
10.0
 40
10.0
 40
11.0
 40
11.0
 40
11.0
 40
12.0
 40
12.0
 40
12.0
 40
13.0
 40
13.0
 40
13.0
 40
14.0
 40
14.0
 40
14.0
 40
15.0
 40
15.0
 40
15.0
 40
16.0
 40
16.0
 40
16.0
 40
17.0
 40
17.0
 40
17.0
 40
18.0
 40
18.0
 40
18.0
 40
19.0
 40
19.0
 40
19.0
 40
20.0
 40
20.0
 40
20.0
 40
21.0
 40
21.0
 40
21.0
 40
22.0
 40
22.0
 40
22.0
 40
22.0
 10
5.930314881868401
 20
-17.10986234414765
 30
0.0
 10
5.930314881868401
 20
-17.10986234414765
 30
0.0
 10
3.551473549668881
 20
-17.10986234414765
 30
0.0
 10
3.551473549668881
 20
-17.10986234414765
 30
0.0
 10
3.551473549668881
 20
-17.10986234414765
 30
0.0
 10
3.551473549668881
 20
-18.62851721885898
 30
0.0
 10
3.551473549668881
 20
-18.62851721885898
 30
0.0
 10
3.551473549668881
 20
-18.62851721885898
 30
0.0
 10
5.539940919661308
 20
-18.62851721885898
 30
0.0
 10
5.539940919661308
 20
-18.62851721885898
 30
0.0
 10
5.724268232943658
 20
-18.62851721885898
 30
0.0
 10
5.861820038683391
 20
-18.66968169922762
 30
0.0
 10
5.952680056786584
 20
-18.75201065996488
 30
0.0
 10
6.043480274956806
 20
-18.83441108681401
 30
0.0
 10
6.088904304015071
 20
-18.94439743279893
 30
0.0
 10
6.088904304015071
 20
-19.08208880810608
 30
0.0
 10
6.088904304015071
 20
-19.21978018341323
 30
0.0
 10
6.042774635748145
 20
-19.32912333439239
 30
0.0
 10
5.950646859066708
 20
-19.41011826104375
 30
0.0
 10
5.858459282452396
 20
-19.49111318769491
 30
0.0
 10
5.721529396015217
 20
-19.53161065102056
 30
0.0
 10
5.539940919661308
 20
-19.53161065102056
 30
0.0
 10
5.539940919661308
 20
-19.53161065102056
 30
0.0
 10
3.551473549668881
 20
-19.53161065102056
 30
0.0
 10
3.551473549668881
 20
-19.53161065102056
 30
0.0
 10
3.551473549668881
 20
-19.53161065102056
 30
0.0
 10
3.551473549668881
 20
-21.48763812964872
 30
0.0
 10
3.551473549668881
 20
-21.48763812964872
 30
0.0
 10
3.551473549668881
 20
-21.73605433409551
 30
0.0
 10
3.495177892802802
 20
-21.92031779222723
 30
0.0
 10
3.382718138923027
 20
-22.0404046820064
 30
0.0
 10
3.270198585110409
 20
-22.16051539382274
 30
0.0
 10
3.12584154700258
 20
-22.22064221584267
 30
0.0
 10
2.94964702459954
 20
-22.22064221584267
 30
0.0
 10
2.770725625254629
 20
-22.22064221584267
 30
0.0
 10
2.624969268716111
 20
-22.15989602085419
 30
0.0
 10
2.512509514836367
 20
-22.03840363087732
 30
0.0
 10
2.399989961023749
 20
-21.91691124090038
 30
0.0
 10
2.343754104090609
 20
-21.73333862184912
 30
0.0
 10
2.343754104090609
 20
-21.48763812964872
 30
0.0
 10
2.343754104090609
 20
-21.48763812964872
 30
0.0
 10
2.343754104090609
 20
-16.9195242665172
 30
0.0
 10
2.343754104090609
 20
-16.9195242665172
 30
0.0
 10
2.343754104090609
 20
-16.74676685237757
 30
0.0
 10
2.369491995226322
 20
-16.60564510370628
 30
0.0
 10
2.421015617444084
 20
-16.49630195272712
 30
0.0
 10
2.472479439728973
 20
-16.38695880174789
 30
0.0
 10
2.55317346923298
 20
-16.30736937529443
 30
0.0
 10
2.662966146103726
 20
-16.25736691910585
 30
0.0
 10
2.772758822974473
 20
-16.20743592902906
 30
0.0
 10
2.913049465642679
 20
-16.1824704339907
 30
0.0
 10
3.083838074108248
 20
-16.1824704339907
 30
0.0
 10
3.083838074108248
 20
-16.1824704339907
 30
0.0
 10
5.930314881868401
 20
-16.1824704339907
 30
0.0
 10
5.930314881868401
 20
-16.1824704339907
 30
0.0
 10
6.122774986030093
 20
-16.1824704339907
 30
0.0
 10
6.265792505640203
 20
-16.22496894844531
 30
0.0
 10
6.359319600752265
 20
-16.31001362142915
 30
0.0
 10
6.452846695864392
 20
-16.395058294413
 30
0.0
 10
6.499610243420503
 20
-16.50645014059575
 30
0.0
 10
6.499610243420503
 20
-16.6441415159029
 30
0.0
 10
6.499610243420503
 20
-16.78454860345657
 30
0.0
 10
6.452846695864392
 20
-16.89722683965085
 30
0.0
 10
6.359319600752265
 20
-16.98227151263463
 30
0.0
 10
6.265792505640203
 20
-17.06731618561854
 30
0.0
 10
6.122774986030093
 20
-17.10986234414765
 30
0.0
 10
5.930314881868401
 20
-17.10986234414765
 30
0.0
  0
HATCH
  5
42
330
1F
100
AcDbEntity
  8
_U+5716_U+5C64 1
 62
     7
100
AcDbHatch
 10
0.0
 20
0.0
 30
0.0
210
0.0
220
0.0
230
1.0
  2
SOLID
 70
     1
 71
     0
 91
        1
 92
        1
 93
        1
 72
     4
 94
        3
 73
     0
 74
     1
 95
       71
 96
       67
 40
0.0
 40
0.0
 40
0.0
 40
0.0
 40
1.0
 40
1.0
 40
1.0
 40
2.0
 40
2.0
 40
2.0
 40
3.0
 40
3.0
 40
3.0
 40
4.0
 40
4.0
 40
4.0
 40
5.0
 40
5.0
 40
5.0
 40
6.0
 40
6.0
 40
6.0
 40
7.0
 40
7.0
 40
7.0
 40
8.0
 40
8.0
 40
8.0
 40
9.0
 40
9.0
 40
9.0
 40
10.0
 40
10.0
 40
10.0
 40
11.0
 40
11.0
 40
11.0
 40
12.0
 40
12.0
 40
12.0
 40
13.0
 40
13.0
 40
13.0
 40
14.0
 40
14.0
 40
14.0
 40
15.0
 40
15.0
 40
15.0
 40
16.0
 40
16.0
 40
16.0
 40
17.0
 40
17.0
 40
17.0
 40
18.0
 40
18.0
 40
18.0
 40
19.0
 40
19.0
 40
19.0
 40
20.0
 40
20.0
 40
20.0
 40
21.0
 40
21.0
 40
21.0
 40
22.0
 40
22.0
 40
22.0
 40
22.0
 10
5.930314881868401
 20
-17.10986234414765
 10
5.930314881868401
 20
-17.10986234414765
 10
3.551473549668881
 20
-17.10986234414765
 10
3.551473549668881
 20
-17.10986234414765
 10
3.551473549668881
 20
-17.10986234414765
 10
3.551473549668881
 20
-18.62851721885898
 10
3.551473549668881
 20
-18.62851721885898
 10
3.551473549668881
 20
-18.62851721885898
 10
5.539940919661308
 20
-18.62851721885898
 10
5.539940919661308
 20
-18.62851721885898
 10
5.724268232943658
 20
-18.62851721885898
 10
5.861820038683391
 20
-18.66968169922762
 10
5.952680056786584
 20
-18.75201065996488
 10
6.043480274956806
 20
-18.83441108681401
 10
6.088904304015071
 20
-18.94439743279893
 10
6.088904304015071
 20
-19.08208880810608
 10
6.088904304015071
 20
-19.21978018341323
 10
6.042774635748145
 20
-19.32912333439239
 10
5.950646859066708
 20
-19.41011826104375
 10
5.858459282452396
 20
-19.49111318769491
 10
5.721529396015217
 20
-19.53161065102056
 10
5.539940919661308
 20
-19.53161065102056
 10
5.539940919661308
 20
-19.53161065102056
 10
3.551473549668881
 20
-19.53161065102056
 10
3.551473549668881
 20
-19.53161065102056
 10
3.551473549668881
 20
-19.53161065102056
 10
3.551473549668881
 20
-21.48763812964872
 10
3.551473549668881
 20
-21.48763812964872
 10
3.551473549668881
 20
-21.73605433409551
 10
3.495177892802802
 20
-21.92031779222723
 10
3.382718138923027
 20
-22.0404046820064
 10
3.270198585110409
 20
-22.16051539382274
 10
3.12584154700258
 20
-22.22064221584267
 10
2.94964702459954
 20
-22.22064221584267
 10
2.770725625254629
 20
-22.22064221584267
 10
2.624969268716111
 20
-22.15989602085419
 10
2.512509514836367
 20
-22.03840363087732
 10
2.399989961023749
 20
-21.91691124090038
 10
2.343754104090609
 20
-21.73333862184912
 10
2.343754104090609
 20
-21.48763812964872
 10
2.343754104090609
 20
-21.48763812964872
 10
2.343754104090609
 20
-16.9195242665172
 10
2.343754104090609
 20
-16.9195242665172
 10
2.343754104090609
 20
-16.74676685237757
 10
2.369491995226322
 20
-16.60564510370628
 10
2.421015617444084
 20
-16.49630195272712
 10
2.472479439728973
 20
-16.38695880174789
 10
2.55317346923298
 20
-16.30736937529443
 10
2.662966146103726
 20
-16.25736691910585
 10
2.772758822974473
 20
-16.20743592902906
 10
2.913049465642679
 20
-16.1824704339907
 10
3.083838074108248
 20
-16.1824704339907
 10
3.083838074108248
 20
-16.1824704339907
 10
5.930314881868401
 20
-16.1824704339907
 10
5.930314881868401
 20
-16.1824704339907
 10
6.122774986030093
 20
-16.1824704339907
 10
6.265792505640203
 20
-16.22496894844531
 10
6.359319600752265
 20
-16.31001362142915
 10
6.452846695864392
 20
-16.395058294413
 10
6.499610243420503
 20
-16.50645014059575
 10
6.499610243420503
 20
-16.6441415159029
 10
6.499610243420503
 20
-16.78454860345657
 10
6.452846695864392
 20
-16.89722683965085
 10
6.359319600752265
 20
-16.98227151263463
 10
6.265792505640203
 20
-17.06731618561854
 10
6.122774986030093
 20
-17.10986234414765
 10
5.930314881868401
 20
-17.10986234414765
 97
        0
 75
     2
 76
     1
 98
        0
  0
SPLINE
  5
43
330
1F
100
AcDbEntity
  8
_U+5716_U+5C64 1
370
     0
100
AcDbSpline
210
0.0
220
0.0
230
1.0
 70
    11
 71
     3
 72
    83
 73
    79
 74
     0
 42
0.0000000001
 43
0.0000000001
 12
1.0
 22
0.0
 32
0.0
 13
1.0
 23
0.0
 33
0.0
 40
0.0
 40
0.0
 40
0.0
 40
0.0
 40
1.0
 40
1.0
 40
1.0
 40
2.0
 40
2.0
 40
2.0
 40
3.0
 40
3.0
 40
3.0
 40
4.0
 40
4.0
 40
4.0
 40
5.0
 40
5.0
 40
5.0
 40
6.0
 40
6.0
 40
6.0
 40
7.0
 40
7.0
 40
7.0
 40
8.0
 40
8.0
 40
8.0
 40
9.0
 40
9.0
 40
9.0
 40
10.0
 40
10.0
 40
10.0
 40
11.0
 40
11.0
 40
11.0
 40
12.0
 40
12.0
 40
12.0
 40
13.0
 40
13.0
 40
13.0
 40
14.0
 40
14.0
 40
14.0
 40
15.0
 40
15.0
 40
15.0
 40
16.0
 40
16.0
 40
16.0
 40
17.0
 40
17.0
 40
17.0
 40
18.0
 40
18.0
 40
18.0
 40
19.0
 40
19.0
 40
19.0
 40
20.0
 40
20.0
 40
20.0
 40
21.0
 40
21.0
 40
21.0
 40
22.0
 40
22.0
 40
22.0
 40
23.0
 40
23.0
 40
23.0
 40
24.0
 40
24.0
 40
24.0
 40
25.0
 40
25.0
 40
25.0
 40
26.0
 40
26.0
 40
26.0
 40
26.0
 10
9.69524689960822
 20
-21.44714066632307
 30
0.0
 10
9.69524689960822
 20
-21.44714066632307
 30
0.0
 10
9.410599218832152
 20
-20.7019873411314
 30
0.0
 10
9.410599218832152
 20
-20.7019873411314
 30
0.0
 10
9.410599218832152
 20
-20.7019873411314
 30
0.0
 10
6.987027536796332
 20
-20.7019873411314
 30
0.0
 10
6.987027536796332
 20
-20.7019873411314
 30
0.0
 10
6.987027536796332
 20
-20.7019873411314
 30
0.0
 10
6.702379856020361
 20
-21.46333965165328
 30
0.0
 10
6.702379856020361
 20
-21.46333965165328
 30
0.0
 10
6.591187860718861
 20
-21.76035281209094
 30
0.0
 10
6.496333207095552
 20
-21.96081525555287
 30
0.0
 10
6.417732175244327
 20
-22.06470316000171
 30
0.0
 10
6.339071343460098
 20
-22.16861488648784
 30
0.0
 10
6.210346007821767
 20
-22.22064221584267
 30
0.0
 10
6.031424608476824
 20
-22.22064221584267
 30
0.0
 10
5.879568658778839
 20
-22.22064221584267
 30
0.0
 10
5.745377609270132
 20
-22.16527980127272
 30
0.0
 10
5.628851459950766
 20
-22.05460261620753
 30
0.0
 10
5.512265510698461
 20
-21.94392543114233
 30
0.0
 10
5.453996456045509
 20
-21.8183832948329
 30
0.0
 10
5.453996456045509
 20
-21.67797620727923
 30
0.0
 10
5.453996456045509
 20
-21.59698128062794
 30
0.0
 10
5.467535160862289
 20
-21.51331828580457
 30
0.0
 10
5.49466041044209
 20
-21.42689193466025
 30
0.0
 10
5.521725860088985
 20
-21.34051322759036
 30
0.0
 10
5.566456209925188
 20
-21.22035487169952
 30
0.0
 10
5.628851459950766
 20
-21.0664645110621
 30
0.0
 10
5.628851459950766
 20
-21.0664645110621
 30
0.0
 10
7.153749749822278
 20
-17.21110600246177
 30
0.0
 10
7.153749749822278
 20
-17.21110600246177
 30
0.0
 10
7.197080781227825
 20
-17.10042881739651
 30
0.0
 10
7.249310042654217
 20
-16.96747802750219
 30
0.0
 10
7.310305974249136
 20
-16.81218216666706
 30
0.0
 10
7.371301905844024
 20
-16.65695777194361
 30
0.0
 10
7.43636423287847
 20
-16.52808055041906
 30
0.0
 10
7.505492955352667
 20
-16.42545521394446
 30
0.0
 10
7.574621677826896
 20
-16.32287752154437
 30
0.0
 10
7.665421895997119
 20
-16.2398338996896
 30
0.0
 10
7.777941449809737
 20
-16.17637199245462
 30
0.0
 10
7.890401203689416
 20
-16.11298155133136
 30
0.0
 10
8.029364287846407
 20
-16.08122677567658
 30
0.0
 10
8.194746982374603
 20
-16.08122677567658
 30
0.0
 10
8.362808713898334
 20
-16.08122677567658
 30
0.0
 10
8.503099356566507
 20
-16.11298155133136
 30
0.0
 10
8.615618910379125
 20
-16.17637199245462
 30
0.0
 10
8.728078664258868
 20
-16.2398338996896
 30
0.0
 10
8.818938682361997
 20
-16.32154348745839
 30
0.0
 10
8.88806740483613
 20
-16.4214054676119
 30
0.0
 10
8.957196127310327
 20
-16.52131509183999
 30
0.0
 10
9.015465181963343
 20
-16.62860954761568
 30
0.0
 10
9.062922408741452
 20
-16.74333647901349
 30
0.0
 10
9.110319835586685
 20
-16.85813487652303
 30
0.0
 10
9.170681887892354
 20
-17.01133439808024
 30
0.0
 10
9.243877005806207
 20
-17.20300650979661
 30
0.0
 10
9.243877005806207
 20
-17.20300650979661
 30
0.0
 10
10.80130645919499
 20
-21.03406654040162
 30
0.0
 10
10.80130645919499
 20
-21.03406654040162
 30
0.0
 10
10.92329832238477
 20
-21.32564827634613
 30
0.0
 10
10.98429425397959
 20
-21.53761676379995
 30
0.0
 10
10.98429425397959
 20
-21.66987671461407
 30
0.0
 10
10.98429425397959
 20
-21.80756808992115
 30
0.0
 10
10.92667103860233
 20
-21.9337772432737
 30
0.0
 10
10.81147244779421
 20
-22.04850417467138
 30
0.0
 10
10.69621405705302
 20
-22.16323110606925
 30
0.0
 10
10.55732273281554
 20
-22.22064221584267
 30
0.0
 10
10.39466691522924
 20
-22.22064221584267
 30
0.0
 10
10.29974050168643
 20
-22.22064221584267
 30
0.0
 10
10.21841259289327
 20
-22.2037285693949
 30
0.0
 10
10.15068318884982
 20
-22.16999656464832
 30
0.0
 10
10.08289398487341
 20
-22.13621691582736
 30
0.0
 10
10.02596444871818
 20
-22.09040713819492
 30
0.0
 10
9.97989458038419
 20
-22.03230518934117
 30
0.0
 10
9.933764912117233
 20
-21.97427470659928
 30
0.0
 10
9.884334287552251
 20
-21.88518028728295
 30
0.0
 10
9.831471146836675
 20
-21.76502193139197
 30
0.0
 10
9.77860800612116
 20
-21.64493504161286
 30
0.0
 10
9.733183977062833
 20
-21.53895079788598
 30
0.0
 10
9.69524689960822
 20
-21.44714066632307
 30
0.0
  0
POLYLINE
  5
44
330
1F
100
AcDbEntity
  8
_U+5716_U+5C64 1
370
     0
100
AcDb2dPolyline
 66
     1
 10
0.0
 20
0.0
 30
0.0
  0
VERTEX
  5
45
330
44
100
AcDbEntity
  8
_U+5716_U+5C64 1
370
     0
100
AcDbVertex
100
AcDb2dVertex
 10
7.304206381089606
 20
-19.79889390896976
 30
0.0
  0
VERTEX
  5
46
330
44
100
AcDbEntity
  8
_U+5716_U+5C64 1
370
     0
100
AcDbVertex
100
AcDb2dVertex
 10
9.085287583659602
 20
-19.79889390896976
 30
0.0
  0
VERTEX
  5
47
330
44
100
AcDbEntity
  8
_U+5716_U+5C64 1
370
     0
100
AcDbVertex
100
AcDb2dVertex
 10
8.186614191495261
 20
-17.34879737776892
 30
0.0
  0
VERTEX
  5
48
330
44
100
AcDbEntity
  8
_U+5716_U+5C64 1
370
     0
100
AcDbVertex
100
AcDb2dVertex
 10
7.304206381089606
 20
-19.79889390896976
 30
0.0
  0
SEQEND
  5
49
330
44
100
AcDbEntity
  8
_U+5716_U+5C64 1
370
     0
  0
HATCH
  5
4A
330
1F
100
AcDbEntity
  8
_U+5716_U+5C64 1
 62
     7
100
AcDbHatch
 10
0.0
 20
0.0
 30
0.0
210
0.0
220
0.0
230
1.0
  2
SOLID
 70
     1
 71
     0
 91
        2
 92
        1
 93
        1
 72
     4
 94
        3
 73
     0
 74
     1
 95
       83
 96
       79
 40
0.0
 40
0.0
 40
0.0
 40
0.0
 40
1.0
 40
1.0
 40
1.0
 40
2.0
 40
2.0
 40
2.0
 40
3.0
 40
3.0
 40
3.0
 40
4.0
 40
4.0
 40
4.0
 40
5.0
 40
5.0
 40
5.0
 40
6.0
 40
6.0
 40
6.0
 40
7.0
 40
7.0
 40
7.0
 40
8.0
 40
8.0
 40
8.0
 40
9.0
 40
9.0
 40
9.0
 40
10.0
 40
10.0
 40
10.0
 40
11.0
 40
11.0
 40
11.0
 40
12.0
 40
12.0
 40
12.0
 40
13.0
 40
13.0
 40
13.0
 40
14.0
 40
14.0
 40
14.0
 40
15.0
 40
15.0
 40
15.0
 40
16.0
 40
16.0
 40
16.0
 40
17.0
 40
17.0
 40
17.0
 40
18.0
 40
18.0
 40
18.0
 40
19.0
 40
19.0
 40
19.0
 40
20.0
 40
20.0
 40
20.0
 40
21.0
 40
21.0
 40
21.0
 40
22.0
 40
22.0
 40
22.0
 40
23.0
 40
23.0
 40
23.0
 40
24.0
 40
24.0
 40
24.0
 40
25.0
 40
25.0
 40
25.0
 40
26.0
 40
26.0
 40
26.0
 40
26.0
 10
9.69524689960822
 20
-21.44714066632307
 10
9.69524689960822
 20
-21.44714066632307
 10
9.410599218832152
 20
-20.7019873411314
 10
9.410599218832152
 20
-20.7019873411314
 10
9.410599218832152
 20
-20.7019873411314
 10
6.987027536796332
 20
-20.7019873411314
 10
6.987027536796332
 20
-20.7019873411314
 10
6.987027536796332
 20
-20.7019873411314
 10
6.702379856020361
 20
-21.46333965165328
 10
6.702379856020361
 20
-21.46333965165328
 10
6.591187860718861
 20
-21.76035281209094
 10
6.496333207095552
 20
-21.96081525555287
 10
6.417732175244327
 20
-22.06470316000171
 10
6.339071343460098
 20
-22.16861488648784
 10
6.210346007821767
 20
-22.22064221584267
 10
6.031424608476824
 20
-22.22064221584267
 10
5.879568658778839
 20
-22.22064221584267
 10
5.745377609270132
 20
-22.16527980127272
 10
5.628851459950766
 20
-22.05460261620753
 10
5.512265510698461
 20
-21.94392543114233
 10
5.453996456045509
 20
-21.8183832948329
 10
5.453996456045509
 20
-21.67797620727923
 10
5.453996456045509
 20
-21.59698128062794
 10
5.467535160862289
 20
-21.51331828580457
 10
5.49466041044209
 20
-21.42689193466025
 10
5.521725860088985
 20
-21.34051322759036
 10
5.566456209925188
 20
-21.22035487169952
 10
5.628851459950766
 20
-21.0664645110621
 10
5.628851459950766
 20
-21.0664645110621
 10
7.153749749822278
 20
-17.21110600246177
 10
7.153749749822278
 20
-17.21110600246177
 10
7.197080781227825
 20
-17.10042881739651
 10
7.249310042654217
 20
-16.96747802750219
 10
7.310305974249136
 20
-16.81218216666706
 10
7.371301905844024
 20
-16.65695777194361
 10
7.43636423287847
 20
-16.52808055041906
 10
7.505492955352667
 20
-16.42545521394446
 10
7.574621677826896
 20
-16.32287752154437
 10
7.665421895997119
 20
-16.2398338996896
 10
7.777941449809737
 20
-16.17637199245462
 10
7.890401203689416
 20
-16.11298155133136
 10
8.029364287846407
 20
-16.08122677567658
 10
8.194746982374603
 20
-16.08122677567658
 10
8.362808713898334
 20
-16.08122677567658
 10
8.503099356566507
 20
-16.11298155133136
 10
8.615618910379125
 20
-16.17637199245462
 10
8.728078664258868
 20
-16.2398338996896
 10
8.818938682361997
 20
-16.32154348745839
 10
8.88806740483613
 20
-16.4214054676119
 10
8.957196127310327
 20
-16.52131509183999
 10
9.015465181963343
 20
-16.62860954761568
 10
9.062922408741452
 20
-16.74333647901349
 10
9.110319835586685
 20
-16.85813487652303
 10
9.170681887892354
 20
-17.01133439808024
 10
9.243877005806207
 20
-17.20300650979661
 10
9.243877005806207
 20
-17.20300650979661
 10
10.80130645919499
 20
-21.03406654040162
 10
10.80130645919499
 20
-21.03406654040162
 10
10.92329832238477
 20
-21.32564827634613
 10
10.98429425397959
 20
-21.53761676379995
 10
10.98429425397959
 20
-21.66987671461407
 10
10.98429425397959
 20
-21.80756808992115
 10
10.92667103860233
 20
-21.9337772432737
 10
10.81147244779421
 20
-22.04850417467138
 10
10.69621405705302
 20
-22.16323110606925
 10
10.55732273281554
 20
-22.22064221584267
 10
10.39466691522924
 20
-22.22064221584267
 10
10.29974050168643
 20
-22.22064221584267
 10
10.21841259289327
 20
-22.2037285693949
 10
10.15068318884982
 20
-22.16999656464832
 10
10.08289398487341
 20
-22.13621691582736
 10
10.02596444871818
 20
-22.09040713819492
 10
9.97989458038419
 20
-22.03230518934117
 10
9.933764912117233
 20
-21.97427470659928
 10
9.884334287552251
 20
-21.88518028728295
 10
9.831471146836675
 20
-21.76502193139197
 10
9.77860800612116
 20
-21.64493504161286
 10
9.733183977062833
 20
-21.53895079788598
 10
9.69524689960822
 20
-21.44714066632307
 97
        0
 92
        1
 93
        3
 72
     1
 10
7.304206381089606
 20
-19.79889390896976
 11
9.085287583659602
 21
-19.79889390896976
 72
     1
 10
9.085287583659602
 20
-19.79889390896976
 11
8.186614191495261
 21
-17.34879737776892
 72
     1
 10
8.186614191495261
 20
-17.34879737776892
 11
7.304206381089606
 21
-19.79889390896976
 97
        0
 75
     2
 76
     1
 98
        0
  0
SPLINE
  5
4B
330
1F
100
AcDbEntity
  8
_U+5716_U+5C64 1
370
     0
100
AcDbSpline
210
0.0
220
0.0
230
1.0
 70
    11
 71
     3
 72
    59
 73
    55
 74
     0
 42
0.0000000001
 43
0.0000000001
 12
1.0
 22
0.0
 32
0.0
 13
1.0
 23
0.0
 33
0.0
 40
0.0
 40
0.0
 40
0.0
 40
0.0
 40
1.0
 40
1.0
 40
1.0
 40
2.0
 40
2.0
 40
2.0
 40
3.0
 40
3.0
 40
3.0
 40
4.0
 40
4.0
 40
4.0
 40
5.0
 40
5.0
 40
5.0
 40
6.0
 40
6.0
 40
6.0
 40
7.0
 40
7.0
 40
7.0
 40
8.0
 40
8.0
 40
8.0
 40
9.0
 40
9.0
 40
9.0
 40
10.0
 40
10.0
 40
10.0
 40
11.0
 40
11.0
 40
11.0
 40
12.0
 40
12.0
 40
12.0
 40
13.0
 40
13.0
 40
13.0
 40
14.0
 40
14.0
 40
14.0
 40
15.0
 40
15.0
 40
15.0
 40
16.0
 40
16.0
 40
16.0
 40
17.0
 40
17.0
 40
17.0
 40
18.0
 40
18.0
 40
18.0
 40
18.0
 10
13.52522928439582
 20
-22.11939855752861
 30
0.0
 10
13.52522928439582
 20
-22.11939855752861
 30
0.0
 10
11.70348412742931
 20
-22.11939855752861
 30
0.0
 10
11.70348412742931
 20
-22.11939855752861
 30
0.0
 10
11.44050794234936
 20
-22.11939855752861
 30
0.0
 10
11.25274811291651
 20
-22.06065341366923
 30
0.0
 10
11.14028835903677
 20
-21.94321077002477
 30
0.0
 10
11.02776880522412
 20
-21.82576812638045
 30
0.0
 10
10.97153294829101
 20
-21.63886042211413
 30
0.0
 10
10.97153294829101
 20
-21.38234472500205
 30
0.0
 10
10.97153294829101
 20
-21.38234472500205
 30
0.0
 10
10.97153294829101
 20
-16.9195242665172
 30
0.0
 10
10.97153294829101
 20
-16.9195242665172
 30
0.0
 10
10.97153294829101
 20
-16.6576724330611
 30
0.0
 10
11.0290963637354
 20
-16.46935922859689
 30
0.0
 10
11.14435475447642
 20
-16.35456083108735
 30
0.0
 10
11.25955334528461
 20
-16.2398338996896
 30
0.0
 10
11.4459018963002
 20
-16.1824704339907
 30
0.0
 10
11.70348412742931
 20
-16.1824704339907
 30
0.0
 10
11.70348412742931
 20
-16.1824704339907
 30
0.0
 10
13.6350219612666
 20
-16.1824704339907
 30
0.0
 10
13.6350219612666
 20
-16.1824704339907
 30
0.0
 10
13.91966964204263
 20
-16.1824704339907
 30
0.0
 10
14.16632044543102
 20
-16.20005109748145
 30
0.0
 10
14.37510593128424
 20
-16.235117136314
 30
0.0
 10
14.58383161720451
 20
-16.270230819221
 30
0.0
 10
14.77088580742883
 20
-16.3377424727886
 30
0.0
 10
14.93626850195693
 20
-16.43760445294217
 30
0.0
 10
15.07719302391432
 20
-16.52131509183999
 30
0.0
 10
15.20192372403247
 20
-16.62729933556686
 30
0.0
 10
15.31037688240544
 20
-16.75548571801114
 30
0.0
 10
15.41877024084549
 20
-16.88374356656715
 30
0.0
 10
15.50149746806931
 20
-17.02548468820686
 30
0.0
 10
15.55842700422455
 20
-17.18070908293025
 30
0.0
 10
15.61535654037975
 20
-17.33600494376557
 30
0.0
 10
15.64382130845739
 20
-17.50001967023427
 30
0.0
 10
15.64382130845739
 20
-17.67277708437404
 30
0.0
 10
15.64382130845739
 20
-18.2667557611748
 30
0.0
 10
15.34557512293167
 20
-18.70141265284505
 30
0.0
 10
14.74921431173277
 20
-18.97679540345941
 30
0.0
 10
15.53262931315593
 20
-19.22521160790626
 30
0.0
 10
15.92440259379374
 20
-19.70846545556732
 30
0.0
 10
15.92440259379374
 20
-20.4266045905171
 30
0.0
 10
15.92440259379374
 20
-20.75868378978732
 30
0.0
 10
15.83900828956089
 20
-21.05772182339123
 30
0.0
 10
15.66821968109532
 20
-21.3235995811426
 30
0.0
 10
15.49743107262975
 20
-21.58954880500582
 30
0.0
 10
15.26698605106702
 20
-21.78598532417235
 30
0.0
 10
14.97693245635348
 20
-21.91286149456788
 30
0.0
 10
14.79528418006673
 20
-21.98847264080053
 30
0.0
 10
14.58655849414642
 20
-22.04181018220411
 30
0.0
 10
14.35070755864627
 20
-22.07280265266682
 30
0.0
 10
14.11485662314619
 20
-22.10386658924139
 30
0.0
 10
13.83968125174725
 20
-22.11939855752861
 30
0.0
 10
13.52522928439582
 20
-22.11939855752861
 30
0.0
  0
SPLINE
  5
4C
330
1F
100
AcDbEntity
  8
_U+5716_U+5C64 1
370
     0
100
AcDbSpline
210
0.0
220
0.0
230
1.0
 70
    11
 71
     3
 72
    29
 73
    25
 74
     0
 42
0.0000000001
 43
0.0000000001
 12
1.0
 22
0.0
 32
0.0
 13
1.0
 23
0.0
 33
0.0
 40
0.0
 40
0.0
 40
0.0
 40
0.0
 40
1.0
 40
1.0
 40
1.0
 40
2.0
 40
2.0
 40
2.0
 40
3.0
 40
3.0
 40
3.0
 40
4.0
 40
4.0
 40
4.0
 40
5.0
 40
5.0
 40
5.0
 40
6.0
 40
6.0
 40
6.0
 40
7.0
 40
7.0
 40
7.0
 40
8.0
 40
8.0
 40
8.0
 40
8.0
 10
12.17925239386922
 20
-17.08556386615228
 30
0.0
 10
12.17925239386922
 20
-17.08556386615228
 30
0.0
 10
12.17925239386922
 20
-18.62041772619381
 30
0.0
 10
12.17925239386922
 20
-18.62041772619381
 30
0.0
 10
12.17925239386922
 20
-18.62041772619381
 30
0.0
 10
13.28531195345602
 20
-18.62041772619381
 30
0.0
 10
13.28531195345602
 20
-18.62041772619381
 30
0.0
 10
13.58622521599067
 20
-18.62041772619381
 30
0.0
 10
13.81864363534035
 20
-18.59206950186589
 30
0.0
 10
13.98269877135733
 20
-18.53537305321003
 30
0.0
 10
14.14669410744131
 20
-18.47867660455411
 30
0.0
 10
14.27204672686208
 20
-18.37071513173543
 30
0.0
 10
14.35884034952558
 20
-18.21139334660492
 30
0.0
 10
14.42656975356909
 20
-18.09800044929308
 30
0.0
 10
14.46050023551702
 20
-17.97112427889768
 30
0.0
 10
14.46050023551702
 20
-17.83071719134395
 30
0.0
 10
14.46050023551702
 20
-17.53103596273427
 30
0.0
 10
14.35337463565521
 20
-17.33195519743289
 30
0.0
 10
14.13925499578415
 20
-17.23335578525362
 30
0.0
 10
13.92507555598
 20
-17.13482783918608
 30
0.0
 10
13.59842440230974
 20
-17.08556386615228
 30
0.0
 10
13.15925369482665
 20
-17.08556386615228
 30
0.0
 10
13.15925369482665
 20
-17.08556386615228
 30
0.0
 10
12.17925239386922
 20
-17.08556386615228
 30
0.0
 10
12.17925239386922
 20
-17.08556386615228
 30
0.0
  0
SPLINE
  5
4D
330
1F
100
AcDbEntity
  8
_U+5716_U+5C64 1
370
     0
100
AcDbSpline
210
0.0
220
0.0
230
1.0
 70
    11
 71
     3
 72
    23
 73
    19
 74
     0
 42
0.0000000001
 43
0.0000000001
 12
1.0
 22
0.0
 32
0.0
 13
1.0
 23
0.0
 33
0.0
 40
0.0
 40
0.0
 40
0.0
 40
0.0
 40
1.0
 40
1.0
 40
1.0
 40
2.0
 40
2.0
 40
2.0
 40
3.0
 40
3.0
 40
3.0
 40
4.0
 40
4.0
 40
4.0
 40
5.0
 40
5.0
 40
5.0
 40
6.0
 40
6.0
 40
6.0
 40
6.0
 10
13.43576858472344
 20
-19.48301369502988
 30
0.0
 10
13.43576858472344
 20
-19.48301369502988
 30
0.0
 10
12.17925239386922
 20
-19.48301369502988
 30
0.0
 10
12.17925239386922
 20
-19.48301369502988
 30
0.0
 10
12.17925239386922
 20
-19.48301369502988
 30
0.0
 10
12.17925239386922
 20
-21.21630512536697
 30
0.0
 10
12.17925239386922
 20
-21.21630512536697
 30
0.0
 10
12.17925239386922
 20
-21.21630512536697
 30
0.0
 10
13.47643253911996
 20
-21.21630512536697
 30
0.0
 10
13.47643253911996
 20
-21.21630512536697
 30
0.0
 10
14.29237870406038
 20
-21.21630512536697
 30
0.0
 10
14.70041756645685
 20
-20.92338935533636
 30
0.0
 10
14.70041756645685
 20
-20.33751017120064
 30
0.0
 10
14.70041756645685
 20
-20.03782894259103
 30
0.0
 10
14.59469128502582
 20
-19.82052431879313
 30
0.0
 10
14.38323872216355
 20
-19.68550101165798
 30
0.0
 10
14.17178615930133
 20
-19.55052534859735
 30
0.0
 10
13.85594683350584
 20
-19.48301369502988
 30
0.0
 10
13.43576858472344
 20
-19.48301369502988
 30
0.0
  0
HATCH
  5
4E
330
1F
100
AcDbEntity
  8
_U+5716_U+5C64 1
 62
     7
100
AcDbHatch
 10
0.0
 20
0.0
 30
0.0
210
0.0
220
0.0
230
1.0
  2
SOLID
 70
     1
 71
     0
 91
        3
 92
        1
 93
        1
 72
     4
 94
        3
 73
     0
 74
     1
 95
       59
 96
       55
 40
0.0
 40
0.0
 40
0.0
 40
0.0
 40
1.0
 40
1.0
 40
1.0
 40
2.0
 40
2.0
 40
2.0
 40
3.0
 40
3.0
 40
3.0
 40
4.0
 40
4.0
 40
4.0
 40
5.0
 40
5.0
 40
5.0
 40
6.0
 40
6.0
 40
6.0
 40
7.0
 40
7.0
 40
7.0
 40
8.0
 40
8.0
 40
8.0
 40
9.0
 40
9.0
 40
9.0
 40
10.0
 40
10.0
 40
10.0
 40
11.0
 40
11.0
 40
11.0
 40
12.0
 40
12.0
 40
12.0
 40
13.0
 40
13.0
 40
13.0
 40
14.0
 40
14.0
 40
14.0
 40
15.0
 40
15.0
 40
15.0
 40
16.0
 40
16.0
 40
16.0
 40
17.0
 40
17.0
 40
17.0
 40
18.0
 40
18.0
 40
18.0
 40
18.0
 10
13.52522928439582
 20
-22.11939855752861
 10
13.52522928439582
 20
-22.11939855752861
 10
11.70348412742931
 20
-22.11939855752861
 10
11.70348412742931
 20
-22.11939855752861
 10
11.44050794234936
 20
-22.11939855752861
 10
11.25274811291651
 20
-22.06065341366923
 10
11.14028835903677
 20
-21.94321077002477
 10
11.02776880522412
 20
-21.82576812638045
 10
10.97153294829101
 20
-21.63886042211413
 10
10.97153294829101
 20
-21.38234472500205
 10
10.97153294829101
 20
-21.38234472500205
 10
10.97153294829101
 20
-16.9195242665172
 10
10.97153294829101
 20
-16.9195242665172
 10
10.97153294829101
 20
-16.6576724330611
 10
11.0290963637354
 20
-16.46935922859689
 10
11.14435475447642
 20
-16.35456083108735
 10
11.25955334528461
 20
-16.2398338996896
 10
11.4459018963002
 20
-16.1824704339907
 10
11.70348412742931
 20
-16.1824704339907
 10
11.70348412742931
 20
-16.1824704339907
 10
13.6350219612666
 20
-16.1824704339907
 10
13.6350219612666
 20
-16.1824704339907
 10
13.91966964204263
 20
-16.1824704339907
 10
14.16632044543102
 20
-16.20005109748145
 10
14.37510593128424
 20
-16.235117136314
 10
14.58383161720451
 20
-16.270230819221
 10
14.77088580742883
 20
-16.3377424727886
 10
14.93626850195693
 20
-16.43760445294217
 10
15.07719302391432
 20
-16.52131509183999
 10
15.20192372403247
 20
-16.62729933556686
 10
15.31037688240544
 20
-16.75548571801114
 10
15.41877024084549
 20
-16.88374356656715
 10
15.50149746806931
 20
-17.02548468820686
 10
15.55842700422455
 20
-17.18070908293025
 10
15.61535654037975
 20
-17.33600494376557
 10
15.64382130845739
 20
-17.50001967023427
 10
15.64382130845739
 20
-17.67277708437404
 10
15.64382130845739
 20
-18.2667557611748
 10
15.34557512293167
 20
-18.70141265284505
 10
14.74921431173277
 20
-18.97679540345941
 10
15.53262931315593
 20
-19.22521160790626
 10
15.92440259379374
 20
-19.70846545556732
 10
15.92440259379374
 20
-20.4266045905171
 10
15.92440259379374
 20
-20.75868378978732
 10
15.83900828956089
 20
-21.05772182339123
 10
15.66821968109532
 20
-21.3235995811426
 10
15.49743107262975
 20
-21.58954880500582
 10
15.26698605106702
 20
-21.78598532417235
 10
14.97693245635348
 20
-21.91286149456788
 10
14.79528418006673
 20
-21.98847264080053
 10
14.58655849414642
 20
-22.04181018220411
 10
14.35070755864627
 20
-22.07280265266682
 10
14.11485662314619
 20
-22.10386658924139
 10
13.83968125174725
 20
-22.11939855752861
 10
13.52522928439582
 20
-22.11939855752861
 97
        0
 92
        1
 93
        1
 72
     4
 94
        3
 73
     0
 74
     1
 95
       29
 96
       25
 40
0.0
 40
0.0
 40
0.0
 40
0.0
 40
1.0
 40
1.0
 40
1.0
 40
2.0
 40
2.0
 40
2.0
 40
3.0
 40
3.0
 40
3.0
 40
4.0
 40
4.0
 40
4.0
 40
5.0
 40
5.0
 40
5.0
 40
6.0
 40
6.0
 40
6.0
 40
7.0
 40
7.0
 40
7.0
 40
8.0
 40
8.0
 40
8.0
 40
8.0
 10
12.17925239386922
 20
-17.08556386615228
 10
12.17925239386922
 20
-17.08556386615228
 10
12.17925239386922
 20
-18.62041772619381
 10
12.17925239386922
 20
-18.62041772619381
 10
12.17925239386922
 20
-18.62041772619381
 10
13.28531195345602
 20
-18.62041772619381
 10
13.28531195345602
 20
-18.62041772619381
 10
13.58622521599067
 20
-18.62041772619381
 10
13.81864363534035
 20
-18.59206950186589
 10
13.98269877135733
 20
-18.53537305321003
 10
14.14669410744131
 20
-18.47867660455411
 10
14.27204672686208
 20
-18.37071513173543
 10
14.35884034952558
 20
-18.21139334660492
 10
14.42656975356909
 20
-18.09800044929308
 10
14.46050023551702
 20
-17.97112427889768
 10
14.46050023551702
 20
-17.83071719134395
 10
14.46050023551702
 20
-17.53103596273427
 10
14.35337463565521
 20
-17.33195519743289
 10
14.13925499578415
 20
-17.23335578525362
 10
13.92507555598
 20
-17.13482783918608
 10
13.59842440230974
 20
-17.08556386615228
 10
13.15925369482665
 20
-17.08556386615228
 10
13.15925369482665
 20
-17.08556386615228
 10
12.17925239386922
 20
-17.08556386615228
 10
12.17925239386922
 20
-17.08556386615228
 97
        0
 92
        1
 93
        1
 72
     4
 94
        3
 73
     0
 74
     1
 95
       23
 96
       19
 40
0.0
 40
0.0
 40
0.0
 40
0.0
 40
1.0
 40
1.0
 40
1.0
 40
2.0
 40
2.0
 40
2.0
 40
3.0
 40
3.0
 40
3.0
 40
4.0
 40
4.0
 40
4.0
 40
5.0
 40
5.0
 40
5.0
 40
6.0
 40
6.0
 40
6.0
 40
6.0
 10
13.43576858472344
 20
-19.48301369502988
 10
13.43576858472344
 20
-19.48301369502988
 10
12.17925239386922
 20
-19.48301369502988
 10
12.17925239386922
 20
-19.48301369502988
 10
12.17925239386922
 20
-19.48301369502988
 10
12.17925239386922
 20
-21.21630512536697
 10
12.17925239386922
 20
-21.21630512536697
 10
12.17925239386922
 20
-21.21630512536697
 10
13.47643253911996
 20
-21.21630512536697
 10
13.47643253911996
 20
-21.21630512536697
 10
14.29237870406038
 20
-21.21630512536697
 10
14.70041756645685
 20
-20.92338935533636
 10
14.70041756645685
 20
-20.33751017120064
 10
14.70041756645685
 20
-20.03782894259103
 10
14.59469128502582
 20
-19.82052431879313
 10
14.38323872216355
 20
-19.68550101165798
 10
14.17178615930133
 20
-19.55052534859735
 10
13.85594683350584
 20
-19.48301369502988
 10
13.43576858472344
 20
-19.48301369502988
 97
        0
 75
     2
 76
     1
 98
        0
  0
SPLINE
  5
4F
330
1F
100
AcDbEntity
  8
_U+5716_U+5C64 1
370
     0
100
AcDbSpline
210
0.0
220
0.0
230
1.0
 70
    11
 71
     3
 72
    47
 73
    43
 74
     0
 42
0.0000000001
 43
0.0000000001
 12
1.0
 22
0.0
 32
0.0
 13
1.0
 23
0.0
 33
0.0
 40
0.0
 40
0.0
 40
0.0
 40
0.0
 40
1.0
 40
1.0
 40
1.0
 40
2.0
 40
2.0
 40
2.0
 40
3.0
 40
3.0
 40
3.0
 40
4.0
 40
4.0
 40
4.0
 40
5.0
 40
5.0
 40
5.0
 40
6.0
 40
6.0
 40
6.0
 40
7.0
 40
7.0
 40
7.0
 40
8.0
 40
8.0
 40
8.0
 40
9.0
 40
9.0
 40
9.0
 40
10.0
 40
10.0
 40
10.0
 40
11.0
 40
11.0
 40
11.0
 40
12.0
 40
12.0
 40
12.0
 40
13.0
 40
13.0
 40
13.0
 40
14.0
 40
14.0
 40
14.0
 40
14.0
 10
17.26169653405802
 20
-16.81018111553804
 30
0.0
 10
17.26169653405802
 20
-16.81018111553804
 30
0.0
 10
17.26169653405802
 20
-21.13126045238312
 30
0.0
 10
17.26169653405802
 20
-21.13126045238312
 30
0.0
 10
17.26169653405802
 20
-21.13126045238312
 30
0.0
 10
19.70966658873174
 20
-21.13126045238312
 30
0.0
 10
19.70966658873174
 20
-21.13126045238312
 30
0.0
 10
19.90485356983524
 20
-21.13126045238312
 30
0.0
 10
20.0546165218805
 20
-21.1785233742879
 30
0.0
 10
20.15900328481381
 20
-21.27300157402276
 30
0.0
 10
20.26333024781421
 20
-21.36752741783232
 30
0.0
 10
20.31555950924073
 20
-21.48630409556274
 30
0.0
 10
20.31555950924073
 20
-21.62937925128836
 30
0.0
 10
20.31555950924073
 20
-21.77517011926074
 30
0.0
 10
20.26403588702291
 20
-21.89327977994805
 30
0.0
 10
20.16103648253372
 20
-21.98370823335055
 30
0.0
 10
20.05797727811156
 20
-22.07420815286465
 30
0.0
 10
19.9075206468442
 20
-22.11939855752861
 30
0.0
 10
19.70966658873174
 20
-22.11939855752861
 30
0.0
 10
19.70966658873174
 20
-22.11939855752861
 30
0.0
 10
16.79406105849742
 20
-22.11939855752861
 30
0.0
 10
16.79406105849742
 20
-22.11939855752861
 30
0.0
 10
16.53108487341741
 20
-22.11939855752861
 30
0.0
 10
16.34199748547335
 20
-22.06136807478672
 30
0.0
 10
16.22679889466519
 20
-21.9452594652283
 30
0.0
 10
16.11154050392407
 20
-21.82919849974452
 30
0.0
 10
16.05397708847978
 20
-21.64152849028607
 30
0.0
 10
16.05397708847978
 20
-21.38234472500205
 30
0.0
 10
16.05397708847978
 20
-21.38234472500205
 30
0.0
 10
16.05397708847978
 20
-16.81018111553804
 30
0.0
 10
16.05397708847978
 20
-16.81018111553804
 30
0.0
 10
16.05397708847978
 20
-16.56719633558422
 30
0.0
 10
16.10887342691511
 20
-16.38495775061881
 30
0.0
 10
16.21866610378588
 20
-16.26346536064199
 30
0.0
 10
16.32845878065666
 20
-16.14197297066505
 30
0.0
 10
16.47281581876446
 20
-16.08122677567658
 30
0.0
 10
16.65173721810937
 20
-16.08122677567658
 30
0.0
 10
16.83332569446324
 20
-16.08122677567658
 30
0.0
 10
16.98042156949961
 20
-16.14132977565922
 30
0.0
 10
17.0929411233122
 20
-16.26141666543846
 30
0.0
 10
17.20540087719194
 20
-16.38157502132924
 30
0.0
 10
17.26169653405802
 20
-16.56452826741215
 30
0.0
 10
17.26169653405802
 20
-16.81018111553804
 30
0.0
  0
HATCH
  5
50
330
1F
100
AcDbEntity
  8
_U+5716_U+5C64 1
 62
     7
100
AcDbHatch
 10
0.0
 20
0.0
 30
0.0
210
0.0
220
0.0
230
1.0
  2
SOLID
 70
     1
 71
     0
 91
        1
 92
        1
 93
        1
 72
     4
 94
        3
 73
     0
 74
     1
 95
       47
 96
       43
 40
0.0
 40
0.0
 40
0.0
 40
0.0
 40
1.0
 40
1.0
 40
1.0
 40
2.0
 40
2.0
 40
2.0
 40
3.0
 40
3.0
 40
3.0
 40
4.0
 40
4.0
 40
4.0
 40
5.0
 40
5.0
 40
5.0
 40
6.0
 40
6.0
 40
6.0
 40
7.0
 40
7.0
 40
7.0
 40
8.0
 40
8.0
 40
8.0
 40
9.0
 40
9.0
 40
9.0
 40
10.0
 40
10.0
 40
10.0
 40
11.0
 40
11.0
 40
11.0
 40
12.0
 40
12.0
 40
12.0
 40
13.0
 40
13.0
 40
13.0
 40
14.0
 40
14.0
 40
14.0
 40
14.0
 10
17.26169653405802
 20
-16.81018111553804
 10
17.26169653405802
 20
-16.81018111553804
 10
17.26169653405802
 20
-21.13126045238312
 10
17.26169653405802
 20
-21.13126045238312
 10
17.26169653405802
 20
-21.13126045238312
 10
19.70966658873174
 20
-21.13126045238312
 10
19.70966658873174
 20
-21.13126045238312
 10
19.90485356983524
 20
-21.13126045238312
 10
20.0546165218805
 20
-21.1785233742879
 10
20.15900328481381
 20
-21.27300157402276
 10
20.26333024781421
 20
-21.36752741783232
 10
20.31555950924073
 20
-21.48630409556274
 10
20.31555950924073
 20
-21.62937925128836
 10
20.31555950924073
 20
-21.77517011926074
 10
20.26403588702291
 20
-21.89327977994805
 10
20.16103648253372
 20
-21.98370823335055
 10
20.05797727811156
 20
-22.07420815286465
 10
19.9075206468442
 20
-22.11939855752861
 10
19.70966658873174
 20
-22.11939855752861
 10
19.70966658873174
 20
-22.11939855752861
 10
16.79406105849742
 20
-22.11939855752861
 10
16.79406105849742
 20
-22.11939855752861
 10
16.53108487341741
 20
-22.11939855752861
 10
16.34199748547335
 20
-22.06136807478672
 10
16.22679889466519
 20
-21.9452594652283
 10
16.11154050392407
 20
-21.82919849974452
 10
16.05397708847978
 20
-21.64152849028607
 10
16.05397708847978
 20
-21.38234472500205
 10
16.05397708847978
 20
-21.38234472500205
 10
16.05397708847978
 20
-16.81018111553804
 10
16.05397708847978
 20
-16.81018111553804
 10
16.05397708847978
 20
-16.56719633558422
 10
16.10887342691511
 20
-16.38495775061881
 10
16.21866610378588
 20
-16.26346536064199
 10
16.32845878065666
 20
-16.14197297066505
 10
16.47281581876446
 20
-16.08122677567658
 10
16.65173721810937
 20
-16.08122677567658
 10
16.83332569446324
 20
-16.08122677567658
 10
16.98042156949961
 20
-16.14132977565922
 10
17.0929411233122
 20
-16.26141666543846
 10
17.20540087719194
 20
-16.38157502132924
 10
17.26169653405802
 20
-16.56452826741215
 10
17.26169653405802
 20
-16.81018111553804
 97
        0
 75
     2
 76
     1
 98
        0
  0
SPLINE
  5
51
330
1F
100
AcDbEntity
  8
_U+5716_U+5C64 1
370
     0
100
AcDbSpline
210
0.0
220
0.0
230
1.0
 70
    11
 71
     3
 72
    83
 73
    79
 74
     0
 42
0.0000000001
 43
0.0000000001
 12
1.0
 22
0.0
 32
0.0
 13
1.0
 23
0.0
 33
0.0
 40
0.0
 40
0.0
 40
0.0
 40
0.0
 40
1.0
 40
1.0
 40
1.0
 40
2.0
 40
2.0
 40
2.0
 40
3.0
 40
3.0
 40
3.0
 40
4.0
 40
4.0
 40
4.0
 40
5.0
 40
5.0
 40
5.0
 40
6.0
 40
6.0
 40
6.0
 40
7.0
 40
7.0
 40
7.0
 40
8.0
 40
8.0
 40
8.0
 40
9.0
 40
9.0
 40
9.0
 40
10.0
 40
10.0
 40
10.0
 40
11.0
 40
11.0
 40
11.0
 40
12.0
 40
12.0
 40
12.0
 40
13.0
 40
13.0
 40
13.0
 40
14.0
 40
14.0
 40
14.0
 40
15.0
 40
15.0
 40
15.0
 40
16.0
 40
16.0
 40
16.0
 40
17.0
 40
17.0
 40
17.0
 40
18.0
 40
18.0
 40
18.0
 40
19.0
 40
19.0
 40
19.0
 40
20.0
 40
20.0
 40
20.0
 40
21.0
 40
21.0
 40
21.0
 40
22.0
 40
22.0
 40
22.0
 40
23.0
 40
23.0
 40
23.0
 40
24.0
 40
24.0
 40
24.0
 40
25.0
 40
25.0
 40
25.0
 40
26.0
 40
26.0
 40
26.0
 40
26.0
 10
23.92190210483379
 20
-21.44714066632307
 30
0.0
 10
23.92190210483379
 20
-21.44714066632307
 30
0.0
 10
23.63725442405775
 20
-20.7019873411314
 30
0.0
 10
23.63725442405775
 20
-20.7019873411314
 30
0.0
 10
23.63725442405775
 20
-20.7019873411314
 30
0.0
 10
21.21368274202196
 20
-20.7019873411314
 30
0.0
 10
21.21368274202196
 20
-20.7019873411314
 30
0.0
 10
21.21368274202196
 20
-20.7019873411314
 30
0.0
 10
20.92903506124593
 20
-21.46333965165328
 30
0.0
 10
20.92903506124593
 20
-21.46333965165328
 30
0.0
 10
20.81784306594452
 20
-21.76035281209094
 30
0.0
 10
20.72298841232115
 20
-21.96081525555287
 30
0.0
 10
20.64438738046989
 20
-22.06470316000171
 30
0.0
 10
20.56572654868573
 20
-22.16861488648784
 30
0.0
 10
20.43700121304746
 20
-22.22064221584267
 30
0.0
 10
20.25807981370246
 20
-22.22064221584267
 30
0.0
 10
20.10622386400444
 20
-22.22064221584267
 30
0.0
 10
19.97203281449573
 20
-22.16527980127272
 30
0.0
 10
19.8555066651764
 20
-22.05460261620753
 30
0.0
 10
19.73892071592409
 20
-21.94392543114233
 30
0.0
 10
19.68065166127111
 20
-21.8183832948329
 30
0.0
 10
19.68065166127111
 20
-21.67797620727923
 30
0.0
 10
19.68065166127111
 20
-21.59698128062794
 30
0.0
 10
19.69419036608786
 20
-21.51331828580457
 30
0.0
 10
19.72131561566775
 20
-21.42689193466025
 30
0.0
 10
19.74838106531461
 20
-21.34051322759036
 30
0.0
 10
19.79311141515079
 20
-21.22035487169952
 30
0.0
 10
19.8555066651764
 20
-21.0664645110621
 30
0.0
 10
19.8555066651764
 20
-21.0664645110621
 30
0.0
 10
21.38040495504791
 20
-17.21110600246177
 30
0.0
 10
21.38040495504791
 20
-17.21110600246177
 30
0.0
 10
21.42374794644009
 20
-17.10042881739651
 30
0.0
 10
21.47596524787991
 20
-16.96747802750219
 30
0.0
 10
21.53696117947477
 20
-16.81218216666706
 30
0.0
 10
21.59795711106962
 20
-16.65695777194361
 30
0.0
 10
21.66301943810416
 20
-16.52808055041906
 30
0.0
 10
21.73214816057833
 20
-16.42545521394446
 30
0.0
 10
21.80127688305243
 20
-16.32287752154437
 30
0.0
 10
21.89207710122269
 20
-16.2398338996896
 30
0.0
 10
22.00459665503543
 20
-16.17637199245462
 30
0.0
 10
22.11706836890158
 20
-16.11298155133136
 30
0.0
 10
22.25601949307204
 20
-16.08122677567658
 30
0.0
 10
22.4214021876002
 20
-16.08122677567658
 30
0.0
 10
22.58946391912393
 20
-16.08122677567658
 30
0.0
 10
22.72975456179217
 20
-16.11298155133136
 30
0.0
 10
22.84227411560472
 20
-16.17637199245462
 30
0.0
 10
22.95474582947094
 20
-16.2398338996896
 30
0.0
 10
23.0455938875876
 20
-16.32154348745839
 30
0.0
 10
23.11472261006176
 20
-16.4214054676119
 30
0.0
 10
23.18385133253599
 20
-16.52131509183999
 30
0.0
 10
23.24212038718894
 20
-16.62860954761568
 30
0.0
 10
23.28957761396702
 20
-16.74333647901349
 30
0.0
 10
23.33698700079882
 20
-16.85813487652303
 30
0.0
 10
23.39733709311801
 20
-17.01133439808024
 30
0.0
 10
23.47053221103181
 20
-17.20300650979661
 30
0.0
 10
23.47053221103181
 20
-17.20300650979661
 30
0.0
 10
25.02796166442062
 20
-21.03406654040162
 30
0.0
 10
25.02796166442062
 20
-21.03406654040162
 30
0.0
 10
25.14995352761033
 20
-21.32564827634613
 30
0.0
 10
25.21094945920519
 20
-21.53761676379995
 30
0.0
 10
25.21094945920519
 20
-21.66987671461407
 30
0.0
 10
25.21094945920519
 20
-21.80756808992115
 30
0.0
 10
25.15332624382789
 20
-21.9337772432737
 30
0.0
 10
25.03812765301971
 20
-22.04850417467138
 30
0.0
 10
24.92288122226519
 20
-22.16323110606925
 30
0.0
 10
24.78397793804114
 20
-22.22064221584267
 30
0.0
 10
24.62132212045487
 20
-22.22064221584267
 30
0.0
 10
24.52640766689866
 20
-22.22064221584267
 30
0.0
 10
24.4450797581055
 20
-22.2037285693949
 30
0.0
 10
24.37733839407545
 20
-22.16999656464832
 30
0.0
 10
24.30954919009901
 20
-22.13621691582736
 30
0.0
 10
24.25261965394384
 20
-22.09040713819492
 30
0.0
 10
24.20654978560982
 20
-22.03230518934117
 30
0.0
 10
24.1604320773294
 20
-21.97427470659928
 30
0.0
 10
24.11098949277782
 20
-21.88518028728295
 30
0.0
 10
24.05812635206227
 20
-21.76502193139197
 30
0.0
 10
24.00526321134679
 20
-21.64493504161286
 30
0.0
 10
23.95983918228849
 20
-21.53895079788598
 30
0.0
 10
23.92190210483379
 20
-21.44714066632307
 30
0.0
  0
POLYLINE
  5
52
330
1F
100
AcDbEntity
  8
_U+5716_U+5C64 1
370
     0
100
AcDb2dPolyline
 66
     1
 10
0.0
 20
0.0
 30
0.0
  0
VERTEX
  5
53
330
52
100
AcDbEntity
  8
_U+5716_U+5C64 1
370
     0
100
AcDbVertex
100
AcDb2dVertex
 10
21.53086158631517
 20
-19.79889390896976
 30
0.0
  0
VERTEX
  5
54
330
52
100
AcDbEntity
  8
_U+5716_U+5C64 1
370
     0
100
AcDbVertex
100
AcDb2dVertex
 10
23.31194278888517
 20
-19.79889390896976
 30
0.0
  0
VERTEX
  5
55
330
52
100
AcDbEntity
  8
_U+5716_U+5C64 1
370
     0
100
AcDbVertex
100
AcDb2dVertex
 10
22.41326939672089
 20
-17.34879737776892
 30
0.0
  0
VERTEX
  5
56
330
52
100
AcDbEntity
  8
_U+5716_U+5C64 1
370
     0
100
AcDbVertex
100
AcDb2dVertex
 10
21.53086158631517
 20
-19.79889390896976
 30
0.0
  0
SEQEND
  5
57
330
52
100
AcDbEntity
  8
_U+5716_U+5C64 1
370
     0
  0
HATCH
  5
58
330
1F
100
AcDbEntity
  8
_U+5716_U+5C64 1
 62
     7
100
AcDbHatch
 10
0.0
 20
0.0
 30
0.0
210
0.0
220
0.0
230
1.0
  2
SOLID
 70
     1
 71
     0
 91
        2
 92
        1
 93
        1
 72
     4
 94
        3
 73
     0
 74
     1
 95
       83
 96
       79
 40
0.0
 40
0.0
 40
0.0
 40
0.0
 40
1.0
 40
1.0
 40
1.0
 40
2.0
 40
2.0
 40
2.0
 40
3.0
 40
3.0
 40
3.0
 40
4.0
 40
4.0
 40
4.0
 40
5.0
 40
5.0
 40
5.0
 40
6.0
 40
6.0
 40
6.0
 40
7.0
 40
7.0
 40
7.0
 40
8.0
 40
8.0
 40
8.0
 40
9.0
 40
9.0
 40
9.0
 40
10.0
 40
10.0
 40
10.0
 40
11.0
 40
11.0
 40
11.0
 40
12.0
 40
12.0
 40
12.0
 40
13.0
 40
13.0
 40
13.0
 40
14.0
 40
14.0
 40
14.0
 40
15.0
 40
15.0
 40
15.0
 40
16.0
 40
16.0
 40
16.0
 40
17.0
 40
17.0
 40
17.0
 40
18.0
 40
18.0
 40
18.0
 40
19.0
 40
19.0
 40
19.0
 40
20.0
 40
20.0
 40
20.0
 40
21.0
 40
21.0
 40
21.0
 40
22.0
 40
22.0
 40
22.0
 40
23.0
 40
23.0
 40
23.0
 40
24.0
 40
24.0
 40
24.0
 40
25.0
 40
25.0
 40
25.0
 40
26.0
 40
26.0
 40
26.0
 40
26.0
 10
23.92190210483379
 20
-21.44714066632307
 10
23.92190210483379
 20
-21.44714066632307
 10
23.63725442405775
 20
-20.7019873411314
 10
23.63725442405775
 20
-20.7019873411314
 10
23.63725442405775
 20
-20.7019873411314
 10
21.21368274202196
 20
-20.7019873411314
 10
21.21368274202196
 20
-20.7019873411314
 10
21.21368274202196
 20
-20.7019873411314
 10
20.92903506124593
 20
-21.46333965165328
 10
20.92903506124593
 20
-21.46333965165328
 10
20.81784306594452
 20
-21.76035281209094
 10
20.72298841232115
 20
-21.96081525555287
 10
20.64438738046989
 20
-22.06470316000171
 10
20.56572654868573
 20
-22.16861488648784
 10
20.43700121304746
 20
-22.22064221584267
 10
20.25807981370246
 20
-22.22064221584267
 10
20.10622386400444
 20
-22.22064221584267
 10
19.97203281449573
 20
-22.16527980127272
 10
19.8555066651764
 20
-22.05460261620753
 10
19.73892071592409
 20
-21.94392543114233
 10
19.68065166127111
 20
-21.8183832948329
 10
19.68065166127111
 20
-21.67797620727923
 10
19.68065166127111
 20
-21.59698128062794
 10
19.69419036608786
 20
-21.51331828580457
 10
19.72131561566775
 20
-21.42689193466025
 10
19.74838106531461
 20
-21.34051322759036
 10
19.79311141515079
 20
-21.22035487169952
 10
19.8555066651764
 20
-21.0664645110621
 10
19.8555066651764
 20
-21.0664645110621
 10
21.38040495504791
 20
-17.21110600246177
 10
21.38040495504791
 20
-17.21110600246177
 10
21.42374794644009
 20
-17.10042881739651
 10
21.47596524787991
 20
-16.96747802750219
 10
21.53696117947477
 20
-16.81218216666706
 10
21.59795711106962
 20
-16.65695777194361
 10
21.66301943810416
 20
-16.52808055041906
 10
21.73214816057833
 20
-16.42545521394446
 10
21.80127688305243
 20
-16.32287752154437
 10
21.89207710122269
 20
-16.2398338996896
 10
22.00459665503543
 20
-16.17637199245462
 10
22.11706836890158
 20
-16.11298155133136
 10
22.25601949307204
 20
-16.08122677567658
 10
22.4214021876002
 20
-16.08122677567658
 10
22.58946391912393
 20
-16.08122677567658
 10
22.72975456179217
 20
-16.11298155133136
 10
22.84227411560472
 20
-16.17637199245462
 10
22.95474582947094
 20
-16.2398338996896
 10
23.0455938875876
 20
-16.32154348745839
 10
23.11472261006176
 20
-16.4214054676119
 10
23.18385133253599
 20
-16.52131509183999
 10
23.24212038718894
 20
-16.62860954761568
 10
23.28957761396702
 20
-16.74333647901349
 10
23.33698700079882
 20
-16.85813487652303
 10
23.39733709311801
 20
-17.01133439808024
 10
23.47053221103181
 20
-17.20300650979661
 10
23.47053221103181
 20
-17.20300650979661
 10
25.02796166442062
 20
-21.03406654040162
 10
25.02796166442062
 20
-21.03406654040162
 10
25.14995352761033
 20
-21.32564827634613
 10
25.21094945920519
 20
-21.53761676379995
 10
25.21094945920519
 20
-21.66987671461407
 10
25.21094945920519
 20
-21.80756808992115
 10
25.15332624382789
 20
-21.9337772432737
 10
25.03812765301971
 20
-22.04850417467138
 10
24.92288122226519
 20
-22.16323110606925
 10
24.78397793804114
 20
-22.22064221584267
 10
24.62132212045487
 20
-22.22064221584267
 10
24.52640766689866
 20
-22.22064221584267
 10
24.4450797581055
 20
-22.2037285693949
 10
24.37733839407545
 20
-22.16999656464832
 10
24.30954919009901
 20
-22.13621691582736
 10
24.25261965394384
 20
-22.09040713819492
 10
24.20654978560982
 20
-22.03230518934117
 10
24.1604320773294
 20
-21.97427470659928
 10
24.11098949277782
 20
-21.88518028728295
 10
24.05812635206227
 20
-21.76502193139197
 10
24.00526321134679
 20
-21.64493504161286
 10
23.95983918228849
 20
-21.53895079788598
 10
23.92190210483379
 20
-21.44714066632307
 97
        0
 92
        1
 93
        3
 72
     1
 10
21.53086158631517
 20
-19.79889390896976
 11
23.31194278888517
 21
-19.79889390896976
 72
     1
 10
23.31194278888517
 20
-19.79889390896976
 11
22.41326939672089
 21
-17.34879737776892
 72
     1
 10
22.41326939672089
 20
-17.34879737776892
 11
21.53086158631517
 21
-19.79889390896976
 97
        0
 75
     2
 76
     1
 98
        0
  0
SPLINE
  5
59
330
1F
100
AcDbEntity
  8
_U+5716_U+5C64 1
370
     0
100
AcDbSpline
210
0.0
220
0.0
230
1.0
 70
    11
 71
     3
 72
    59
 73
    55
 74
     0
 42
0.0000000001
 43
0.0000000001
 12
1.0
 22
0.0
 32
0.0
 13
1.0
 23
0.0
 33
0.0
 40
0.0
 40
0.0
 40
0.0
 40
0.0
 40
1.0
 40
1.0
 40
1.0
 40
2.0
 40
2.0
 40
2.0
 40
3.0
 40
3.0
 40
3.0
 40
4.0
 40
4.0
 40
4.0
 40
5.0
 40
5.0
 40
5.0
 40
6.0
 40
6.0
 40
6.0
 40
7.0
 40
7.0
 40
7.0
 40
8.0
 40
8.0
 40
8.0
 40
9.0
 40
9.0
 40
9.0
 40
10.0
 40
10.0
 40
10.0
 40
11.0
 40
11.0
 40
11.0
 40
12.0
 40
12.0
 40
12.0
 40
13.0
 40
13.0
 40
13.0
 40
14.0
 40
14.0
 40
14.0
 40
15.0
 40
15.0
 40
15.0
 40
16.0
 40
16.0
 40
16.0
 40
17.0
 40
17.0
 40
17.0
 40
18.0
 40
18.0
 40
18.0
 40
18.0
 10
27.75189644960802
 20
-22.11939855752861
 30
0.0
 10
27.75189644960802
 20
-22.11939855752861
 30
0.0
 10
25.93015129264154
 20
-22.11939855752861
 30
0.0
 10
25.93015129264154
 20
-22.11939855752861
 30
0.0
 10
25.66717510756159
 20
-22.11939855752861
 30
0.0
 10
25.47942723811521
 20
-22.06065341366923
 30
0.0
 10
25.36695552424893
 20
-21.94321077002477
 30
0.0
 10
25.25443597043632
 20
-21.82576812638045
 30
0.0
 10
25.19820011350327
 20
-21.63886042211413
 30
0.0
 10
25.19820011350327
 20
-21.38234472500205
 30
0.0
 10
25.19820011350327
 20
-21.38234472500205
 30
0.0
 10
25.19820011350327
 20
-16.9195242665172
 30
0.0
 10
25.19820011350327
 20
-16.9195242665172
 30
0.0
 10
25.19820011350327
 20
-16.6576724330611
 30
0.0
 10
25.25577548893416
 20
-16.46935922859689
 30
0.0
 10
25.37102191968862
 20
-16.35456083108735
 30
0.0
 10
25.48622051049668
 20
-16.2398338996896
 30
0.0
 10
25.672581021499
 20
-16.1824704339907
 30
0.0
 10
25.93015129264154
 20
-16.1824704339907
 30
0.0
 10
25.93015129264154
 20
-16.1824704339907
 30
0.0
 10
27.86168912647886
 20
-16.1824704339907
 30
0.0
 10
27.86168912647886
 20
-16.1824704339907
 30
0.0
 10
28.14633680725483
 20
-16.1824704339907
 30
0.0
 10
28.39299957062982
 20
-16.20005109748145
 30
0.0
 10
28.60177309649637
 20
-16.235117136314
 30
0.0
 10
28.81049878241671
 20
-16.270230819221
 30
0.0
 10
28.9975529726409
 20
-16.3377424727886
 30
0.0
 10
29.16293566716919
 20
-16.43760445294217
 30
0.0
 10
29.30387214911303
 20
-16.52131509183999
 30
0.0
 10
29.42859088924464
 20
-16.62729933556686
 30
0.0
 10
29.53704404761763
 20
-16.75548571801114
 30
0.0
 10
29.64544936604423
 20
-16.88374356656715
 30
0.0
 10
29.72816463328158
 20
-17.02548468820686
 30
0.0
 10
29.78509416943674
 20
-17.18070908293025
 30
0.0
 10
29.84202370559191
 20
-17.33600494376557
 30
0.0
 10
29.87048847366946
 20
-17.50001967023427
 30
0.0
 10
29.87048847366946
 20
-17.67277708437404
 30
0.0
 10
29.87048847366946
 20
-18.2667557611748
 30
0.0
 10
29.57225424813044
 20
-18.70141265284505
 30
0.0
 10
28.97588147694488
 20
-18.97679540345941
 30
0.0
 10
29.75930843835476
 20
-19.22521160790626
 30
0.0
 10
30.15106975900594
 20
-19.70846545556732
 30
0.0
 10
30.15106975900594
 20
-20.4266045905171
 30
0.0
 10
30.15106975900594
 20
-20.75868378978732
 30
0.0
 10
30.06567545477309
 20
-21.05772182339123
 30
0.0
 10
29.89488684630752
 20
-21.3235995811426
 30
0.0
 10
29.72409823784183
 20
-21.58954880500582
 30
0.0
 10
29.49365321627918
 20
-21.78598532417235
 30
0.0
 10
29.20359962156574
 20
-21.91286149456788
 30
0.0
 10
29.0219513452789
 20
-21.98847264080053
 30
0.0
 10
28.81322565935862
 20
-22.04181018220411
 30
0.0
 10
28.5773747238585
 20
-22.07280265266682
 30
0.0
 10
28.34152378835827
 20
-22.10386658924139
 30
0.0
 10
28.06634841695939
 20
-22.11939855752861
 30
0.0
 10
27.75189644960802
 20
-22.11939855752861
 30
0.0
  0
SPLINE
  5
5A
330
1F
100
AcDbEntity
  8
_U+5716_U+5C64 1
370
     0
100
AcDbSpline
210
0.0
220
0.0
230
1.0
 70
    11
 71
     3
 72
    29
 73
    25
 74
     0
 42
0.0000000001
 43
0.0000000001
 12
1.0
 22
0.0
 32
0.0
 13
1.0
 23
0.0
 33
0.0
 40
0.0
 40
0.0
 40
0.0
 40
0.0
 40
1.0
 40
1.0
 40
1.0
 40
2.0
 40
2.0
 40
2.0
 40
3.0
 40
3.0
 40
3.0
 40
4.0
 40
4.0
 40
4.0
 40
5.0
 40
5.0
 40
5.0
 40
6.0
 40
6.0
 40
6.0
 40
7.0
 40
7.0
 40
7.0
 40
8.0
 40
8.0
 40
8.0
 40
8.0
 10
26.40591955908138
 20
-17.08556386615228
 30
0.0
 10
26.40591955908138
 20
-17.08556386615228
 30
0.0
 10
26.40591955908138
 20
-18.62041772619381
 30
0.0
 10
26.40591955908138
 20
-18.62041772619381
 30
0.0
 10
26.40591955908138
 20
-18.62041772619381
 30
0.0
 10
27.51197911866828
 20
-18.62041772619381
 30
0.0
 10
27.51197911866828
 20
-18.62041772619381
 30
0.0
 10
27.81289238120287
 20
-18.62041772619381
 30
0.0
 10
28.04532276053902
 20
-18.59206950186589
 30
0.0
 10
28.20936593656953
 20
-18.53537305321003
 30
0.0
 10
28.37336127265357
 20
-18.47867660455411
 30
0.0
 10
28.49872585206091
 20
-18.37071513173543
 30
0.0
 10
28.58550751473775
 20
-18.21139334660492
 30
0.0
 10
28.65324887876786
 20
-18.09800044929308
 30
0.0
 10
28.68716740072928
 20
-17.97112427889768
 30
0.0
 10
28.68716740072928
 20
-17.83071719134395
 30
0.0
 10
28.68716740072928
 20
-17.53103596273427
 30
0.0
 10
28.58005376085407
 20
-17.33195519743289
 30
0.0
 10
28.36592216099632
 20
-17.23335578525362
 30
0.0
 10
28.1517427211923
 20
-17.13482783918608
 30
0.0
 10
27.82509156752181
 20
-17.08556386615228
 30
0.0
 10
27.38592086003888
 20
-17.08556386615228
 30
0.0
 10
27.38592086003888
 20
-17.08556386615228
 30
0.0
 10
26.40591955908138
 20
-17.08556386615228
 30
0.0
 10
26.40591955908138
 20
-17.08556386615228
 30
0.0
  0
SPLINE
  5
5B
330
1F
100
AcDbEntity
  8
_U+5716_U+5C64 1
370
     0
100
AcDbSpline
210
0.0
220
0.0
230
1.0
 70
    11
 71
     3
 72
    23
 73
    19
 74
     0
 42
0.0000000001
 43
0.0000000001
 12
1.0
 22
0.0
 32
0.0
 13
1.0
 23
0.0
 33
0.0
 40
0.0
 40
0.0
 40
0.0
 40
0.0
 40
1.0
 40
1.0
 40
1.0
 40
2.0
 40
2.0
 40
2.0
 40
3.0
 40
3.0
 40
3.0
 40
4.0
 40
4.0
 40
4.0
 40
5.0
 40
5.0
 40
5.0
 40
6.0
 40
6.0
 40
6.0
 40
6.0
 10
27.66243574993555
 20
-19.48301369502988
 30
0.0
 10
27.66243574993555
 20
-19.48301369502988
 30
0.0
 10
26.40591955908138
 20
-19.48301369502988
 30
0.0
 10
26.40591955908138
 20
-19.48301369502988
 30
0.0
 10
26.40591955908138
 20
-19.48301369502988
 30
0.0
 10
26.40591955908138
 20
-21.21630512536697
 30
0.0
 10
26.40591955908138
 20
-21.21630512536697
 30
0.0
 10
26.40591955908138
 20
-21.21630512536697
 30
0.0
 10
27.70309970433216
 20
-21.21630512536697
 30
0.0
 10
27.70309970433216
 20
-21.21630512536697
 30
0.0
 10
28.51905782925915
 20
-21.21630512536697
 30
0.0
 10
28.92708473166908
 20
-20.92338935533636
 30
0.0
 10
28.92708473166908
 20
-20.33751017120064
 30
0.0
 10
28.92708473166908
 20
-20.03782894259103
 30
0.0
 10
28.82135845023786
 20
-19.82052431879313
 30
0.0
 10
28.60990588737568
 20
-19.68550101165798
 30
0.0
 10
28.39845332451362
 20
-19.55052534859735
 30
0.0
 10
28.08261399871813
 20
-19.48301369502988
 30
0.0
 10
27.66243574993555
 20
-19.48301369502988
 30
0.0
  0
HATCH
  5
5C
330
1F
100
AcDbEntity
  8
_U+5716_U+5C64 1
 62
     7
100
AcDbHatch
 10
0.0
 20
0.0
 30
0.0
210
0.0
220
0.0
230
1.0
  2
SOLID
 70
     1
 71
     0
 91
        3
 92
        1
 93
        1
 72
     4
 94
        3
 73
     0
 74
     1
 95
       59
 96
       55
 40
0.0
 40
0.0
 40
0.0
 40
0.0
 40
1.0
 40
1.0
 40
1.0
 40
2.0
 40
2.0
 40
2.0
 40
3.0
 40
3.0
 40
3.0
 40
4.0
 40
4.0
 40
4.0
 40
5.0
 40
5.0
 40
5.0
 40
6.0
 40
6.0
 40
6.0
 40
7.0
 40
7.0
 40
7.0
 40
8.0
 40
8.0
 40
8.0
 40
9.0
 40
9.0
 40
9.0
 40
10.0
 40
10.0
 40
10.0
 40
11.0
 40
11.0
 40
11.0
 40
12.0
 40
12.0
 40
12.0
 40
13.0
 40
13.0
 40
13.0
 40
14.0
 40
14.0
 40
14.0
 40
15.0
 40
15.0
 40
15.0
 40
16.0
 40
16.0
 40
16.0
 40
17.0
 40
17.0
 40
17.0
 40
18.0
 40
18.0
 40
18.0
 40
18.0
 10
27.75189644960802
 20
-22.11939855752861
 10
27.75189644960802
 20
-22.11939855752861
 10
25.93015129264154
 20
-22.11939855752861
 10
25.93015129264154
 20
-22.11939855752861
 10
25.66717510756159
 20
-22.11939855752861
 10
25.47942723811521
 20
-22.06065341366923
 10
25.36695552424893
 20
-21.94321077002477
 10
25.25443597043632
 20
-21.82576812638045
 10
25.19820011350327
 20
-21.63886042211413
 10
25.19820011350327
 20
-21.38234472500205
 10
25.19820011350327
 20
-21.38234472500205
 10
25.19820011350327
 20
-16.9195242665172
 10
25.19820011350327
 20
-16.9195242665172
 10
25.19820011350327
 20
-16.6576724330611
 10
25.25577548893416
 20
-16.46935922859689
 10
25.37102191968862
 20
-16.35456083108735
 10
25.48622051049668
 20
-16.2398338996896
 10
25.672581021499
 20
-16.1824704339907
 10
25.93015129264154
 20
-16.1824704339907
 10
25.93015129264154
 20
-16.1824704339907
 10
27.86168912647886
 20
-16.1824704339907
 10
27.86168912647886
 20
-16.1824704339907
 10
28.14633680725483
 20
-16.1824704339907
 10
28.39299957062982
 20
-16.20005109748145
 10
28.60177309649637
 20
-16.235117136314
 10
28.81049878241671
 20
-16.270230819221
 10
28.9975529726409
 20
-16.3377424727886
 10
29.16293566716919
 20
-16.43760445294217
 10
29.30387214911303
 20
-16.52131509183999
 10
29.42859088924464
 20
-16.62729933556686
 10
29.53704404761763
 20
-16.75548571801114
 10
29.64544936604423
 20
-16.88374356656715
 10
29.72816463328158
 20
-17.02548468820686
 10
29.78509416943674
 20
-17.18070908293025
 10
29.84202370559191
 20
-17.33600494376557
 10
29.87048847366946
 20
-17.50001967023427
 10
29.87048847366946
 20
-17.67277708437404
 10
29.87048847366946
 20
-18.2667557611748
 10
29.57225424813044
 20
-18.70141265284505
 10
28.97588147694488
 20
-18.97679540345941
 10
29.75930843835476
 20
-19.22521160790626
 10
30.15106975900594
 20
-19.70846545556732
 10
30.15106975900594
 20
-20.4266045905171
 10
30.15106975900594
 20
-20.75868378978732
 10
30.06567545477309
 20
-21.05772182339123
 10
29.89488684630752
 20
-21.3235995811426
 10
29.72409823784183
 20
-21.58954880500582
 10
29.49365321627918
 20
-21.78598532417235
 10
29.20359962156574
 20
-21.91286149456788
 10
29.0219513452789
 20
-21.98847264080053
 10
28.81322565935862
 20
-22.04181018220411
 10
28.5773747238585
 20
-22.07280265266682
 10
28.34152378835827
 20
-22.10386658924139
 10
28.06634841695939
 20
-22.11939855752861
 10
27.75189644960802
 20
-22.11939855752861
 97
        0
 92
        1
 93
        1
 72
     4
 94
        3
 73
     0
 74
     1
 95
       29
 96
       25
 40
0.0
 40
0.0
 40
0.0
 40
0.0
 40
1.0
 40
1.0
 40
1.0
 40
2.0
 40
2.0
 40
2.0
 40
3.0
 40
3.0
 40
3.0
 40
4.0
 40
4.0
 40
4.0
 40
5.0
 40
5.0
 40
5.0
 40
6.0
 40
6.0
 40
6.0
 40
7.0
 40
7.0
 40
7.0
 40
8.0
 40
8.0
 40
8.0
 40
8.0
 10
26.40591955908138
 20
-17.08556386615228
 10
26.40591955908138
 20
-17.08556386615228
 10
26.40591955908138
 20
-18.62041772619381
 10
26.40591955908138
 20
-18.62041772619381
 10
26.40591955908138
 20
-18.62041772619381
 10
27.51197911866828
 20
-18.62041772619381
 10
27.51197911866828
 20
-18.62041772619381
 10
27.81289238120287
 20
-18.62041772619381
 10
28.04532276053902
 20
-18.59206950186589
 10
28.20936593656953
 20
-18.53537305321003
 10
28.37336127265357
 20
-18.47867660455411
 10
28.49872585206091
 20
-18.37071513173543
 10
28.58550751473775
 20
-18.21139334660492
 10
28.65324887876786
 20
-18.09800044929308
 10
28.68716740072928
 20
-17.97112427889768
 10
28.68716740072928
 20
-17.83071719134395
 10
28.68716740072928
 20
-17.53103596273427
 10
28.58005376085407
 20
-17.33195519743289
 10
28.36592216099632
 20
-17.23335578525362
 10
28.1517427211923
 20
-17.13482783918608
 10
27.82509156752181
 20
-17.08556386615228
 10
27.38592086003888
 20
-17.08556386615228
 10
27.38592086003888
 20
-17.08556386615228
 10
26.40591955908138
 20
-17.08556386615228
 10
26.40591955908138
 20
-17.08556386615228
 97
        0
 92
        1
 93
        1
 72
     4
 94
        3
 73
     0
 74
     1
 95
       23
 96
       19
 40
0.0
 40
0.0
 40
0.0
 40
0.0
 40
1.0
 40
1.0
 40
1.0
 40
2.0
 40
2.0
 40
2.0
 40
3.0
 40
3.0
 40
3.0
 40
4.0
 40
4.0
 40
4.0
 40
5.0
 40
5.0
 40
5.0
 40
6.0
 40
6.0
 40
6.0
 40
6.0
 10
27.66243574993555
 20
-19.48301369502988
 10
27.66243574993555
 20
-19.48301369502988
 10
26.40591955908138
 20
-19.48301369502988
 10
26.40591955908138
 20
-19.48301369502988
 10
26.40591955908138
 20
-19.48301369502988
 10
26.40591955908138
 20
-21.21630512536697
 10
26.40591955908138
 20
-21.21630512536697
 10
26.40591955908138
 20
-21.21630512536697
 10
27.70309970433216
 20
-21.21630512536697
 10
27.70309970433216
 20
-21.21630512536697
 10
28.51905782925915
 20
-21.21630512536697
 10
28.92708473166908
 20
-20.92338935533636
 10
28.92708473166908
 20
-20.33751017120064
 10
28.92708473166908
 20
-20.03782894259103
 10
28.82135845023786
 20
-19.82052431879313
 10
28.60990588737568
 20
-19.68550101165798
 10
28.39845332451362
 20
-19.55052534859735
 10
28.08261399871813
 20
-19.48301369502988
 10
27.66243574993555
 20
-19.48301369502988
 97
        0
 75
     2
 76
     1
 98
        0
  0
SPLINE
  5
5D
330
1F
100
AcDbEntity
  8
_U+5716_U+5C64 1
370
     0
100
AcDbSpline
210
0.0
220
0.0
230
1.0
 70
    11
 71
     3
 72
    56
 73
    52
 74
     0
 42
0.0000000001
 43
0.0000000001
 12
1.0
 22
0.0
 32
0.0
 13
1.0
 23
0.0
 33
0.0
 40
0.0
 40
0.0
 40
0.0
 40
0.0
 40
1.0
 40
1.0
 40
1.0
 40
2.0
 40
2.0
 40
2.0
 40
3.0
 40
3.0
 40
3.0
 40
4.0
 40
4.0
 40
4.0
 40
5.0
 40
5.0
 40
5.0
 40
6.0
 40
6.0
 40
6.0
 40
7.0
 40
7.0
 40
7.0
 40
8.0
 40
8.0
 40
8.0
 40
9.0
 40
9.0
 40
9.0
 40
10.0
 40
10.0
 40
10.0
 40
11.0
 40
11.0
 40
11.0
 40
12.0
 40
12.0
 40
12.0
 40
13.0
 40
13.0
 40
13.0
 40
14.0
 40
14.0
 40
14.0
 40
15.0
 40
15.0
 40
15.0
 40
16.0
 40
16.0
 40
16.0
 40
17.0
 40
17.0
 40
17.0
 40
17.0
 10
6.975378509860414
 20
-23.34628111999734
 30
0.0
 10
6.975378509860414
 20
-23.34628111999734
 30
0.0
 10
5.657866387411429
 20
-23.34628111999734
 30
0.0
 10
5.657866387411429
 20
-23.34628111999734
 30
0.0
 10
5.657866387411429
 20
-23.34628111999734
 30
0.0
 10
5.657866387411429
 20
-27.65926096417725
 30
0.0
 10
5.657866387411429
 20
-27.65926096417725
 30
0.0
 10
5.657866387411429
 20
-27.90767716862416
 30
0.0
 10
5.602276369753946
 20
-28.09194062675582
 30
0.0
 10
5.491144174385449
 20
-28.21205133857222
 30
0.0
 10
5.379952179084014
 20
-28.33216205038855
 30
0.0
 10
5.236300780184782
 20
-28.39226505037126
 30
0.0
 10
5.060106257781775
 20
-28.39226505037126
 30
0.0
 10
4.881184858436863
 20
-28.39226505037126
 30
0.0
 10
4.735428501898281
 20
-28.33151885538279
 30
0.0
 10
4.622968748018569
 20
-28.21002646540585
 30
0.0
 10
4.510449194205983
 20
-28.08853407542903
 30
0.0
 10
4.454213337272812
 20
-27.90496145637752
 30
0.0
 10
4.454213337272812
 20
-27.65926096417725
 30
0.0
 10
4.454213337272812
 20
-27.65926096417725
 30
0.0
 10
4.454213337272812
 20
-23.34628111999734
 30
0.0
 10
4.454213337272812
 20
-23.34628111999734
 30
0.0
 10
4.454213337272812
 20
-23.34628111999734
 30
0.0
 10
3.136701214823826
 20
-23.34628111999734
 30
0.0
 10
3.136701214823826
 20
-23.34628111999734
 30
0.0
 10
2.930654565899049
 20
-23.34628111999734
 30
0.0
 10
2.777459097703249
 20
-23.30111453737066
 30
0.0
 10
2.677198530142535
 20
-23.21061461785643
 30
0.0
 10
2.576878162648881
 20
-23.120186164454
 30
0.0
 10
2.526741898875208
 20
-23.00071864764336
 30
0.0
 10
2.526741898875208
 20
-22.85221206742459
 30
0.0
 10
2.526741898875208
 20
-22.69832170678711
 30
0.0
 10
2.578911360368693
 20
-22.57682931681029
 30
0.0
 10
2.683298123302001
 20
-22.48773489749383
 30
0.0
 10
2.787625086302403
 20
-22.39864047817743
 30
0.0
 10
2.938787356778391
 20
-22.3540932685193
 30
0.0
 10
3.136701214823826
 20
-22.3540932685193
 30
0.0
 10
3.136701214823826
 20
-22.3540932685193
 30
0.0
 10
6.975378509860414
 20
-22.3540932685193
 30
0.0
 10
6.975378509860414
 20
-22.3540932685193
 30
0.0
 10
7.184104195780693
 20
-22.3540932685193
 30
0.0
 10
7.339320901709735
 20
-22.40002215633791
 30
0.0
 10
7.440980787701172
 20
-22.49178464382638
 30
0.0
 10
7.542640673692607
 20
-22.58359477538943
 30
0.0
 10
7.593470616688342
 20
-22.70375313128014
 30
0.0
 10
7.593470616688342
 20
-22.85221206742459
 30
0.0
 10
7.593470616688342
 20
-23.00071864764336
 30
0.0
 10
7.541946994470547
 20
-23.120186164454
 30
0.0
 10
7.438947589981391
 20
-23.21061461785643
 30
0.0
 10
7.335888385559234
 20
-23.30111453737066
 30
0.0
 10
7.181365358852219
 20
-23.34628111999734
 30
0.0
 10
6.975378509860414
 20
-23.34628111999734
 30
0.0
  0
HATCH
  5
5E
330
1F
100
AcDbEntity
  8
_U+5716_U+5C64 1
 62
     7
100
AcDbHatch
 10
0.0
 20
0.0
 30
0.0
210
0.0
220
0.0
230
1.0
  2
SOLID
 70
     1
 71
     0
 91
        1
 92
        1
 93
        1
 72
     4
 94
        3
 73
     0
 74
     1
 95
       56
 96
       52
 40
0.0
 40
0.0
 40
0.0
 40
0.0
 40
1.0
 40
1.0
 40
1.0
 40
2.0
 40
2.0
 40
2.0
 40
3.0
 40
3.0
 40
3.0
 40
4.0
 40
4.0
 40
4.0
 40
5.0
 40
5.0
 40
5.0
 40
6.0
 40
6.0
 40
6.0
 40
7.0
 40
7.0
 40
7.0
 40
8.0
 40
8.0
 40
8.0
 40
9.0
 40
9.0
 40
9.0
 40
10.0
 40
10.0
 40
10.0
 40
11.0
 40
11.0
 40
11.0
 40
12.0
 40
12.0
 40
12.0
 40
13.0
 40
13.0
 40
13.0
 40
14.0
 40
14.0
 40
14.0
 40
15.0
 40
15.0
 40
15.0
 40
16.0
 40
16.0
 40
16.0
 40
17.0
 40
17.0
 40
17.0
 40
17.0
 10
6.975378509860414
 20
-23.34628111999734
 10
6.975378509860414
 20
-23.34628111999734
 10
5.657866387411429
 20
-23.34628111999734
 10
5.657866387411429
 20
-23.34628111999734
 10
5.657866387411429
 20
-23.34628111999734
 10
5.657866387411429
 20
-27.65926096417725
 10
5.657866387411429
 20
-27.65926096417725
 10
5.657866387411429
 20
-27.90767716862416
 10
5.602276369753946
 20
-28.09194062675582
 10
5.491144174385449
 20
-28.21205133857222
 10
5.379952179084014
 20
-28.33216205038855
 10
5.236300780184782
 20
-28.39226505037126
 10
5.060106257781775
 20
-28.39226505037126
 10
4.881184858436863
 20
-28.39226505037126
 10
4.735428501898281
 20
-28.33151885538279
 10
4.622968748018569
 20
-28.21002646540585
 10
4.510449194205983
 20
-28.08853407542903
 10
4.454213337272812
 20
-27.90496145637752
 10
4.454213337272812
 20
-27.65926096417725
 10
4.454213337272812
 20
-27.65926096417725
 10
4.454213337272812
 20
-23.34628111999734
 10
4.454213337272812
 20
-23.34628111999734
 10
4.454213337272812
 20
-23.34628111999734
 10
3.136701214823826
 20
-23.34628111999734
 10
3.136701214823826
 20
-23.34628111999734
 10
2.930654565899049
 20
-23.34628111999734
 10
2.777459097703249
 20
-23.30111453737066
 10
2.677198530142535
 20
-23.21061461785643
 10
2.576878162648881
 20
-23.120186164454
 10
2.526741898875208
 20
-23.00071864764336
 10
2.526741898875208
 20
-22.85221206742459
 10
2.526741898875208
 20
-22.69832170678711
 10
2.578911360368693
 20
-22.57682931681029
 10
2.683298123302001
 20
-22.48773489749383
 10
2.787625086302403
 20
-22.39864047817743
 10
2.938787356778391
 20
-22.3540932685193
 10
3.136701214823826
 20
-22.3540932685193
 10
3.136701214823826
 20
-22.3540932685193
 10
6.975378509860414
 20
-22.3540932685193
 10
6.975378509860414
 20
-22.3540932685193
 10
7.184104195780693
 20
-22.3540932685193
 10
7.339320901709735
 20
-22.40002215633791
 10
7.440980787701172
 20
-22.49178464382638
 10
7.542640673692607
 20
-22.58359477538943
 10
7.593470616688342
 20
-22.70375313128014
 10
7.593470616688342
 20
-22.85221206742459
 10
7.593470616688342
 20
-23.00071864764336
 10
7.541946994470547
 20
-23.120186164454
 10
7.438947589981391
 20
-23.21061461785643
 10
7.335888385559234
 20
-23.30111453737066
 10
7.181365358852219
 20
-23.34628111999734
 10
6.975378509860414
 20
-23.34628111999734
 97
        0
 75
     2
 76
     1
 98
        0
  0
SPLINE
  5
5F
330
1F
100
AcDbEntity
  8
_U+5716_U+5C64 1
370
     0
100
AcDbSpline
210
0.0
220
0.0
230
1.0
 70
    11
 71
     3
 72
    83
 73
    79
 74
     0
 42
0.0000000001
 43
0.0000000001
 12
1.0
 22
0.0
 32
0.0
 13
1.0
 23
0.0
 33
0.0
 40
0.0
 40
0.0
 40
0.0
 40
0.0
 40
1.0
 40
1.0
 40
1.0
 40
2.0
 40
2.0
 40
2.0
 40
3.0
 40
3.0
 40
3.0
 40
4.0
 40
4.0
 40
4.0
 40
5.0
 40
5.0
 40
5.0
 40
6.0
 40
6.0
 40
6.0
 40
7.0
 40
7.0
 40
7.0
 40
8.0
 40
8.0
 40
8.0
 40
9.0
 40
9.0
 40
9.0
 40
10.0
 40
10.0
 40
10.0
 40
11.0
 40
11.0
 40
11.0
 40
12.0
 40
12.0
 40
12.0
 40
13.0
 40
13.0
 40
13.0
 40
14.0
 40
14.0
 40
14.0
 40
15.0
 40
15.0
 40
15.0
 40
16.0
 40
16.0
 40
16.0
 40
17.0
 40
17.0
 40
17.0
 40
18.0
 40
18.0
 40
18.0
 40
19.0
 40
19.0
 40
19.0
 40
20.0
 40
20.0
 40
20.0
 40
21.0
 40
21.0
 40
21.0
 40
22.0
 40
22.0
 40
22.0
 40
23.0
 40
23.0
 40
23.0
 40
24.0
 40
24.0
 40
24.0
 40
25.0
 40
25.0
 40
25.0
 40
26.0
 40
26.0
 40
26.0
 40
26.0
 10
10.70777936408283
 20
-27.6187635008516
 30
0.0
 10
10.70777936408283
 20
-27.6187635008516
 30
0.0
 10
10.42313168330686
 20
-26.87361017565999
 30
0.0
 10
10.42313168330686
 20
-26.87361017565999
 30
0.0
 10
10.42313168330686
 20
-26.87361017565999
 30
0.0
 10
7.999560001271008
 20
-26.87361017565999
 30
0.0
 10
7.999560001271008
 20
-26.87361017565999
 30
0.0
 10
7.999560001271008
 20
-26.87361017565999
 30
0.0
 10
7.714912320495038
 20
-27.63496248618194
 30
0.0
 10
7.714912320495038
 20
-27.63496248618194
 30
0.0
 10
7.60372032519357
 20
-27.93197564661948
 30
0.0
 10
7.508865671570261
 20
-28.1324380900814
 30
0.0
 10
7.430264639719003
 20
-28.23634981656753
 30
0.0
 10
7.351603807934807
 20
-28.34026154305372
 30
0.0
 10
7.222878472296475
 20
-28.39226505037126
 30
0.0
 10
7.043957072951533
 20
-28.39226505037126
 30
0.0
 10
6.892101123253516
 20
-28.39226505037126
 30
0.0
 10
6.75791007374484
 20
-28.33690263580138
 30
0.0
 10
6.641383924425474
 20
-28.22622545073618
 30
0.0
 10
6.524797975173169
 20
-28.11554826567099
 30
0.0
 10
6.466528920520218
 20
-27.99000612936143
 30
0.0
 10
6.466528920520218
 20
-27.84959904180776
 30
0.0
 10
6.466528920520218
 20
-27.76860411515641
 30
0.0
 10
6.480067625336965
 20
-27.6849411203331
 30
0.0
 10
6.507192874916798
 20
-27.59851476918878
 30
0.0
 10
6.534258324563661
 20
-27.51213606211896
 30
0.0
 10
6.578988674399897
 20
-27.39197770622811
 30
0.0
 10
6.641383924425474
 20
-27.2380873455907
 30
0.0
 10
6.641383924425474
 20
-27.2380873455907
 30
0.0
 10
8.166282214296988
 20
-23.38272883699037
 30
0.0
 10
8.166282214296988
 20
-23.38272883699037
 30
0.0
 10
8.209613245702501
 20
-23.27205165192505
 30
0.0
 10
8.261842507128957
 20
-23.13912468406807
 30
0.0
 10
8.322838438723844
 20
-22.98382882323288
 30
0.0
 10
8.383834370318668
 20
-22.82860442850943
 30
0.0
 10
8.448896697353243
 20
-22.69970338494771
 30
0.0
 10
8.518025419827376
 20
-22.59707804847312
 30
0.0
 10
8.587154142301541
 20
-22.4945003560729
 30
0.0
 10
8.677954360471796
 20
-22.41148055625549
 30
0.0
 10
8.790473914284414
 20
-22.34801864902037
 30
0.0
 10
8.902933668164126
 20
-22.28462820789718
 30
0.0
 10
9.041896752321149
 20
-22.25284961020511
 30
0.0
 10
9.207279446849345
 20
-22.25284961020511
 30
0.0
 10
9.37534117837301
 20
-22.25284961020511
 30
0.0
 10
9.515631821041184
 20
-22.28462820789718
 30
0.0
 10
9.628151374853834
 20
-22.34801864902037
 30
0.0
 10
9.740611128733546
 20
-22.41148055625549
 30
0.0
 10
9.831471146836675
 20
-22.49316632198693
 30
0.0
 10
9.90059986931084
 20
-22.5930283021405
 30
0.0
 10
9.969728591785069
 20
-22.69293792636858
 30
0.0
 10
10.02799764643802
 20
-22.8002562041815
 30
0.0
 10
10.07545487321613
 20
-22.91498313557924
 30
0.0
 10
10.12285230006133
 20
-23.02978153308885
 30
0.0
 10
10.18321435236706
 20
-23.18295723260877
 30
0.0
 10
10.25640947028095
 20
-23.37462934432526
 30
0.0
 10
10.25640947028095
 20
-23.37462934432526
 30
0.0
 10
11.8138389236696
 20
-27.20568937493015
 30
0.0
 10
11.8138389236696
 20
-27.20568937493015
 30
0.0
 10
11.93583078685941
 20
-27.49727111087472
 30
0.0
 10
11.99682671845423
 20
-27.70923959832854
 30
0.0
 10
11.99682671845423
 20
-27.8414995491426
 30
0.0
 10
11.99682671845423
 20
-27.97919092444968
 30
0.0
 10
11.93920350307704
 20
-28.10542389983951
 30
0.0
 10
11.82400491226882
 20
-28.22015083123732
 30
0.0
 10
11.70874652152773
 20
-28.33487776263513
 30
0.0
 10
11.56985519729025
 20
-28.39226505037126
 30
0.0
 10
11.40719937970399
 20
-28.39226505037126
 30
0.0
 10
11.31227296616114
 20
-28.39226505037126
 30
0.0
 10
11.23094505736801
 20
-28.37537522596072
 30
0.0
 10
11.16321565332447
 20
-28.34164322121414
 30
0.0
 10
11.09542644934812
 20
-28.30786357239318
 30
0.0
 10
11.03849691319292
 20
-28.26202997272339
 30
0.0
 10
10.99242704485893
 20
-28.20395184590699
 30
0.0
 10
10.94629737659188
 20
-28.14592136316516
 30
0.0
 10
10.89686675202696
 20
-28.0568269438487
 30
0.0
 10
10.84400361131138
 20
-27.93666858795779
 30
0.0
 10
10.79114047059584
 20
-27.81655787614146
 30
0.0
 10
10.74571644153757
 20
-27.71057363241464
 30
0.0
 10
10.70777936408283
 20
-27.6187635008516
 30
0.0
  0
POLYLINE
  5
60
330
1F
100
AcDbEntity
  8
_U+5716_U+5C64 1
370
     0
100
AcDb2dPolyline
 66
     1
 10
0.0
 20
0.0
 30
0.0
  0
VERTEX
  5
61
330
60
100
AcDbEntity
  8
_U+5716_U+5C64 1
370
     0
100
AcDbVertex
100
AcDb2dVertex
 10
8.316738845564315
 20
-25.97051674349835
 30
0.0
  0
VERTEX
  5
62
330
60
100
AcDbEntity
  8
_U+5716_U+5C64 1
370
     0
100
AcDbVertex
100
AcDb2dVertex
 10
10.09782004813425
 20
-25.97051674349835
 30
0.0
  0
VERTEX
  5
63
330
60
100
AcDbEntity
  8
_U+5716_U+5C64 1
370
     0
100
AcDbVertex
100
AcDb2dVertex
 10
9.19914665596997
 20
-23.52042021229752
 30
0.0
  0
VERTEX
  5
64
330
60
100
AcDbEntity
  8
_U+5716_U+5C64 1
370
     0
100
AcDbVertex
100
AcDb2dVertex
 10
8.316738845564315
 20
-25.97051674349835
 30
0.0
  0
SEQEND
  5
65
330
60
100
AcDbEntity
  8
_U+5716_U+5C64 1
370
     0
  0
HATCH
  5
66
330
1F
100
AcDbEntity
  8
_U+5716_U+5C64 1
 62
     7
100
AcDbHatch
 10
0.0
 20
0.0
 30
0.0
210
0.0
220
0.0
230
1.0
  2
SOLID
 70
     1
 71
     0
 91
        2
 92
        1
 93
        1
 72
     4
 94
        3
 73
     0
 74
     1
 95
       83
 96
       79
 40
0.0
 40
0.0
 40
0.0
 40
0.0
 40
1.0
 40
1.0
 40
1.0
 40
2.0
 40
2.0
 40
2.0
 40
3.0
 40
3.0
 40
3.0
 40
4.0
 40
4.0
 40
4.0
 40
5.0
 40
5.0
 40
5.0
 40
6.0
 40
6.0
 40
6.0
 40
7.0
 40
7.0
 40
7.0
 40
8.0
 40
8.0
 40
8.0
 40
9.0
 40
9.0
 40
9.0
 40
10.0
 40
10.0
 40
10.0
 40
11.0
 40
11.0
 40
11.0
 40
12.0
 40
12.0
 40
12.0
 40
13.0
 40
13.0
 40
13.0
 40
14.0
 40
14.0
 40
14.0
 40
15.0
 40
15.0
 40
15.0
 40
16.0
 40
16.0
 40
16.0
 40
17.0
 40
17.0
 40
17.0
 40
18.0
 40
18.0
 40
18.0
 40
19.0
 40
19.0
 40
19.0
 40
20.0
 40
20.0
 40
20.0
 40
21.0
 40
21.0
 40
21.0
 40
22.0
 40
22.0
 40
22.0
 40
23.0
 40
23.0
 40
23.0
 40
24.0
 40
24.0
 40
24.0
 40
25.0
 40
25.0
 40
25.0
 40
26.0
 40
26.0
 40
26.0
 40
26.0
 10
10.70777936408283
 20
-27.6187635008516
 10
10.70777936408283
 20
-27.6187635008516
 10
10.42313168330686
 20
-26.87361017565999
 10
10.42313168330686
 20
-26.87361017565999
 10
10.42313168330686
 20
-26.87361017565999
 10
7.999560001271008
 20
-26.87361017565999
 10
7.999560001271008
 20
-26.87361017565999
 10
7.999560001271008
 20
-26.87361017565999
 10
7.714912320495038
 20
-27.63496248618194
 10
7.714912320495038
 20
-27.63496248618194
 10
7.60372032519357
 20
-27.93197564661948
 10
7.508865671570261
 20
-28.1324380900814
 10
7.430264639719003
 20
-28.23634981656753
 10
7.351603807934807
 20
-28.34026154305372
 10
7.222878472296475
 20
-28.39226505037126
 10
7.043957072951533
 20
-28.39226505037126
 10
6.892101123253516
 20
-28.39226505037126
 10
6.75791007374484
 20
-28.33690263580138
 10
6.641383924425474
 20
-28.22622545073618
 10
6.524797975173169
 20
-28.11554826567099
 10
6.466528920520218
 20
-27.99000612936143
 10
6.466528920520218
 20
-27.84959904180776
 10
6.466528920520218
 20
-27.76860411515641
 10
6.480067625336965
 20
-27.6849411203331
 10
6.507192874916798
 20
-27.59851476918878
 10
6.534258324563661
 20
-27.51213606211896
 10
6.578988674399897
 20
-27.39197770622811
 10
6.641383924425474
 20
-27.2380873455907
 10
6.641383924425474
 20
-27.2380873455907
 10
8.166282214296988
 20
-23.38272883699037
 10
8.166282214296988
 20
-23.38272883699037
 10
8.209613245702501
 20
-23.27205165192505
 10
8.261842507128957
 20
-23.13912468406807
 10
8.322838438723844
 20
-22.98382882323288
 10
8.383834370318668
 20
-22.82860442850943
 10
8.448896697353243
 20
-22.69970338494771
 10
8.518025419827376
 20
-22.59707804847312
 10
8.587154142301541
 20
-22.4945003560729
 10
8.677954360471796
 20
-22.41148055625549
 10
8.790473914284414
 20
-22.34801864902037
 10
8.902933668164126
 20
-22.28462820789718
 10
9.041896752321149
 20
-22.25284961020511
 10
9.207279446849345
 20
-22.25284961020511
 10
9.37534117837301
 20
-22.25284961020511
 10
9.515631821041184
 20
-22.28462820789718
 10
9.628151374853834
 20
-22.34801864902037
 10
9.740611128733546
 20
-22.41148055625549
 10
9.831471146836675
 20
-22.49316632198693
 10
9.90059986931084
 20
-22.5930283021405
 10
9.969728591785069
 20
-22.69293792636858
 10
10.02799764643802
 20
-22.8002562041815
 10
10.07545487321613
 20
-22.91498313557924
 10
10.12285230006133
 20
-23.02978153308885
 10
10.18321435236706
 20
-23.18295723260877
 10
10.25640947028095
 20
-23.37462934432526
 10
10.25640947028095
 20
-23.37462934432526
 10
11.8138389236696
 20
-27.20568937493015
 10
11.8138389236696
 20
-27.20568937493015
 10
11.93583078685941
 20
-27.49727111087472
 10
11.99682671845423
 20
-27.70923959832854
 10
11.99682671845423
 20
-27.8414995491426
 10
11.99682671845423
 20
-27.97919092444968
 10
11.93920350307704
 20
-28.10542389983951
 10
11.82400491226882
 20
-28.22015083123732
 10
11.70874652152773
 20
-28.33487776263513
 10
11.56985519729025
 20
-28.39226505037126
 10
11.40719937970399
 20
-28.39226505037126
 10
11.31227296616114
 20
-28.39226505037126
 10
11.23094505736801
 20
-28.37537522596072
 10
11.16321565332447
 20
-28.34164322121414
 10
11.09542644934812
 20
-28.30786357239318
 10
11.03849691319292
 20
-28.26202997272339
 10
10.99242704485893
 20
-28.20395184590699
 10
10.94629737659188
 20
-28.14592136316516
 10
10.89686675202696
 20
-28.0568269438487
 10
10.84400361131138
 20
-27.93666858795779
 10
10.79114047059584
 20
-27.81655787614146
 10
10.74571644153757
 20
-27.71057363241464
 10
10.70777936408283
 20
-27.6187635008516
 97
        0
 92
        1
 93
        3
 72
     1
 10
8.316738845564315
 20
-25.97051674349835
 11
10.09782004813425
 21
-25.97051674349835
 72
     1
 10
10.09782004813425
 20
-25.97051674349835
 11
9.19914665596997
 21
-23.52042021229752
 72
     1
 10
9.19914665596997
 20
-23.52042021229752
 11
8.316738845564315
 21
-25.97051674349835
 97
        0
 75
     2
 76
     1
 98
        0
  0
SPLINE
  5
67
330
1F
100
AcDbEntity
  8
_U+5716_U+5C64 1
370
     0
100
AcDbSpline
210
0.0
220
0.0
230
1.0
 70
    11
 71
     3
 72
    35
 73
    31
 74
     0
 42
0.0000000001
 43
0.0000000001
 12
1.0
 22
0.0
 32
0.0
 13
1.0
 23
0.0
 33
0.0
 40
0.0
 40
0.0
 40
0.0
 40
0.0
 40
1.0
 40
1.0
 40
1.0
 40
2.0
 40
2.0
 40
2.0
 40
3.0
 40
3.0
 40
3.0
 40
4.0
 40
4.0
 40
4.0
 40
5.0
 40
5.0
 40
5.0
 40
6.0
 40
6.0
 40
6.0
 40
7.0
 40
7.0
 40
7.0
 40
8.0
 40
8.0
 40
8.0
 40
9.0
 40
9.0
 40
9.0
 40
10.0
 40
10.0
 40
10.0
 40
10.0
 10
12.04099494892085
 20
-27.65926096417725
 30
0.0
 10
12.04099494892085
 20
-27.65926096417725
 30
0.0
 10
12.04099494892085
 20
-22.98180395006664
 30
0.0
 10
12.04099494892085
 20
-22.98180395006664
 30
0.0
 10
12.04099494892085
 20
-22.73881917011275
 30
0.0
 10
12.09652516664546
 20
-22.55658058514747
 30
0.0
 10
12.20771716194687
 20
-22.43508819517046
 30
0.0
 10
12.31884935731539
 20
-22.31359580519358
 30
0.0
 10
12.46250075621459
 20
-22.25284961020511
 30
0.0
 10
12.63875507855057
 20
-22.25284961020511
 30
0.0
 10
12.82034355490435
 20
-22.25284961020511
 30
0.0
 10
12.96743942994075
 20
-22.31297643222511
 30
0.0
 10
13.07995898375337
 20
-22.43306332200428
 30
0.0
 10
13.19241873763308
 20
-22.55322167789512
 30
0.0
 10
13.24871439449913
 20
-22.73615110194075
 30
0.0
 10
13.24871439449913
 20
-22.98180395006664
 30
0.0
 10
13.24871439449913
 20
-22.98180395006664
 30
0.0
 10
13.24871439449913
 20
-27.65926096417725
 30
0.0
 10
13.24871439449913
 20
-27.65926096417725
 30
0.0
 10
13.24871439449913
 20
-27.90496145637752
 30
0.0
 10
13.19241873763308
 20
-28.08853407542903
 30
0.0
 10
13.07995898375337
 20
-28.21002646540585
 30
0.0
 10
12.96743942994075
 20
-28.33151885538279
 30
0.0
 10
12.82034355490435
 20
-28.39226505037126
 30
0.0
 10
12.63875507855057
 20
-28.39226505037126
 30
0.0
 10
12.465239593143
 20
-28.39226505037126
 30
0.0
 10
12.32221011354636
 20
-28.33082801630258
 30
0.0
 10
12.20975035966671
 20
-28.2080015922396
 30
0.0
 10
12.09723080585406
 20
-28.08517516817669
 30
0.0
 10
12.04099494892085
 20
-27.90224574413107
 30
0.0
 10
12.04099494892085
 20
-27.65926096417725
 30
0.0
  0
HATCH
  5
68
330
1F
100
AcDbEntity
  8
_U+5716_U+5C64 1
 62
     7
100
AcDbHatch
 10
0.0
 20
0.0
 30
0.0
210
0.0
220
0.0
230
1.0
  2
SOLID
 70
     1
 71
     0
 91
        1
 92
        1
 93
        1
 72
     4
 94
        3
 73
     0
 74
     1
 95
       35
 96
       31
 40
0.0
 40
0.0
 40
0.0
 40
0.0
 40
1.0
 40
1.0
 40
1.0
 40
2.0
 40
2.0
 40
2.0
 40
3.0
 40
3.0
 40
3.0
 40
4.0
 40
4.0
 40
4.0
 40
5.0
 40
5.0
 40
5.0
 40
6.0
 40
6.0
 40
6.0
 40
7.0
 40
7.0
 40
7.0
 40
8.0
 40
8.0
 40
8.0
 40
9.0
 40
9.0
 40
9.0
 40
10.0
 40
10.0
 40
10.0
 40
10.0
 10
12.04099494892085
 20
-27.65926096417725
 10
12.04099494892085
 20
-27.65926096417725
 10
12.04099494892085
 20
-22.98180395006664
 10
12.04099494892085
 20
-22.98180395006664
 10
12.04099494892085
 20
-22.73881917011275
 10
12.09652516664546
 20
-22.55658058514747
 10
12.20771716194687
 20
-22.43508819517046
 10
12.31884935731539
 20
-22.31359580519358
 10
12.46250075621459
 20
-22.25284961020511
 10
12.63875507855057
 20
-22.25284961020511
 10
12.82034355490435
 20
-22.25284961020511
 10
12.96743942994075
 20
-22.31297643222511
 10
13.07995898375337
 20
-22.43306332200428
 10
13.19241873763308
 20
-22.55322167789512
 10
13.24871439449913
 20
-22.73615110194075
 10
13.24871439449913
 20
-22.98180395006664
 10
13.24871439449913
 20
-22.98180395006664
 10
13.24871439449913
 20
-27.65926096417725
 10
13.24871439449913
 20
-27.65926096417725
 10
13.24871439449913
 20
-27.90496145637752
 10
13.19241873763308
 20
-28.08853407542903
 10
13.07995898375337
 20
-28.21002646540585
 10
12.96743942994075
 20
-28.33151885538279
 10
12.82034355490435
 20
-28.39226505037126
 10
12.63875507855057
 20
-28.39226505037126
 10
12.465239593143
 20
-28.39226505037126
 10
12.32221011354636
 20
-28.33082801630258
 10
12.20975035966671
 20
-28.2080015922396
 10
12.09723080585406
 20
-28.08517516817669
 10
12.04099494892085
 20
-27.90224574413107
 10
12.04099494892085
 20
-27.65926096417725
 97
        0
 75
     2
 76
     1
 98
        0
  0
SPLINE
  5
69
330
1F
100
AcDbEntity
  8
_U+5716_U+5C64 1
370
     0
100
AcDbSpline
210
0.0
220
0.0
230
1.0
 70
    11
 71
     3
 72
    83
 73
    79
 74
     0
 42
0.0000000001
 43
0.0000000001
 12
1.0
 22
0.0
 32
0.0
 13
1.0
 23
0.0
 33
0.0
 40
0.0
 40
0.0
 40
0.0
 40
0.0
 40
1.0
 40
1.0
 40
1.0
 40
2.0
 40
2.0
 40
2.0
 40
3.0
 40
3.0
 40
3.0
 40
4.0
 40
4.0
 40
4.0
 40
5.0
 40
5.0
 40
5.0
 40
6.0
 40
6.0
 40
6.0
 40
7.0
 40
7.0
 40
7.0
 40
8.0
 40
8.0
 40
8.0
 40
9.0
 40
9.0
 40
9.0
 40
10.0
 40
10.0
 40
10.0
 40
11.0
 40
11.0
 40
11.0
 40
12.0
 40
12.0
 40
12.0
 40
13.0
 40
13.0
 40
13.0
 40
14.0
 40
14.0
 40
14.0
 40
15.0
 40
15.0
 40
15.0
 40
16.0
 40
16.0
 40
16.0
 40
17.0
 40
17.0
 40
17.0
 40
18.0
 40
18.0
 40
18.0
 40
19.0
 40
19.0
 40
19.0
 40
20.0
 40
20.0
 40
20.0
 40
21.0
 40
21.0
 40
21.0
 40
22.0
 40
22.0
 40
22.0
 40
23.0
 40
23.0
 40
23.0
 40
24.0
 40
24.0
 40
24.0
 40
25.0
 40
25.0
 40
25.0
 40
26.0
 40
26.0
 40
26.0
 40
26.0
 10
15.28136195494484
 20
-22.97370445740141
 30
0.0
 10
15.28136195494484
 20
-22.97370445740141
 30
0.0
 10
17.60327375098922
 20
-26.47268528873614
 30
0.0
 10
17.60327375098922
 20
-26.47268528873614
 30
0.0
 10
17.60327375098922
 20
-26.47268528873614
 30
0.0
 10
17.60327375098922
 20
-22.94130648674086
 30
0.0
 10
17.60327375098922
 20
-22.94130648674086
 30
0.0
 10
17.60327375098922
 20
-22.71185262394537
 30
0.0
 10
17.65270437555424
 20
-22.53976222684866
 30
0.0
 10
17.75169718453674
 20
-22.42496382933911
 30
0.0
 10
17.85063019358627
 20
-22.31023689794131
 30
0.0
 10
17.98411560388632
 20
-22.25284961020511
 30
0.0
 10
18.15223713534292
 20
-22.25284961020511
 30
0.0
 10
18.32569282081752
 20
-22.25284961020511
 30
0.0
 10
18.46262270725473
 20
-22.31023689794131
 30
0.0
 10
18.56294307474835
 20
-22.42496382933911
 30
0.0
 10
18.6632036423091
 20
-22.53976222684866
 30
0.0
 10
18.71339970601565
 20
-22.71185262394537
 30
0.0
 10
18.71339970601565
 20
-22.94130648674086
 30
0.0
 10
18.71339970601565
 20
-22.94130648674086
 30
0.0
 10
18.71339970601565
 20
-27.6106640081865
 30
0.0
 10
18.71339970601565
 20
-27.6106640081865
 30
0.0
 10
18.71339970601565
 20
-28.13174725100107
 30
0.0
 10
18.49648142928315
 20
-28.39226505037126
 30
0.0
 10
18.06277643567048
 20
-28.39226505037126
 30
0.0
 10
17.95432327729749
 20
-28.39226505037126
 30
0.0
 10
17.85672978674574
 20
-28.37670926004675
 30
0.0
 10
17.76999596401514
 20
-28.34569296754675
 30
0.0
 10
17.68320234135169
 20
-28.31462903097231
 30
0.0
 10
17.6018744325585
 20
-28.2653888799758
 30
0.0
 10
17.52601223763575
 20
-28.19787722640813
 30
0.0
 10
17.45009024278006
 20
-28.13041321691516
 30
0.0
 10
17.37962200180804
 20
-28.05144316343018
 30
0.0
 10
17.3145596747736
 20
-27.96096706595323
 30
0.0
 10
17.24949734773902
 20
-27.8705386125508
 30
0.0
 10
17.18443502070445
 20
-27.77808528598212
 30
0.0
 10
17.11937269366997
 20
-27.68355944217269
 30
0.0
 10
17.11937269366997
 20
-27.68355944217269
 30
0.0
 10
14.85439043378082
 20
-24.2250760741636
 30
0.0
 10
14.85439043378082
 20
-24.2250760741636
 30
0.0
 10
14.85439043378082
 20
-24.2250760741636
 30
0.0
 10
14.85439043378082
 20
-27.70380817383545
 30
0.0
 10
14.85439043378082
 20
-27.70380817383545
 30
0.0
 10
14.85439043378082
 20
-27.93059396845906
 30
0.0
 10
14.80152729306531
 20
-28.10206499258717
 30
0.0
 10
14.69580101163421
 20
-28.21812595807102
 30
0.0
 10
14.59007473020306
 20
-28.3341869235548
 30
0.0
 10
14.45448436226366
 20
-28.39226505037126
 30
0.0
 10
14.2891614676684
 20
-28.39226505037126
 30
0.0
 10
14.11837285920283
 20
-28.39226505037126
 30
0.0
 10
13.98145493275222
 20
-28.3335437285491
 30
0.0
 10
13.87845552826304
 20
-28.21610108490471
 30
0.0
 10
13.77539632384088
 20
-28.09865844126038
 30
0.0
 10
13.72393250155602
 20
-27.92792590028692
 30
0.0
 10
13.72393250155602
 20
-27.70380817383545
 30
0.0
 10
13.72393250155602
 20
-27.70380817383545
 30
0.0
 10
13.72393250155602
 20
-23.12354507170627
 30
0.0
 10
13.72393250155602
 20
-23.12354507170627
 30
0.0
 10
13.72393250155602
 20
-22.92915724774327
 30
0.0
 10
13.74560399725214
 20
-22.77664856526639
 30
0.0
 10
13.78899482859056
 20
-22.66592373612663
 30
0.0
 10
13.84045865087542
 20
-22.54443134614975
 30
0.0
 10
13.92585295510824
 20
-22.44521256100194
 30
0.0
 10
14.04517774128901
 20
-22.36826738068326
 30
0.0
 10
14.16444272753682
 20
-22.29132220036452
 30
0.0
 10
14.29322786310809
 20
-22.25284961020511
 30
0.0
 10
14.43148530805642
 20
-22.25284961020511
 30
0.0
 10
14.53987866649648
 20
-22.25284961020511
 30
0.0
 10
14.63277188231945
 20
-22.27043027369599
 30
0.0
 10
14.71003339567292
 20
-22.30549631252848
 30
0.0
 10
14.7872949090264
 20
-22.34060999543554
 30
0.0
 10
14.85502431306988
 20
-22.38787291734025
 30
0.0
 10
14.91335316765586
 20
-22.44723743416818
 30
0.0
 10
14.97162222230878
 20
-22.50664959507068
 30
0.0
 10
15.03127863540595
 20
-22.58359477538943
 30
0.0
 10
15.09227456700077
 20
-22.67807297512428
 30
0.0
 10
15.15327049859566
 20
-22.77259881893384
 30
0.0
 10
15.2162996279103
 20
-22.87112676500131
 30
0.0
 10
15.28136195494484
 20
-22.97370445740141
 30
0.0
  0
HATCH
  5
6A
330
1F
100
AcDbEntity
  8
_U+5716_U+5C64 1
 62
     7
100
AcDbHatch
 10
0.0
 20
0.0
 30
0.0
210
0.0
220
0.0
230
1.0
  2
SOLID
 70
     1
 71
     0
 91
        1
 92
        1
 93
        1
 72
     4
 94
        3
 73
     0
 74
     1
 95
       83
 96
       79
 40
0.0
 40
0.0
 40
0.0
 40
0.0
 40
1.0
 40
1.0
 40
1.0
 40
2.0
 40
2.0
 40
2.0
 40
3.0
 40
3.0
 40
3.0
 40
4.0
 40
4.0
 40
4.0
 40
5.0
 40
5.0
 40
5.0
 40
6.0
 40
6.0
 40
6.0
 40
7.0
 40
7.0
 40
7.0
 40
8.0
 40
8.0
 40
8.0
 40
9.0
 40
9.0
 40
9.0
 40
10.0
 40
10.0
 40
10.0
 40
11.0
 40
11.0
 40
11.0
 40
12.0
 40
12.0
 40
12.0
 40
13.0
 40
13.0
 40
13.0
 40
14.0
 40
14.0
 40
14.0
 40
15.0
 40
15.0
 40
15.0
 40
16.0
 40
16.0
 40
16.0
 40
17.0
 40
17.0
 40
17.0
 40
18.0
 40
18.0
 40
18.0
 40
19.0
 40
19.0
 40
19.0
 40
20.0
 40
20.0
 40
20.0
 40
21.0
 40
21.0
 40
21.0
 40
22.0
 40
22.0
 40
22.0
 40
23.0
 40
23.0
 40
23.0
 40
24.0
 40
24.0
 40
24.0
 40
25.0
 40
25.0
 40
25.0
 40
26.0
 40
26.0
 40
26.0
 40
26.0
 10
15.28136195494484
 20
-22.97370445740141
 10
15.28136195494484
 20
-22.97370445740141
 10
17.60327375098922
 20
-26.47268528873614
 10
17.60327375098922
 20
-26.47268528873614
 10
17.60327375098922
 20
-26.47268528873614
 10
17.60327375098922
 20
-22.94130648674086
 10
17.60327375098922
 20
-22.94130648674086
 10
17.60327375098922
 20
-22.71185262394537
 10
17.65270437555424
 20
-22.53976222684866
 10
17.75169718453674
 20
-22.42496382933911
 10
17.85063019358627
 20
-22.31023689794131
 10
17.98411560388632
 20
-22.25284961020511
 10
18.15223713534292
 20
-22.25284961020511
 10
18.32569282081752
 20
-22.25284961020511
 10
18.46262270725473
 20
-22.31023689794131
 10
18.56294307474835
 20
-22.42496382933911
 10
18.6632036423091
 20
-22.53976222684866
 10
18.71339970601565
 20
-22.71185262394537
 10
18.71339970601565
 20
-22.94130648674086
 10
18.71339970601565
 20
-22.94130648674086
 10
18.71339970601565
 20
-27.6106640081865
 10
18.71339970601565
 20
-27.6106640081865
 10
18.71339970601565
 20
-28.13174725100107
 10
18.49648142928315
 20
-28.39226505037126
 10
18.06277643567048
 20
-28.39226505037126
 10
17.95432327729749
 20
-28.39226505037126
 10
17.85672978674574
 20
-28.37670926004675
 10
17.76999596401514
 20
-28.34569296754675
 10
17.68320234135169
 20
-28.31462903097231
 10
17.6018744325585
 20
-28.2653888799758
 10
17.52601223763575
 20
-28.19787722640813
 10
17.45009024278006
 20
-28.13041321691516
 10
17.37962200180804
 20
-28.05144316343018
 10
17.3145596747736
 20
-27.96096706595323
 10
17.24949734773902
 20
-27.8705386125508
 10
17.18443502070445
 20
-27.77808528598212
 10
17.11937269366997
 20
-27.68355944217269
 10
17.11937269366997
 20
-27.68355944217269
 10
14.85439043378082
 20
-24.2250760741636
 10
14.85439043378082
 20
-24.2250760741636
 10
14.85439043378082
 20
-24.2250760741636
 10
14.85439043378082
 20
-27.70380817383545
 10
14.85439043378082
 20
-27.70380817383545
 10
14.85439043378082
 20
-27.93059396845906
 10
14.80152729306531
 20
-28.10206499258717
 10
14.69580101163421
 20
-28.21812595807102
 10
14.59007473020306
 20
-28.3341869235548
 10
14.45448436226366
 20
-28.39226505037126
 10
14.2891614676684
 20
-28.39226505037126
 10
14.11837285920283
 20
-28.39226505037126
 10
13.98145493275222
 20
-28.3335437285491
 10
13.87845552826304
 20
-28.21610108490471
 10
13.77539632384088
 20
-28.09865844126038
 10
13.72393250155602
 20
-27.92792590028692
 10
13.72393250155602
 20
-27.70380817383545
 10
13.72393250155602
 20
-27.70380817383545
 10
13.72393250155602
 20
-23.12354507170627
 10
13.72393250155602
 20
-23.12354507170627
 10
13.72393250155602
 20
-22.92915724774327
 10
13.74560399725214
 20
-22.77664856526639
 10
13.78899482859056
 20
-22.66592373612663
 10
13.84045865087542
 20
-22.54443134614975
 10
13.92585295510824
 20
-22.44521256100194
 10
14.04517774128901
 20
-22.36826738068326
 10
14.16444272753682
 20
-22.29132220036452
 10
14.29322786310809
 20
-22.25284961020511
 10
14.43148530805642
 20
-22.25284961020511
 10
14.53987866649648
 20
-22.25284961020511
 10
14.63277188231945
 20
-22.27043027369599
 10
14.71003339567292
 20
-22.30549631252848
 10
14.7872949090264
 20
-22.34060999543554
 10
14.85502431306988
 20
-22.38787291734025
 10
14.91335316765586
 20
-22.44723743416818
 10
14.97162222230878
 20
-22.50664959507068
 10
15.03127863540595
 20
-22.58359477538943
 10
15.09227456700077
 20
-22.67807297512428
 10
15.15327049859566
 20
-22.77259881893384
 10
15.2162996279103
 20
-22.87112676500131
 10
15.28136195494484
 20
-22.97370445740141
 97
        0
 75
     2
 76
     1
 98
        0
  0
SPLINE
  5
6B
330
1F
100
AcDbEntity
  8
_U+5716_U+5C64 1
370
     0
100
AcDbSpline
210
0.0
220
0.0
230
1.0
 70
    11
 71
     3
 72
    83
 73
    79
 74
     0
 42
0.0000000001
 43
0.0000000001
 12
1.0
 22
0.0
 32
0.0
 13
1.0
 23
0.0
 33
0.0
 40
0.0
 40
0.0
 40
0.0
 40
0.0
 40
1.0
 40
1.0
 40
1.0
 40
2.0
 40
2.0
 40
2.0
 40
3.0
 40
3.0
 40
3.0
 40
4.0
 40
4.0
 40
4.0
 40
5.0
 40
5.0
 40
5.0
 40
6.0
 40
6.0
 40
6.0
 40
7.0
 40
7.0
 40
7.0
 40
8.0
 40
8.0
 40
8.0
 40
9.0
 40
9.0
 40
9.0
 40
10.0
 40
10.0
 40
10.0
 40
11.0
 40
11.0
 40
11.0
 40
12.0
 40
12.0
 40
12.0
 40
13.0
 40
13.0
 40
13.0
 40
14.0
 40
14.0
 40
14.0
 40
15.0
 40
15.0
 40
15.0
 40
16.0
 40
16.0
 40
16.0
 40
17.0
 40
17.0
 40
17.0
 40
18.0
 40
18.0
 40
18.0
 40
19.0
 40
19.0
 40
19.0
 40
20.0
 40
20.0
 40
20.0
 40
21.0
 40
21.0
 40
21.0
 40
22.0
 40
22.0
 40
22.0
 40
23.0
 40
23.0
 40
23.0
 40
24.0
 40
24.0
 40
24.0
 40
25.0
 40
25.0
 40
25.0
 40
26.0
 40
26.0
 40
26.0
 40
26.0
 10
22.84837370876425
 20
-27.6187635008516
 30
0.0
 10
22.84837370876425
 20
-27.6187635008516
 30
0.0
 10
22.56372602798822
 20
-26.87361017565999
 30
0.0
 10
22.56372602798822
 20
-26.87361017565999
 30
0.0
 10
22.56372602798822
 20
-26.87361017565999
 30
0.0
 10
20.14015434595243
 20
-26.87361017565999
 30
0.0
 10
20.14015434595243
 20
-26.87361017565999
 30
0.0
 10
20.14015434595243
 20
-26.87361017565999
 30
0.0
 10
19.8555066651764
 20
-27.63496248618194
 30
0.0
 10
19.8555066651764
 20
-27.63496248618194
 30
0.0
 10
19.7443146698749
 20
-27.93197564661948
 30
0.0
 10
19.64946001625162
 20
-28.1324380900814
 30
0.0
 10
19.5708589844003
 20
-28.23634981656753
 30
0.0
 10
19.49219815261617
 20
-28.34026154305372
 30
0.0
 10
19.36347281697786
 20
-28.39226505037126
 30
0.0
 10
19.18455141763289
 20
-28.39226505037126
 30
0.0
 10
19.03269546793491
 20
-28.39226505037126
 30
0.0
 10
18.8985044184262
 20
-28.33690263580138
 30
0.0
 10
18.78197826910687
 20
-28.22622545073618
 30
0.0
 10
18.66539231985456
 20
-28.11554826567099
 30
0.0
 10
18.60712326520154
 20
-27.99000612936143
 30
0.0
 10
18.60712326520154
 20
-27.84959904180776
 30
0.0
 10
18.60712326520154
 20
-27.76860411515641
 30
0.0
 10
18.62066197001832
 20
-27.6849411203331
 30
0.0
 10
18.64778721959819
 20
-27.59851476918878
 30
0.0
 10
18.67485266924508
 20
-27.51213606211896
 30
0.0
 10
18.71958301908126
 20
-27.39197770622811
 30
0.0
 10
18.78197826910687
 20
-27.2380873455907
 30
0.0
 10
18.78197826910687
 20
-27.2380873455907
 30
0.0
 10
20.30687655897831
 20
-23.38272883699037
 30
0.0
 10
20.30687655897831
 20
-23.38272883699037
 30
0.0
 10
20.35020759038392
 20
-23.27205165192505
 30
0.0
 10
20.40243685181031
 20
-23.13912468406807
 30
0.0
 10
20.46343278340523
 20
-22.98382882323288
 30
0.0
 10
20.52442871500002
 20
-22.82860442850943
 30
0.0
 10
20.5894910420345
 20
-22.69970338494771
 30
0.0
 10
20.65861976450873
 20
-22.59707804847312
 30
0.0
 10
20.7277484869829
 20
-22.4945003560729
 30
0.0
 10
20.81854870515315
 20
-22.41148055625549
 30
0.0
 10
20.93106825896577
 20
-22.34801864902037
 30
0.0
 10
21.04353997283205
 20
-22.28462820789718
 30
0.0
 10
21.18249109700244
 20
-22.25284961020511
 30
0.0
 10
21.34787379153067
 20
-22.25284961020511
 30
0.0
 10
21.5159355230544
 20
-22.25284961020511
 30
0.0
 10
21.65622616572251
 20
-22.28462820789718
 30
0.0
 10
21.76874571953519
 20
-22.34801864902037
 30
0.0
 10
21.88121743340141
 20
-22.41148055625549
 30
0.0
 10
21.97206549151806
 20
-22.49316632198693
 30
0.0
 10
22.04119421399229
 20
-22.5930283021405
 30
0.0
 10
22.11032293646646
 20
-22.69293792636858
 30
0.0
 10
22.16859199111941
 20
-22.8002562041815
 30
0.0
 10
22.21604921789748
 20
-22.91498313557924
 30
0.0
 10
22.26345860472922
 20
-23.02978153308885
 30
0.0
 10
22.32380869704842
 20
-23.18295723260877
 30
0.0
 10
22.39700381496234
 20
-23.37462934432526
 30
0.0
 10
22.39700381496234
 20
-23.37462934432526
 30
0.0
 10
23.95443326835109
 20
-27.20568937493015
 30
0.0
 10
23.95443326835109
 20
-27.20568937493015
 30
0.0
 10
24.07642513154067
 20
-27.49727111087472
 30
0.0
 10
24.13742106313565
 20
-27.70923959832854
 30
0.0
 10
24.13742106313565
 20
-27.8414995491426
 30
0.0
 10
24.13742106313565
 20
-27.97919092444968
 30
0.0
 10
24.07979784775842
 20
-28.10542389983951
 30
0.0
 10
23.96459925695018
 20
-28.22015083123732
 30
0.0
 10
23.84935282619566
 20
-28.33487776263513
 30
0.0
 10
23.7104495419716
 20
-28.39226505037126
 30
0.0
 10
23.54779372438541
 20
-28.39226505037126
 30
0.0
 10
23.45287927082913
 20
-28.39226505037126
 30
0.0
 10
23.37155136203597
 20
-28.37537522596072
 30
0.0
 10
23.30380999800579
 20
-28.34164322121414
 30
0.0
 10
23.23602079402947
 20
-28.30786357239318
 30
0.0
 10
23.17909125787424
 20
-28.26202997272339
 30
0.0
 10
23.13302138954029
 20
-28.20395184590699
 30
0.0
 10
23.08690368125987
 20
-28.14592136316516
 30
0.0
 10
23.03746109670835
 20
-28.0568269438487
 30
0.0
 10
22.98459795599274
 20
-27.93666858795779
 30
0.0
 10
22.93173481527726
 20
-27.81655787614146
 30
0.0
 10
22.8863107862189
 20
-27.71057363241464
 30
0.0
 10
22.84837370876425
 20
-27.6187635008516
 30
0.0
  0
POLYLINE
  5
6C
330
1F
100
AcDbEntity
  8
_U+5716_U+5C64 1
370
     0
100
AcDb2dPolyline
 66
     1
 10
0.0
 20
0.0
 30
0.0
  0
VERTEX
  5
6D
330
6C
100
AcDbEntity
  8
_U+5716_U+5C64 1
370
     0
100
AcDbVertex
100
AcDb2dVertex
 10
20.45733319024571
 20
-25.97051674349835
 30
0.0
  0
VERTEX
  5
6E
330
6C
100
AcDbEntity
  8
_U+5716_U+5C64 1
370
     0
100
AcDbVertex
100
AcDb2dVertex
 10
22.23841439281563
 20
-25.97051674349835
 30
0.0
  0
VERTEX
  5
6F
330
6C
100
AcDbEntity
  8
_U+5716_U+5C64 1
370
     0
100
AcDbVertex
100
AcDb2dVertex
 10
21.33974100065136
 20
-23.52042021229752
 30
0.0
  0
VERTEX
  5
70
330
6C
100
AcDbEntity
  8
_U+5716_U+5C64 1
370
     0
100
AcDbVertex
100
AcDb2dVertex
 10
20.45733319024571
 20
-25.97051674349835
 30
0.0
  0
SEQEND
  5
71
330
6C
100
AcDbEntity
  8
_U+5716_U+5C64 1
370
     0
  0
HATCH
  5
72
330
1F
100
AcDbEntity
  8
_U+5716_U+5C64 1
 62
     7
100
AcDbHatch
 10
0.0
 20
0.0
 30
0.0
210
0.0
220
0.0
230
1.0
  2
SOLID
 70
     1
 71
     0
 91
        2
 92
        1
 93
        1
 72
     4
 94
        3
 73
     0
 74
     1
 95
       83
 96
       79
 40
0.0
 40
0.0
 40
0.0
 40
0.0
 40
1.0
 40
1.0
 40
1.0
 40
2.0
 40
2.0
 40
2.0
 40
3.0
 40
3.0
 40
3.0
 40
4.0
 40
4.0
 40
4.0
 40
5.0
 40
5.0
 40
5.0
 40
6.0
 40
6.0
 40
6.0
 40
7.0
 40
7.0
 40
7.0
 40
8.0
 40
8.0
 40
8.0
 40
9.0
 40
9.0
 40
9.0
 40
10.0
 40
10.0
 40
10.0
 40
11.0
 40
11.0
 40
11.0
 40
12.0
 40
12.0
 40
12.0
 40
13.0
 40
13.0
 40
13.0
 40
14.0
 40
14.0
 40
14.0
 40
15.0
 40
15.0
 40
15.0
 40
16.0
 40
16.0
 40
16.0
 40
17.0
 40
17.0
 40
17.0
 40
18.0
 40
18.0
 40
18.0
 40
19.0
 40
19.0
 40
19.0
 40
20.0
 40
20.0
 40
20.0
 40
21.0
 40
21.0
 40
21.0
 40
22.0
 40
22.0
 40
22.0
 40
23.0
 40
23.0
 40
23.0
 40
24.0
 40
24.0
 40
24.0
 40
25.0
 40
25.0
 40
25.0
 40
26.0
 40
26.0
 40
26.0
 40
26.0
 10
22.84837370876425
 20
-27.6187635008516
 10
22.84837370876425
 20
-27.6187635008516
 10
22.56372602798822
 20
-26.87361017565999
 10
22.56372602798822
 20
-26.87361017565999
 10
22.56372602798822
 20
-26.87361017565999
 10
20.14015434595243
 20
-26.87361017565999
 10
20.14015434595243
 20
-26.87361017565999
 10
20.14015434595243
 20
-26.87361017565999
 10
19.8555066651764
 20
-27.63496248618194
 10
19.8555066651764
 20
-27.63496248618194
 10
19.7443146698749
 20
-27.93197564661948
 10
19.64946001625162
 20
-28.1324380900814
 10
19.5708589844003
 20
-28.23634981656753
 10
19.49219815261617
 20
-28.34026154305372
 10
19.36347281697786
 20
-28.39226505037126
 10
19.18455141763289
 20
-28.39226505037126
 10
19.03269546793491
 20
-28.39226505037126
 10
18.8985044184262
 20
-28.33690263580138
 10
18.78197826910687
 20
-28.22622545073618
 10
18.66539231985456
 20
-28.11554826567099
 10
18.60712326520154
 20
-27.99000612936143
 10
18.60712326520154
 20
-27.84959904180776
 10
18.60712326520154
 20
-27.76860411515641
 10
18.62066197001832
 20
-27.6849411203331
 10
18.64778721959819
 20
-27.59851476918878
 10
18.67485266924508
 20
-27.51213606211896
 10
18.71958301908126
 20
-27.39197770622811
 10
18.78197826910687
 20
-27.2380873455907
 10
18.78197826910687
 20
-27.2380873455907
 10
20.30687655897831
 20
-23.38272883699037
 10
20.30687655897831
 20
-23.38272883699037
 10
20.35020759038392
 20
-23.27205165192505
 10
20.40243685181031
 20
-23.13912468406807
 10
20.46343278340523
 20
-22.98382882323288
 10
20.52442871500002
 20
-22.82860442850943
 10
20.5894910420345
 20
-22.69970338494771
 10
20.65861976450873
 20
-22.59707804847312
 10
20.7277484869829
 20
-22.4945003560729
 10
20.81854870515315
 20
-22.41148055625549
 10
20.93106825896577
 20
-22.34801864902037
 10
21.04353997283205
 20
-22.28462820789718
 10
21.18249109700244
 20
-22.25284961020511
 10
21.34787379153067
 20
-22.25284961020511
 10
21.5159355230544
 20
-22.25284961020511
 10
21.65622616572251
 20
-22.28462820789718
 10
21.76874571953519
 20
-22.34801864902037
 10
21.88121743340141
 20
-22.41148055625549
 10
21.97206549151806
 20
-22.49316632198693
 10
22.04119421399229
 20
-22.5930283021405
 10
22.11032293646646
 20
-22.69293792636858
 10
22.16859199111941
 20
-22.8002562041815
 10
22.21604921789748
 20
-22.91498313557924
 10
22.26345860472922
 20
-23.02978153308885
 10
22.32380869704842
 20
-23.18295723260877
 10
22.39700381496234
 20
-23.37462934432526
 10
22.39700381496234
 20
-23.37462934432526
 10
23.95443326835109
 20
-27.20568937493015
 10
23.95443326835109
 20
-27.20568937493015
 10
24.07642513154067
 20
-27.49727111087472
 10
24.13742106313565
 20
-27.70923959832854
 10
24.13742106313565
 20
-27.8414995491426
 10
24.13742106313565
 20
-27.97919092444968
 10
24.07979784775842
 20
-28.10542389983951
 10
23.96459925695018
 20
-28.22015083123732
 10
23.84935282619566
 20
-28.33487776263513
 10
23.7104495419716
 20
-28.39226505037126
 10
23.54779372438541
 20
-28.39226505037126
 10
23.45287927082913
 20
-28.39226505037126
 10
23.37155136203597
 20
-28.37537522596072
 10
23.30380999800579
 20
-28.34164322121414
 10
23.23602079402947
 20
-28.30786357239318
 10
23.17909125787424
 20
-28.26202997272339
 10
23.13302138954029
 20
-28.20395184590699
 10
23.08690368125987
 20
-28.14592136316516
 10
23.03746109670835
 20
-28.0568269438487
 10
22.98459795599274
 20
-27.93666858795779
 10
22.93173481527726
 20
-27.81655787614146
 10
22.8863107862189
 20
-27.71057363241464
 10
22.84837370876425
 20
-27.6187635008516
 97
        0
 92
        1
 93
        3
 72
     1
 10
20.45733319024571
 20
-25.97051674349835
 11
22.23841439281563
 21
-25.97051674349835
 72
     1
 10
22.23841439281563
 20
-25.97051674349835
 11
21.33974100065136
 21
-23.52042021229752
 72
     1
 10
21.33974100065136
 20
-23.52042021229752
 11
20.45733319024571
 21
-25.97051674349835
 97
        0
 75
     2
 76
     1
 98
        0
  0
SPLINE
  5
73
330
1F
100
AcDbEntity
  8
_U+5716_U+5C64 1
370
     0
100
AcDbSpline
210
0.0
220
0.0
230
1.0
 70
    11
 71
     3
 72
    83
 73
    79
 74
     0
 42
0.0000000001
 43
0.0000000001
 12
1.0
 22
0.0
 32
0.0
 13
1.0
 23
0.0
 33
0.0
 40
0.0
 40
0.0
 40
0.0
 40
0.0
 40
1.0
 40
1.0
 40
1.0
 40
2.0
 40
2.0
 40
2.0
 40
3.0
 40
3.0
 40
3.0
 40
4.0
 40
4.0
 40
4.0
 40
5.0
 40
5.0
 40
5.0
 40
6.0
 40
6.0
 40
6.0
 40
7.0
 40
7.0
 40
7.0
 40
8.0
 40
8.0
 40
8.0
 40
9.0
 40
9.0
 40
9.0
 40
10.0
 40
10.0
 40
10.0
 40
11.0
 40
11.0
 40
11.0
 40
12.0
 40
12.0
 40
12.0
 40
13.0
 40
13.0
 40
13.0
 40
14.0
 40
14.0
 40
14.0
 40
15.0
 40
15.0
 40
15.0
 40
16.0
 40
16.0
 40
16.0
 40
17.0
 40
17.0
 40
17.0
 40
18.0
 40
18.0
 40
18.0
 40
19.0
 40
19.0
 40
19.0
 40
20.0
 40
20.0
 40
20.0
 40
21.0
 40
21.0
 40
21.0
 40
22.0
 40
22.0
 40
22.0
 40
23.0
 40
23.0
 40
23.0
 40
24.0
 40
24.0
 40
24.0
 40
25.0
 40
25.0
 40
25.0
 40
26.0
 40
26.0
 40
26.0
 40
26.0
 10
25.70649954346036
 20
-22.97370445740141
 30
0.0
 10
25.70649954346036
 20
-22.97370445740141
 30
0.0
 10
28.02841133950481
 20
-26.47268528873614
 30
0.0
 10
28.02841133950481
 20
-26.47268528873614
 30
0.0
 10
28.02841133950481
 20
-26.47268528873614
 30
0.0
 10
28.02841133950481
 20
-22.94130648674086
 30
0.0
 10
28.02841133950481
 20
-22.94130648674086
 30
0.0
 10
28.02841133950481
 20
-22.71185262394537
 30
0.0
 10
28.07785392405632
 20
-22.53976222684866
 30
0.0
 10
28.17683477305222
 20
-22.42496382933911
 30
0.0
 10
28.27576778210179
 20
-22.31023689794131
 30
0.0
 10
28.40926515238837
 20
-22.25284961020511
 30
0.0
 10
28.5773747238585
 20
-22.25284961020511
 30
0.0
 10
28.75084236931964
 20
-22.25284961020511
 30
0.0
 10
28.88776029577019
 20
-22.31023689794131
 30
0.0
 10
28.98808066326387
 20
-22.42496382933911
 30
0.0
 10
29.08835319081116
 20
-22.53976222684866
 30
0.0
 10
29.1385372945312
 20
-22.71185262394537
 30
0.0
 10
29.1385372945312
 20
-22.94130648674086
 30
0.0
 10
29.1385372945312
 20
-22.94130648674086
 30
0.0
 10
29.1385372945312
 20
-27.6106640081865
 30
0.0
 10
29.1385372945312
 20
-27.6106640081865
 30
0.0
 10
29.1385372945312
 20
-28.13174725100107
 30
0.0
 10
28.92163097778521
 20
-28.39226505037126
 30
0.0
 10
28.48791402418603
 20
-28.39226505037126
 30
0.0
 10
28.3794608658131
 20
-28.39226505037126
 30
0.0
 10
28.28186737526119
 20
-28.37670926004675
 30
0.0
 10
28.19513355253056
 20
-28.34569296754675
 30
0.0
 10
28.10835188985372
 20
-28.31462903097231
 30
0.0
 10
28.02702398106056
 20
-28.2653888799758
 30
0.0
 10
27.95114982615127
 20
-28.19787722640813
 30
0.0
 10
27.87522783129551
 20
-28.13041321691516
 30
0.0
 10
27.80475959032356
 20
-28.05144316343018
 30
0.0
 10
27.73969726328902
 20
-27.96096706595323
 30
0.0
 10
27.67463493625454
 20
-27.8705386125508
 30
0.0
 10
27.60957260922006
 20
-27.77808528598212
 30
0.0
 10
27.54451028218559
 20
-27.68355944217269
 30
0.0
 10
27.54451028218559
 20
-27.68355944217269
 30
0.0
 10
25.27952802229637
 20
-24.2250760741636
 30
0.0
 10
25.27952802229637
 20
-24.2250760741636
 30
0.0
 10
25.27952802229637
 20
-24.2250760741636
 30
0.0
 10
25.27952802229637
 20
-27.70380817383545
 30
0.0
 10
25.27952802229637
 20
-27.70380817383545
 30
0.0
 10
25.27952802229637
 20
-27.93059396845906
 30
0.0
 10
25.22666488158076
 20
-28.10206499258717
 30
0.0
 10
25.1209386001498
 20
-28.21812595807102
 30
0.0
 10
25.01521231871858
 20
-28.3341869235548
 30
0.0
 10
24.87963391076581
 20
-28.39226505037126
 30
0.0
 10
24.71429905618399
 20
-28.39226505037126
 30
0.0
 10
24.54351044771829
 20
-28.39226505037126
 30
0.0
 10
24.40659252126781
 20
-28.3335437285491
 30
0.0
 10
24.30359311677862
 20
-28.21610108490471
 30
0.0
 10
24.20054587234296
 20
-28.09865844126038
 30
0.0
 10
24.1490700900716
 20
-27.92792590028692
 30
0.0
 10
24.1490700900716
 20
-27.70380817383545
 30
0.0
 10
24.1490700900716
 20
-27.70380817383545
 30
0.0
 10
24.1490700900716
 20
-23.12354507170627
 30
0.0
 10
24.1490700900716
 20
-23.12354507170627
 30
0.0
 10
24.1490700900716
 20
-22.92915724774327
 30
0.0
 10
24.17074158576763
 20
-22.77664856526639
 30
0.0
 10
24.21413241710608
 20
-22.66592373612663
 30
0.0
 10
24.26560819937757
 20
-22.54443134614975
 30
0.0
 10
24.35100250361029
 20
-22.44521256100194
 30
0.0
 10
24.47031532980444
 20
-22.36826738068326
 30
0.0
 10
24.58958031605244
 20
-22.29132220036452
 30
0.0
 10
24.71836545162368
 20
-22.25284961020511
 30
0.0
 10
24.85662289657194
 20
-22.25284961020511
 30
0.0
 10
24.9650282149986
 20
-22.25284961020511
 30
0.0
 10
25.05790947083504
 20
-22.27043027369599
 30
0.0
 10
25.13517098418851
 20
-22.30549631252848
 30
0.0
 10
25.21243249754198
 20
-22.34060999543554
 30
0.0
 10
25.28017386157203
 20
-22.38787291734025
 30
0.0
 10
25.33849075617132
 20
-22.44723743416818
 30
0.0
 10
25.3967598108244
 20
-22.50664959507068
 30
0.0
 10
25.45641622392147
 20
-22.58359477538943
 30
0.0
 10
25.51741215551633
 20
-22.67807297512428
 30
0.0
 10
25.57840808711118
 20
-22.77259881893384
 30
0.0
 10
25.64143721642588
 20
-22.87112676500131
 30
0.0
 10
25.70649954346036
 20
-22.97370445740141
 30
0.0
  0
HATCH
  5
74
330
1F
100
AcDbEntity
  8
_U+5716_U+5C64 1
 62
     7
100
AcDbHatch
 10
0.0
 20
0.0
 30
0.0
210
0.0
220
0.0
230
1.0
  2
SOLID
 70
     1
 71
     0
 91
        1
 92
        1
 93
        1
 72
     4
 94
        3
 73
     0
 74
     1
 95
       83
 96
       79
 40
0.0
 40
0.0
 40
0.0
 40
0.0
 40
1.0
 40
1.0
 40
1.0
 40
2.0
 40
2.0
 40
2.0
 40
3.0
 40
3.0
 40
3.0
 40
4.0
 40
4.0
 40
4.0
 40
5.0
 40
5.0
 40
5.0
 40
6.0
 40
6.0
 40
6.0
 40
7.0
 40
7.0
 40
7.0
 40
8.0
 40
8.0
 40
8.0
 40
9.0
 40
9.0
 40
9.0
 40
10.0
 40
10.0
 40
10.0
 40
11.0
 40
11.0
 40
11.0
 40
12.0
 40
12.0
 40
12.0
 40
13.0
 40
13.0
 40
13.0
 40
14.0
 40
14.0
 40
14.0
 40
15.0
 40
15.0
 40
15.0
 40
16.0
 40
16.0
 40
16.0
 40
17.0
 40
17.0
 40
17.0
 40
18.0
 40
18.0
 40
18.0
 40
19.0
 40
19.0
 40
19.0
 40
20.0
 40
20.0
 40
20.0
 40
21.0
 40
21.0
 40
21.0
 40
22.0
 40
22.0
 40
22.0
 40
23.0
 40
23.0
 40
23.0
 40
24.0
 40
24.0
 40
24.0
 40
25.0
 40
25.0
 40
25.0
 40
26.0
 40
26.0
 40
26.0
 40
26.0
 10
25.70649954346036
 20
-22.97370445740141
 10
25.70649954346036
 20
-22.97370445740141
 10
28.02841133950481
 20
-26.47268528873614
 10
28.02841133950481
 20
-26.47268528873614
 10
28.02841133950481
 20
-26.47268528873614
 10
28.02841133950481
 20
-22.94130648674086
 10
28.02841133950481
 20
-22.94130648674086
 10
28.02841133950481
 20
-22.71185262394537
 10
28.07785392405632
 20
-22.53976222684866
 10
28.17683477305222
 20
-22.42496382933911
 10
28.27576778210179
 20
-22.31023689794131
 10
28.40926515238837
 20
-22.25284961020511
 10
28.5773747238585
 20
-22.25284961020511
 10
28.75084236931964
 20
-22.25284961020511
 10
28.88776029577019
 20
-22.31023689794131
 10
28.98808066326387
 20
-22.42496382933911
 10
29.08835319081116
 20
-22.53976222684866
 10
29.1385372945312
 20
-22.71185262394537
 10
29.1385372945312
 20
-22.94130648674086
 10
29.1385372945312
 20
-22.94130648674086
 10
29.1385372945312
 20
-27.6106640081865
 10
29.1385372945312
 20
-27.6106640081865
 10
29.1385372945312
 20
-28.13174725100107
 10
28.92163097778521
 20
-28.39226505037126
 10
28.48791402418603
 20
-28.39226505037126
 10
28.3794608658131
 20
-28.39226505037126
 10
28.28186737526119
 20
-28.37670926004675
 10
28.19513355253056
 20
-28.34569296754675
 10
28.10835188985372
 20
-28.31462903097231
 10
28.02702398106056
 20
-28.2653888799758
 10
27.95114982615127
 20
-28.19787722640813
 10
27.87522783129551
 20
-28.13041321691516
 10
27.80475959032356
 20
-28.05144316343018
 10
27.73969726328902
 20
-27.96096706595323
 10
27.67463493625454
 20
-27.8705386125508
 10
27.60957260922006
 20
-27.77808528598212
 10
27.54451028218559
 20
-27.68355944217269
 10
27.54451028218559
 20
-27.68355944217269
 10
25.27952802229637
 20
-24.2250760741636
 10
25.27952802229637
 20
-24.2250760741636
 10
25.27952802229637
 20
-24.2250760741636
 10
25.27952802229637
 20
-27.70380817383545
 10
25.27952802229637
 20
-27.70380817383545
 10
25.27952802229637
 20
-27.93059396845906
 10
25.22666488158076
 20
-28.10206499258717
 10
25.1209386001498
 20
-28.21812595807102
 10
25.01521231871858
 20
-28.3341869235548
 10
24.87963391076581
 20
-28.39226505037126
 10
24.71429905618399
 20
-28.39226505037126
 10
24.54351044771829
 20
-28.39226505037126
 10
24.40659252126781
 20
-28.3335437285491
 10
24.30359311677862
 20
-28.21610108490471
 10
24.20054587234296
 20
-28.09865844126038
 10
24.1490700900716
 20
-27.92792590028692
 10
24.1490700900716
 20
-27.70380817383545
 10
24.1490700900716
 20
-27.70380817383545
 10
24.1490700900716
 20
-23.12354507170627
 10
24.1490700900716
 20
-23.12354507170627
 10
24.1490700900716
 20
-22.92915724774327
 10
24.17074158576763
 20
-22.77664856526639
 10
24.21413241710608
 20
-22.66592373612663
 10
24.26560819937757
 20
-22.54443134614975
 10
24.35100250361029
 20
-22.44521256100194
 10
24.47031532980444
 20
-22.36826738068326
 10
24.58958031605244
 20
-22.29132220036452
 10
24.71836545162368
 20
-22.25284961020511
 10
24.85662289657194
 20
-22.25284961020511
 10
24.9650282149986
 20
-22.25284961020511
 10
25.05790947083504
 20
-22.27043027369599
 10
25.13517098418851
 20
-22.30549631252848
 10
25.21243249754198
 20
-22.34060999543554
 10
25.28017386157203
 20
-22.38787291734025
 10
25.33849075617132
 20
-22.44723743416818
 10
25.3967598108244
 20
-22.50664959507068
 10
25.45641622392147
 20
-22.58359477538943
 10
25.51741215551633
 20
-22.67807297512428
 10
25.57840808711118
 20
-22.77259881893384
 10
25.64143721642588
 20
-22.87112676500131
 10
25.70649954346036
 20
-22.97370445740141
 97
        0
 75
     2
 76
     1
 98
        0
  0
SPLINE
  5
75
330
1F
100
AcDbEntity
  8
_U+5716_U+5C64 1
370
     0
100
AcDbSpline
210
0.0
220
0.0
230
1.0
 70
    11
 71
     3
 72
   572
 73
   568
 74
     0
 42
0.0000000001
 43
0.0000000001
 12
1.0
 22
0.0
 32
0.0
 13
1.0
 23
0.0
 33
0.0
 40
0.0
 40
0.0
 40
0.0
 40
0.0
 40
1.0
 40
1.0
 40
1.0
 40
2.0
 40
2.0
 40
2.0
 40
3.0
 40
3.0
 40
3.0
 40
4.0
 40
4.0
 40
4.0
 40
5.0
 40
5.0
 40
5.0
 40
6.0
 40
6.0
 40
6.0
 40
7.0
 40
7.0
 40
7.0
 40
8.0
 40
8.0
 40
8.0
 40
9.0
 40
9.0
 40
9.0
 40
10.0
 40
10.0
 40
10.0
 40
11.0
 40
11.0
 40
11.0
 40
12.0
 40
12.0
 40
12.0
 40
13.0
 40
13.0
 40
13.0
 40
14.0
 40
14.0
 40
14.0
 40
15.0
 40
15.0
 40
15.0
 40
16.0
 40
16.0
 40
16.0
 40
17.0
 40
17.0
 40
17.0
 40
18.0
 40
18.0
 40
18.0
 40
19.0
 40
19.0
 40
19.0
 40
20.0
 40
20.0
 40
20.0
 40
21.0
 40
21.0
 40
21.0
 40
22.0
 40
22.0
 40
22.0
 40
23.0
 40
23.0
 40
23.0
 40
24.0
 40
24.0
 40
24.0
 40
25.0
 40
25.0
 40
25.0
 40
26.0
 40
26.0
 40
26.0
 40
27.0
 40
27.0
 40
27.0
 40
28.0
 40
28.0
 40
28.0
 40
29.0
 40
29.0
 40
29.0
 40
30.0
 40
30.0
 40
30.0
 40
31.0
 40
31.0
 40
31.0
 40
32.0
 40
32.0
 40
32.0
 40
33.0
 40
33.0
 40
33.0
 40
34.0
 40
34.0
 40
34.0
 40
35.0
 40
35.0
 40
35.0
 40
36.0
 40
36.0
 40
36.0
 40
37.0
 40
37.0
 40
37.0
 40
38.0
 40
38.0
 40
38.0
 40
39.0
 40
39.0
 40
39.0
 40
40.0
 40
40.0
 40
40.0
 40
41.0
 40
41.0
 40
41.0
 40
42.0
 40
42.0
 40
42.0
 40
43.0
 40
43.0
 40
43.0
 40
44.0
 40
44.0
 40
44.0
 40
45.0
 40
45.0
 40
45.0
 40
46.0
 40
46.0
 40
46.0
 40
47.0
 40
47.0
 40
47.0
 40
48.0
 40
48.0
 40
48.0
 40
49.0
 40
49.0
 40
49.0
 40
50.0
 40
50.0
 40
50.0
 40
51.0
 40
51.0
 40
51.0
 40
52.0
 40
52.0
 40
52.0
 40
53.0
 40
53.0
 40
53.0
 40
54.0
 40
54.0
 40
54.0
 40
55.0
 40
55.0
 40
55.0
 40
56.0
 40
56.0
 40
56.0
 40
57.0
 40
57.0
 40
57.0
 40
58.0
 40
58.0
 40
58.0
 40
59.0
 40
59.0
 40
59.0
 40
60.0
 40
60.0
 40
60.0
 40
61.0
 40
61.0
 40
61.0
 40
62.0
 40
62.0
 40
62.0
 40
63.0
 40
63.0
 40
63.0
 40
64.0
 40
64.0
 40
64.0
 40
65.0
 40
65.0
 40
65.0
 40
66.0
 40
66.0
 40
66.0
 40
67.0
 40
67.0
 40
67.0
 40
68.0
 40
68.0
 40
68.0
 40
69.0
 40
69.0
 40
69.0
 40
70.0
 40
70.0
 40
70.0
 40
71.0
 40
71.0
 40
71.0
 40
72.0
 40
72.0
 40
72.0
 40
73.0
 40
73.0
 40
73.0
 40
74.0
 40
74.0
 40
74.0
 40
75.0
 40
75.0
 40
75.0
 40
76.0
 40
76.0
 40
76.0
 40
77.0
 40
77.0
 40
77.0
 40
78.0
 40
78.0
 40
78.0
 40
79.0
 40
79.0
 40
79.0
 40
80.0
 40
80.0
 40
80.0
 40
81.0
 40
81.0
 40
81.0
 40
82.0
 40
82.0
 40
82.0
 40
83.0
 40
83.0
 40
83.0
 40
84.0
 40
84.0
 40
84.0
 40
85.0
 40
85.0
 40
85.0
 40
86.0
 40
86.0
 40
86.0
 40
87.0
 40
87.0
 40
87.0
 40
88.0
 40
88.0
 40
88.0
 40
89.0
 40
89.0
 40
89.0
 40
90.0
 40
90.0
 40
90.0
 40
91.0
 40
91.0
 40
91.0
 40
92.0
 40
92.0
 40
92.0
 40
93.0
 40
93.0
 40
93.0
 40
94.0
 40
94.0
 40
94.0
 40
95.0
 40
95.0
 40
95.0
 40
96.0
 40
96.0
 40
96.0
 40
97.0
 40
97.0
 40
97.0
 40
98.0
 40
98.0
 40
98.0
 40
99.0
 40
99.0
 40
99.0
 40
100.0
 40
100.0
 40
100.0
 40
101.0
 40
101.0
 40
101.0
 40
102.0
 40
102.0
 40
102.0
 40
103.0
 40
103.0
 40
103.0
 40
104.0
 40
104.0
 40
104.0
 40
105.0
 40
105.0
 40
105.0
 40
106.0
 40
106.0
 40
106.0
 40
107.0
 40
107.0
 40
107.0
 40
108.0
 40
108.0
 40
108.0
 40
109.0
 40
109.0
 40
109.0
 40
110.0
 40
110.0
 40
110.0
 40
111.0
 40
111.0
 40
111.0
 40
112.0
 40
112.0
 40
112.0
 40
113.0
 40
113.0
 40
113.0
 40
114.0
 40
114.0
 40
114.0
 40
115.0
 40
115.0
 40
115.0
 40
116.0
 40
116.0
 40
116.0
 40
117.0
 40
117.0
 40
117.0
 40
118.0
 40
118.0
 40
118.0
 40
119.0
 40
119.0
 40
119.0
 40
120.0
 40
120.0
 40
120.0
 40
121.0
 40
121.0
 40
121.0
 40
122.0
 40
122.0
 40
122.0
 40
123.0
 40
123.0
 40
123.0
 40
124.0
 40
124.0
 40
124.0
 40
125.0
 40
125.0
 40
125.0
 40
126.0
 40
126.0
 40
126.0
 40
127.0
 40
127.0
 40
127.0
 40
128.0
 40
128.0
 40
128.0
 40
129.0
 40
129.0
 40
129.0
 40
130.0
 40
130.0
 40
130.0
 40
131.0
 40
131.0
 40
131.0
 40
132.0
 40
132.0
 40
132.0
 40
133.0
 40
133.0
 40
133.0
 40
134.0
 40
134.0
 40
134.0
 40
135.0
 40
135.0
 40
135.0
 40
136.0
 40
136.0
 40
136.0
 40
137.0
 40
137.0
 40
137.0
 40
138.0
 40
138.0
 40
138.0
 40
139.0
 40
139.0
 40
139.0
 40
140.0
 40
140.0
 40
140.0
 40
141.0
 40
141.0
 40
141.0
 40
142.0
 40
142.0
 40
142.0
 40
143.0
 40
143.0
 40
143.0
 40
144.0
 40
144.0
 40
144.0
 40
145.0
 40
145.0
 40
145.0
 40
146.0
 40
146.0
 40
146.0
 40
147.0
 40
147.0
 40
147.0
 40
148.0
 40
148.0
 40
148.0
 40
149.0
 40
149.0
 40
149.0
 40
150.0
 40
150.0
 40
150.0
 40
151.0
 40
151.0
 40
151.0
 40
152.0
 40
152.0
 40
152.0
 40
153.0
 40
153.0
 40
153.0
 40
154.0
 40
154.0
 40
154.0
 40
155.0
 40
155.0
 40
155.0
 40
156.0
 40
156.0
 40
156.0
 40
157.0
 40
157.0
 40
157.0
 40
158.0
 40
158.0
 40
158.0
 40
159.0
 40
159.0
 40
159.0
 40
160.0
 40
160.0
 40
160.0
 40
161.0
 40
161.0
 40
161.0
 40
162.0
 40
162.0
 40
162.0
 40
163.0
 40
163.0
 40
163.0
 40
164.0
 40
164.0
 40
164.0
 40
165.0
 40
165.0
 40
165.0
 40
166.0
 40
166.0
 40
166.0
 40
167.0
 40
167.0
 40
167.0
 40
168.0
 40
168.0
 40
168.0
 40
169.0
 40
169.0
 40
169.0
 40
170.0
 40
170.0
 40
170.0
 40
171.0
 40
171.0
 40
171.0
 40
172.0
 40
172.0
 40
172.0
 40
173.0
 40
173.0
 40
173.0
 40
174.0
 40
174.0
 40
174.0
 40
175.0
 40
175.0
 40
175.0
 40
176.0
 40
176.0
 40
176.0
 40
177.0
 40
177.0
 40
177.0
 40
178.0
 40
178.0
 40
178.0
 40
179.0
 40
179.0
 40
179.0
 40
180.0
 40
180.0
 40
180.0
 40
181.0
 40
181.0
 40
181.0
 40
182.0
 40
182.0
 40
182.0
 40
183.0
 40
183.0
 40
183.0
 40
184.0
 40
184.0
 40
184.0
 40
185.0
 40
185.0
 40
185.0
 40
186.0
 40
186.0
 40
186.0
 40
187.0
 40
187.0
 40
187.0
 40
188.0
 40
188.0
 40
188.0
 40
189.0
 40
189.0
 40
189.0
 40
189.0
 10
31.74311841383071
 20
-1.65447480902106
 30
0.0
 10
31.74311841383071
 20
-1.65447480902106
 30
0.0
 10
31.74311841383071
 20
-1.154475182138681
 30
0.0
 10
31.74311841383071
 20
-1.154475182138681
 30
0.0
 10
31.74311841383071
 20
-1.154475182138681
 30
0.0
 10
31.24309725510155
 20
-1.154475182138681
 30
0.0
 10
31.24309725510155
 20
-1.154475182138681
 30
0.0
 10
31.24309725510155
 20
-1.154475182138681
 30
0.0
 10
31.24311878694833
 20
-0.654475555256303
 30
0.0
 10
31.24311878694833
 20
-0.654475555256303
 30
0.0
 10
31.24311878694833
 20
-0.654475555256303
 30
0.0
 10
28.24781712143739
 20
-0.726251966506805
 30
0.0
 10
28.24781712143739
 20
-0.726251966506805
 30
0.0
 10
28.24781712143739
 20
-0.726251966506805
 30
0.0
 10
28.24782358099143
 20
-0.7264522126818852
 30
0.0
 10
28.24782358099143
 20
-0.7264522126818852
 30
0.0
 10
28.11677214873252
 20
-0.7185887822368024
 30
0.0
 10
27.97917718823632
 20
-0.7144632803932157
 30
0.0
 10
27.83294365081086
 20
-0.7144632803932157
 30
0.0
 10
27.83294365081086
 20
-0.7144632803932157
 30
0.0
 10
25.90139919057326
 20
-0.7144632803932157
 30
0.0
 10
25.90139919057326
 20
-0.7144632803932157
 30
0.0
 10
25.33589753259289
 20
-0.7144632803932157
 30
0.0
 10
24.88018030180404
 20
-0.8826959056766784
 30
0.0
 10
24.54670582475525
 20
-1.21469329803617
 30
0.0
 10
24.39551565620038
 20
-1.365274115327084
 30
0.0
 10
24.27852236670597
 20
-1.541772816590468
 30
0.0
 10
24.19540943812432
 20
-1.742466854083697
 30
0.0
 10
24.14049461608944
 20
-1.636797162812372
 30
0.0
 10
24.07934847759561
 20
-1.534811570525585
 30
0.0
 10
24.01215189015581
 20
-1.437702941535105
 30
0.0
 10
23.84597986260947
 20
-1.197674526339036
 30
0.0
 10
23.62926397792515
 20
-1.001263173170908
 30
0.0
 10
23.36737212550581
 20
-0.8535224064706471
 30
0.0
 10
23.17044616119957
 20
-0.7426032509536721
 30
0.0
 10
22.9517924103048
 20
-0.6697308687019249
 30
0.0
 10
22.71448131417272
 20
-0.6356394956906994
 30
0.0
 10
22.71448131417272
 20
-0.6356394956906994
 30
0.0
 10
16.96135918087251
 20
-0.6376075064866484
 30
0.0
 10
16.96135918087251
 20
-0.6376075064866484
 30
0.0
 10
16.87270610811364
 20
-0.6244127907781416
 30
0.0
 10
16.7820268885725
 20
-0.6176927013972261
 30
0.0
 10
16.689857665234
 20
-0.6176927013972261
 30
0.0
 10
16.5983817673619
 20
-0.6176927013972261
 30
0.0
 10
16.50854444302998
 20
-0.6246517942774308
 30
0.0
 10
16.4206858954174
 20
-0.6377926803689806
 30
0.0
 10
16.4206858954174
 20
-0.6377926803689806
 30
0.0
 10
9.100542701989186
 20
-0.6402968341498215
 30
0.0
 10
9.100542701989186
 20
-0.6402968341498215
 30
0.0
 10
9.100542701989186
 20
-0.6402968341498215
 30
0.0
 10
8.554701773306203
 20
-0.6400922816053849
 30
0.0
 10
8.554701773306203
 20
-0.6400922816053849
 30
0.0
 10
8.555496298452487
 20
-0.6402064003933338
 30
0.0
 10
8.556267138567312
 20
-0.6403700424288832
 30
0.0
 10
8.557061663713599
 20
-0.640484161216832
 30
0.0
 10
8.557061663713599
 20
-0.640484161216832
 30
0.0
 10
7.812884434760103
 20
-0.6407382370088692
 30
0.0
 10
7.812884434760103
 20
-0.6407382370088692
 30
0.0
 10
7.589523822158608
 20
-0.6767179529829472
 30
0.0
 10
7.382675982854852
 20
-0.7479366894017745
 30
0.0
 10
7.194873062030491
 20
-0.8537829418167191
 30
0.0
 10
7.106639860283886
 20
-0.9035301206237267
 30
0.0
 10
7.02400709188549
 20
-0.9595452200292108
 30
0.0
 10
6.946178078504341
 20
-1.020570780181055
 30
0.0
 10
6.722434199030111
 20
-0.8627035859388379
 30
0.0
 10
6.384054767284194
 20
-0.7144632803932157
 30
0.0
 10
5.901562685020919
 20
-0.7144632803932157
 30
0.0
 10
5.901562685020919
 20
-0.7144632803932157
 30
0.0
 10
3.836772697337247
 20
-0.7144632803932157
 30
0.0
 10
3.836772697337247
 20
-0.7144632803932157
 30
0.0
 10
3.836772697337247
 20
-0.7144632803932157
 30
0.0
 10
1.172284172612745
 20
-0.6547016396475225
 30
0.0
 10
1.172284172612745
 20
-0.6547016396475225
 30
0.0
 10
1.172284172612745
 20
-0.6547016396475225
 30
0.0
 10
1.172284172612745
 20
-0.654475555256303
 30
0.0
 10
1.172284172612745
 20
-0.654475555256303
 30
0.0
 10
1.172284172612745
 20
-0.654475555256303
 30
0.0
 10
0.6722845457303663
 20
-0.654475555256303
 30
0.0
 10
0.6722845457303663
 20
-0.654475555256303
 30
0.0
 10
0.6722845457303663
 20
-0.654475555256303
 30
0.0
 10
0.6722845457303663
 20
-1.154475182138681
 30
0.0
 10
0.6722845457303663
 20
-1.154475182138681
 30
0.0
 10
0.6722845457303663
 20
-1.154475182138681
 30
0.0
 10
1.162541011943523
 20
-1.154475182138681
 30
0.0
 10
1.162541011943523
 20
-1.154475182138681
 30
0.0
 10
1.162541011943523
 20
-1.154475182138681
 30
0.0
 10
1.162887674676726
 20
-1.65447480902106
 30
0.0
 10
1.162887674676726
 20
-1.65447480902106
 30
0.0
 10
1.162887674676726
 20
-1.65447480902106
 30
0.0
 10
0.6722845457303663
 20
-1.65447480902106
 30
0.0
 10
0.6722845457303663
 20
-1.65447480902106
 30
0.0
 10
0.6722845457303663
 20
-1.65447480902106
 30
0.0
 10
0.6722845457303663
 20
-2.154476589088117
 30
0.0
 10
0.6722845457303663
 20
-2.154476589088117
 30
0.0
 10
0.6722845457303663
 20
-2.154476589088117
 30
0.0
 10
1.163236490594608
 20
-2.154476589088117
 30
0.0
 10
1.163236490594608
 20
-2.154476589088117
 30
0.0
 10
1.163236490594608
 20
-2.154476589088117
 30
0.0
 10
1.163583153327811
 20
-2.654476215970496
 30
0.0
 10
1.163583153327811
 20
-2.654476215970496
 30
0.0
 10
1.163583153327811
 20
-2.654476215970496
 30
0.0
 10
0.6722845457303663
 20
-2.654476215970496
 30
0.0
 10
0.6722845457303663
 20
-2.654476215970496
 30
0.0
 10
0.6722845457303663
 20
-2.654476215970496
 30
0.0
 10
0.6722845457303663
 20
-3.154475842852874
 30
0.0
 10
0.6722845457303663
 20
-3.154475842852874
 30
0.0
 10
0.6722845457303663
 20
-3.154475842852874
 30
0.0
 10
1.163931969245692
 20
-3.154475842852874
 30
0.0
 10
1.163931969245692
 20
-3.154475842852874
 30
0.0
 10
1.163931969245692
 20
-3.154475842852874
 30
0.0
 10
1.164282938348252
 20
-3.660355817091638
 30
0.0
 10
1.164282938348252
 20
-3.660355817091638
 30
0.0
 10
1.164282938348252
 20
-3.660355817091638
 30
0.0
 10
0.6722845457303663
 20
-3.660355817091638
 30
0.0
 10
0.6722845457303663
 20
-3.660355817091638
 30
0.0
 10
0.6722845457303663
 20
-3.660355817091638
 30
0.0
 10
0.6722845457303663
 20
-4.160355443974017
 30
0.0
 10
0.6722845457303663
 20
-4.160355443974017
 30
0.0
 10
0.6722845457303663
 20
-4.160355443974017
 30
0.0
 10
1.164631754266134
 20
-4.160355443974017
 30
0.0
 10
1.164631754266134
 20
-4.160355443974017
 30
0.0
 10
1.164631754266134
 20
-4.160355443974017
 30
0.0
 10
1.164978416999337
 20
-4.660355070856395
 30
0.0
 10
1.164978416999337
 20
-4.660355070856395
 30
0.0
 10
1.164978416999337
 20
-4.660355070856395
 30
0.0
 10
0.6722845457303663
 20
-4.660355070856395
 30
0.0
 10
0.6722845457303663
 20
-4.660355070856395
 30
0.0
 10
0.6722845457303663
 20
-4.660355070856395
 30
0.0
 10
0.6722845457303663
 20
-5.160356850923452
 30
0.0
 10
0.6722845457303663
 20
-5.160356850923452
 30
0.0
 10
0.6722845457303663
 20
-5.160356850923452
 30
0.0
 10
1.165327232917218
 20
-5.160356850923452
 30
0.0
 10
1.165327232917218
 20
-5.160356850923452
 30
0.0
 10
1.165327232917218
 20
-5.160356850923452
 30
0.0
 10
1.165673895650422
 20
-5.660356477805831
 30
0.0
 10
1.165673895650422
 20
-5.660356477805831
 30
0.0
 10
1.165673895650422
 20
-5.660356477805831
 30
0.0
 10
0.6722845457303663
 20
-5.660356477805831
 30
0.0
 10
0.6722845457303663
 20
-5.660356477805831
 30
0.0
 10
0.6722845457303663
 20
-5.660356477805831
 30
0.0
 10
0.6722845457303663
 20
-6.160356104688209
 30
0.0
 10
0.6722845457303663
 20
-6.160356104688209
 30
0.0
 10
0.6722845457303663
 20
-6.160356104688209
 30
0.0
 10
1.166022711568303
 20
-6.160356104688209
 30
0.0
 10
1.166022711568303
 20
-6.160356104688209
 30
0.0
 10
1.166022711568303
 20
-6.160356104688209
 30
0.0
 10
1.166371527486185
 20
-6.660355731570587
 30
0.0
 10
1.166371527486185
 20
-6.660355731570587
 30
0.0
 10
1.166371527486185
 20
-6.660355731570587
 30
0.0
 10
0.6722845457303663
 20
-6.660355731570587
 30
0.0
 10
0.6722845457303663
 20
-6.660355731570587
 30
0.0
 10
0.6722845457303663
 20
-6.660355731570587
 30
0.0
 10
0.6722845457303663
 20
-7.160355358452966
 30
0.0
 10
0.6722845457303663
 20
-7.160355358452966
 30
0.0
 10
0.6722845457303663
 20
-7.160355358452966
 30
0.0
 10
1.166718190219388
 20
-7.160355358452966
 30
0.0
 10
1.166718190219388
 20
-7.160355358452966
 30
0.0
 10
1.166718190219388
 20
-7.160355358452966
 30
0.0
 10
1.16706700613727
 20
-7.660357138520023
 30
0.0
 10
1.16706700613727
 20
-7.660357138520023
 30
0.0
 10
1.16706700613727
 20
-7.660357138520023
 30
0.0
 10
0.6722845457303663
 20
-7.660357138520023
 30
0.0
 10
0.6722845457303663
 20
-7.660357138520023
 30
0.0
 10
0.6722845457303663
 20
-7.660357138520023
 30
0.0
 10
0.6722845457303663
 20
-8.160356765402401
 30
0.0
 10
0.6722845457303663
 20
-8.160356765402401
 30
0.0
 10
0.6722845457303663
 20
-8.160356765402401
 30
0.0
 10
1.167413668870473
 20
-8.160356765402401
 30
0.0
 10
1.167413668870473
 20
-8.160356765402401
 30
0.0
 10
1.167413668870473
 20
-8.160356765402401
 30
0.0
 10
1.167762484788355
 20
-8.66035639228478
 30
0.0
 10
1.167762484788355
 20
-8.66035639228478
 30
0.0
 10
1.167762484788355
 20
-8.66035639228478
 30
0.0
 10
0.6722845457303663
 20
-8.66035639228478
 30
0.0
 10
0.6722845457303663
 20
-8.66035639228478
 30
0.0
 10
0.6722845457303663
 20
-8.66035639228478
 30
0.0
 10
0.6722845457303663
 20
-9.160356019167159
 30
0.0
 10
0.6722845457303663
 20
-9.160356019167159
 30
0.0
 10
0.6722845457303663
 20
-9.160356019167159
 30
0.0
 10
1.168109147521558
 20
-9.160356019167159
 30
0.0
 10
1.168109147521558
 20
-9.160356019167159
 30
0.0
 10
1.168109147521558
 20
-9.160356019167159
 30
0.0
 10
1.168457963439439
 20
-9.660357799234216
 30
0.0
 10
1.168457963439439
 20
-9.660357799234216
 30
0.0
 10
1.168457963439439
 20
-9.660357799234216
 30
0.0
 10
0.6722845457303663
 20
-9.660357799234216
 30
0.0
 10
0.6722845457303663
 20
-9.660357799234216
 30
0.0
 10
0.6722845457303663
 20
-9.660357799234216
 30
0.0
 10
0.6722845457303663
 20
-10.16035742611659
 30
0.0
 10
0.6722845457303663
 20
-10.16035742611659
 30
0.0
 10
0.6722845457303663
 20
-10.16035742611659
 30
0.0
 10
1.168804626172643
 20
-10.16035742611659
 30
0.0
 10
1.168804626172643
 20
-10.16035742611659
 30
0.0
 10
1.168804626172643
 20
-10.16035742611659
 30
0.0
 10
1.169153442090524
 20
-10.66035705299897
 30
0.0
 10
1.169153442090524
 20
-10.66035705299897
 30
0.0
 10
1.169153442090524
 20
-10.66035705299897
 30
0.0
 10
0.6722845457303663
 20
-10.66035705299897
 30
0.0
 10
0.6722845457303663
 20
-10.66035705299897
 30
0.0
 10
0.6722845457303663
 20
-10.66035705299897
 30
0.0
 10
0.6722845457303663
 20
-11.16035667988135
 30
0.0
 10
0.6722845457303663
 20
-11.16035667988135
 30
0.0
 10
0.6722845457303663
 20
-11.16035667988135
 30
0.0
 10
1.169502258008406
 20
-11.16035667988135
 30
0.0
 10
1.169502258008406
 20
-11.16035667988135
 30
0.0
 10
1.169502258008406
 20
-11.16035667988135
 30
0.0
 10
1.169848920741609
 20
-11.66035845994841
 30
0.0
 10
1.169848920741609
 20
-11.66035845994841
 30
0.0
 10
1.169848920741609
 20
-11.66035845994841
 30
0.0
 10
0.6722845457303663
 20
-11.66035845994841
 30
0.0
 10
0.6722845457303663
 20
-11.66035845994841
 30
0.0
 10
0.6722845457303663
 20
-11.66035845994841
 30
0.0
 10
0.6722845457303663
 20
-12.16035808683079
 30
0.0
 10
0.6722845457303663
 20
-12.16035808683079
 30
0.0
 10
0.6722845457303663
 20
-12.16035808683079
 30
0.0
 10
1.17019773665949
 20
-12.16035808683079
 30
0.0
 10
1.17019773665949
 20
-12.16035808683079
 30
0.0
 10
1.17019773665949
 20
-12.16035808683079
 30
0.0
 10
1.170544399392694
 20
-12.66035771371316
 30
0.0
 10
1.170544399392694
 20
-12.66035771371316
 30
0.0
 10
1.170544399392694
 20
-12.66035771371316
 30
0.0
 10
0.6722845457303663
 20
-12.66035771371316
 30
0.0
 10
0.6722845457303663
 20
-12.66035771371316
 30
0.0
 10
0.6722845457303663
 20
-12.66035771371316
 30
0.0
 10
0.6722845457303663
 20
-13.16035734059554
 30
0.0
 10
0.6722845457303663
 20
-13.16035734059554
 30
0.0
 10
0.6722845457303663
 20
-13.16035734059554
 30
0.0
 10
1.170893215310575
 20
-13.16035734059554
 30
0.0
 10
1.170893215310575
 20
-13.16035734059554
 30
0.0
 10
1.170893215310575
 20
-13.16035734059554
 30
0.0
 10
1.171239878043778
 20
-13.6603591206626
 30
0.0
 10
1.171239878043778
 20
-13.6603591206626
 30
0.0
 10
1.171239878043778
 20
-13.6603591206626
 30
0.0
 10
0.6722845457303663
 20
-13.6603591206626
 30
0.0
 10
0.6722845457303663
 20
-13.6603591206626
 30
0.0
 10
0.6722845457303663
 20
-13.6603591206626
 30
0.0
 10
0.6722845457303663
 20
-14.16035874754498
 30
0.0
 10
0.6722845457303663
 20
-14.16035874754498
 30
0.0
 10
0.6722845457303663
 20
-14.16035874754498
 30
0.0
 10
1.17158869396166
 20
-14.16035874754498
 30
0.0
 10
1.17158869396166
 20
-14.16035874754498
 30
0.0
 10
1.17158869396166
 20
-14.16035874754498
 30
0.0
 10
1.171935356694863
 20
-14.66035837442736
 30
0.0
 10
1.171935356694863
 20
-14.66035837442736
 30
0.0
 10
1.171935356694863
 20
-14.66035837442736
 30
0.0
 10
0.6722845457303663
 20
-14.66035837442736
 30
0.0
 10
0.6722845457303663
 20
-14.66035837442736
 30
0.0
 10
0.6722845457303663
 20
-14.66035837442736
 30
0.0
 10
0.6722845457303663
 20
-15.16035800130973
 30
0.0
 10
0.6722845457303663
 20
-15.16035800130973
 30
0.0
 10
0.6722845457303663
 20
-15.16035800130973
 30
0.0
 10
1.172284172612745
 20
-15.16035800130973
 30
0.0
 10
1.172284172612745
 20
-15.16035800130973
 30
0.0
 10
1.172284172612745
 20
-15.16035800130973
 30
0.0
 10
4.825329927721619
 20
-15.17486831285667
 30
0.0
 10
4.825329927721619
 20
-15.17486831285667
 30
0.0
 10
4.825329927721619
 20
-15.17486831285667
 30
0.0
 10
4.823560009916071
 20
-15.14898918620841
 30
0.0
 10
4.823560009916071
 20
-15.14898918620841
 30
0.0
 10
4.891841802433723
 20
-15.15678156155911
 30
0.0
 10
4.961098987610637
 20
-15.16118051785684
 30
0.0
 10
5.03134448455488
 20
-15.16118051785684
 30
0.0
 10
5.400314211025138
 20
-15.16118051785684
 30
0.0
 10
5.745495553169746
 20
-15.05130135053947
 30
0.0
 10
6.031651643728631
 20
-14.84707178380451
 30
0.0
 10
6.320298968960289
 20
-15.05327797407414
 30
0.0
 10
6.655924477502685
 20
-15.16118051785684
 30
0.0
 10
7.015207026105355
 20
-15.16118051785684
 30
0.0
 10
7.736513127406149
 20
-15.16118051785684
 30
0.0
 10
8.129628666858652
 20
-14.78420094438338
 30
0.0
 10
8.299977872680865
 20
-14.55922113690381
 30
0.0
 10
8.449512242218134
 20
-14.36158246846906
 30
0.0
 10
8.585289914845864
 20
-14.0889763690906
 30
0.0
 10
8.740360122190994
 20
-13.67487373857889
 30
0.0
 10
8.740360122190994
 20
-13.67487373857889
 30
0.0
 10
8.752318909894168
 20
-13.64290325247577
 30
0.0
 10
8.752318909894168
 20
-13.64290325247577
 30
0.0
 10
8.752318909894168
 20
-13.64290325247577
 30
0.0
 10
9.618771190357894
 20
-13.64290325247577
 30
0.0
 10
9.618771190357894
 20
-13.64290325247577
 30
0.0
 10
9.618771190357894
 20
-13.64290325247577
 30
0.0
 10
9.638782888757838
 20
-13.69411029049466
 30
0.0
 10
9.638782888757838
 20
-13.69411029049466
 30
0.0
 10
9.679751533631494
 20
-13.79321922805126
 30
0.0
 10
9.728941037606827
 20
-13.90803995420528
 30
0.0
 10
9.784913073318744
 20
-14.03517689671907
 30
0.0
 10
9.878781159368412
 20
-14.2484713709496
 30
0.0
 10
9.973049737768239
 20
-14.41141146829385
 30
0.0
 10
10.08096520065901
 20
-14.54715038359737
 30
0.0
 10
10.22970935141935
 20
-14.73464755219741
 30
0.0
 10
10.41473251082405
 20
-14.88433049147748
 30
0.0
 10
10.63154528881889
 20
-14.99239667729574
 30
0.0
 10
10.85658107910009
 20
-15.1043773528591
 30
0.0
 10
11.10787065016357
 20
-15.16118051785684
 30
0.0
 10
11.37844199002106
 20
-15.16118051785684
 30
0.0
 10
11.59129721457722
 20
-15.16118051785684
 30
0.0
 10
11.79808476470998
 20
-15.12229830893644
 30
0.0
 10
11.99123188990584
 20
-15.04873260121829
 30
0.0
 10
12.18472137146554
 20
-15.12251793377362
 30
0.0
 10
12.39332620946677
 20
-15.16118051785684
 30
0.0
 10
12.60999687727285
 20
-15.16118051785684
 30
0.0
 10
12.90958884022421
 20
-15.16118051785684
 30
0.0
 10
13.19307282859735
 20
-15.08970339927662
 30
0.0
 10
13.44237285701809
 20
-14.95547171324789
 30
0.0
 10
13.68625547278829
 20
-15.08966248876773
 30
0.0
 10
13.96460842207308
 20
-15.16118051785684
 30
0.0
 10
14.26040862680599
 20
-15.16118051785684
 30
0.0
 10
14.74166262787925
 20
-15.16118051785684
 30
0.0
 10
15.18196090318693
 20
-14.96883222417663
 30
0.0
 10
15.50015638175864
 20
-14.61960720120621
 30
0.0
 10
15.6754083890933
 20
-14.42731489032763
 30
0.0
 10
15.87933435678863
 20
-14.10601021308048
 30
0.0
 10
15.93552817052241
 20
-13.61953043279303
 30
0.0
 10
15.93552817052241
 20
-13.61953043279303
 30
0.0
 10
16.14839846737132
 20
-13.94447399214648
 30
0.0
 10
16.14839846737132
 20
-13.94447399214648
 30
0.0
 10
16.14839846737132
 20
-13.94447399214648
 30
0.0
 10
16.16284633656259
 20
-13.96597138797443
 30
0.0
 10
16.16284633656259
 20
-13.96597138797443
 30
0.0
 10
16.23202170072172
 20
-14.066432525509
 30
0.0
 10
16.30219398938691
 20
-14.1661465079602
 30
0.0
 10
16.37131552392909
 20
-14.26219792327364
 30
0.0
 10
16.48425436667429
 20
-14.41918446498244
 30
0.0
 10
16.61108986333312
 20
-14.5605711836971
 30
0.0
 10
16.74775249486363
 20
-14.68203233139893
 30
0.0
 10
16.93144498613715
 20
-14.84541383160223
 30
0.0
 10
17.13764256366806
 20
-14.96875040315885
 30
0.0
 10
17.3611969628906
 20
-15.04875843943442
 30
0.0
 10
17.56988577509429
 20
-15.12333829713605
 30
0.0
 10
17.79626515261473
 20
-15.16118051785684
 30
0.0
 10
18.03401765160586
 20
-15.16118051785684
 30
0.0
 10
18.10277960430677
 20
-15.16118051785684
 30
0.0
 10
18.17043266689836
 20
-15.15784523479018
 30
0.0
 10
18.23683903556123
 20
-15.15125864285932
 30
0.0
 10
18.23683903556123
 20
-15.15125864285932
 30
0.0
 10
18.69942061910444
 20
-15.09951330867087
 30
0.0
 10
18.69942061910444
 20
-15.09951330867087
 30
0.0
 10
18.84575104984043
 20
-15.1400879207484
 30
0.0
 10
18.99844414130073
 20
-15.16118051785684
 30
0.0
 10
19.15580318395888
 20
-15.16118051785684
 30
0.0
 10
19.87723201678633
 20
-15.16118051785684
 30
0.0
 10
20.27036262853158
 20
-14.78409113196478
 30
0.0
 10
20.44049005633193
 20
-14.55930511110627
 30
0.0
 10
20.59005241727002
 20
-14.36166428948684
 30
0.0
 10
20.72583008989775
 20
-14.08906034329305
 30
0.0
 10
20.8809282886437
 20
-13.67487373857889
 30
0.0
 10
20.8809282886437
 20
-13.67487373857889
 30
0.0
 10
20.89288707634687
 20
-13.64290325247577
 30
0.0
 10
20.89288707634687
 20
-13.64290325247577
 30
0.0
 10
20.89288707634687
 20
-13.64290325247577
 30
0.0
 10
21.75936519502674
 20
-13.64290325247577
 30
0.0
 10
21.75936519502674
 20
-13.64290325247577
 30
0.0
 10
21.75936519502674
 20
-13.64290325247577
 30
0.0
 10
21.77943502941299
 20
-13.69424809431407
 30
0.0
 10
21.77943502941299
 20
-13.69424809431407
 30
0.0
 10
21.82029170868338
 20
-13.79308142423185
 30
0.0
 10
21.8694532212579
 20
-13.9077901847826
 30
0.0
 10
21.92553722257308
 20
-14.03528886232234
 30
0.0
 10
22.01943114683889
 20
-14.24855534515205
 30
0.0
 10
22.11368680613065
 20
-14.41146745109548
 30
0.0
 10
22.22144939290926
 20
-14.54704057117878
 30
0.0
 10
22.37020861596235
 20
-14.73456357799496
 30
0.0
 10
22.55525761358319
 20
-14.88430250007667
 30
0.0
 10
22.77214144667241
 20
-14.99239667729574
 30
0.0
 10
22.99719015606168
 20
-15.1043773528591
 30
0.0
 10
23.24847972712516
 20
-15.16118051785684
 30
0.0
 10
23.51903814787458
 20
-15.16118051785684
 30
0.0
 10
23.72044058312696
 20
-15.16118051785684
 30
0.0
 10
23.91654618407077
 20
-15.12671879708095
 30
0.0
 10
24.10066715909527
 20
-15.06071938032228
 30
0.0
 10
24.28352421471362
 20
-15.12648840632037
 30
0.0
 10
24.4802973029077
 20
-15.16118051785684
 30
0.0
 10
24.68555393873421
 20
-15.16118051785684
 30
0.0
 10
25.16676487611391
 20
-15.16118051785684
 30
0.0
 10
25.60703731320544
 20
-14.96886021557745
 30
0.0
 10
25.92537059559656
 20
-14.61955337158925
 30
0.0
 10
26.10056662012959
 20
-14.427258907526
 30
0.0
 10
26.3044947410096
 20
-14.10601021308048
 30
0.0
 10
26.3606864015587
 20
-13.61953043279303
 30
0.0
 10
26.3606864015587
 20
-13.61953043279303
 30
0.0
 10
26.57352870700679
 20
-13.94447399214648
 30
0.0
 10
26.57352870700679
 20
-13.94447399214648
 30
0.0
 10
26.57352870700679
 20
-13.94447399214648
 30
0.0
 10
26.58797872938273
 20
-13.96597138797443
 30
0.0
 10
26.58797872938273
 20
-13.96597138797443
 30
0.0
 10
26.65740170977988
 20
-14.06678995416559
 30
0.0
 10
26.72762998124669
 20
-14.16655991941843
 30
0.0
 10
26.79633595114597
 20
-14.2620041366526
 30
0.0
 10
26.90927479389117
 20
-14.41904666116303
 30
0.0
 10
27.03611029055
 20
-14.56048936267932
 30
0.0
 10
27.17291072589991
 20
-14.68203233139893
 30
0.0
 10
27.35657737895729
 20
-14.84544182300305
 30
0.0
 10
27.56280294788903
 20
-14.96875040315885
 30
0.0
 10
27.78632935571075
 20
-15.04875843943442
 30
0.0
 10
27.99501816791444
 20
-15.12333829713605
 30
0.0
 10
28.2213953922502
 20
-15.16118051785684
 30
0.0
 10
28.45915004442601
 20
-15.16118051785684
 30
0.0
 10
28.52790984394224
 20
-15.16118051785684
 30
0.0
 10
28.59559089793465
 20
-15.15784523479018
 30
0.0
 10
28.66199726659752
 20
-15.15125864285932
 30
0.0
 10
28.66199726659752
 20
-15.15125864285932
 30
0.0
 10
28.77737782076789
 20
-15.17486831285667
 30
0.0
 10
28.77737782076789
 20
-15.17486831285667
 30
0.0
 10
28.77737782076789
 20
-15.17486831285667
 30
0.0
 10
31.2424771379142
 20
-15.16035800130973
 30
0.0
 10
31.2424771379142
 20
-15.16035800130973
 30
0.0
 10
31.2424771379142
 20
-15.16035800130973
 30
0.0
 10
31.24249866976099
 20
-14.66035837442736
 30
0.0
 10
31.24249866976099
 20
-14.66035837442736
 30
0.0
 10
31.24249866976099
 20
-14.66035837442736
 30
0.0
 10
31.74067670240554
 20
-14.66035837442736
 30
0.0
 10
31.74067670240554
 20
-14.66035837442736
 30
0.0
 10
31.74067670240554
 20
-14.66035837442736
 30
0.0
 10
31.74067670240554
 20
-14.16035874754498
 30
0.0
 10
31.74067670240554
 20
-14.16035874754498
 30
0.0
 10
31.74067670240554
 20
-14.16035874754498
 30
0.0
 10
31.24252235479245
 20
-14.16035874754498
 30
0.0
 10
31.24252235479245
 20
-14.16035874754498
 30
0.0
 10
31.24252235479245
 20
-14.16035874754498
 30
0.0
 10
31.24254388663923
 20
-13.66035696747792
 30
0.0
 10
31.24254388663923
 20
-13.66035696747792
 30
0.0
 10
31.24254388663923
 20
-13.66035696747792
 30
0.0
 10
31.73975513936324
 20
-13.66035696747792
 30
0.0
 10
31.73975513936324
 20
-13.66035696747792
 30
0.0
 10
31.73975513936324
 20
-13.66035696747792
 30
0.0
 10
31.73975513936324
 20
-13.16035734059554
 30
0.0
 10
31.73975513936324
 20
-13.16035734059554
 30
0.0
 10
31.73975513936324
 20
-13.16035734059554
 30
0.0
 10
31.24256541848601
 20
-13.16035734059554
 30
0.0
 10
31.24256541848601
 20
-13.16035734059554
 30
0.0
 10
31.24256541848601
 20
-13.16035734059554
 30
0.0
 10
31.2425869503328
 20
-12.66035771371316
 30
0.0
 10
31.2425869503328
 20
-12.66035771371316
 30
0.0
 10
31.2425869503328
 20
-12.66035771371316
 30
0.0
 10
31.73975513936324
 20
-12.66035771371316
 30
0.0
 10
31.73975513936324
 20
-12.66035771371316
 30
0.0
 10
31.73975513936324
 20
-12.66035771371316
 30
0.0
 10
31.73975513936324
 20
-12.16035808683079
 30
0.0
 10
31.73975513936324
 20
-12.16035808683079
 30
0.0
 10
31.73975513936324
 20
-12.16035808683079
 30
0.0
 10
31.24261063536426
 20
-12.16035808683079
 30
0.0
 10
31.24261063536426
 20
-12.16035808683079
 30
0.0
 10
31.24261063536426
 20
-12.16035808683079
 30
0.0
 10
31.24263216721104
 20
-11.66035630676373
 30
0.0
 10
31.24263216721104
 20
-11.66035630676373
 30
0.0
 10
31.24263216721104
 20
-11.66035630676373
 30
0.0
 10
31.73975513936324
 20
-11.66035630676373
 30
0.0
 10
31.73975513936324
 20
-11.66035630676373
 30
0.0
 10
31.73975513936324
 20
-11.66035630676373
 30
0.0
 10
31.73975513936324
 20
-11.16035667988135
 30
0.0
 10
31.73975513936324
 20
-11.16035667988135
 30
0.0
 10
31.73975513936324
 20
-11.16035667988135
 30
0.0
 10
31.24265369905783
 20
-11.16035667988135
 30
0.0
 10
31.24265369905783
 20
-11.16035667988135
 30
0.0
 10
31.24265369905783
 20
-11.16035667988135
 30
0.0
 10
31.24267523090461
 20
-10.66035705299897
 30
0.0
 10
31.24267523090461
 20
-10.66035705299897
 30
0.0
 10
31.24267523090461
 20
-10.66035705299897
 30
0.0
 10
31.73975513936324
 20
-10.66035705299897
 30
0.0
 10
31.73975513936324
 20
-10.66035705299897
 30
0.0
 10
31.73975513936324
 20
-10.66035705299897
 30
0.0
 10
31.73975513936324
 20
-10.16035742611659
 30
0.0
 10
31.73975513936324
 20
-10.16035742611659
 30
0.0
 10
31.73975513936324
 20
-10.16035742611659
 30
0.0
 10
31.24269891593607
 20
-10.16035742611659
 30
0.0
 10
31.24269891593607
 20
-10.16035742611659
 30
0.0
 10
31.24269891593607
 20
-10.16035742611659
 30
0.0
 10
31.24272044778285
 20
-9.660357799234216
 30
0.0
 10
31.24272044778285
 20
-9.660357799234216
 30
0.0
 10
31.24272044778285
 20
-9.660357799234216
 30
0.0
 10
31.73975513936324
 20
-9.660357799234216
 30
0.0
 10
31.73975513936324
 20
-9.660357799234216
 30
0.0
 10
31.73975513936324
 20
-9.660357799234216
 30
0.0
 10
31.73975513936324
 20
-9.160356019167159
 30
0.0
 10
31.73975513936324
 20
-9.160356019167159
 30
0.0
 10
31.73975513936324
 20
-9.160356019167159
 30
0.0
 10
31.24274197962963
 20
-9.160356019167159
 30
0.0
 10
31.24274197962963
 20
-9.160356019167159
 30
0.0
 10
31.24274197962963
 20
-9.160356019167159
 30
0.0
 10
31.2427656646611
 20
-8.66035639228478
 30
0.0
 10
31.2427656646611
 20
-8.66035639228478
 30
0.0
 10
31.2427656646611
 20
-8.66035639228478
 30
0.0
 10
31.73975513936324
 20
-8.66035639228478
 30
0.0
 10
31.73975513936324
 20
-8.66035639228478
 30
0.0
 10
31.73975513936324
 20
-8.66035639228478
 30
0.0
 10
31.73975513936324
 20
-8.160356765402401
 30
0.0
 10
31.73975513936324
 20
-8.160356765402401
 30
0.0
 10
31.73975513936324
 20
-8.160356765402401
 30
0.0
 10
31.24278719650788
 20
-8.160356765402401
 30
0.0
 10
31.24278719650788
 20
-8.160356765402401
 30
0.0
 10
31.24278719650788
 20
-8.160356765402401
 30
0.0
 10
31.24280872835466
 20
-7.660357138520023
 30
0.0
 10
31.24280872835466
 20
-7.660357138520023
 30
0.0
 10
31.24280872835466
 20
-7.660357138520023
 30
0.0
 10
31.73975513936324
 20
-7.660357138520023
 30
0.0
 10
31.73975513936324
 20
-7.660357138520023
 30
0.0
 10
31.73975513936324
 20
-7.660357138520023
 30
0.0
 10
31.73975513936324
 20
-7.160355358452966
 30
0.0
 10
31.73975513936324
 20
-7.160355358452966
 30
0.0
 10
31.73975513936324
 20
-7.160355358452966
 30
0.0
 10
31.24283026020144
 20
-7.160355358452966
 30
0.0
 10
31.24283026020144
 20
-7.160355358452966
 30
0.0
 10
31.24283026020144
 20
-7.160355358452966
 30
0.0
 10
31.24285394523291
 20
-6.660355731570587
 30
0.0
 10
31.24285394523291
 20
-6.660355731570587
 30
0.0
 10
31.24285394523291
 20
-6.660355731570587
 30
0.0
 10
31.73975513936324
 20
-6.660355731570587
 30
0.0
 10
31.73975513936324
 20
-6.660355731570587
 30
0.0
 10
31.73975513936324
 20
-6.660355731570587
 30
0.0
 10
31.73975513936324
 20
-6.160356104688209
 30
0.0
 10
31.73975513936324
 20
-6.160356104688209
 30
0.0
 10
31.73975513936324
 20
-6.160356104688209
 30
0.0
 10
31.24287547707969
 20
-6.160356104688209
 30
0.0
 10
31.24287547707969
 20
-6.160356104688209
 30
0.0
 10
31.24287547707969
 20
-6.160356104688209
 30
0.0
 10
31.24289700892647
 20
-5.660356477805831
 30
0.0
 10
31.24289700892647
 20
-5.660356477805831
 30
0.0
 10
31.24289700892647
 20
-5.660356477805831
 30
0.0
 10
31.73975513936324
 20
-5.660356477805831
 30
0.0
 10
31.73975513936324
 20
-5.660356477805831
 30
0.0
 10
31.73975513936324
 20
-5.660356477805831
 30
0.0
 10
31.73975513936324
 20
-5.160356850923452
 30
0.0
 10
31.73975513936324
 20
-5.160356850923452
 30
0.0
 10
31.73975513936324
 20
-5.160356850923452
 30
0.0
 10
31.24291854077325
 20
-5.160356850923452
 30
0.0
 10
31.24291854077325
 20
-5.160356850923452
 30
0.0
 10
31.24291854077325
 20
-5.160356850923452
 30
0.0
 10
31.24294222580471
 20
-4.660355070856395
 30
0.0
 10
31.24294222580471
 20
-4.660355070856395
 30
0.0
 10
31.24294222580471
 20
-4.660355070856395
 30
0.0
 10
31.73975513936324
 20
-4.660355070856395
 30
0.0
 10
31.73975513936324
 20
-4.660355070856395
 30
0.0
 10
31.73975513936324
 20
-4.660355070856395
 30
0.0
 10
31.73975513936324
 20
-4.160355443974017
 30
0.0
 10
31.73975513936324
 20
-4.160355443974017
 30
0.0
 10
31.73975513936324
 20
-4.160355443974017
 30
0.0
 10
31.24296375765149
 20
-4.160355443974017
 30
0.0
 10
31.24296375765149
 20
-4.160355443974017
 30
0.0
 10
31.24296375765149
 20
-4.160355443974017
 30
0.0
 10
31.24298528949828
 20
-3.654475469735253
 30
0.0
 10
31.24298528949828
 20
-3.654475469735253
 30
0.0
 10
31.24298528949828
 20
-3.654475469735253
 30
0.0
 10
31.73975513936324
 20
-3.654475469735253
 30
0.0
 10
31.73975513936324
 20
-3.654475469735253
 30
0.0
 10
31.73975513936324
 20
-3.654475469735253
 30
0.0
 10
31.73975513936324
 20
-3.154475842852874
 30
0.0
 10
31.73975513936324
 20
-3.154475842852874
 30
0.0
 10
31.73975513936324
 20
-3.154475842852874
 30
0.0
 10
31.24300897452974
 20
-3.154475842852874
 30
0.0
 10
31.24300897452974
 20
-3.154475842852874
 30
0.0
 10
31.24300897452974
 20
-3.154475842852874
 30
0.0
 10
31.24303050637652
 20
-2.654476215970496
 30
0.0
 10
31.24303050637652
 20
-2.654476215970496
 30
0.0
 10
31.24303050637652
 20
-2.654476215970496
 30
0.0
 10
31.73975513936324
 20
-2.654476215970496
 30
0.0
 10
31.73975513936324
 20
-2.654476215970496
 30
0.0
 10
31.73975513936324
 20
-2.654476215970496
 30
0.0
 10
31.73975513936324
 20
-2.154476589088117
 30
0.0
 10
31.73975513936324
 20
-2.154476589088117
 30
0.0
 10
31.73975513936324
 20
-2.154476589088117
 30
0.0
 10
31.24305203822331
 20
-2.154476589088117
 30
0.0
 10
31.24305203822331
 20
-2.154476589088117
 30
0.0
 10
31.24305203822331
 20
-2.154476589088117
 30
0.0
 10
31.24307357007009
 20
-1.65447480902106
 30
0.0
 10
31.24307357007009
 20
-1.65447480902106
 30
0.0
 10
31.24307357007009
 20
-1.65447480902106
 30
0.0
 10
31.74311841383071
 20
-1.65447480902106
 30
0.0
 10
31.74311841383071
 20
-1.65447480902106
 30
0.0
  0
HATCH
  5
76
330
1F
100
AcDbEntity
  8
_U+5716_U+5C64 1
 62
     2
100
AcDbHatch
 10
0.0
 20
0.0
 30
0.0
210
0.0
220
0.0
230
1.0
  2
SOLID
 70
     1
 71
     0
 91
        1
 92
        1
 93
        1
 72
     4
 94
        3
 73
     0
 74
     1
 95
      572
 96
      568
 40
0.0
 40
0.0
 40
0.0
 40
0.0
 40
1.0
 40
1.0
 40
1.0
 40
2.0
 40
2.0
 40
2.0
 40
3.0
 40
3.0
 40
3.0
 40
4.0
 40
4.0
 40
4.0
 40
5.0
 40
5.0
 40
5.0
 40
6.0
 40
6.0
 40
6.0
 40
7.0
 40
7.0
 40
7.0
 40
8.0
 40
8.0
 40
8.0
 40
9.0
 40
9.0
 40
9.0
 40
10.0
 40
10.0
 40
10.0
 40
11.0
 40
11.0
 40
11.0
 40
12.0
 40
12.0
 40
12.0
 40
13.0
 40
13.0
 40
13.0
 40
14.0
 40
14.0
 40
14.0
 40
15.0
 40
15.0
 40
15.0
 40
16.0
 40
16.0
 40
16.0
 40
17.0
 40
17.0
 40
17.0
 40
18.0
 40
18.0
 40
18.0
 40
19.0
 40
19.0
 40
19.0
 40
20.0
 40
20.0
 40
20.0
 40
21.0
 40
21.0
 40
21.0
 40
22.0
 40
22.0
 40
22.0
 40
23.0
 40
23.0
 40
23.0
 40
24.0
 40
24.0
 40
24.0
 40
25.0
 40
25.0
 40
25.0
 40
26.0
 40
26.0
 40
26.0
 40
27.0
 40
27.0
 40
27.0
 40
28.0
 40
28.0
 40
28.0
 40
29.0
 40
29.0
 40
29.0
 40
30.0
 40
30.0
 40
30.0
 40
31.0
 40
31.0
 40
31.0
 40
32.0
 40
32.0
 40
32.0
 40
33.0
 40
33.0
 40
33.0
 40
34.0
 40
34.0
 40
34.0
 40
35.0
 40
35.0
 40
35.0
 40
36.0
 40
36.0
 40
36.0
 40
37.0
 40
37.0
 40
37.0
 40
38.0
 40
38.0
 40
38.0
 40
39.0
 40
39.0
 40
39.0
 40
40.0
 40
40.0
 40
40.0
 40
41.0
 40
41.0
 40
41.0
 40
42.0
 40
42.0
 40
42.0
 40
43.0
 40
43.0
 40
43.0
 40
44.0
 40
44.0
 40
44.0
 40
45.0
 40
45.0
 40
45.0
 40
46.0
 40
46.0
 40
46.0
 40
47.0
 40
47.0
 40
47.0
 40
48.0
 40
48.0
 40
48.0
 40
49.0
 40
49.0
 40
49.0
 40
50.0
 40
50.0
 40
50.0
 40
51.0
 40
51.0
 40
51.0
 40
52.0
 40
52.0
 40
52.0
 40
53.0
 40
53.0
 40
53.0
 40
54.0
 40
54.0
 40
54.0
 40
55.0
 40
55.0
 40
55.0
 40
56.0
 40
56.0
 40
56.0
 40
57.0
 40
57.0
 40
57.0
 40
58.0
 40
58.0
 40
58.0
 40
59.0
 40
59.0
 40
59.0
 40
60.0
 40
60.0
 40
60.0
 40
61.0
 40
61.0
 40
61.0
 40
62.0
 40
62.0
 40
62.0
 40
63.0
 40
63.0
 40
63.0
 40
64.0
 40
64.0
 40
64.0
 40
65.0
 40
65.0
 40
65.0
 40
66.0
 40
66.0
 40
66.0
 40
67.0
 40
67.0
 40
67.0
 40
68.0
 40
68.0
 40
68.0
 40
69.0
 40
69.0
 40
69.0
 40
70.0
 40
70.0
 40
70.0
 40
71.0
 40
71.0
 40
71.0
 40
72.0
 40
72.0
 40
72.0
 40
73.0
 40
73.0
 40
73.0
 40
74.0
 40
74.0
 40
74.0
 40
75.0
 40
75.0
 40
75.0
 40
76.0
 40
76.0
 40
76.0
 40
77.0
 40
77.0
 40
77.0
 40
78.0
 40
78.0
 40
78.0
 40
79.0
 40
79.0
 40
79.0
 40
80.0
 40
80.0
 40
80.0
 40
81.0
 40
81.0
 40
81.0
 40
82.0
 40
82.0
 40
82.0
 40
83.0
 40
83.0
 40
83.0
 40
84.0
 40
84.0
 40
84.0
 40
85.0
 40
85.0
 40
85.0
 40
86.0
 40
86.0
 40
86.0
 40
87.0
 40
87.0
 40
87.0
 40
88.0
 40
88.0
 40
88.0
 40
89.0
 40
89.0
 40
89.0
 40
90.0
 40
90.0
 40
90.0
 40
91.0
 40
91.0
 40
91.0
 40
92.0
 40
92.0
 40
92.0
 40
93.0
 40
93.0
 40
93.0
 40
94.0
 40
94.0
 40
94.0
 40
95.0
 40
95.0
 40
95.0
 40
96.0
 40
96.0
 40
96.0
 40
97.0
 40
97.0
 40
97.0
 40
98.0
 40
98.0
 40
98.0
 40
99.0
 40
99.0
 40
99.0
 40
100.0
 40
100.0
 40
100.0
 40
101.0
 40
101.0
 40
101.0
 40
102.0
 40
102.0
 40
102.0
 40
103.0
 40
103.0
 40
103.0
 40
104.0
 40
104.0
 40
104.0
 40
105.0
 40
105.0
 40
105.0
 40
106.0
 40
106.0
 40
106.0
 40
107.0
 40
107.0
 40
107.0
 40
108.0
 40
108.0
 40
108.0
 40
109.0
 40
109.0
 40
109.0
 40
110.0
 40
110.0
 40
110.0
 40
111.0
 40
111.0
 40
111.0
 40
112.0
 40
112.0
 40
112.0
 40
113.0
 40
113.0
 40
113.0
 40
114.0
 40
114.0
 40
114.0
 40
115.0
 40
115.0
 40
115.0
 40
116.0
 40
116.0
 40
116.0
 40
117.0
 40
117.0
 40
117.0
 40
118.0
 40
118.0
 40
118.0
 40
119.0
 40
119.0
 40
119.0
 40
120.0
 40
120.0
 40
120.0
 40
121.0
 40
121.0
 40
121.0
 40
122.0
 40
122.0
 40
122.0
 40
123.0
 40
123.0
 40
123.0
 40
124.0
 40
124.0
 40
124.0
 40
125.0
 40
125.0
 40
125.0
 40
126.0
 40
126.0
 40
126.0
 40
127.0
 40
127.0
 40
127.0
 40
128.0
 40
128.0
 40
128.0
 40
129.0
 40
129.0
 40
129.0
 40
130.0
 40
130.0
 40
130.0
 40
131.0
 40
131.0
 40
131.0
 40
132.0
 40
132.0
 40
132.0
 40
133.0
 40
133.0
 40
133.0
 40
134.0
 40
134.0
 40
134.0
 40
135.0
 40
135.0
 40
135.0
 40
136.0
 40
136.0
 40
136.0
 40
137.0
 40
137.0
 40
137.0
 40
138.0
 40
138.0
 40
138.0
 40
139.0
 40
139.0
 40
139.0
 40
140.0
 40
140.0
 40
140.0
 40
141.0
 40
141.0
 40
141.0
 40
142.0
 40
142.0
 40
142.0
 40
143.0
 40
143.0
 40
143.0
 40
144.0
 40
144.0
 40
144.0
 40
145.0
 40
145.0
 40
145.0
 40
146.0
 40
146.0
 40
146.0
 40
147.0
 40
147.0
 40
147.0
 40
148.0
 40
148.0
 40
148.0
 40
149.0
 40
149.0
 40
149.0
 40
150.0
 40
150.0
 40
150.0
 40
151.0
 40
151.0
 40
151.0
 40
152.0
 40
152.0
 40
152.0
 40
153.0
 40
153.0
 40
153.0
 40
154.0
 40
154.0
 40
154.0
 40
155.0
 40
155.0
 40
155.0
 40
156.0
 40
156.0
 40
156.0
 40
157.0
 40
157.0
 40
157.0
 40
158.0
 40
158.0
 40
158.0
 40
159.0
 40
159.0
 40
159.0
 40
160.0
 40
160.0
 40
160.0
 40
161.0
 40
161.0
 40
161.0
 40
162.0
 40
162.0
 40
162.0
 40
163.0
 40
163.0
 40
163.0
 40
164.0
 40
164.0
 40
164.0
 40
165.0
 40
165.0
 40
165.0
 40
166.0
 40
166.0
 40
166.0
 40
167.0
 40
167.0
 40
167.0
 40
168.0
 40
168.0
 40
168.0
 40
169.0
 40
169.0
 40
169.0
 40
170.0
 40
170.0
 40
170.0
 40
171.0
 40
171.0
 40
171.0
 40
172.0
 40
172.0
 40
172.0
 40
173.0
 40
173.0
 40
173.0
 40
174.0
 40
174.0
 40
174.0
 40
175.0
 40
175.0
 40
175.0
 40
176.0
 40
176.0
 40
176.0
 40
177.0
 40
177.0
 40
177.0
 40
178.0
 40
178.0
 40
178.0
 40
179.0
 40
179.0
 40
179.0
 40
180.0
 40
180.0
 40
180.0
 40
181.0
 40
181.0
 40
181.0
 40
182.0
 40
182.0
 40
182.0
 40
183.0
 40
183.0
 40
183.0
 40
184.0
 40
184.0
 40
184.0
 40
185.0
 40
185.0
 40
185.0
 40
186.0
 40
186.0
 40
186.0
 40
187.0
 40
187.0
 40
187.0
 40
188.0
 40
188.0
 40
188.0
 40
189.0
 40
189.0
 40
189.0
 40
189.0
 10
31.74311841383071
 20
-1.65447480902106
 10
31.74311841383071
 20
-1.65447480902106
 10
31.74311841383071
 20
-1.154475182138681
 10
31.74311841383071
 20
-1.154475182138681
 10
31.74311841383071
 20
-1.154475182138681
 10
31.24309725510155
 20
-1.154475182138681
 10
31.24309725510155
 20
-1.154475182138681
 10
31.24309725510155
 20
-1.154475182138681
 10
31.24311878694833
 20
-0.654475555256303
 10
31.24311878694833
 20
-0.654475555256303
 10
31.24311878694833
 20
-0.654475555256303
 10
28.24781712143739
 20
-0.726251966506805
 10
28.24781712143739
 20
-0.726251966506805
 10
28.24781712143739
 20
-0.726251966506805
 10
28.24782358099143
 20
-0.7264522126818852
 10
28.24782358099143
 20
-0.7264522126818852
 10
28.11677214873252
 20
-0.7185887822368024
 10
27.97917718823632
 20
-0.7144632803932157
 10
27.83294365081086
 20
-0.7144632803932157
 10
27.83294365081086
 20
-0.7144632803932157
 10
25.90139919057326
 20
-0.7144632803932157
 10
25.90139919057326
 20
-0.7144632803932157
 10
25.33589753259289
 20
-0.7144632803932157
 10
24.88018030180404
 20
-0.8826959056766784
 10
24.54670582475525
 20
-1.21469329803617
 10
24.39551565620038
 20
-1.365274115327084
 10
24.27852236670597
 20
-1.541772816590468
 10
24.19540943812432
 20
-1.742466854083697
 10
24.14049461608944
 20
-1.636797162812372
 10
24.07934847759561
 20
-1.534811570525585
 10
24.01215189015581
 20
-1.437702941535105
 10
23.84597986260947
 20
-1.197674526339036
 10
23.62926397792515
 20
-1.001263173170908
 10
23.36737212550581
 20
-0.8535224064706471
 10
23.17044616119957
 20
-0.7426032509536721
 10
22.9517924103048
 20
-0.6697308687019249
 10
22.71448131417272
 20
-0.6356394956906994
 10
22.71448131417272
 20
-0.6356394956906994
 10
16.96135918087251
 20
-0.6376075064866484
 10
16.96135918087251
 20
-0.6376075064866484
 10
16.87270610811364
 20
-0.6244127907781416
 10
16.7820268885725
 20
-0.6176927013972261
 10
16.689857665234
 20
-0.6176927013972261
 10
16.5983817673619
 20
-0.6176927013972261
 10
16.50854444302998
 20
-0.6246517942774308
 10
16.4206858954174
 20
-0.6377926803689806
 10
16.4206858954174
 20
-0.6377926803689806
 10
9.100542701989186
 20
-0.6402968341498215
 10
9.100542701989186
 20
-0.6402968341498215
 10
9.100542701989186
 20
-0.6402968341498215
 10
8.554701773306203
 20
-0.6400922816053849
 10
8.554701773306203
 20
-0.6400922816053849
 10
8.555496298452487
 20
-0.6402064003933338
 10
8.556267138567312
 20
-0.6403700424288832
 10
8.557061663713599
 20
-0.640484161216832
 10
8.557061663713599
 20
-0.640484161216832
 10
7.812884434760103
 20
-0.6407382370088692
 10
7.812884434760103
 20
-0.6407382370088692
 10
7.589523822158608
 20
-0.6767179529829472
 10
7.382675982854852
 20
-0.7479366894017745
 10
7.194873062030491
 20
-0.8537829418167191
 10
7.106639860283886
 20
-0.9035301206237267
 10
7.02400709188549
 20
-0.9595452200292108
 10
6.946178078504341
 20
-1.020570780181055
 10
6.722434199030111
 20
-0.8627035859388379
 10
6.384054767284194
 20
-0.7144632803932157
 10
5.901562685020919
 20
-0.7144632803932157
 10
5.901562685020919
 20
-0.7144632803932157
 10
3.836772697337247
 20
-0.7144632803932157
 10
3.836772697337247
 20
-0.7144632803932157
 10
3.836772697337247
 20
-0.7144632803932157
 10
1.172284172612745
 20
-0.6547016396475225
 10
1.172284172612745
 20
-0.6547016396475225
 10
1.172284172612745
 20
-0.6547016396475225
 10
1.172284172612745
 20
-0.654475555256303
 10
1.172284172612745
 20
-0.654475555256303
 10
1.172284172612745
 20
-0.654475555256303
 10
0.6722845457303663
 20
-0.654475555256303
 10
0.6722845457303663
 20
-0.654475555256303
 10
0.6722845457303663
 20
-0.654475555256303
 10
0.6722845457303663
 20
-1.154475182138681
 10
0.6722845457303663
 20
-1.154475182138681
 10
0.6722845457303663
 20
-1.154475182138681
 10
1.162541011943523
 20
-1.154475182138681
 10
1.162541011943523
 20
-1.154475182138681
 10
1.162541011943523
 20
-1.154475182138681
 10
1.162887674676726
 20
-1.65447480902106
 10
1.162887674676726
 20
-1.65447480902106
 10
1.162887674676726
 20
-1.65447480902106
 10
0.6722845457303663
 20
-1.65447480902106
 10
0.6722845457303663
 20
-1.65447480902106
 10
0.6722845457303663
 20
-1.65447480902106
 10
0.6722845457303663
 20
-2.154476589088117
 10
0.6722845457303663
 20
-2.154476589088117
 10
0.6722845457303663
 20
-2.154476589088117
 10
1.163236490594608
 20
-2.154476589088117
 10
1.163236490594608
 20
-2.154476589088117
 10
1.163236490594608
 20
-2.154476589088117
 10
1.163583153327811
 20
-2.654476215970496
 10
1.163583153327811
 20
-2.654476215970496
 10
1.163583153327811
 20
-2.654476215970496
 10
0.6722845457303663
 20
-2.654476215970496
 10
0.6722845457303663
 20
-2.654476215970496
 10
0.6722845457303663
 20
-2.654476215970496
 10
0.6722845457303663
 20
-3.154475842852874
 10
0.6722845457303663
 20
-3.154475842852874
 10
0.6722845457303663
 20
-3.154475842852874
 10
1.163931969245692
 20
-3.154475842852874
 10
1.163931969245692
 20
-3.154475842852874
 10
1.163931969245692
 20
-3.154475842852874
 10
1.164282938348252
 20
-3.660355817091638
 10
1.164282938348252
 20
-3.660355817091638
 10
1.164282938348252
 20
-3.660355817091638
 10
0.6722845457303663
 20
-3.660355817091638
 10
0.6722845457303663
 20
-3.660355817091638
 10
0.6722845457303663
 20
-3.660355817091638
 10
0.6722845457303663
 20
-4.160355443974017
 10
0.6722845457303663
 20
-4.160355443974017
 10
0.6722845457303663
 20
-4.160355443974017
 10
1.164631754266134
 20
-4.160355443974017
 10
1.164631754266134
 20
-4.160355443974017
 10
1.164631754266134
 20
-4.160355443974017
 10
1.164978416999337
 20
-4.660355070856395
 10
1.164978416999337
 20
-4.660355070856395
 10
1.164978416999337
 20
-4.660355070856395
 10
0.6722845457303663
 20
-4.660355070856395
 10
0.6722845457303663
 20
-4.660355070856395
 10
0.6722845457303663
 20
-4.660355070856395
 10
0.6722845457303663
 20
-5.160356850923452
 10
0.6722845457303663
 20
-5.160356850923452
 10
0.6722845457303663
 20
-5.160356850923452
 10
1.165327232917218
 20
-5.160356850923452
 10
1.165327232917218
 20
-5.160356850923452
 10
1.165327232917218
 20
-5.160356850923452
 10
1.165673895650422
 20
-5.660356477805831
 10
1.165673895650422
 20
-5.660356477805831
 10
1.165673895650422
 20
-5.660356477805831
 10
0.6722845457303663
 20
-5.660356477805831
 10
0.6722845457303663
 20
-5.660356477805831
 10
0.6722845457303663
 20
-5.660356477805831
 10
0.6722845457303663
 20
-6.160356104688209
 10
0.6722845457303663
 20
-6.160356104688209
 10
0.6722845457303663
 20
-6.160356104688209
 10
1.166022711568303
 20
-6.160356104688209
 10
1.166022711568303
 20
-6.160356104688209
 10
1.166022711568303
 20
-6.160356104688209
 10
1.166371527486185
 20
-6.660355731570587
 10
1.166371527486185
 20
-6.660355731570587
 10
1.166371527486185
 20
-6.660355731570587
 10
0.6722845457303663
 20
-6.660355731570587
 10
0.6722845457303663
 20
-6.660355731570587
 10
0.6722845457303663
 20
-6.660355731570587
 10
0.6722845457303663
 20
-7.160355358452966
 10
0.6722845457303663
 20
-7.160355358452966
 10
0.6722845457303663
 20
-7.160355358452966
 10
1.166718190219388
 20
-7.160355358452966
 10
1.166718190219388
 20
-7.160355358452966
 10
1.166718190219388
 20
-7.160355358452966
 10
1.16706700613727
 20
-7.660357138520023
 10
1.16706700613727
 20
-7.660357138520023
 10
1.16706700613727
 20
-7.660357138520023
 10
0.6722845457303663
 20
-7.660357138520023
 10
0.6722845457303663
 20
-7.660357138520023
 10
0.6722845457303663
 20
-7.660357138520023
 10
0.6722845457303663
 20
-8.160356765402401
 10
0.6722845457303663
 20
-8.160356765402401
 10
0.6722845457303663
 20
-8.160356765402401
 10
1.167413668870473
 20
-8.160356765402401
 10
1.167413668870473
 20
-8.160356765402401
 10
1.167413668870473
 20
-8.160356765402401
 10
1.167762484788355
 20
-8.66035639228478
 10
1.167762484788355
 20
-8.66035639228478
 10
1.167762484788355
 20
-8.66035639228478
 10
0.6722845457303663
 20
-8.66035639228478
 10
0.6722845457303663
 20
-8.66035639228478
 10
0.6722845457303663
 20
-8.66035639228478
 10
0.6722845457303663
 20
-9.160356019167159
 10
0.6722845457303663
 20
-9.160356019167159
 10
0.6722845457303663
 20
-9.160356019167159
 10
1.168109147521558
 20
-9.160356019167159
 10
1.168109147521558
 20
-9.160356019167159
 10
1.168109147521558
 20
-9.160356019167159
 10
1.168457963439439
 20
-9.660357799234216
 10
1.168457963439439
 20
-9.660357799234216
 10
1.168457963439439
 20
-9.660357799234216
 10
0.6722845457303663
 20
-9.660357799234216
 10
0.6722845457303663
 20
-9.660357799234216
 10
0.6722845457303663
 20
-9.660357799234216
 10
0.6722845457303663
 20
-10.16035742611659
 10
0.6722845457303663
 20
-10.16035742611659
 10
0.6722845457303663
 20
-10.16035742611659
 10
1.168804626172643
 20
-10.16035742611659
 10
1.168804626172643
 20
-10.16035742611659
 10
1.168804626172643
 20
-10.16035742611659
 10
1.169153442090524
 20
-10.66035705299897
 10
1.169153442090524
 20
-10.66035705299897
 10
1.169153442090524
 20
-10.66035705299897
 10
0.6722845457303663
 20
-10.66035705299897
 10
0.6722845457303663
 20
-10.66035705299897
 10
0.6722845457303663
 20
-10.66035705299897
 10
0.6722845457303663
 20
-11.16035667988135
 10
0.6722845457303663
 20
-11.16035667988135
 10
0.6722845457303663
 20
-11.16035667988135
 10
1.169502258008406
 20
-11.16035667988135
 10
1.169502258008406
 20
-11.16035667988135
 10
1.169502258008406
 20
-11.16035667988135
 10
1.169848920741609
 20
-11.66035845994841
 10
1.169848920741609
 20
-11.66035845994841
 10
1.169848920741609
 20
-11.66035845994841
 10
0.6722845457303663
 20
-11.66035845994841
 10
0.6722845457303663
 20
-11.66035845994841
 10
0.6722845457303663
 20
-11.66035845994841
 10
0.6722845457303663
 20
-12.16035808683079
 10
0.6722845457303663
 20
-12.16035808683079
 10
0.6722845457303663
 20
-12.16035808683079
 10
1.17019773665949
 20
-12.16035808683079
 10
1.17019773665949
 20
-12.16035808683079
 10
1.17019773665949
 20
-12.16035808683079
 10
1.170544399392694
 20
-12.66035771371316
 10
1.170544399392694
 20
-12.66035771371316
 10
1.170544399392694
 20
-12.66035771371316
 10
0.6722845457303663
 20
-12.66035771371316
 10
0.6722845457303663
 20
-12.66035771371316
 10
0.6722845457303663
 20
-12.66035771371316
 10
0.6722845457303663
 20
-13.16035734059554
 10
0.6722845457303663
 20
-13.16035734059554
 10
0.6722845457303663
 20
-13.16035734059554
 10
1.170893215310575
 20
-13.16035734059554
 10
1.170893215310575
 20
-13.16035734059554
 10
1.170893215310575
 20
-13.16035734059554
 10
1.171239878043778
 20
-13.6603591206626
 10
1.171239878043778
 20
-13.6603591206626
 10
1.171239878043778
 20
-13.6603591206626
 10
0.6722845457303663
 20
-13.6603591206626
 10
0.6722845457303663
 20
-13.6603591206626
 10
0.6722845457303663
 20
-13.6603591206626
 10
0.6722845457303663
 20
-14.16035874754498
 10
0.6722845457303663
 20
-14.16035874754498
 10
0.6722845457303663
 20
-14.16035874754498
 10
1.17158869396166
 20
-14.16035874754498
 10
1.17158869396166
 20
-14.16035874754498
 10
1.17158869396166
 20
-14.16035874754498
 10
1.171935356694863
 20
-14.66035837442736
 10
1.171935356694863
 20
-14.66035837442736
 10
1.171935356694863
 20
-14.66035837442736
 10
0.6722845457303663
 20
-14.66035837442736
 10
0.6722845457303663
 20
-14.66035837442736
 10
0.6722845457303663
 20
-14.66035837442736
 10
0.6722845457303663
 20
-15.16035800130973
 10
0.6722845457303663
 20
-15.16035800130973
 10
0.6722845457303663
 20
-15.16035800130973
 10
1.172284172612745
 20
-15.16035800130973
 10
1.172284172612745
 20
-15.16035800130973
 10
1.172284172612745
 20
-15.16035800130973
 10
4.825329927721619
 20
-15.17486831285667
 10
4.825329927721619
 20
-15.17486831285667
 10
4.825329927721619
 20
-15.17486831285667
 10
4.823560009916071
 20
-15.14898918620841
 10
4.823560009916071
 20
-15.14898918620841
 10
4.891841802433723
 20
-15.15678156155911
 10
4.961098987610637
 20
-15.16118051785684
 10
5.03134448455488
 20
-15.16118051785684
 10
5.400314211025138
 20
-15.16118051785684
 10
5.745495553169746
 20
-15.05130135053947
 10
6.031651643728631
 20
-14.84707178380451
 10
6.320298968960289
 20
-15.05327797407414
 10
6.655924477502685
 20
-15.16118051785684
 10
7.015207026105355
 20
-15.16118051785684
 10
7.736513127406149
 20
-15.16118051785684
 10
8.129628666858652
 20
-14.78420094438338
 10
8.299977872680865
 20
-14.55922113690381
 10
8.449512242218134
 20
-14.36158246846906
 10
8.585289914845864
 20
-14.0889763690906
 10
8.740360122190994
 20
-13.67487373857889
 10
8.740360122190994
 20
-13.67487373857889
 10
8.752318909894168
 20
-13.64290325247577
 10
8.752318909894168
 20
-13.64290325247577
 10
8.752318909894168
 20
-13.64290325247577
 10
9.618771190357894
 20
-13.64290325247577
 10
9.618771190357894
 20
-13.64290325247577
 10
9.618771190357894
 20
-13.64290325247577
 10
9.638782888757838
 20
-13.69411029049466
 10
9.638782888757838
 20
-13.69411029049466
 10
9.679751533631494
 20
-13.79321922805126
 10
9.728941037606827
 20
-13.90803995420528
 10
9.784913073318744
 20
-14.03517689671907
 10
9.878781159368412
 20
-14.2484713709496
 10
9.973049737768239
 20
-14.41141146829385
 10
10.08096520065901
 20
-14.54715038359737
 10
10.22970935141935
 20
-14.73464755219741
 10
10.41473251082405
 20
-14.88433049147748
 10
10.63154528881889
 20
-14.99239667729574
 10
10.85658107910009
 20
-15.1043773528591
 10
11.10787065016357
 20
-15.16118051785684
 10
11.37844199002106
 20
-15.16118051785684
 10
11.59129721457722
 20
-15.16118051785684
 10
11.79808476470998
 20
-15.12229830893644
 10
11.99123188990584
 20
-15.04873260121829
 10
12.18472137146554
 20
-15.12251793377362
 10
12.39332620946677
 20
-15.16118051785684
 10
12.60999687727285
 20
-15.16118051785684
 10
12.90958884022421
 20
-15.16118051785684
 10
13.19307282859735
 20
-15.08970339927662
 10
13.44237285701809
 20
-14.95547171324789
 10
13.68625547278829
 20
-15.08966248876773
 10
13.96460842207308
 20
-15.16118051785684
 10
14.26040862680599
 20
-15.16118051785684
 10
14.74166262787925
 20
-15.16118051785684
 10
15.18196090318693
 20
-14.96883222417663
 10
15.50015638175864
 20
-14.61960720120621
 10
15.6754083890933
 20
-14.42731489032763
 10
15.87933435678863
 20
-14.10601021308048
 10
15.93552817052241
 20
-13.61953043279303
 10
15.93552817052241
 20
-13.61953043279303
 10
16.14839846737132
 20
-13.94447399214648
 10
16.14839846737132
 20
-13.94447399214648
 10
16.14839846737132
 20
-13.94447399214648
 10
16.16284633656259
 20
-13.96597138797443
 10
16.16284633656259
 20
-13.96597138797443
 10
16.23202170072172
 20
-14.066432525509
 10
16.30219398938691
 20
-14.1661465079602
 10
16.37131552392909
 20
-14.26219792327364
 10
16.48425436667429
 20
-14.41918446498244
 10
16.61108986333312
 20
-14.5605711836971
 10
16.74775249486363
 20
-14.68203233139893
 10
16.93144498613715
 20
-14.84541383160223
 10
17.13764256366806
 20
-14.96875040315885
 10
17.3611969628906
 20
-15.04875843943442
 10
17.56988577509429
 20
-15.12333829713605
 10
17.79626515261473
 20
-15.16118051785684
 10
18.03401765160586
 20
-15.16118051785684
 10
18.10277960430677
 20
-15.16118051785684
 10
18.17043266689836
 20
-15.15784523479018
 10
18.23683903556123
 20
-15.15125864285932
 10
18.23683903556123
 20
-15.15125864285932
 10
18.69942061910444
 20
-15.09951330867087
 10
18.69942061910444
 20
-15.09951330867087
 10
18.84575104984043
 20
-15.1400879207484
 10
18.99844414130073
 20
-15.16118051785684
 10
19.15580318395888
 20
-15.16118051785684
 10
19.87723201678633
 20
-15.16118051785684
 10
20.27036262853158
 20
-14.78409113196478
 10
20.44049005633193
 20
-14.55930511110627
 10
20.59005241727002
 20
-14.36166428948684
 10
20.72583008989775
 20
-14.08906034329305
 10
20.8809282886437
 20
-13.67487373857889
 10
20.8809282886437
 20
-13.67487373857889
 10
20.89288707634687
 20
-13.64290325247577
 10
20.89288707634687
 20
-13.64290325247577
 10
20.89288707634687
 20
-13.64290325247577
 10
21.75936519502674
 20
-13.64290325247577
 10
21.75936519502674
 20
-13.64290325247577
 10
21.75936519502674
 20
-13.64290325247577
 10
21.77943502941299
 20
-13.69424809431407
 10
21.77943502941299
 20
-13.69424809431407
 10
21.82029170868338
 20
-13.79308142423185
 10
21.8694532212579
 20
-13.9077901847826
 10
21.92553722257308
 20
-14.03528886232234
 10
22.01943114683889
 20
-14.24855534515205
 10
22.11368680613065
 20
-14.41146745109548
 10
22.22144939290926
 20
-14.54704057117878
 10
22.37020861596235
 20
-14.73456357799496
 10
22.55525761358319
 20
-14.88430250007667
 10
22.77214144667241
 20
-14.99239667729574
 10
22.99719015606168
 20
-15.1043773528591
 10
23.24847972712516
 20
-15.16118051785684
 10
23.51903814787458
 20
-15.16118051785684
 10
23.72044058312696
 20
-15.16118051785684
 10
23.91654618407077
 20
-15.12671879708095
 10
24.10066715909527
 20
-15.06071938032228
 10
24.28352421471362
 20
-15.12648840632037
 10
24.4802973029077
 20
-15.16118051785684
 10
24.68555393873421
 20
-15.16118051785684
 10
25.16676487611391
 20
-15.16118051785684
 10
25.60703731320544
 20
-14.96886021557745
 10
25.92537059559656
 20
-14.61955337158925
 10
26.10056662012959
 20
-14.427258907526
 10
26.3044947410096
 20
-14.10601021308048
 10
26.3606864015587
 20
-13.61953043279303
 10
26.3606864015587
 20
-13.61953043279303
 10
26.57352870700679
 20
-13.94447399214648
 10
26.57352870700679
 20
-13.94447399214648
 10
26.57352870700679
 20
-13.94447399214648
 10
26.58797872938273
 20
-13.96597138797443
 10
26.58797872938273
 20
-13.96597138797443
 10
26.65740170977988
 20
-14.06678995416559
 10
26.72762998124669
 20
-14.16655991941843
 10
26.79633595114597
 20
-14.2620041366526
 10
26.90927479389117
 20
-14.41904666116303
 10
27.03611029055
 20
-14.56048936267932
 10
27.17291072589991
 20
-14.68203233139893
 10
27.35657737895729
 20
-14.84544182300305
 10
27.56280294788903
 20
-14.96875040315885
 10
27.78632935571075
 20
-15.04875843943442
 10
27.99501816791444
 20
-15.12333829713605
 10
28.2213953922502
 20
-15.16118051785684
 10
28.45915004442601
 20
-15.16118051785684
 10
28.52790984394224
 20
-15.16118051785684
 10
28.59559089793465
 20
-15.15784523479018
 10
28.66199726659752
 20
-15.15125864285932
 10
28.66199726659752
 20
-15.15125864285932
 10
28.77737782076789
 20
-15.17486831285667
 10
28.77737782076789
 20
-15.17486831285667
 10
28.77737782076789
 20
-15.17486831285667
 10
31.2424771379142
 20
-15.16035800130973
 10
31.2424771379142
 20
-15.16035800130973
 10
31.2424771379142
 20
-15.16035800130973
 10
31.24249866976099
 20
-14.66035837442736
 10
31.24249866976099
 20
-14.66035837442736
 10
31.24249866976099
 20
-14.66035837442736
 10
31.74067670240554
 20
-14.66035837442736
 10
31.74067670240554
 20
-14.66035837442736
 10
31.74067670240554
 20
-14.66035837442736
 10
31.74067670240554
 20
-14.16035874754498
 10
31.74067670240554
 20
-14.16035874754498
 10
31.74067670240554
 20
-14.16035874754498
 10
31.24252235479245
 20
-14.16035874754498
 10
31.24252235479245
 20
-14.16035874754498
 10
31.24252235479245
 20
-14.16035874754498
 10
31.24254388663923
 20
-13.66035696747792
 10
31.24254388663923
 20
-13.66035696747792
 10
31.24254388663923
 20
-13.66035696747792
 10
31.73975513936324
 20
-13.66035696747792
 10
31.73975513936324
 20
-13.66035696747792
 10
31.73975513936324
 20
-13.66035696747792
 10
31.73975513936324
 20
-13.16035734059554
 10
31.73975513936324
 20
-13.16035734059554
 10
31.73975513936324
 20
-13.16035734059554
 10
31.24256541848601
 20
-13.16035734059554
 10
31.24256541848601
 20
-13.16035734059554
 10
31.24256541848601
 20
-13.16035734059554
 10
31.2425869503328
 20
-12.66035771371316
 10
31.2425869503328
 20
-12.66035771371316
 10
31.2425869503328
 20
-12.66035771371316
 10
31.73975513936324
 20
-12.66035771371316
 10
31.73975513936324
 20
-12.66035771371316
 10
31.73975513936324
 20
-12.66035771371316
 10
31.73975513936324
 20
-12.16035808683079
 10
31.73975513936324
 20
-12.16035808683079
 10
31.73975513936324
 20
-12.16035808683079
 10
31.24261063536426
 20
-12.16035808683079
 10
31.24261063536426
 20
-12.16035808683079
 10
31.24261063536426
 20
-12.16035808683079
 10
31.24263216721104
 20
-11.66035630676373
 10
31.24263216721104
 20
-11.66035630676373
 10
31.24263216721104
 20
-11.66035630676373
 10
31.73975513936324
 20
-11.66035630676373
 10
31.73975513936324
 20
-11.66035630676373
 10
31.73975513936324
 20
-11.66035630676373
 10
31.73975513936324
 20
-11.16035667988135
 10
31.73975513936324
 20
-11.16035667988135
 10
31.73975513936324
 20
-11.16035667988135
 10
31.24265369905783
 20
-11.16035667988135
 10
31.24265369905783
 20
-11.16035667988135
 10
31.24265369905783
 20
-11.16035667988135
 10
31.24267523090461
 20
-10.66035705299897
 10
31.24267523090461
 20
-10.66035705299897
 10
31.24267523090461
 20
-10.66035705299897
 10
31.73975513936324
 20
-10.66035705299897
 10
31.73975513936324
 20
-10.66035705299897
 10
31.73975513936324
 20
-10.66035705299897
 10
31.73975513936324
 20
-10.16035742611659
 10
31.73975513936324
 20
-10.16035742611659
 10
31.73975513936324
 20
-10.16035742611659
 10
31.24269891593607
 20
-10.16035742611659
 10
31.24269891593607
 20
-10.16035742611659
 10
31.24269891593607
 20
-10.16035742611659
 10
31.24272044778285
 20
-9.660357799234216
 10
31.24272044778285
 20
-9.660357799234216
 10
31.24272044778285
 20
-9.660357799234216
 10
31.73975513936324
 20
-9.660357799234216
 10
31.73975513936324
 20
-9.660357799234216
 10
31.73975513936324
 20
-9.660357799234216
 10
31.73975513936324
 20
-9.160356019167159
 10
31.73975513936324
 20
-9.160356019167159
 10
31.73975513936324
 20
-9.160356019167159
 10
31.24274197962963
 20
-9.160356019167159
 10
31.24274197962963
 20
-9.160356019167159
 10
31.24274197962963
 20
-9.160356019167159
 10
31.2427656646611
 20
-8.66035639228478
 10
31.2427656646611
 20
-8.66035639228478
 10
31.2427656646611
 20
-8.66035639228478
 10
31.73975513936324
 20
-8.66035639228478
 10
31.73975513936324
 20
-8.66035639228478
 10
31.73975513936324
 20
-8.66035639228478
 10
31.73975513936324
 20
-8.160356765402401
 10
31.73975513936324
 20
-8.160356765402401
 10
31.73975513936324
 20
-8.160356765402401
 10
31.24278719650788
 20
-8.160356765402401
 10
31.24278719650788
 20
-8.160356765402401
 10
31.24278719650788
 20
-8.160356765402401
 10
31.24280872835466
 20
-7.660357138520023
 10
31.24280872835466
 20
-7.660357138520023
 10
31.24280872835466
 20
-7.660357138520023
 10
31.73975513936324
 20
-7.660357138520023
 10
31.73975513936324
 20
-7.660357138520023
 10
31.73975513936324
 20
-7.660357138520023
 10
31.73975513936324
 20
-7.160355358452966
 10
31.73975513936324
 20
-7.160355358452966
 10
31.73975513936324
 20
-7.160355358452966
 10
31.24283026020144
 20
-7.160355358452966
 10
31.24283026020144
 20
-7.160355358452966
 10
31.24283026020144
 20
-7.160355358452966
 10
31.24285394523291
 20
-6.660355731570587
 10
31.24285394523291
 20
-6.660355731570587
 10
31.24285394523291
 20
-6.660355731570587
 10
31.73975513936324
 20
-6.660355731570587
 10
31.73975513936324
 20
-6.660355731570587
 10
31.73975513936324
 20
-6.660355731570587
 10
31.73975513936324
 20
-6.160356104688209
 10
31.73975513936324
 20
-6.160356104688209
 10
31.73975513936324
 20
-6.160356104688209
 10
31.24287547707969
 20
-6.160356104688209
 10
31.24287547707969
 20
-6.160356104688209
 10
31.24287547707969
 20
-6.160356104688209
 10
31.24289700892647
 20
-5.660356477805831
 10
31.24289700892647
 20
-5.660356477805831
 10
31.24289700892647
 20
-5.660356477805831
 10
31.73975513936324
 20
-5.660356477805831
 10
31.73975513936324
 20
-5.660356477805831
 10
31.73975513936324
 20
-5.660356477805831
 10
31.73975513936324
 20
-5.160356850923452
 10
31.73975513936324
 20
-5.160356850923452
 10
31.73975513936324
 20
-5.160356850923452
 10
31.24291854077325
 20
-5.160356850923452
 10
31.24291854077325
 20
-5.160356850923452
 10
31.24291854077325
 20
-5.160356850923452
 10
31.24294222580471
 20
-4.660355070856395
 10
31.24294222580471
 20
-4.660355070856395
 10
31.24294222580471
 20
-4.660355070856395
 10
31.73975513936324
 20
-4.660355070856395
 10
31.73975513936324
 20
-4.660355070856395
 10
31.73975513936324
 20
-4.660355070856395
 10
31.73975513936324
 20
-4.160355443974017
 10
31.73975513936324
 20
-4.160355443974017
 10
31.73975513936324
 20
-4.160355443974017
 10
31.24296375765149
 20
-4.160355443974017
 10
31.24296375765149
 20
-4.160355443974017
 10
31.24296375765149
 20
-4.160355443974017
 10
31.24298528949828
 20
-3.654475469735253
 10
31.24298528949828
 20
-3.654475469735253
 10
31.24298528949828
 20
-3.654475469735253
 10
31.73975513936324
 20
-3.654475469735253
 10
31.73975513936324
 20
-3.654475469735253
 10
31.73975513936324
 20
-3.654475469735253
 10
31.73975513936324
 20
-3.154475842852874
 10
31.73975513936324
 20
-3.154475842852874
 10
31.73975513936324
 20
-3.154475842852874
 10
31.24300897452974
 20
-3.154475842852874
 10
31.24300897452974
 20
-3.154475842852874
 10
31.24300897452974
 20
-3.154475842852874
 10
31.24303050637652
 20
-2.654476215970496
 10
31.24303050637652
 20
-2.654476215970496
 10
31.24303050637652
 20
-2.654476215970496
 10
31.73975513936324
 20
-2.654476215970496
 10
31.73975513936324
 20
-2.654476215970496
 10
31.73975513936324
 20
-2.654476215970496
 10
31.73975513936324
 20
-2.154476589088117
 10
31.73975513936324
 20
-2.154476589088117
 10
31.73975513936324
 20
-2.154476589088117
 10
31.24305203822331
 20
-2.154476589088117
 10
31.24305203822331
 20
-2.154476589088117
 10
31.24305203822331
 20
-2.154476589088117
 10
31.24307357007009
 20
-1.65447480902106
 10
31.24307357007009
 20
-1.65447480902106
 10
31.24307357007009
 20
-1.65447480902106
 10
31.74311841383071
 20
-1.65447480902106
 10
31.74311841383071
 20
-1.65447480902106
 97
        0
 75
     2
 76
     1
 98
        0
  0
POLYLINE
  5
77
330
1F
100
AcDbEntity
  8
_U+5716_U+5C64 1
370
     0
100
AcDb2dPolyline
 66
     1
 10
0.0
 20
0.0
 30
0.0
  0
VERTEX
  5
78
330
77
100
AcDbEntity
  8
_U+5716_U+5C64 1
370
     0
100
AcDbVertex
100
AcDb2dVertex
 10
40.28722221215041
 20
-10.72444444176333
 30
0.0
  0
VERTEX
  5
7A
330
77
100
AcDbEntity
  8
0
100
AcDbVertex
100
AcDb2dVertex
 10
40.28722221215041
 20
-10.72444444176333
 30
0.0
  0
SEQEND
  5
79
330
77
100
AcDbEntity
  8
_U+5716_U+5C64 1
370
     0
  0
ENDSEC
  0
SECTION
  2
OBJECTS
  0
DICTIONARY
  5
C
330
0
100
AcDbDictionary
281
     1
  3
ACAD_GROUP
350
D
  3
ACAD_LAYOUT
350
1A
  3
ACAD_MATERIAL
350
3B
  3
ACAD_MLEADERSTYLE
350
A2
  3
ACAD_MLINESTYLE
350
17
  3
ACAD_PLOTSETTINGS
350
19
  3
ACAD_PLOTSTYLENAME
350
E
  3
ACAD_TABLESTYLE
350
A1
  3
ACAD_VISUALSTYLE
350
2A
  0
DICTIONARY
  5
D
102
{ACAD_REACTORS
330
C
102
}
330
C
100
AcDbDictionary
281
     1
  0
DICTIONARY
  5
1A
102
{ACAD_REACTORS
330
C
102
}
330
C
100
AcDbDictionary
281
     1
  3
Layout1
350
1E
  3
Layout2
350
26
  3
Model
350
22
  0
DICTIONARY
  5
3B
102
{ACAD_REACTORS
330
C
102
}
330
C
100
AcDbDictionary
281
     1
  3
ByBlock
350
3D
  3
ByLayer
350
3C
  3
Global
350
3E
  0
DICTIONARY
  5
A2
102
{ACAD_REACTORS
330
C
102
}
330
C
100
AcDbDictionary
281
     1
  0
DICTIONARY
  5
17
102
{ACAD_REACTORS
330
C
102
}
330
C
100
AcDbDictionary
281
     1
  3
Standard
350
18
  0
DICTIONARY
  5
19
102
{ACAD_REACTORS
330
C
102
}
330
C
100
AcDbDictionary
281
     1
  0
ACDBDICTIONARYWDFLT
  5
E
102
{ACAD_REACTORS
330
C
102
}
330
C
100
AcDbDictionary
281
     1
  3
Normal
350
F
100
AcDbDictionaryWithDefault
340
F
  0
DICTIONARY
  5
A1
102
{ACAD_REACTORS
330
C
102
}
330
C
100
AcDbDictionary
281
     1
  0
DICTIONARY
  5
2A
102
{ACAD_REACTORS
330
C
102
}
330
C
100
AcDbDictionary
281
     1
  3
2dWireframe
350
2F
  3
3D Hidden
350
31
  3
3dWireframe
350
30
  3
Basic
350
32
  3
Brighten
350
36
  3
ColorChange
350
3A
  3
Conceptual
350
34
  3
Dim
350
35
  3
Facepattern
350
39
  3
Flat
350
2B
  3
FlatWithEdges
350
2C
  3
Gouraud
350
2D
  3
GouraudWithEdges
350
2E
  3
Linepattern
350
38
  3
Realistic
350
33
  3
Thicken
350
37
  0
LAYOUT
  5
1E
102
{ACAD_REACTORS
330
1A
102
}
330
1A
100
AcDbPlotSettings
  1

  2
none_device
  4

  6

 40
0.0
 41
0.0
 42
0.0
 43
0.0
 44
0.0
 45
0.0
 46
0.0
 47
0.0
 48
0.0
 49
0.0
140
0.0
141
0.0
142
1.0
143
1.0
 70
   688
 72
     0
 73
     0
 74
     5
  7

 75
    16
 76
     0
 77
     2
 78
   300
147
1.0
148
0.0
149
0.0
100
AcDbLayout
  1
Layout1
 70
     1
 71
     1
 10
0.0
 20
0.0
 11
12.0
 21
9.0
 12
0.0
 22
0.0
 32
0.0
 14
1.000000000000000E+20
 24
1.000000000000000E+20
 34
1.000000000000000E+20
 15
-1.000000000000000E+20
 25
-1.000000000000000E+20
 35
-1.000000000000000E+20
146
0.0
 13
0.0
 23
0.0
 33
0.0
 16
1.0
 26
0.0
 36
0.0
 17
0.0
 27
1.0
 37
0.0
 76
     0
330
1B
  0
LAYOUT
  5
26
102
{ACAD_REACTORS
330
1A
102
}
330
1A
100
AcDbPlotSettings
  1

  2
none_device
  4

  6

 40
0.0
 41
0.0
 42
0.0
 43
0.0
 44
0.0
 45
0.0
 46
0.0
 47
0.0
 48
0.0
 49
0.0
140
0.0
141
0.0
142
1.0
143
1.0
 70
   688
 72
     0
 73
     0
 74
     5
  7

 75
    16
 76
     0
 77
     2
 78
   300
147
1.0
148
0.0
149
0.0
100
AcDbLayout
  1
Layout2
 70
     1
 71
     2
 10
0.0
 20
0.0
 11
0.0
 21
0.0
 12
0.0
 22
0.0
 32
0.0
 14
0.0
 24
0.0
 34
0.0
 15
0.0
 25
0.0
 35
0.0
146
0.0
 13
0.0
 23
0.0
 33
0.0
 16
1.0
 26
0.0
 36
0.0
 17
0.0
 27
1.0
 37
0.0
 76
     0
330
23
  0
LAYOUT
  5
22
102
{ACAD_REACTORS
330
1A
102
}
330
1A
100
AcDbPlotSettings
  1

  2
none_device
  4

  6

 40
0.0
 41
0.0
 42
0.0
 43
0.0
 44
0.0
 45
0.0
 46
0.0
 47
0.0
 48
0.0
 49
0.0
140
0.0
141
0.0
142
1.0
143
1.0
 70
  1712
 72
     0
 73
     0
 74
     0
  7

 75
     0
 76
     0
 77
     2
 78
   300
147
1.0
148
0.0
149
0.0
100
AcDbLayout
  1
Model
 70
     1
 71
     0
 10
0.0
 20
0.0
 11
12.0
 21
9.0
 12
0.0
 22
0.0
 32
0.0
 14
1.000000000000000E+20
 24
1.000000000000000E+20
 34
1.000000000000000E+20
 15
-1.000000000000000E+20
 25
-1.000000000000000E+20
 35
-1.000000000000000E+20
146
0.0
 13
0.0
 23
0.0
 33
0.0
 16
1.0
 26
0.0
 36
0.0
 17
0.0
 27
1.0
 37
0.0
 76
     0
330
1F
331
29
  0
MATERIAL
  5
3D
102
{ACAD_REACTORS
330
3B
102
}
102
{ACAD_XDICTIONARY
360
9D
102
}
330
3B
100
AcDbMaterial
  1
ByBlock
  0
MATERIAL
  5
3C
102
{ACAD_REACTORS
330
3B
102
}
102
{ACAD_XDICTIONARY
360
9B
102
}
330
3B
100
AcDbMaterial
  1
ByLayer
  0
MATERIAL
  5
3E
102
{ACAD_REACTORS
330
3B
102
}
102
{ACAD_XDICTIONARY
360
9F
102
}
330
3B
100
AcDbMaterial
  1
Global
  0
MLINESTYLE
  5
18
102
{ACAD_REACTORS
330
17
102
}
330
17
100
AcDbMlineStyle
  2
Standard
 70
     0
  3

 62
   256
 51
90.0
 52
90.0
 71
     2
 49
0.5
 62
   256
  6
BYLAYER
 49
-0.5
 62
   256
  6
BYLAYER
  0
ACDBPLACEHOLDER
  5
F
102
{ACAD_REACTORS
330
E
102
}
330
E
  0
VISUALSTYLE
  5
2F
102
{ACAD_REACTORS
330
2A
102
}
102
{ACAD_XDICTIONARY
360
83
102
}
330
2A
100
AcDbVisualStyle
  2
2dWireframe
 70
     4
 71
     0
 72
     2
 73
     0
 90
        0
 40
-0.6
 41
-30.0
 62
     5
 63
     7
421
 16777215
 74
     1
 91
        4
 64
     7
 65
   257
 75
     1
175
     1
 42
1.0
 92
        0
 66
   257
 43
1.0
 76
     1
 77
     6
 78
     2
 67
     7
 79
     5
170
     0
171
     0
290
     0
174
     0
 93
        1
 44
0.0
173
     0
291
     0
 45
0.0
1001
ACAD
1000
AcDbSavedByObjectVersion
1070
     0
  0
VISUALSTYLE
  5
31
102
{ACAD_REACTORS
330
2A
102
}
102
{ACAD_XDICTIONARY
360
87
102
}
330
2A
100
AcDbVisualStyle
  2
3D Hidden
 70
     6
 71
     1
 72
     2
 73
     2
 90
        0
 40
-0.6
 41
-30.0
 62
     5
 63
     7
421
 16777215
 74
     2
 91
        2
 64
     7
 65
   257
 75
     2
175
     1
 42
40.0
 92
        0
 66
   257
 43
1.0
 76
     1
 77
     6
 78
     2
 67
     7
 79
     3
170
     0
171
     0
290
     0
174
     0
 93
        1
 44
0.0
173
     0
291
     0
 45
0.0
1001
ACAD
1000
AcDbSavedByObjectVersion
1070
     0
  0
VISUALSTYLE
  5
30
102
{ACAD_REACTORS
330
2A
102
}
102
{ACAD_XDICTIONARY
360
85
102
}
330
2A
100
AcDbVisualStyle
  2
3dWireframe
 70
     5
 71
     0
 72
     2
 73
     0
 90
        0
 40
-0.6
 41
-30.0
 62
     5
 63
     7
421
 16777215
 74
     1
 91
        4
 64
     7
 65
   257
 75
     1
175
     1
 42
1.0
 92
        0
 66
   257
 43
1.0
 76
     1
 77
     6
 78
     2
 67
     7
 79
     5
170
     0
171
     0
290
     0
174
     0
 93
        1
 44
0.0
173
     0
291
     0
 45
0.0
1001
ACAD
1000
AcDbSavedByObjectVersion
1070
     0
  0
VISUALSTYLE
  5
32
102
{ACAD_REACTORS
330
2A
102
}
102
{ACAD_XDICTIONARY
360
89
102
}
330
2A
100
AcDbVisualStyle
  2
Basic
 70
     7
 71
     1
 72
     0
 73
     1
 90
        0
 40
-0.6
 41
-30.0
 62
     5
 63
     7
421
 16777215
 74
     0
 91
        4
 64
     7
 65
   257
 75
     1
175
     1
 42
1.0
 92
        8
 66
     7
 43
1.0
 76
     1
 77
     6
 78
     2
 67
     7
 79
     5
170
     0
171
     0
290
     0
174
     0
 93
        1
 44
0.0
173
     0
291
     1
 45
0.0
1001
ACAD
1000
AcDbSavedByObjectVersion
1070
     0
  0
VISUALSTYLE
  5
36
102
{ACAD_REACTORS
330
2A
102
}
102
{ACAD_XDICTIONARY
360
91
102
}
330
2A
100
AcDbVisualStyle
  2
Brighten
 70
    12
 71
     2
 72
     2
 73
     0
 90
        0
 40
-0.6
 41
-30.0
 62
     5
 63
     7
421
 16777215
 74
     1
 91
        4
 64
     7
 65
   257
 75
     1
175
     1
 42
1.0
 92
        8
 66
     7
 43
1.0
 76
     1
 77
     6
 78
     2
 67
     7
 79
     5
170
     0
171
     0
290
     0
174
     0
 93
        1
 44
50.0
173
     0
291
     1
 45
0.0
1001
ACAD
1000
AcDbSavedByObjectVersion
1070
     0
  0
VISUALSTYLE
  5
3A
102
{ACAD_REACTORS
330
2A
102
}
102
{ACAD_XDICTIONARY
360
99
102
}
330
2A
100
AcDbVisualStyle
  2
ColorChange
 70
    16
 71
     2
 72
     2
 73
     3
 90
        0
 40
-0.6
 41
-30.0
 62
     5
 63
     8
421
  8421504
 74
     1
 91
        4
 64
     7
 65
   257
 75
     1
175
     1
 42
1.0
 92
        8
 66
     8
424
  8421504
 43
1.0
 76
     1
 77
     6
 78
     2
 67
     7
 79
     5
170
     0
171
     0
290
     0
174
     0
 93
        1
 44
0.0
173
     0
291
     1
 45
0.0
1001
ACAD
1000
AcDbSavedByObjectVersion
1070
     0
  0
VISUALSTYLE
  5
34
102
{ACAD_REACTORS
330
2A
102
}
102
{ACAD_XDICTIONARY
360
8D
102
}
330
2A
100
AcDbVisualStyle
  2
Conceptual
 70
     9
 71
     3
 72
     2
 73
     0
 90
        0
 40
-0.6
 41
-30.0
 62
     5
 63
     7
421
 16777215
 74
     2
 91
        2
 64
     7
 65
   257
 75
     1
175
     1
 42
40.0
 92
        8
 66
     7
 43
1.0
 76
     1
 77
     6
 78
     2
 67
     7
 79
     3
170
     0
171
     0
290
     0
174
     0
 93
        1
 44
0.0
173
     0
291
     0
 45
0.0
1001
ACAD
1000
AcDbSavedByObjectVersion
1070
     0
  0
VISUALSTYLE
  5
35
102
{ACAD_REACTORS
330
2A
102
}
102
{ACAD_XDICTIONARY
360
8F
102
}
330
2A
100
AcDbVisualStyle
  2
Dim
 70
    11
 71
     2
 72
     2
 73
     0
 90
        0
 40
-0.6
 41
-30.0
 62
     5
 63
     7
421
 16777215
 74
     1
 91
        4
 64
     7
 65
   257
 75
     1
175
     1
 42
1.0
 92
        8
 66
     7
 43
1.0
 76
     1
 77
     6
 78
     2
 67
     7
 79
     5
170
     0
171
     0
290
     0
174
     0
 93
        1
 44
-50.0
173
     0
291
     1
 45
0.0
1001
ACAD
1000
AcDbSavedByObjectVersion
1070
     0
  0
VISUALSTYLE
  5
39
102
{ACAD_REACTORS
330
2A
102
}
102
{ACAD_XDICTIONARY
360
97
102
}
330
2A
100
AcDbVisualStyle
  2
Facepattern
 70
    15
 71
     2
 72
     2
 73
     0
 90
        0
 40
-0.6
 41
-30.0
 62
     5
 63
     7
421
 16777215
 74
     1
 91
        4
 64
     7
 65
   257
 75
     1
175
     1
 42
1.0
 92
        8
 66
     7
 43
1.0
 76
     1
 77
     6
 78
     2
 67
     7
 79
     5
170
     0
171
     0
290
     0
174
     0
 93
        1
 44
0.0
173
     0
291
     1
 45
0.0
1001
ACAD
1000
AcDbSavedByObjectVersion
1070
     0
  0
VISUALSTYLE
  5
2B
102
{ACAD_REACTORS
330
2A
102
}
102
{ACAD_XDICTIONARY
360
7B
102
}
330
2A
100
AcDbVisualStyle
  2
Flat
 70
     0
 71
     2
 72
     1
 73
     1
 90
        2
 40
-0.6
 41
30.0
 62
     5
 63
     7
421
 16777215
 74
     0
 91
        4
 64
     7
 65
   257
 75
     1
175
     1
 42
1.0
 92
        8
 66
     7
 43
1.0
 76
     1
 77
     6
 78
     2
 67
     7
 79
     5
170
     0
171
     0
290
     0
174
     0
 93
       13
 44
0.0
173
     0
291
     1
 45
0.0
1001
ACAD
1000
AcDbSavedByObjectVersion
1070
     0
  0
VISUALSTYLE
  5
2C
102
{ACAD_REACTORS
330
2A
102
}
102
{ACAD_XDICTIONARY
360
7D
102
}
330
2A
100
AcDbVisualStyle
  2
FlatWithEdges
 70
     1
 71
     2
 72
     1
 73
     1
 90
        2
 40
-0.6
 41
30.0
 62
     5
 63
     7
421
 16777215
 74
     1
 91
        4
 64
     7
 65
   257
 75
     1
175
     1
 42
1.0
 92
        0
 66
   257
 43
1.0
 76
     1
 77
     6
 78
     2
 67
     7
 79
     5
170
     0
171
     0
290
     0
174
     0
 93
       13
 44
0.0
173
     0
291
     1
 45
0.0
1001
ACAD
1000
AcDbSavedByObjectVersion
1070
     0
  0
VISUALSTYLE
  5
2D
102
{ACAD_REACTORS
330
2A
102
}
102
{ACAD_XDICTIONARY
360
7F
102
}
330
2A
100
AcDbVisualStyle
  2
Gouraud
 70
     2
 71
     2
 72
     2
 73
     1
 90
        2
 40
-0.6
 41
30.0
 62
     5
 63
     7
421
 16777215
 74
     0
 91
        4
 64
     7
 65
   257
 75
     1
175
     1
 42
1.0
 92
        0
 66
     7
 43
1.0
 76
     1
 77
     6
 78
     2
 67
     7
 79
     5
170
     0
171
     0
290
     0
174
     0
 93
       13
 44
0.0
173
     0
291
     1
 45
0.0
1001
ACAD
1000
AcDbSavedByObjectVersion
1070
     0
  0
VISUALSTYLE
  5
2E
102
{ACAD_REACTORS
330
2A
102
}
102
{ACAD_XDICTIONARY
360
81
102
}
330
2A
100
AcDbVisualStyle
  2
GouraudWithEdges
 70
     3
 71
     2
 72
     2
 73
     1
 90
        2
 40
-0.6
 41
30.0
 62
     5
 63
     7
421
 16777215
 74
     1
 91
        4
 64
     7
 65
   257
 75
     1
175
     1
 42
1.0
 92
        0
 66
   257
 43
1.0
 76
     1
 77
     6
 78
     2
 67
     7
 79
     5
170
     0
171
     0
290
     0
174
     0
 93
       13
 44
0.0
173
     0
291
     1
 45
0.0
1001
ACAD
1000
AcDbSavedByObjectVersion
1070
     0
  0
VISUALSTYLE
  5
38
102
{ACAD_REACTORS
330
2A
102
}
102
{ACAD_XDICTIONARY
360
95
102
}
330
2A
100
AcDbVisualStyle
  2
Linepattern
 70
    14
 71
     2
 72
     2
 73
     0
 90
        0
 40
-0.6
 41
-30.0
 62
     5
 63
     7
421
 16777215
 74
     1
 91
        4
 64
     7
 65
   257
 75
     7
175
     7
 42
1.0
 92
        8
 66
     7
 43
1.0
 76
     1
 77
     6
 78
     2
 67
     7
 79
     5
170
     0
171
     0
290
     0
174
     0
 93
        1
 44
0.0
173
     0
291
     1
 45
0.0
1001
ACAD
1000
AcDbSavedByObjectVersion
1070
     0
  0
VISUALSTYLE
  5
33
102
{ACAD_REACTORS
330
2A
102
}
102
{ACAD_XDICTIONARY
360
8B
102
}
330
2A
100
AcDbVisualStyle
  2
Realistic
 70
     8
 71
     2
 72
     2
 73
     0
 90
        0
 40
-0.6
 41
-30.0
 62
     5
 63
     7
421
 16777215
 74
     1
 91
        0
 64
     7
 65
   257
 75
     1
175
     1
 42
1.0
 92
        8
 66
     8
424
  7895160
 43
1.0
 76
     1
 77
     6
 78
     2
 67
     7
 79
     5
170
     0
171
     0
290
     0
174
     0
 93
       13
 44
0.0
173
     0
291
     0
 45
0.0
1001
ACAD
1000
AcDbSavedByObjectVersion
1070
     0
  0
VISUALSTYLE
  5
37
102
{ACAD_REACTORS
330
2A
102
}
102
{ACAD_XDICTIONARY
360
93
102
}
330
2A
100
AcDbVisualStyle
  2
Thicken
 70
    13
 71
     2
 72
     2
 73
     0
 90
        0
 40
-0.6
 41
-30.0
 62
     5
 63
     7
421
 16777215
 74
     1
 91
        4
 64
     7
 65
   257
 75
     1
175
     1
 42
1.0
 92
       12
 66
     7
 43
1.0
 76
     1
 77
     6
 78
     2
 67
     7
 79
     5
170
     0
171
     0
290
     0
174
     0
 93
        1
 44
0.0
173
     0
291
     1
 45
0.0
1001
ACAD
1000
AcDbSavedByObjectVersion
1070
     0
  0
DICTIONARY
  5
9D
330
3D
100
AcDbDictionary
280
     1
281
     1
  3
ACAD_XREC_ROUNDTRIP
360
9E
  0
DICTIONARY
  5
9B
330
3C
100
AcDbDictionary
280
     1
281
     1
  3
ACAD_XREC_ROUNDTRIP
360
9C
  0
DICTIONARY
  5
9F
330
3E
100
AcDbDictionary
280
     1
281
     1
  3
ACAD_XREC_ROUNDTRIP
360
A0
  0
DICTIONARY
  5
83
330
2F
100
AcDbDictionary
280
     1
281
     1
  3
ACAD_XREC_ROUNDTRIP
360
84
  0
DICTIONARY
  5
87
330
31
100
AcDbDictionary
280
     1
281
     1
  3
ACAD_XREC_ROUNDTRIP
360
88
  0
DICTIONARY
  5
85
330
30
100
AcDbDictionary
280
     1
281
     1
  3
ACAD_XREC_ROUNDTRIP
360
86
  0
DICTIONARY
  5
89
330
32
100
AcDbDictionary
280
     1
281
     1
  3
ACAD_XREC_ROUNDTRIP
360
8A
  0
DICTIONARY
  5
91
330
36
100
AcDbDictionary
280
     1
281
     1
  3
ACAD_XREC_ROUNDTRIP
360
92
  0
DICTIONARY
  5
99
330
3A
100
AcDbDictionary
280
     1
281
     1
  3
ACAD_XREC_ROUNDTRIP
360
9A
  0
DICTIONARY
  5
8D
330
34
100
AcDbDictionary
280
     1
281
     1
  3
ACAD_XREC_ROUNDTRIP
360
8E
  0
DICTIONARY
  5
8F
330
35
100
AcDbDictionary
280
     1
281
     1
  3
ACAD_XREC_ROUNDTRIP
360
90
  0
DICTIONARY
  5
97
330
39
100
AcDbDictionary
280
     1
281
     1
  3
ACAD_XREC_ROUNDTRIP
360
98
  0
DICTIONARY
  5
7B
330
2B
100
AcDbDictionary
280
     1
281
     1
  3
ACAD_XREC_ROUNDTRIP
360
7C
  0
DICTIONARY
  5
7D
330
2C
100
AcDbDictionary
280
     1
281
     1
  3
ACAD_XREC_ROUNDTRIP
360
7E
  0
DICTIONARY
  5
7F
330
2D
100
AcDbDictionary
280
     1
281
     1
  3
ACAD_XREC_ROUNDTRIP
360
80
  0
DICTIONARY
  5
81
330
2E
100
AcDbDictionary
280
     1
281
     1
  3
ACAD_XREC_ROUNDTRIP
360
82
  0
DICTIONARY
  5
95
330
38
100
AcDbDictionary
280
     1
281
     1
  3
ACAD_XREC_ROUNDTRIP
360
96
  0
DICTIONARY
  5
8B
330
33
100
AcDbDictionary
280
     1
281
     1
  3
ACAD_XREC_ROUNDTRIP
360
8C
  0
DICTIONARY
  5
93
330
37
100
AcDbDictionary
280
     1
281
     1
  3
ACAD_XREC_ROUNDTRIP
360
94
  0
XRECORD
  5
9E
102
{ACAD_REACTORS
330
9D
102
}
330
9D
100
AcDbXrecord
280
     1
102
MATERIAL
148
0.0
149
0.0
149
0.0
 93
        0
 94
      127
282
     0
 72
     1
 77
     1
171
     1
175
     1
179
     1
273
     0
  0
XRECORD
  5
9C
102
{ACAD_REACTORS
330
9B
102
}
330
9B
100
AcDbXrecord
280
     1
102
MATERIAL
148
0.0
149
0.0
149
0.0
 93
        0
 94
      127
282
     0
 72
     1
 77
     1
171
     1
175
     1
179
     1
273
     0
  0
XRECORD
  5
A0
102
{ACAD_REACTORS
330
9F
102
}
330
9F
100
AcDbXrecord
280
     1
102
MATERIAL
148
0.0
149
0.0
149
0.0
 93
        0
 94
      127
282
     0
 72
     1
 77
     1
171
     1
175
     1
179
     1
273
     0
  0
XRECORD
  5
84
102
{ACAD_REACTORS
330
83
102
}
330
83
100
AcDbXrecord
280
     1
102
RTVSPropertyOp0
 70
     1
102
RTVSPropertyOp1
 70
     1
102
RTVSPropertyOp2
 70
     1
102
RTVSPropertyOp3
 70
     1
102
RTVSPropertyOp4
 70
     1
102
RTVSPropertyOp5
 70
     1
102
RTVSPropertyOp6
 70
     1
102
RTVSPropertyOp7
 70
     1
102
RTVSPropertyOp8
 70
     1
102
RTVSPropertyOp9
 70
     1
102
RTVSPropertyOp10
 70
     1
102
RTVSPropertyOp11
 70
     1
102
RTVSPropertyOp12
 70
     1
102
RTVSPropertyOp13
 70
     1
102
RTVSPropertyOp14
 70
     1
102
RTVSPropertyOp15
 70
     1
102
RTVSPropertyOp16
 70
     1
102
RTVSPropertyOp17
 70
     1
102
RTVSPropertyOp18
 70
     1
102
RTVSPropertyOp19
 70
     1
102
RTVSPropertyOp20
 70
     1
102
RTVSPropertyOp21
 70
     1
102
RTVSPropertyOp22
 70
     1
102
RTVSPropertyOp23
 70
     1
102
RTVSPropertyOp24
 70
     1
102
RTVSPropertyOp25
 70
     1
102
RTVSPropertyOp26
 70
     1
102
RTVSPropertyOp27
 70
     1
102
RTVSPropertyOp28
 70
     1
102
RTVSPropertyOp29
 70
     1
102
RTVSPropertyOp30
 70
     1
102
RTVSPropertyOp31
 70
     1
102
RTVSPropertyOp32
 70
     1
  0
XRECORD
  5
88
102
{ACAD_REACTORS
330
87
102
}
330
87
100
AcDbXrecord
280
     1
102
RTVSPropertyOp0
 70
     1
102
RTVSPropertyOp1
 70
     1
102
RTVSPropertyOp2
 70
     1
102
RTVSPropertyOp3
 70
     1
102
RTVSPropertyOp4
 70
     1
102
RTVSPropertyOp5
 70
     1
102
RTVSPropertyOp6
 70
     1
102
RTVSPropertyOp7
 70
     1
102
RTVSPropertyOp8
 70
     1
102
RTVSPropertyOp9
 70
     1
102
RTVSPropertyOp10
 70
     1
102
RTVSPropertyOp11
 70
     1
102
RTVSPropertyOp12
 70
     1
102
RTVSPropertyOp13
 70
     1
102
RTVSPropertyOp14
 70
     1
102
RTVSPropertyOp15
 70
     1
102
RTVSPropertyOp16
 70
     1
102
RTVSPropertyOp17
 70
     1
102
RTVSPropertyOp18
 70
     1
102
RTVSPropertyOp19
 70
     1
102
RTVSPropertyOp20
 70
     1
102
RTVSPropertyOp21
 70
     1
102
RTVSPropertyOp22
 70
     1
102
RTVSPropertyOp23
 70
     1
102
RTVSPropertyOp24
 70
     1
102
RTVSPropertyOp25
 70
     1
102
RTVSPropertyOp26
 70
     1
102
RTVSPropertyOp27
 70
     1
102
RTVSPropertyOp28
 70
     1
102
RTVSPropertyOp29
 70
     1
102
RTVSPropertyOp30
 70
     1
102
RTVSPropertyOp31
 70
     1
102
RTVSPropertyOp32
 70
     1
  0
XRECORD
  5
86
102
{ACAD_REACTORS
330
85
102
}
330
85
100
AcDbXrecord
280
     1
102
RTVSPropertyOp0
 70
     1
102
RTVSPropertyOp1
 70
     1
102
RTVSPropertyOp2
 70
     1
102
RTVSPropertyOp3
 70
     1
102
RTVSPropertyOp4
 70
     1
102
RTVSPropertyOp5
 70
     1
102
RTVSPropertyOp6
 70
     1
102
RTVSPropertyOp7
 70
     1
102
RTVSPropertyOp8
 70
     1
102
RTVSPropertyOp9
 70
     1
102
RTVSPropertyOp10
 70
     1
102
RTVSPropertyOp11
 70
     1
102
RTVSPropertyOp12
 70
     1
102
RTVSPropertyOp13
 70
     1
102
RTVSPropertyOp14
 70
     1
102
RTVSPropertyOp15
 70
     1
102
RTVSPropertyOp16
 70
     1
102
RTVSPropertyOp17
 70
     1
102
RTVSPropertyOp18
 70
     1
102
RTVSPropertyOp19
 70
     1
102
RTVSPropertyOp20
 70
     1
102
RTVSPropertyOp21
 70
     1
102
RTVSPropertyOp22
 70
     1
102
RTVSPropertyOp23
 70
     1
102
RTVSPropertyOp24
 70
     1
102
RTVSPropertyOp25
 70
     1
102
RTVSPropertyOp26
 70
     1
102
RTVSPropertyOp27
 70
     1
102
RTVSPropertyOp28
 70
     1
102
RTVSPropertyOp29
 70
     1
102
RTVSPropertyOp30
 70
     1
102
RTVSPropertyOp31
 70
     1
102
RTVSPropertyOp32
 70
     1
  0
XRECORD
  5
8A
102
{ACAD_REACTORS
330
89
102
}
330
89
100
AcDbXrecord
280
     1
102
RTVSPropertyOp0
 70
     1
102
RTVSPropertyOp1
 70
     1
102
RTVSPropertyOp2
 70
     1
102
RTVSPropertyOp3
 70
     1
102
RTVSPropertyOp4
 70
     1
102
RTVSPropertyOp5
 70
     1
102
RTVSPropertyOp6
 70
     1
102
RTVSPropertyOp7
 70
     1
102
RTVSPropertyOp8
 70
     1
102
RTVSPropertyOp9
 70
     1
102
RTVSPropertyOp10
 70
     1
102
RTVSPropertyOp11
 70
     1
102
RTVSPropertyOp12
 70
     1
102
RTVSPropertyOp13
 70
     1
102
RTVSPropertyOp14
 70
     1
102
RTVSPropertyOp15
 70
     1
102
RTVSPropertyOp16
 70
     1
102
RTVSPropertyOp17
 70
     1
102
RTVSPropertyOp18
 70
     1
102
RTVSPropertyOp19
 70
     1
102
RTVSPropertyOp20
 70
     1
102
RTVSPropertyOp21
 70
     1
102
RTVSPropertyOp22
 70
     1
102
RTVSPropertyOp23
 70
     1
102
RTVSPropertyOp24
 70
     1
102
RTVSPropertyOp25
 70
     1
102
RTVSPropertyOp26
 70
     1
102
RTVSPropertyOp27
 70
     1
102
RTVSPropertyOp28
 70
     1
102
RTVSPropertyOp29
 70
     1
102
RTVSPropertyOp30
 70
     1
102
RTVSPropertyOp31
 70
     1
102
RTVSPropertyOp32
 70
     1
  0
XRECORD
  5
92
102
{ACAD_REACTORS
330
91
102
}
330
91
100
AcDbXrecord
280
     1
102
RTVSPropertyOp0
 70
     1
102
RTVSPropertyOp1
 70
     1
102
RTVSPropertyOp2
 70
     1
102
RTVSPropertyOp3
 70
     1
102
RTVSPropertyOp4
 70
     1
102
RTVSPropertyOp5
 70
     1
102
RTVSPropertyOp6
 70
     1
102
RTVSPropertyOp7
 70
     1
102
RTVSPropertyOp8
 70
     1
102
RTVSPropertyOp9
 70
     1
102
RTVSPropertyOp10
 70
     1
102
RTVSPropertyOp11
 70
     1
102
RTVSPropertyOp12
 70
     1
102
RTVSPropertyOp13
 70
     1
102
RTVSPropertyOp14
 70
     1
102
RTVSPropertyOp15
 70
     1
102
RTVSPropertyOp16
 70
     1
102
RTVSPropertyOp17
 70
     1
102
RTVSPropertyOp18
 70
     1
102
RTVSPropertyOp19
 70
     1
102
RTVSPropertyOp20
 70
     1
102
RTVSPropertyOp21
 70
     1
102
RTVSPropertyOp22
 70
     1
102
RTVSPropertyOp23
 70
     1
102
RTVSPropertyOp24
 70
     1
102
RTVSPropertyOp25
 70
     1
102
RTVSPropertyOp26
 70
     1
102
RTVSPropertyOp27
 70
     1
102
RTVSPropertyOp28
 70
     1
102
RTVSPropertyOp29
 70
     1
102
RTVSPropertyOp30
 70
     1
102
RTVSPropertyOp31
 70
     1
102
RTVSPropertyOp32
 70
     1
  0
XRECORD
  5
9A
102
{ACAD_REACTORS
330
99
102
}
330
99
100
AcDbXrecord
280
     1
102
RTVSPropertyOp0
 70
     1
102
RTVSPropertyOp1
 70
     1
102
RTVSPropertyOp2
 70
     1
102
RTVSPropertyOp3
 70
     1
102
RTVSPropertyOp4
 70
     1
102
RTVSPropertyOp5
 70
     1
102
RTVSPropertyOp6
 70
     1
102
RTVSPropertyOp7
 70
     1
102
RTVSPropertyOp8
 70
     1
102
RTVSPropertyOp9
 70
     1
102
RTVSPropertyOp10
 70
     1
102
RTVSPropertyOp11
 70
     1
102
RTVSPropertyOp12
 70
     1
102
RTVSPropertyOp13
 70
     1
102
RTVSPropertyOp14
 70
     1
102
RTVSPropertyOp15
 70
     1
102
RTVSPropertyOp16
 70
     1
102
RTVSPropertyOp17
 70
     1
102
RTVSPropertyOp18
 70
     1
102
RTVSPropertyOp19
 70
     1
102
RTVSPropertyOp20
 70
     1
102
RTVSPropertyOp21
 70
     1
102
RTVSPropertyOp22
 70
     1
102
RTVSPropertyOp23
 70
     1
102
RTVSPropertyOp24
 70
     1
102
RTVSPropertyOp25
 70
     1
102
RTVSPropertyOp26
 70
     1
102
RTVSPropertyOp27
 70
     1
102
RTVSPropertyOp28
 70
     1
102
RTVSPropertyOp29
 70
     1
102
RTVSPropertyOp30
 70
     1
102
RTVSPropertyOp31
 70
     1
102
RTVSPropertyOp32
 70
     1
  0
XRECORD
  5
8E
102
{ACAD_REACTORS
330
8D
102
}
330
8D
100
AcDbXrecord
280
     1
102
RTVSPropertyOp0
 70
     1
102
RTVSPropertyOp1
 70
     1
102
RTVSPropertyOp2
 70
     1
102
RTVSPropertyOp3
 70
     1
102
RTVSPropertyOp4
 70
     1
102
RTVSPropertyOp5
 70
     1
102
RTVSPropertyOp6
 70
     1
102
RTVSPropertyOp7
 70
     1
102
RTVSPropertyOp8
 70
     1
102
RTVSPropertyOp9
 70
     1
102
RTVSPropertyOp10
 70
     1
102
RTVSPropertyOp11
 70
     1
102
RTVSPropertyOp12
 70
     1
102
RTVSPropertyOp13
 70
     1
102
RTVSPropertyOp14
 70
     1
102
RTVSPropertyOp15
 70
     1
102
RTVSPropertyOp16
 70
     1
102
RTVSPropertyOp17
 70
     1
102
RTVSPropertyOp18
 70
     1
102
RTVSPropertyOp19
 70
     1
102
RTVSPropertyOp20
 70
     1
102
RTVSPropertyOp21
 70
     1
102
RTVSPropertyOp22
 70
     1
102
RTVSPropertyOp23
 70
     1
102
RTVSPropertyOp24
 70
     1
102
RTVSPropertyOp25
 70
     1
102
RTVSPropertyOp26
 70
     1
102
RTVSPropertyOp27
 70
     1
102
RTVSPropertyOp28
 70
     1
102
RTVSPropertyOp29
 70
     1
102
RTVSPropertyOp30
 70
     1
102
RTVSPropertyOp31
 70
     1
102
RTVSPropertyOp32
 70
     1
  0
XRECORD
  5
90
102
{ACAD_REACTORS
330
8F
102
}
330
8F
100
AcDbXrecord
280
     1
102
RTVSPropertyOp0
 70
     1
102
RTVSPropertyOp1
 70
     1
102
RTVSPropertyOp2
 70
     1
102
RTVSPropertyOp3
 70
     1
102
RTVSPropertyOp4
 70
     1
102
RTVSPropertyOp5
 70
     1
102
RTVSPropertyOp6
 70
     1
102
RTVSPropertyOp7
 70
     1
102
RTVSPropertyOp8
 70
     1
102
RTVSPropertyOp9
 70
     1
102
RTVSPropertyOp10
 70
     1
102
RTVSPropertyOp11
 70
     1
102
RTVSPropertyOp12
 70
     1
102
RTVSPropertyOp13
 70
     1
102
RTVSPropertyOp14
 70
     1
102
RTVSPropertyOp15
 70
     1
102
RTVSPropertyOp16
 70
     1
102
RTVSPropertyOp17
 70
     1
102
RTVSPropertyOp18
 70
     1
102
RTVSPropertyOp19
 70
     1
102
RTVSPropertyOp20
 70
     1
102
RTVSPropertyOp21
 70
     1
102
RTVSPropertyOp22
 70
     1
102
RTVSPropertyOp23
 70
     1
102
RTVSPropertyOp24
 70
     1
102
RTVSPropertyOp25
 70
     1
102
RTVSPropertyOp26
 70
     1
102
RTVSPropertyOp27
 70
     1
102
RTVSPropertyOp28
 70
     1
102
RTVSPropertyOp29
 70
     1
102
RTVSPropertyOp30
 70
     1
102
RTVSPropertyOp31
 70
     1
102
RTVSPropertyOp32
 70
     1
  0
XRECORD
  5
98
102
{ACAD_REACTORS
330
97
102
}
330
97
100
AcDbXrecord
280
     1
102
RTVSPropertyOp0
 70
     1
102
RTVSPropertyOp1
 70
     1
102
RTVSPropertyOp2
 70
     1
102
RTVSPropertyOp3
 70
     1
102
RTVSPropertyOp4
 70
     1
102
RTVSPropertyOp5
 70
     1
102
RTVSPropertyOp6
 70
     1
102
RTVSPropertyOp7
 70
     1
102
RTVSPropertyOp8
 70
     1
102
RTVSPropertyOp9
 70
     1
102
RTVSPropertyOp10
 70
     1
102
RTVSPropertyOp11
 70
     1
102
RTVSPropertyOp12
 70
     1
102
RTVSPropertyOp13
 70
     1
102
RTVSPropertyOp14
 70
     1
102
RTVSPropertyOp15
 70
     1
102
RTVSPropertyOp16
 70
     1
102
RTVSPropertyOp17
 70
     1
102
RTVSPropertyOp18
 70
     1
102
RTVSPropertyOp19
 70
     1
102
RTVSPropertyOp20
 70
     1
102
RTVSPropertyOp21
 70
     1
102
RTVSPropertyOp22
 70
     1
102
RTVSPropertyOp23
 70
     1
102
RTVSPropertyOp24
 70
     1
102
RTVSPropertyOp25
 70
     1
102
RTVSPropertyOp26
 70
     1
102
RTVSPropertyOp27
 70
     1
102
RTVSPropertyOp28
 70
     1
102
RTVSPropertyOp29
 70
     1
102
RTVSPropertyOp30
 70
     1
102
RTVSPropertyOp31
 70
     1
102
RTVSPropertyOp32
 70
     1
  0
XRECORD
  5
7C
102
{ACAD_REACTORS
330
7B
102
}
330
7B
100
AcDbXrecord
280
     1
102
RTVSPropertyOp0
 70
     1
102
RTVSPropertyOp1
 70
     1
102
RTVSPropertyOp2
 70
     1
102
RTVSPropertyOp3
 70
     1
102
RTVSPropertyOp4
 70
     1
102
RTVSPropertyOp5
 70
     1
102
RTVSPropertyOp6
 70
     1
102
RTVSPropertyOp7
 70
     1
102
RTVSPropertyOp8
 70
     1
102
RTVSPropertyOp9
 70
     1
102
RTVSPropertyOp10
 70
     1
102
RTVSPropertyOp11
 70
     1
102
RTVSPropertyOp12
 70
     1
102
RTVSPropertyOp13
 70
     1
102
RTVSPropertyOp14
 70
     1
102
RTVSPropertyOp15
 70
     1
102
RTVSPropertyOp16
 70
     1
102
RTVSPropertyOp17
 70
     1
102
RTVSPropertyOp18
 70
     1
102
RTVSPropertyOp19
 70
     1
102
RTVSPropertyOp20
 70
     1
102
RTVSPropertyOp21
 70
     1
102
RTVSPropertyOp22
 70
     1
102
RTVSPropertyOp23
 70
     1
102
RTVSPropertyOp24
 70
     1
102
RTVSPropertyOp25
 70
     1
102
RTVSPropertyOp26
 70
     1
102
RTVSPropertyOp27
 70
     1
102
RTVSPropertyOp28
 70
     1
102
RTVSPropertyOp29
 70
     1
102
RTVSPropertyOp30
 70
     1
102
RTVSPropertyOp31
 70
     1
102
RTVSPropertyOp32
 70
     1
  0
XRECORD
  5
7E
102
{ACAD_REACTORS
330
7D
102
}
330
7D
100
AcDbXrecord
280
     1
102
RTVSPropertyOp0
 70
     1
102
RTVSPropertyOp1
 70
     1
102
RTVSPropertyOp2
 70
     1
102
RTVSPropertyOp3
 70
     1
102
RTVSPropertyOp4
 70
     1
102
RTVSPropertyOp5
 70
     1
102
RTVSPropertyOp6
 70
     1
102
RTVSPropertyOp7
 70
     1
102
RTVSPropertyOp8
 70
     1
102
RTVSPropertyOp9
 70
     1
102
RTVSPropertyOp10
 70
     1
102
RTVSPropertyOp11
 70
     1
102
RTVSPropertyOp12
 70
     1
102
RTVSPropertyOp13
 70
     1
102
RTVSPropertyOp14
 70
     1
102
RTVSPropertyOp15
 70
     1
102
RTVSPropertyOp16
 70
     1
102
RTVSPropertyOp17
 70
     1
102
RTVSPropertyOp18
 70
     1
102
RTVSPropertyOp19
 70
     1
102
RTVSPropertyOp20
 70
     1
102
RTVSPropertyOp21
 70
     1
102
RTVSPropertyOp22
 70
     1
102
RTVSPropertyOp23
 70
     1
102
RTVSPropertyOp24
 70
     1
102
RTVSPropertyOp25
 70
     1
102
RTVSPropertyOp26
 70
     1
102
RTVSPropertyOp27
 70
     1
102
RTVSPropertyOp28
 70
     1
102
RTVSPropertyOp29
 70
     1
102
RTVSPropertyOp30
 70
     1
102
RTVSPropertyOp31
 70
     1
102
RTVSPropertyOp32
 70
     1
  0
XRECORD
  5
80
102
{ACAD_REACTORS
330
7F
102
}
330
7F
100
AcDbXrecord
280
     1
102
RTVSPropertyOp0
 70
     1
102
RTVSPropertyOp1
 70
     1
102
RTVSPropertyOp2
 70
     1
102
RTVSPropertyOp3
 70
     1
102
RTVSPropertyOp4
 70
     1
102
RTVSPropertyOp5
 70
     1
102
RTVSPropertyOp6
 70
     1
102
RTVSPropertyOp7
 70
     1
102
RTVSPropertyOp8
 70
     1
102
RTVSPropertyOp9
 70
     1
102
RTVSPropertyOp10
 70
     1
102
RTVSPropertyOp11
 70
     1
102
RTVSPropertyOp12
 70
     1
102
RTVSPropertyOp13
 70
     1
102
RTVSPropertyOp14
 70
     1
102
RTVSPropertyOp15
 70
     1
102
RTVSPropertyOp16
 70
     1
102
RTVSPropertyOp17
 70
     1
102
RTVSPropertyOp18
 70
     1
102
RTVSPropertyOp19
 70
     1
102
RTVSPropertyOp20
 70
     1
102
RTVSPropertyOp21
 70
     1
102
RTVSPropertyOp22
 70
     1
102
RTVSPropertyOp23
 70
     1
102
RTVSPropertyOp24
 70
     1
102
RTVSPropertyOp25
 70
     1
102
RTVSPropertyOp26
 70
     1
102
RTVSPropertyOp27
 70
     1
102
RTVSPropertyOp28
 70
     1
102
RTVSPropertyOp29
 70
     1
102
RTVSPropertyOp30
 70
     1
102
RTVSPropertyOp31
 70
     1
102
RTVSPropertyOp32
 70
     1
  0
XRECORD
  5
82
102
{ACAD_REACTORS
330
81
102
}
330
81
100
AcDbXrecord
280
     1
102
RTVSPropertyOp0
 70
     1
102
RTVSPropertyOp1
 70
     1
102
RTVSPropertyOp2
 70
     1
102
RTVSPropertyOp3
 70
     1
102
RTVSPropertyOp4
 70
     1
102
RTVSPropertyOp5
 70
     1
102
RTVSPropertyOp6
 70
     1
102
RTVSPropertyOp7
 70
     1
102
RTVSPropertyOp8
 70
     1
102
RTVSPropertyOp9
 70
     1
102
RTVSPropertyOp10
 70
     1
102
RTVSPropertyOp11
 70
     1
102
RTVSPropertyOp12
 70
     1
102
RTVSPropertyOp13
 70
     1
102
RTVSPropertyOp14
 70
     1
102
RTVSPropertyOp15
 70
     1
102
RTVSPropertyOp16
 70
     1
102
RTVSPropertyOp17
 70
     1
102
RTVSPropertyOp18
 70
     1
102
RTVSPropertyOp19
 70
     1
102
RTVSPropertyOp20
 70
     1
102
RTVSPropertyOp21
 70
     1
102
RTVSPropertyOp22
 70
     1
102
RTVSPropertyOp23
 70
     1
102
RTVSPropertyOp24
 70
     1
102
RTVSPropertyOp25
 70
     1
102
RTVSPropertyOp26
 70
     1
102
RTVSPropertyOp27
 70
     1
102
RTVSPropertyOp28
 70
     1
102
RTVSPropertyOp29
 70
     1
102
RTVSPropertyOp30
 70
     1
102
RTVSPropertyOp31
 70
     1
102
RTVSPropertyOp32
 70
     1
  0
XRECORD
  5
96
102
{ACAD_REACTORS
330
95
102
}
330
95
100
AcDbXrecord
280
     1
102
RTVSPropertyOp0
 70
     1
102
RTVSPropertyOp1
 70
     1
102
RTVSPropertyOp2
 70
     1
102
RTVSPropertyOp3
 70
     1
102
RTVSPropertyOp4
 70
     1
102
RTVSPropertyOp5
 70
     1
102
RTVSPropertyOp6
 70
     1
102
RTVSPropertyOp7
 70
     1
102
RTVSPropertyOp8
 70
     1
102
RTVSPropertyOp9
 70
     1
102
RTVSPropertyOp10
 70
     1
102
RTVSPropertyOp11
 70
     1
102
RTVSPropertyOp12
 70
     1
102
RTVSPropertyOp13
 70
     1
102
RTVSPropertyOp14
 70
     1
102
RTVSPropertyOp15
 70
     1
102
RTVSPropertyOp16
 70
     1
102
RTVSPropertyOp17
 70
     1
102
RTVSPropertyOp18
 70
     1
102
RTVSPropertyOp19
 70
     1
102
RTVSPropertyOp20
 70
     1
102
RTVSPropertyOp21
 70
     1
102
RTVSPropertyOp22
 70
     1
102
RTVSPropertyOp23
 70
     1
102
RTVSPropertyOp24
 70
     1
102
RTVSPropertyOp25
 70
     1
102
RTVSPropertyOp26
 70
     1
102
RTVSPropertyOp27
 70
     1
102
RTVSPropertyOp28
 70
     1
102
RTVSPropertyOp29
 70
     1
102
RTVSPropertyOp30
 70
     1
102
RTVSPropertyOp31
 70
     1
102
RTVSPropertyOp32
 70
     1
  0
XRECORD
  5
8C
102
{ACAD_REACTORS
330
8B
102
}
330
8B
100
AcDbXrecord
280
     1
102
RTVSPropertyOp0
 70
     1
102
RTVSPropertyOp1
 70
     1
102
RTVSPropertyOp2
 70
     1
102
RTVSPropertyOp3
 70
     1
102
RTVSPropertyOp4
 70
     1
102
RTVSPropertyOp5
 70
     1
102
RTVSPropertyOp6
 70
     1
102
RTVSPropertyOp7
 70
     1
102
RTVSPropertyOp8
 70
     1
102
RTVSPropertyOp9
 70
     1
102
RTVSPropertyOp10
 70
     1
102
RTVSPropertyOp11
 70
     1
102
RTVSPropertyOp12
 70
     1
102
RTVSPropertyOp13
 70
     1
102
RTVSPropertyOp14
 70
     1
102
RTVSPropertyOp15
 70
     1
102
RTVSPropertyOp16
 70
     1
102
RTVSPropertyOp17
 70
     1
102
RTVSPropertyOp18
 70
     1
102
RTVSPropertyOp19
 70
     1
102
RTVSPropertyOp20
 70
     1
102
RTVSPropertyOp21
 70
     1
102
RTVSPropertyOp22
 70
     1
102
RTVSPropertyOp23
 70
     1
102
RTVSPropertyOp24
 70
     1
102
RTVSPropertyOp25
 70
     1
102
RTVSPropertyOp26
 70
     1
102
RTVSPropertyOp27
 70
     1
102
RTVSPropertyOp28
 70
     1
102
RTVSPropertyOp29
 70
     1
102
RTVSPropertyOp30
 70
     1
102
RTVSPropertyOp31
 70
     1
102
RTVSPropertyOp32
 70
     1
  0
XRECORD
  5
94
102
{ACAD_REACTORS
330
93
102
}
330
93
100
AcDbXrecord
280
     1
102
RTVSPropertyOp0
 70
     1
102
RTVSPropertyOp1
 70
     1
102
RTVSPropertyOp2
 70
     1
102
RTVSPropertyOp3
 70
     1
102
RTVSPropertyOp4
 70
     1
102
RTVSPropertyOp5
 70
     1
102
RTVSPropertyOp6
 70
     1
102
RTVSPropertyOp7
 70
     1
102
RTVSPropertyOp8
 70
     1
102
RTVSPropertyOp9
 70
     1
102
RTVSPropertyOp10
 70
     1
102
RTVSPropertyOp11
 70
     1
102
RTVSPropertyOp12
 70
     1
102
RTVSPropertyOp13
 70
     1
102
RTVSPropertyOp14
 70
     1
102
RTVSPropertyOp15
 70
     1
102
RTVSPropertyOp16
 70
     1
102
RTVSPropertyOp17
 70
     1
102
RTVSPropertyOp18
 70
     1
102
RTVSPropertyOp19
 70
     1
102
RTVSPropertyOp20
 70
     1
102
RTVSPropertyOp21
 70
     1
102
RTVSPropertyOp22
 70
     1
102
RTVSPropertyOp23
 70
     1
102
RTVSPropertyOp24
 70
     1
102
RTVSPropertyOp25
 70
     1
102
RTVSPropertyOp26
 70
     1
102
RTVSPropertyOp27
 70
     1
102
RTVSPropertyOp28
 70
     1
102
RTVSPropertyOp29
 70
     1
102
RTVSPropertyOp30
 70
     1
102
RTVSPropertyOp31
 70
     1
102
RTVSPropertyOp32
 70
     1
  0
ENDSEC
  0
EOF
