  0
SECTION
  2
HEADER
  9
$ACADVER
  1
AC1009
  9
$DWGCODEPAGE
  3
ansi_1252
  9
$INSBASE
 10
0.0
 20
0.0
 30
0.0
  9
$EXTMIN
 10
4.412522547677582
 20
28.04432499328848
 30
0.0
  9
$EXTMAX
 10
2435.587477452322
 20
1206.41837709461
 30
0.0
  9
$LIMMIN
 10
0.0
 20
0.0
  9
$LIMMAX
 10
12.0
 20
9.0
  9
$ORTHOMODE
 70
     0
  9
$REGENMODE
 70
     1
  9
$FILLMODE
 70
     1
  9
$QTEXTMODE
 70
     0
  9
$MIRRTEXT
 70
     1
  9
$DRAGMODE
 70
     2
  9
$LTSCALE
 40
1.0
  9
$OSMODE
 70
    37
  9
$ATTMODE
 70
     1
  9
$TEXTSIZE
 40
0.2
  9
$TRACEWID
 40
0.05
  9
$TEXTSTYLE
  7
STANDARD
  9
$CLAYER
  8
0
  9
$CELTYPE
  6
BYLAYER
  9
$CECOLOR
 62
   256
  9
$DIMSCALE
 40
1.0
  9
$DIMASZ
 40
0.18
  9
$DIMEXO
 40
0.0625
  9
$DIMDLI
 40
0.38
  9
$DIMRND
 40
0.0
  9
$DIMDLE
 40
0.0
  9
$DIMEXE
 40
0.18
  9
$DIMTP
 40
0.0
  9
$DIMTM
 40
0.0
  9
$DIMTXT
 40
0.18
  9
$DIMCEN
 40
0.09
  9
$DIMTSZ
 40
0.0
  9
$DIMTOL
 70
     0
  9
$DIMLIM
 70
     0
  9
$DIMTIH
 70
     1
  9
$DIMTOH
 70
     1
  9
$DIMSE1
 70
     0
  9
$DIMSE2
 70
     0
  9
$DIMTAD
 70
     0
  9
$DIMZIN
 70
     0
  9
$DIMBLK
  1

  9
$DIMASO
 70
     1
  9
$DIMSHO
 70
     1
  9
$DIMPOST
  1

  9
$DIMAPOST
  1

  9
$DIMALT
 70
     0
  9
$DIMALTD
 70
     2
  9
$DIMALTF
 40
25.4
  9
$DIMLFAC
 40
1.0
  9
$DIMTOFL
 70
     0
  9
$DIMTVP
 40
0.0
  9
$DIMTIX
 70
     0
  9
$DIMSOXD
 70
     0
  9
$DIMSAH
 70
     0
  9
$DIMBLK1
  1

  9
$DIMBLK2
  1

  9
$DIMSTYLE
  2
STANDARD
  9
$DIMCLRD
 70
     0
  9
$DIMCLRE
 70
     0
  9
$DIMCLRT
 70
     0
  9
$DIMTFAC
 40
1.0
  9
$DIMGAP
 40
0.09
  9
$LUNITS
 70
     2
  9
$LUPREC
 70
     4
  9
$SKETCHINC
 40
0.1
  9
$FILLETRAD
 40
0.5
  9
$AUNITS
 70
     0
  9
$AUPREC
 70
     0
  9
$MENU
  1
.
  9
$ELEVATION
 40
0.0
  9
$PELEVATION
 40
0.0
  9
$THICKNESS
 40
0.0
  9
$LIMCHECK
 70
     0
  9
$CHAMFERA
 40
0.5
  9
$CHAMFERB
 40
0.5
  9
$SKPOLY
 70
     0
  9
$TDCREATE
 40
2454910.5
  9
$TDUPDATE
 40
2456818.577752917
  9
$TDINDWG
 40
0.0000000116
  9
$TDUSRTIMER
 40
0.0000000116
  9
$USRTIMER
 70
     1
  9
$ANGBASE
 50
0.0
  9
$ANGDIR
 70
     0
  9
$PDMODE
 70
     0
  9
$PDSIZE
 40
0.0
  9
$PLINEWID
 40
0.0
  9
$COORDS
 70
     1
  9
$SPLFRAME
 70
     0
  9
$SPLINETYPE
 70
     6
  9
$SPLINESEGS
 70
     8
  9
$ATTDIA
 70
     0
  9
$ATTREQ
 70
     1
  9
$HANDLING
 70
     1
  9
$HANDSEED
  5
9CE
  9
$SURFTAB1
 70
     6
  9
$SURFTAB2
 70
     6
  9
$SURFTYPE
 70
     6
  9
$SURFU
 70
     6
  9
$SURFV
 70
     6
  9
$UCSNAME
  2

  9
$UCSORG
 10
0.0
 20
0.0
 30
0.0
  9
$UCSXDIR
 10
1.0
 20
0.0
 30
0.0
  9
$UCSYDIR
 10
0.0
 20
1.0
 30
0.0
  9
$PUCSNAME
  2

  9
$PUCSORG
 10
0.0
 20
0.0
 30
0.0
  9
$PUCSXDIR
 10
1.0
 20
0.0
 30
0.0
  9
$PUCSYDIR
 10
0.0
 20
1.0
 30
0.0
  9
$USERI1
 70
     0
  9
$USERI2
 70
     0
  9
$USERI3
 70
     0
  9
$USERI4
 70
     0
  9
$USERI5
 70
     0
  9
$USERR1
 40
0.0
  9
$USERR2
 40
0.0
  9
$USERR3
 40
0.0
  9
$USERR4
 40
0.0
  9
$USERR5
 40
0.0
  9
$WORLDVIEW
 70
     1
  9
$SHADEDGE
 70
     3
  9
$SHADEDIF
 70
    70
  9
$TILEMODE
 70
     1
  9
$MAXACTVP
 70
    64
  9
$PLIMCHECK
 70
     0
  9
$PEXTMIN
 10
1.000000000000000E+20
 20
1.000000000000000E+20
 30
1.000000000000000E+20
  9
$PEXTMAX
 10
-1.000000000000000E+20
 20
-1.000000000000000E+20
 30
-1.000000000000000E+20
  9
$PLIMMIN
 10
0.0
 20
0.0
  9
$PLIMMAX
 10
12.0
 20
9.0
  9
$UNITMODE
 70
     0
  9
$VISRETAIN
 70
     1
  9
$PLINEGEN
 70
     0
  9
$PSLTSCALE
 70
     1
  0
ENDSEC
  0
SECTION
  2
TABLES
  0
TABLE
  2
VPORT
 70
     1
  0
VPORT
  2
*ACTIVE
 70
     0
 10
0.0
 20
0.0
 11
1.0
 21
1.0
 12
10.42990654205607
 22
4.5
 13
0.0
 23
0.0
 14
0.5
 24
0.5
 15
0.5
 25
0.5
 16
0.0
 26
0.0
 36
1.0
 17
0.0
 27
0.0
 37
0.0
 40
9.0
 41
1.972972972850329
 42
50.0
 43
0.0
 44
0.0
 50
0.0
 51
0.0
 71
     0
 72
   100
 73
     1
 74
     3
 75
     0
 76
     0
 77
     0
 78
     0
  0
ENDTAB
  0
TABLE
  2
LTYPE
 70
     2
  0
LTYPE
  2
CONTINUOUS
 70
     0
  3
Solid line
 72
    65
 73
     0
 40
0.0
  0
LTYPE
  2
CONTINUOUS2
 70
     0
  3
Solid Line
 72
    65
 73
     0
 40
0.0
  0
ENDTAB
  0
TABLE
  2
LAYER
 70
     2
  0
LAYER
  2
0
 70
     0
 62
     7
  6
CONTINUOUS
  0
LAYER
  2
IMPORT_-_TVSTAND_BACK
 70
     0
 62
    18
  6
CONTINUOUS
  0
ENDTAB
  0
TABLE
  2
STYLE
 70
     1
  0
STYLE
  2
STANDARD
 70
     0
 40
0.0
 41
1.0
 50
0.0
 71
     0
 42
0.2
  3
txt
  4

  0
ENDTAB
  0
TABLE
  2
VIEW
 70
     0
  0
ENDTAB
  0
TABLE
  2
UCS
 70
     0
  0
ENDTAB
  0
TABLE
  2
APPID
 70
     1
  0
APPID
  2
ACAD
 70
     0
  0
ENDTAB
  0
TABLE
  2
DIMSTYLE
 70
     1
  0
DIMSTYLE
  2
STANDARD
 70
     0
  3

  4

  5

  6

  7

 40
1.0
 41
0.18
 42
0.0625
 43
0.38
 44
0.18
 45
0.0
 46
0.0
 47
0.0
 48
0.0
140
0.18
141
0.09
142
0.0
143
25.4
144
1.0
145
0.0
146
1.0
147
0.09
 71
     0
 72
     0
 73
     1
 74
     1
 75
     0
 76
     0
 77
     0
 78
     0
170
     0
171
     2
172
     0
173
     0
174
     0
175
     0
176
     0
177
     0
178
     0
  0
ENDTAB
  0
ENDSEC
  0
SECTION
  2
BLOCKS
  0
BLOCK
  8
0
  2
$MODEL_SPACE
 70
     0
 10
0.0
 20
0.0
 30
0.0
  3
$MODEL_SPACE
  1

  0
ENDBLK
  5
21
  8
0
  0
BLOCK
 67
     1
  8
0
  2
$PAPER_SPACE
 70
     0
 10
0.0
 20
0.0
 30
0.0
  3
$PAPER_SPACE
  1

  0
ENDBLK
  5
1D
 67
     1
  8
0
  0
ENDSEC
  0
SECTION
  2
ENTITIES
  0
POLYLINE
  5
41
  8
IMPORT_-_TVSTAND_BACK
 66
     1
 10
0.0
 20
0.0
 30
0.0
 70
     1
  0
VERTEX
  5
11E
  8
IMPORT_-_TVSTAND_BACK
 10
1752.066092233035
 20
735.045
 30
0.0
  0
VERTEX
  5
11F
  8
IMPORT_-_TVSTAND_BACK
 10
1574.805734646852
 20
735.045
 30
0.0
 42
-1.0
  0
VERTEX
  5
120
  8
IMPORT_-_TVSTAND_BACK
 10
1570.563093959733
 20
739.2876406871193
 30
0.0
  0
VERTEX
  5
121
  8
IMPORT_-_TVSTAND_BACK
 10
1570.563093959733
 20
742.8973593128807
 30
0.0
 42
-1.0
  0
VERTEX
  5
122
  8
IMPORT_-_TVSTAND_BACK
 10
1574.805734646852
 20
747.14
 30
0.0
  0
VERTEX
  5
123
  8
IMPORT_-_TVSTAND_BACK
 10
1752.066093912504
 20
747.14
 30
0.0
 42
0.4142135669772892
  0
VERTEX
  5
124
  8
IMPORT_-_TVSTAND_BACK
 10
1755.066093912504
 20
750.1400000472285
 30
0.0
  0
VERTEX
  5
125
  8
IMPORT_-_TVSTAND_BACK
 10
1755.06609259179
 20
834.0329986320583
 30
0.0
 42
0.4142136959577504
  0
VERTEX
  5
126
  8
IMPORT_-_TVSTAND_BACK
 10
1752.066092591791
 20
837.033
 30
0.0
  0
VERTEX
  5
127
  8
IMPORT_-_TVSTAND_BACK
 10
1574.805734646852
 20
837.033
 30
0.0
 42
-1.0
  0
VERTEX
  5
128
  8
IMPORT_-_TVSTAND_BACK
 10
1570.563093959733
 20
841.2756406871193
 30
0.0
  0
VERTEX
  5
129
  8
IMPORT_-_TVSTAND_BACK
 10
1570.563093959733
 20
844.8853593128807
 30
0.0
 42
-1.0
  0
VERTEX
  5
12A
  8
IMPORT_-_TVSTAND_BACK
 10
1574.805734646852
 20
849.128
 30
0.0
  0
VERTEX
  5
12B
  8
IMPORT_-_TVSTAND_BACK
 10
1752.066092233033
 20
849.128
 30
0.0
 42
0.4142137309732894
  0
VERTEX
  5
12C
  8
IMPORT_-_TVSTAND_BACK
 10
1755.066092233033
 20
852.1280017266994
 30
0.0
  0
VERTEX
  5
12D
  8
IMPORT_-_TVSTAND_BACK
 10
1755.065985947372
 20
1036.790717747949
 30
0.0
  0
VERTEX
  5
12E
  8
IMPORT_-_TVSTAND_BACK
 10
1754.889597058483
 20
1038.730995525727
 30
0.0
  0
VERTEX
  5
12F
  8
IMPORT_-_TVSTAND_BACK
 10
1754.28987483626
 20
1040.600717747949
 30
0.0
  0
VERTEX
  5
130
  8
IMPORT_-_TVSTAND_BACK
 10
1753.372652614039
 20
1042.32932885906
 30
0.0
  0
VERTEX
  5
131
  8
IMPORT_-_TVSTAND_BACK
 10
1752.137930391816
 20
1043.846273303505
 30
0.0
  0
VERTEX
  5
132
  8
IMPORT_-_TVSTAND_BACK
 10
1750.620985947372
 20
1045.116273303504
 30
0.0
  0
VERTEX
  5
133
  8
IMPORT_-_TVSTAND_BACK
 10
1748.892374836261
 20
1046.033495525727
 30
0.0
  0
VERTEX
  5
134
  8
IMPORT_-_TVSTAND_BACK
 10
1747.022652614038
 20
1046.597939970171
 30
0.0
  0
VERTEX
  5
135
  8
IMPORT_-_TVSTAND_BACK
 10
1745.08237483626
 20
1046.77432885906
 30
0.0
  0
VERTEX
  5
136
  8
IMPORT_-_TVSTAND_BACK
 10
1386.060430391816
 20
1046.77432885906
 30
0.0
  0
VERTEX
  5
137
  8
IMPORT_-_TVSTAND_BACK
 10
1386.060430391816
 20
537.3984955257271
 30
0.0
  0
VERTEX
  5
138
  8
IMPORT_-_TVSTAND_BACK
 10
1745.08237483626
 20
537.3984955257268
 30
0.0
  0
VERTEX
  5
139
  8
IMPORT_-_TVSTAND_BACK
 10
1747.022652614038
 20
537.5748844146154
 30
0.0
  0
VERTEX
  5
13A
  8
IMPORT_-_TVSTAND_BACK
 10
1748.892374836261
 20
538.1393288590601
 30
0.0
  0
VERTEX
  5
13B
  8
IMPORT_-_TVSTAND_BACK
 10
1750.620985947372
 20
539.0565510812825
 30
0.0
  0
VERTEX
  5
13C
  8
IMPORT_-_TVSTAND_BACK
 10
1752.137930391816
 20
540.3265510812824
 30
0.0
  0
VERTEX
  5
13D
  8
IMPORT_-_TVSTAND_BACK
 10
1753.372652614039
 20
541.8434955257266
 30
0.0
  0
VERTEX
  5
13E
  8
IMPORT_-_TVSTAND_BACK
 10
1754.28987483626
 20
543.5721066368377
 30
0.0
  0
VERTEX
  5
13F
  8
IMPORT_-_TVSTAND_BACK
 10
1754.889597058483
 20
545.4418288590599
 30
0.0
  0
VERTEX
  5
140
  8
IMPORT_-_TVSTAND_BACK
 10
1755.065985947372
 20
547.3821066368376
 30
0.0
  0
VERTEX
  5
141
  8
IMPORT_-_TVSTAND_BACK
 10
1755.066092233034
 20
732.0449982733023
 30
0.0
 42
0.4142137309829379
  0
SEQEND
  5
142
  8
IMPORT_-_TVSTAND_BACK
  0
POLYLINE
  5
42
  8
IMPORT_-_TVSTAND_BACK
 66
     1
 10
0.0
 20
0.0
 30
0.0
 70
     1
  0
VERTEX
  5
143
  8
IMPORT_-_TVSTAND_BACK
 10
917.830519412175
 20
555.9474818636169
 30
0.0
 42
0.4142135623730951
  0
VERTEX
  5
144
  8
IMPORT_-_TVSTAND_BACK
 10
892.830519412175
 20
580.9474818636169
 30
0.0
 42
0.4142135623730951
  0
VERTEX
  5
145
  8
IMPORT_-_TVSTAND_BACK
 10
867.830519412175
 20
555.9474818636169
 30
0.0
 42
0.4142135623730951
  0
VERTEX
  5
146
  8
IMPORT_-_TVSTAND_BACK
 10
892.830519412175
 20
530.9474818636169
 30
0.0
 42
0.4142135623730951
  0
SEQEND
  5
147
  8
IMPORT_-_TVSTAND_BACK
  0
POLYLINE
  5
43
  8
IMPORT_-_TVSTAND_BACK
 66
     1
 10
0.0
 20
0.0
 30
0.0
 70
     1
  0
VERTEX
  5
148
  8
IMPORT_-_TVSTAND_BACK
 10
829.4297989664811
 20
555.9474818636169
 30
0.0
 42
0.4142135623730951
  0
VERTEX
  5
149
  8
IMPORT_-_TVSTAND_BACK
 10
804.4297989664811
 20
580.9474818636169
 30
0.0
 42
0.4142135623730951
  0
VERTEX
  5
14A
  8
IMPORT_-_TVSTAND_BACK
 10
779.4297989664811
 20
555.9474818636169
 30
0.0
 42
0.4142135623730951
  0
VERTEX
  5
14B
  8
IMPORT_-_TVSTAND_BACK
 10
804.4297989664811
 20
530.9474818636169
 30
0.0
 42
0.4142135623730951
  0
SEQEND
  5
14C
  8
IMPORT_-_TVSTAND_BACK
  0
POLYLINE
  5
44
  8
IMPORT_-_TVSTAND_BACK
 66
     1
 10
0.0
 20
0.0
 30
0.0
 70
     1
  0
VERTEX
  5
14D
  8
IMPORT_-_TVSTAND_BACK
 10
742.685254380145
 20
555.9474818636169
 30
0.0
 42
0.4142135623730951
  0
VERTEX
  5
14E
  8
IMPORT_-_TVSTAND_BACK
 10
717.685254380145
 20
580.9474818636169
 30
0.0
 42
0.4142135623730951
  0
VERTEX
  5
14F
  8
IMPORT_-_TVSTAND_BACK
 10
692.685254380145
 20
555.9474818636169
 30
0.0
 42
0.4142135623730951
  0
VERTEX
  5
150
  8
IMPORT_-_TVSTAND_BACK
 10
717.685254380145
 20
530.9474818636169
 30
0.0
 42
0.4142135623730951
  0
SEQEND
  5
151
  8
IMPORT_-_TVSTAND_BACK
  0
POLYLINE
  5
45
  8
IMPORT_-_TVSTAND_BACK
 66
     1
 10
0.0
 20
0.0
 30
0.0
 70
     1
  0
VERTEX
  5
152
  8
IMPORT_-_TVSTAND_BACK
 10
914.4801958209682
 20
473.6311920179701
 30
0.0
 42
0.4142135623730951
  0
VERTEX
  5
153
  8
IMPORT_-_TVSTAND_BACK
 10
889.4801958209682
 20
498.6311920179701
 30
0.0
 42
0.4142135623730951
  0
VERTEX
  5
154
  8
IMPORT_-_TVSTAND_BACK
 10
864.4801958209682
 20
473.6311920179701
 30
0.0
 42
0.4142135623730951
  0
VERTEX
  5
155
  8
IMPORT_-_TVSTAND_BACK
 10
889.4801958209682
 20
448.6311920179701
 30
0.0
 42
0.4142135623730951
  0
SEQEND
  5
156
  8
IMPORT_-_TVSTAND_BACK
  0
POLYLINE
  5
46
  8
IMPORT_-_TVSTAND_BACK
 66
     1
 10
0.0
 20
0.0
 30
0.0
 70
     1
  0
VERTEX
  5
157
  8
IMPORT_-_TVSTAND_BACK
 10
2318.748418807766
 20
383.5290828552793
 30
0.0
 42
0.4142135623730951
  0
VERTEX
  5
158
  8
IMPORT_-_TVSTAND_BACK
 10
2293.248418807767
 20
358.0290828552793
 30
0.0
 42
0.4142135623730951
  0
VERTEX
  5
159
  8
IMPORT_-_TVSTAND_BACK
 10
2318.748418807766
 20
332.5290828552793
 30
0.0
 42
0.4142135623730951
  0
VERTEX
  5
15A
  8
IMPORT_-_TVSTAND_BACK
 10
2344.248418807766
 20
358.0290828552793
 30
0.0
 42
0.4142135623730951
  0
SEQEND
  5
15B
  8
IMPORT_-_TVSTAND_BACK
  0
POLYLINE
  5
47
  8
IMPORT_-_TVSTAND_BACK
 66
     1
 10
0.0
 20
0.0
 30
0.0
 70
     1
  0
VERTEX
  5
15C
  8
IMPORT_-_TVSTAND_BACK
 10
2318.748418807766
 20
54.52975318220403
 30
0.0
 42
-0.4142135623730951
  0
VERTEX
  5
15D
  8
IMPORT_-_TVSTAND_BACK
 10
2293.248418807767
 20
80.02975318220392
 30
0.0
 42
-0.4142135623730951
  0
VERTEX
  5
15E
  8
IMPORT_-_TVSTAND_BACK
 10
2318.748418807766
 20
105.5297531822038
 30
0.0
 42
-0.4142135623730951
  0
VERTEX
  5
15F
  8
IMPORT_-_TVSTAND_BACK
 10
2344.248418807766
 20
80.02975318220392
 30
0.0
 42
-0.4142135623730951
  0
SEQEND
  5
160
  8
IMPORT_-_TVSTAND_BACK
  0
POLYLINE
  5
48
  8
IMPORT_-_TVSTAND_BACK
 66
     1
 10
0.0
 20
0.0
 30
0.0
 70
     1
  0
VERTEX
  5
161
  8
IMPORT_-_TVSTAND_BACK
 10
608.981291946325
 20
544.4308770946103
 30
0.0
  0
VERTEX
  5
162
  8
IMPORT_-_TVSTAND_BACK
 10
601.0771080417309
 20
544.4308770946103
 30
0.0
 42
1.0
  0
VERTEX
  5
163
  8
IMPORT_-_TVSTAND_BACK
 10
596.8373038713781
 20
540.3433511942112
 30
0.0
  0
VERTEX
  5
164
  8
IMPORT_-_TVSTAND_BACK
 10
596.7751808352139
 20
538.6453215390547
 30
0.0
  0
VERTEX
  5
165
  8
IMPORT_-_TVSTAND_BACK
 10
596.2107363907694
 20
532.9303215390547
 30
0.0
  0
VERTEX
  5
166
  8
IMPORT_-_TVSTAND_BACK
 10
595.2935141685473
 20
527.2505993168326
 30
0.0
  0
VERTEX
  5
167
  8
IMPORT_-_TVSTAND_BACK
 10
593.9882363907693
 20
521.6414326501658
 30
0.0
  0
VERTEX
  5
168
  8
IMPORT_-_TVSTAND_BACK
 10
592.2949030574359
 20
516.1380993168325
 30
0.0
  0
VERTEX
  5
169
  8
IMPORT_-_TVSTAND_BACK
 10
590.2840697241027
 20
510.7405993168326
 30
0.0
  0
VERTEX
  5
16A
  8
IMPORT_-_TVSTAND_BACK
 10
587.8851808352135
 20
505.4842104279436
 30
0.0
  0
VERTEX
  5
16B
  8
IMPORT_-_TVSTAND_BACK
 10
585.168791946325
 20
500.4042104279437
 30
0.0
  0
VERTEX
  5
16C
  8
IMPORT_-_TVSTAND_BACK
 10
582.1349030574358
 20
495.5358770946103
 30
0.0
  0
VERTEX
  5
16D
  8
IMPORT_-_TVSTAND_BACK
 10
578.7835141685471
 20
490.8439326501658
 30
0.0
  0
VERTEX
  5
16E
  8
IMPORT_-_TVSTAND_BACK
 10
575.149903057436
 20
486.3989326501659
 30
0.0
  0
VERTEX
  5
16F
  8
IMPORT_-_TVSTAND_BACK
 10
571.1987919463247
 20
482.2008770946103
 30
0.0
  0
VERTEX
  5
170
  8
IMPORT_-_TVSTAND_BACK
 10
567.0007363907691
 20
478.2497659834992
 30
0.0
  0
VERTEX
  5
171
  8
IMPORT_-_TVSTAND_BACK
 10
562.5557363907692
 20
474.6161548723881
 30
0.0
  0
VERTEX
  5
172
  8
IMPORT_-_TVSTAND_BACK
 10
557.8637919463247
 20
471.2647659834992
 30
0.0
  0
VERTEX
  5
173
  8
IMPORT_-_TVSTAND_BACK
 10
552.9601808352138
 20
468.1955993168325
 30
0.0
  0
VERTEX
  5
174
  8
IMPORT_-_TVSTAND_BACK
 10
547.8801808352139
 20
465.4792104279436
 30
0.0
  0
VERTEX
  5
175
  8
IMPORT_-_TVSTAND_BACK
 10
542.6590697241024
 20
463.1155993168326
 30
0.0
  0
VERTEX
  5
176
  8
IMPORT_-_TVSTAND_BACK
 10
537.2615697241024
 20
461.1047659834992
 30
0.0
  0
VERTEX
  5
177
  8
IMPORT_-_TVSTAND_BACK
 10
531.7582363907693
 20
459.4114326501659
 30
0.0
  0
VERTEX
  5
178
  8
IMPORT_-_TVSTAND_BACK
 10
526.1490697241027
 20
458.1061548723881
 30
0.0
  0
VERTEX
  5
179
  8
IMPORT_-_TVSTAND_BACK
 10
520.4693475018806
 20
457.1536548723881
 30
0.0
  0
VERTEX
  5
17A
  8
IMPORT_-_TVSTAND_BACK
 10
514.7190697241025
 20
456.5892104279436
 30
0.0
  0
VERTEX
  5
17B
  8
IMPORT_-_TVSTAND_BACK
 10
513.0813514663798
 20
456.5389736715718
 30
0.0
 42
1.0
  0
VERTEX
  5
17C
  8
IMPORT_-_TVSTAND_BACK
 10
508.9687919463248
 20
452.2983276252747
 30
0.0
  0
VERTEX
  5
17D
  8
IMPORT_-_TVSTAND_BACK
 10
508.9687919463248
 20
444.4183770946103
 30
0.0
  0
VERTEX
  5
17E
  8
IMPORT_-_TVSTAND_BACK
 10
442.2937919463251
 20
444.4183770946103
 30
0.0
  0
VERTEX
  5
17F
  8
IMPORT_-_TVSTAND_BACK
 10
442.2937919463251
 20
452.1701808519355
 30
0.0
 42
1.0
  0
VERTEX
  5
180
  8
IMPORT_-_TVSTAND_BACK
 10
438.0511512592058
 20
456.4128215390548
 30
0.0
  0
VERTEX
  5
181
  8
IMPORT_-_TVSTAND_BACK
 10
379.8614326334441
 20
456.4128215390548
 30
0.0
 42
1.0
  0
VERTEX
  5
182
  8
IMPORT_-_TVSTAND_BACK
 10
375.6187919463248
 20
452.1701808519355
 30
0.0
  0
VERTEX
  5
183
  8
IMPORT_-_TVSTAND_BACK
 10
375.6187919463248
 20
444.4183770946103
 30
0.0
  0
VERTEX
  5
184
  8
IMPORT_-_TVSTAND_BACK
 10
308.9437919463248
 20
444.4183770946105
 30
0.0
  0
VERTEX
  5
185
  8
IMPORT_-_TVSTAND_BACK
 10
308.9437919463248
 20
452.1701808519358
 30
0.0
 42
1.0
  0
VERTEX
  5
186
  8
IMPORT_-_TVSTAND_BACK
 10
304.7011512592056
 20
456.412821539055
 30
0.0
  0
VERTEX
  5
187
  8
IMPORT_-_TVSTAND_BACK
 10
246.4761548556663
 20
456.412821539055
 30
0.0
 42
1.0
  0
VERTEX
  5
188
  8
IMPORT_-_TVSTAND_BACK
 10
242.2335141685471
 20
452.1701808519358
 30
0.0
  0
VERTEX
  5
189
  8
IMPORT_-_TVSTAND_BACK
 10
242.2335141685471
 20
444.4183770946105
 30
0.0
  0
VERTEX
  5
18A
  8
IMPORT_-_TVSTAND_BACK
 10
175.5585141685471
 20
444.4183770946105
 30
0.0
  0
VERTEX
  5
18B
  8
IMPORT_-_TVSTAND_BACK
 10
175.558514168548
 20
452.2983276252737
 30
0.0
 42
1.0
  0
VERTEX
  5
18C
  8
IMPORT_-_TVSTAND_BACK
 10
171.4459546484949
 20
456.5389736715712
 30
0.0
  0
VERTEX
  5
18D
  8
IMPORT_-_TVSTAND_BACK
 10
169.8082363907692
 20
456.5892104279438
 30
0.0
  0
VERTEX
  5
18E
  8
IMPORT_-_TVSTAND_BACK
 10
164.0932363907693
 20
457.1536548723883
 30
0.0
  0
VERTEX
  5
18F
  8
IMPORT_-_TVSTAND_BACK
 10
158.4135141685469
 20
458.1061548723883
 30
0.0
  0
VERTEX
  5
190
  8
IMPORT_-_TVSTAND_BACK
 10
152.8043475018805
 20
459.4114326501661
 30
0.0
  0
VERTEX
  5
191
  8
IMPORT_-_TVSTAND_BACK
 10
147.3010141685469
 20
461.1047659834994
 30
0.0
  0
VERTEX
  5
192
  8
IMPORT_-_TVSTAND_BACK
 10
141.9035141685471
 20
463.1155993168328
 30
0.0
  0
VERTEX
  5
193
  8
IMPORT_-_TVSTAND_BACK
 10
136.6471252796582
 20
465.4792104279439
 30
0.0
  0
VERTEX
  5
194
  8
IMPORT_-_TVSTAND_BACK
 10
131.567125279658
 20
468.1955993168328
 30
0.0
  0
VERTEX
  5
195
  8
IMPORT_-_TVSTAND_BACK
 10
126.6635141685469
 20
471.2647659834995
 30
0.0
  0
VERTEX
  5
196
  8
IMPORT_-_TVSTAND_BACK
 10
122.0068475018804
 20
474.6161548723884
 30
0.0
  0
VERTEX
  5
197
  8
IMPORT_-_TVSTAND_BACK
 10
117.5618475018804
 20
478.2497659834995
 30
0.0
  0
VERTEX
  5
198
  8
IMPORT_-_TVSTAND_BACK
 10
113.3285141685471
 20
482.2008770946106
 30
0.0
  0
VERTEX
  5
199
  8
IMPORT_-_TVSTAND_BACK
 10
109.4126808352139
 20
486.3989326501662
 30
0.0
  0
VERTEX
  5
19A
  8
IMPORT_-_TVSTAND_BACK
 10
105.7437919463247
 20
490.8439326501662
 30
0.0
  0
VERTEX
  5
19B
  8
IMPORT_-_TVSTAND_BACK
 10
102.392403057436
 20
495.5358770946107
 30
0.0
  0
VERTEX
  5
19C
  8
IMPORT_-_TVSTAND_BACK
 10
99.35851416854709
 20
500.404210427944
 30
0.0
  0
VERTEX
  5
19D
  8
IMPORT_-_TVSTAND_BACK
 10
96.64212527965807
 20
505.4842104279439
 30
0.0
  0
VERTEX
  5
19E
  8
IMPORT_-_TVSTAND_BACK
 10
94.27851416854716
 20
510.7405993168329
 30
0.0
  0
VERTEX
  5
19F
  8
IMPORT_-_TVSTAND_BACK
 10
92.23240305743592
 20
516.1380993168328
 30
0.0
  0
VERTEX
  5
1A0
  8
IMPORT_-_TVSTAND_BACK
 10
90.57434750188052
 20
521.6414326501662
 30
0.0
  0
VERTEX
  5
1A1
  8
IMPORT_-_TVSTAND_BACK
 10
89.26906972410252
 20
527.2505993168329
 30
0.0
  0
VERTEX
  5
1A2
  8
IMPORT_-_TVSTAND_BACK
 10
88.31656972410265
 20
532.9303215390551
 30
0.0
  0
VERTEX
  5
1A3
  8
IMPORT_-_TVSTAND_BACK
 10
87.75212527965819
 20
538.6453215390551
 30
0.0
  0
VERTEX
  5
1A4
  8
IMPORT_-_TVSTAND_BACK
 10
87.70114346269209
 20
540.3175251355441
 30
0.0
 42
1.0
  0
VERTEX
  5
1A5
  8
IMPORT_-_TVSTAND_BACK
 10
83.46047318255967
 20
544.4308770946107
 30
0.0
  0
VERTEX
  5
1A6
  8
IMPORT_-_TVSTAND_BACK
 10
75.58129194632485
 20
544.4308770946107
 30
0.0
  0
VERTEX
  5
1A7
  8
IMPORT_-_TVSTAND_BACK
 10
75.58129194632485
 20
656.8258770946105
 30
0.0
  0
VERTEX
  5
1A8
  8
IMPORT_-_TVSTAND_BACK
 10
83.33309570365012
 20
656.8258770946105
 30
0.0
 42
1.0
  0
VERTEX
  5
1A9
  8
IMPORT_-_TVSTAND_BACK
 10
87.57573639076936
 20
661.0685177817298
 30
0.0
  0
VERTEX
  5
1AA
  8
IMPORT_-_TVSTAND_BACK
 10
87.57573639076936
 20
764.9782364074912
 30
0.0
 42
1.0
  0
VERTEX
  5
1AB
  8
IMPORT_-_TVSTAND_BACK
 10
83.33309570365012
 20
769.2208770946105
 30
0.0
  0
VERTEX
  5
1AC
  8
IMPORT_-_TVSTAND_BACK
 10
75.58129194632485
 20
769.2208770946105
 30
0.0
  0
VERTEX
  5
1AD
  8
IMPORT_-_TVSTAND_BACK
 10
75.5812919463252
 20
881.6158770946105
 30
0.0
  0
VERTEX
  5
1AE
  8
IMPORT_-_TVSTAND_BACK
 10
83.33309570365046
 20
881.6158770946105
 30
0.0
 42
1.0
  0
VERTEX
  5
1AF
  8
IMPORT_-_TVSTAND_BACK
 10
87.5757363907697
 20
885.8585177817298
 30
0.0
  0
VERTEX
  5
1B0
  8
IMPORT_-_TVSTAND_BACK
 10
87.5757363907697
 20
989.7682364074911
 30
0.0
 42
1.0
  0
VERTEX
  5
1B1
  8
IMPORT_-_TVSTAND_BACK
 10
83.33309570365046
 20
994.0108770946105
 30
0.0
  0
VERTEX
  5
1B2
  8
IMPORT_-_TVSTAND_BACK
 10
75.5812919463252
 20
994.0108770946105
 30
0.0
  0
VERTEX
  5
1B3
  8
IMPORT_-_TVSTAND_BACK
 10
75.5812919463252
 20
1106.40587709461
 30
0.0
  0
VERTEX
  5
1B4
  8
IMPORT_-_TVSTAND_BACK
 10
83.46124247698961
 20
1106.40587709461
 30
0.0
 42
1.0
  0
VERTEX
  5
1B5
  8
IMPORT_-_TVSTAND_BACK
 10
87.70188852328668
 20
1110.518436614665
 30
0.0
  0
VERTEX
  5
1B6
  8
IMPORT_-_TVSTAND_BACK
 10
87.75212527965853
 20
1112.156154872388
 30
0.0
  0
VERTEX
  5
1B7
  8
IMPORT_-_TVSTAND_BACK
 10
88.31656972410299
 20
1117.906432650166
 30
0.0
  0
VERTEX
  5
1B8
  8
IMPORT_-_TVSTAND_BACK
 10
89.26906972410286
 20
1123.586154872388
 30
0.0
  0
VERTEX
  5
1B9
  8
IMPORT_-_TVSTAND_BACK
 10
90.57434750188087
 20
1129.195321539055
 30
0.0
  0
VERTEX
  5
1BA
  8
IMPORT_-_TVSTAND_BACK
 10
92.23240305743626
 20
1134.698654872388
 30
0.0
  0
VERTEX
  5
1BB
  8
IMPORT_-_TVSTAND_BACK
 10
94.2785141685475
 20
1140.096154872388
 30
0.0
  0
VERTEX
  5
1BC
  8
IMPORT_-_TVSTAND_BACK
 10
96.64212527965842
 20
1145.352543761277
 30
0.0
  0
VERTEX
  5
1BD
  8
IMPORT_-_TVSTAND_BACK
 10
99.35851416854743
 20
1150.432543761277
 30
0.0
  0
VERTEX
  5
1BE
  8
IMPORT_-_TVSTAND_BACK
 10
102.3924030574363
 20
1155.30087709461
 30
0.0
  0
VERTEX
  5
1BF
  8
IMPORT_-_TVSTAND_BACK
 10
105.7437919463251
 20
1159.992821539055
 30
0.0
  0
VERTEX
  5
1C0
  8
IMPORT_-_TVSTAND_BACK
 10
109.4126808352142
 20
1164.437821539055
 30
0.0
  0
VERTEX
  5
1C1
  8
IMPORT_-_TVSTAND_BACK
 10
113.3285141685474
 20
1168.63587709461
 30
0.0
  0
VERTEX
  5
1C2
  8
IMPORT_-_TVSTAND_BACK
 10
117.5618475018808
 20
1172.586988205721
 30
0.0
  0
VERTEX
  5
1C3
  8
IMPORT_-_TVSTAND_BACK
 10
122.0068475018807
 20
1176.220599316833
 30
0.0
  0
VERTEX
  5
1C4
  8
IMPORT_-_TVSTAND_BACK
 10
126.6635141685473
 20
1179.571988205721
 30
0.0
  0
VERTEX
  5
1C5
  8
IMPORT_-_TVSTAND_BACK
 10
131.5671252796584
 20
1182.641154872388
 30
0.0
  0
VERTEX
  5
1C6
  8
IMPORT_-_TVSTAND_BACK
 10
136.6471252796585
 20
1185.357543761277
 30
0.0
  0
VERTEX
  5
1C7
  8
IMPORT_-_TVSTAND_BACK
 10
141.9035141685475
 20
1187.721154872388
 30
0.0
  0
VERTEX
  5
1C8
  8
IMPORT_-_TVSTAND_BACK
 10
147.3010141685473
 20
1189.731988205721
 30
0.0
  0
VERTEX
  5
1C9
  8
IMPORT_-_TVSTAND_BACK
 10
152.8043475018808
 20
1191.425321539055
 30
0.0
  0
VERTEX
  5
1CA
  8
IMPORT_-_TVSTAND_BACK
 10
158.4135141685472
 20
1192.730599316832
 30
0.0
  0
VERTEX
  5
1CB
  8
IMPORT_-_TVSTAND_BACK
 10
164.0932363907696
 20
1193.647821539055
 30
0.0
  0
VERTEX
  5
1CC
  8
IMPORT_-_TVSTAND_BACK
 10
169.8082363907695
 20
1194.212265983499
 30
0.0
  0
VERTEX
  5
1CD
  8
IMPORT_-_TVSTAND_BACK
 10
171.4719386088568
 20
1194.273506555944
 30
0.0
 42
1.0
  0
VERTEX
  5
1CE
  8
IMPORT_-_TVSTAND_BACK
 10
175.5585141685474
 20
1198.513275851083
 30
0.0
  0
VERTEX
  5
1CF
  8
IMPORT_-_TVSTAND_BACK
 10
175.5585141685474
 20
1206.41837709461
 30
0.0
  0
VERTEX
  5
1D0
  8
IMPORT_-_TVSTAND_BACK
 10
242.2335141685476
 20
1206.41837709461
 30
0.0
  0
VERTEX
  5
1D1
  8
IMPORT_-_TVSTAND_BACK
 10
242.2335141685476
 20
1198.666573337285
 30
0.0
 42
1.0
  0
VERTEX
  5
1D2
  8
IMPORT_-_TVSTAND_BACK
 10
246.4761548556669
 20
1194.423932650166
 30
0.0
  0
VERTEX
  5
1D3
  8
IMPORT_-_TVSTAND_BACK
 10
304.7011512592061
 20
1194.423932650166
 30
0.0
 42
1.0
  0
VERTEX
  5
1D4
  8
IMPORT_-_TVSTAND_BACK
 10
308.9437919463254
 20
1198.666573337285
 30
0.0
  0
VERTEX
  5
1D5
  8
IMPORT_-_TVSTAND_BACK
 10
308.9437919463254
 20
1206.41837709461
 30
0.0
  0
VERTEX
  5
1D6
  8
IMPORT_-_TVSTAND_BACK
 10
375.6187919463254
 20
1206.41837709461
 30
0.0
  0
VERTEX
  5
1D7
  8
IMPORT_-_TVSTAND_BACK
 10
375.6187919463254
 20
1198.666573337285
 30
0.0
 42
1.0
  0
VERTEX
  5
1D8
  8
IMPORT_-_TVSTAND_BACK
 10
379.8614326334446
 20
1194.423932650166
 30
0.0
  0
VERTEX
  5
1D9
  8
IMPORT_-_TVSTAND_BACK
 10
438.051151259206
 20
1194.423932650166
 30
0.0
 42
1.0
  0
VERTEX
  5
1DA
  8
IMPORT_-_TVSTAND_BACK
 10
442.2937919463253
 20
1198.666573337285
 30
0.0
  0
VERTEX
  5
1DB
  8
IMPORT_-_TVSTAND_BACK
 10
442.2937919463253
 20
1206.41837709461
 30
0.0
  0
VERTEX
  5
1DC
  8
IMPORT_-_TVSTAND_BACK
 10
508.9687919463253
 20
1206.41837709461
 30
0.0
  0
VERTEX
  5
1DD
  8
IMPORT_-_TVSTAND_BACK
 10
508.9687919463253
 20
1198.513275851083
 30
0.0
 42
1.0
  0
VERTEX
  5
1DE
  8
IMPORT_-_TVSTAND_BACK
 10
513.0553675060158
 20
1194.273506555944
 30
0.0
  0
VERTEX
  5
1DF
  8
IMPORT_-_TVSTAND_BACK
 10
514.7190697241032
 20
1194.212265983499
 30
0.0
  0
VERTEX
  5
1E0
  8
IMPORT_-_TVSTAND_BACK
 10
520.4693475018809
 20
1193.647821539055
 30
0.0
  0
VERTEX
  5
1E1
  8
IMPORT_-_TVSTAND_BACK
 10
526.1490697241029
 20
1192.730599316832
 30
0.0
  0
VERTEX
  5
1E2
  8
IMPORT_-_TVSTAND_BACK
 10
531.7582363907695
 20
1191.425321539055
 30
0.0
  0
VERTEX
  5
1E3
  8
IMPORT_-_TVSTAND_BACK
 10
537.2615697241029
 20
1189.731988205721
 30
0.0
  0
VERTEX
  5
1E4
  8
IMPORT_-_TVSTAND_BACK
 10
542.6590697241031
 20
1187.721154872388
 30
0.0
  0
VERTEX
  5
1E5
  8
IMPORT_-_TVSTAND_BACK
 10
547.8801808352141
 20
1185.357543761277
 30
0.0
  0
VERTEX
  5
1E6
  8
IMPORT_-_TVSTAND_BACK
 10
552.960180835214
 20
1182.641154872388
 30
0.0
  0
VERTEX
  5
1E7
  8
IMPORT_-_TVSTAND_BACK
 10
557.8637919463251
 20
1179.571988205721
 30
0.0
  0
VERTEX
  5
1E8
  8
IMPORT_-_TVSTAND_BACK
 10
562.5557363907697
 20
1176.220599316833
 30
0.0
  0
VERTEX
  5
1E9
  8
IMPORT_-_TVSTAND_BACK
 10
567.0007363907696
 20
1172.586988205721
 30
0.0
  0
VERTEX
  5
1EA
  8
IMPORT_-_TVSTAND_BACK
 10
571.1987919463252
 20
1168.63587709461
 30
0.0
  0
VERTEX
  5
1EB
  8
IMPORT_-_TVSTAND_BACK
 10
575.1499030574364
 20
1164.437821539055
 30
0.0
  0
VERTEX
  5
1EC
  8
IMPORT_-_TVSTAND_BACK
 10
578.7835141685473
 20
1159.992821539055
 30
0.0
  0
VERTEX
  5
1ED
  8
IMPORT_-_TVSTAND_BACK
 10
582.1349030574363
 20
1155.30087709461
 30
0.0
  0
VERTEX
  5
1EE
  8
IMPORT_-_TVSTAND_BACK
 10
585.1687919463252
 20
1150.432543761277
 30
0.0
  0
VERTEX
  5
1EF
  8
IMPORT_-_TVSTAND_BACK
 10
587.885180835214
 20
1145.352543761277
 30
0.0
  0
VERTEX
  5
1F0
  8
IMPORT_-_TVSTAND_BACK
 10
590.2840697241031
 20
1140.096154872388
 30
0.0
  0
VERTEX
  5
1F1
  8
IMPORT_-_TVSTAND_BACK
 10
592.2949030574364
 20
1134.698654872388
 30
0.0
  0
VERTEX
  5
1F2
  8
IMPORT_-_TVSTAND_BACK
 10
593.9882363907695
 20
1129.195321539055
 30
0.0
  0
VERTEX
  5
1F3
  8
IMPORT_-_TVSTAND_BACK
 10
595.2935141685475
 20
1123.586154872388
 30
0.0
  0
VERTEX
  5
1F4
  8
IMPORT_-_TVSTAND_BACK
 10
596.2107363907696
 20
1117.906432650166
 30
0.0
  0
VERTEX
  5
1F5
  8
IMPORT_-_TVSTAND_BACK
 10
596.7751808352141
 20
1112.156154872388
 30
0.0
  0
VERTEX
  5
1F6
  8
IMPORT_-_TVSTAND_BACK
 10
596.836421407659
 20
1110.492452654301
 30
0.0
 42
1.0
  0
VERTEX
  5
1F7
  8
IMPORT_-_TVSTAND_BACK
 10
601.0761907027977
 20
1106.40587709461
 30
0.0
  0
VERTEX
  5
1F8
  8
IMPORT_-_TVSTAND_BACK
 10
608.9812919463252
 20
1106.40587709461
 30
0.0
  0
VERTEX
  5
1F9
  8
IMPORT_-_TVSTAND_BACK
 10
608.981291946325
 20
994.0108770946105
 30
0.0
  0
VERTEX
  5
1FA
  8
IMPORT_-_TVSTAND_BACK
 10
601.2294881889998
 20
994.0108770946105
 30
0.0
 42
1.0
  0
VERTEX
  5
1FB
  8
IMPORT_-_TVSTAND_BACK
 10
596.9868475018804
 20
989.7682364074911
 30
0.0
  0
VERTEX
  5
1FC
  8
IMPORT_-_TVSTAND_BACK
 10
596.9868475018804
 20
885.8585177817296
 30
0.0
 42
1.0
  0
VERTEX
  5
1FD
  8
IMPORT_-_TVSTAND_BACK
 10
601.2294881889998
 20
881.6158770946103
 30
0.0
  0
VERTEX
  5
1FE
  8
IMPORT_-_TVSTAND_BACK
 10
608.981291946325
 20
881.6158770946103
 30
0.0
  0
VERTEX
  5
1FF
  8
IMPORT_-_TVSTAND_BACK
 10
608.981291946325
 20
769.2208770946103
 30
0.0
  0
VERTEX
  5
200
  8
IMPORT_-_TVSTAND_BACK
 10
601.2294881889998
 20
769.2208770946103
 30
0.0
 42
1.0
  0
VERTEX
  5
201
  8
IMPORT_-_TVSTAND_BACK
 10
596.9868475018804
 20
764.978236407491
 30
0.0
  0
VERTEX
  5
202
  8
IMPORT_-_TVSTAND_BACK
 10
596.9868475018804
 20
661.0685177817296
 30
0.0
 42
1.0
  0
VERTEX
  5
203
  8
IMPORT_-_TVSTAND_BACK
 10
601.2294881889998
 20
656.8258770946103
 30
0.0
  0
VERTEX
  5
204
  8
IMPORT_-_TVSTAND_BACK
 10
608.981291946325
 20
656.8258770946103
 30
0.0
  0
SEQEND
  5
205
  8
IMPORT_-_TVSTAND_BACK
  0
POLYLINE
  5
49
  8
IMPORT_-_TVSTAND_BACK
 66
     1
 10
0.0
 20
0.0
 30
0.0
  0
VERTEX
  5
206
  8
IMPORT_-_TVSTAND_BACK
 10
2109.889827213343
 20
397.551036766019
 30
0.0
  0
VERTEX
  5
207
  8
IMPORT_-_TVSTAND_BACK
 10
2109.889827213343
 20
409.5125724808111
 30
0.0
  0
SEQEND
  5
208
  8
IMPORT_-_TVSTAND_BACK
  0
POLYLINE
  5
4A
  8
IMPORT_-_TVSTAND_BACK
 66
     1
 10
0.0
 20
0.0
 30
0.0
 70
     1
  0
VERTEX
  5
209
  8
IMPORT_-_TVSTAND_BACK
 10
358.2479774770946
 20
54.52975318220398
 30
0.0
 42
-0.4142135623730951
  0
VERTEX
  5
20A
  8
IMPORT_-_TVSTAND_BACK
 10
332.7479774770955
 20
80.02975318220386
 30
0.0
 42
-0.4142135623730951
  0
VERTEX
  5
20B
  8
IMPORT_-_TVSTAND_BACK
 10
358.2479774770946
 20
105.5297531822037
 30
0.0
 42
-0.4142135623730951
  0
VERTEX
  5
20C
  8
IMPORT_-_TVSTAND_BACK
 10
383.7479774770936
 20
80.02975318220386
 30
0.0
 42
-0.4142135623730951
  0
SEQEND
  5
20D
  8
IMPORT_-_TVSTAND_BACK
  0
POLYLINE
  5
4B
  8
IMPORT_-_TVSTAND_BACK
 66
     1
 10
0.0
 20
0.0
 30
0.0
 70
     1
  0
VERTEX
  5
20E
  8
IMPORT_-_TVSTAND_BACK
 10
752.2189711306045
 20
942.3117959979926
 30
0.0
  0
VERTEX
  5
20F
  8
IMPORT_-_TVSTAND_BACK
 10
752.2189711306045
 20
1010.526514623754
 30
0.0
 42
1.0
  0
VERTEX
  5
210
  8
IMPORT_-_TVSTAND_BACK
 10
747.9763304434853
 20
1014.769155310873
 30
0.0
  0
VERTEX
  5
211
  8
IMPORT_-_TVSTAND_BACK
 10
743.9616118177238
 20
1014.769155310873
 30
0.0
 42
1.0
  0
VERTEX
  5
212
  8
IMPORT_-_TVSTAND_BACK
 10
739.7189711306045
 20
1010.526514623754
 30
0.0
  0
VERTEX
  5
213
  8
IMPORT_-_TVSTAND_BACK
 10
739.7189711306045
 20
942.3117959979926
 30
0.0
 42
1.0
  0
VERTEX
  5
214
  8
IMPORT_-_TVSTAND_BACK
 10
743.9616118177238
 20
938.0691553108733
 30
0.0
  0
VERTEX
  5
215
  8
IMPORT_-_TVSTAND_BACK
 10
747.9763304434853
 20
938.0691553108733
 30
0.0
 42
1.0
  0
SEQEND
  5
216
  8
IMPORT_-_TVSTAND_BACK
  0
POLYLINE
  5
4C
  8
IMPORT_-_TVSTAND_BACK
 66
     1
 10
0.0
 20
0.0
 30
0.0
 70
     1
  0
VERTEX
  5
217
  8
IMPORT_-_TVSTAND_BACK
 10
752.2189711306045
 20
1094.711795997993
 30
0.0
  0
VERTEX
  5
218
  8
IMPORT_-_TVSTAND_BACK
 10
752.2189711306045
 20
1162.926514623754
 30
0.0
 42
1.0
  0
VERTEX
  5
219
  8
IMPORT_-_TVSTAND_BACK
 10
747.9763304434853
 20
1167.169155310873
 30
0.0
  0
VERTEX
  5
21A
  8
IMPORT_-_TVSTAND_BACK
 10
743.9616118177238
 20
1167.169155310873
 30
0.0
 42
1.0
  0
VERTEX
  5
21B
  8
IMPORT_-_TVSTAND_BACK
 10
739.7189711306045
 20
1162.926514623754
 30
0.0
  0
VERTEX
  5
21C
  8
IMPORT_-_TVSTAND_BACK
 10
739.7189711306045
 20
1094.711795997993
 30
0.0
 42
1.0
  0
VERTEX
  5
21D
  8
IMPORT_-_TVSTAND_BACK
 10
743.9616118177238
 20
1090.469155310873
 30
0.0
  0
VERTEX
  5
21E
  8
IMPORT_-_TVSTAND_BACK
 10
747.9763304434853
 20
1090.469155310873
 30
0.0
 42
1.0
  0
SEQEND
  5
21F
  8
IMPORT_-_TVSTAND_BACK
  0
POLYLINE
  5
4D
  8
IMPORT_-_TVSTAND_BACK
 66
     1
 10
0.0
 20
0.0
 30
0.0
 70
     1
  0
VERTEX
  5
220
  8
IMPORT_-_TVSTAND_BACK
 10
841.7189711306047
 20
1162.926514623754
 30
0.0
  0
VERTEX
  5
221
  8
IMPORT_-_TVSTAND_BACK
 10
841.7189711306047
 20
1094.711795997993
 30
0.0
 42
1.0
  0
VERTEX
  5
222
  8
IMPORT_-_TVSTAND_BACK
 10
845.9616118177239
 20
1090.469155310873
 30
0.0
  0
VERTEX
  5
223
  8
IMPORT_-_TVSTAND_BACK
 10
849.9763304434854
 20
1090.469155310873
 30
0.0
 42
1.0
  0
VERTEX
  5
224
  8
IMPORT_-_TVSTAND_BACK
 10
854.2189711306046
 20
1094.711795997993
 30
0.0
  0
VERTEX
  5
225
  8
IMPORT_-_TVSTAND_BACK
 10
854.2189711306047
 20
1162.926514623754
 30
0.0
 42
1.0
  0
VERTEX
  5
226
  8
IMPORT_-_TVSTAND_BACK
 10
849.9763304434854
 20
1167.169155310873
 30
0.0
  0
VERTEX
  5
227
  8
IMPORT_-_TVSTAND_BACK
 10
845.961611817724
 20
1167.169155310873
 30
0.0
 42
1.0
  0
SEQEND
  5
228
  8
IMPORT_-_TVSTAND_BACK
  0
POLYLINE
  5
4E
  8
IMPORT_-_TVSTAND_BACK
 66
     1
 10
0.0
 20
0.0
 30
0.0
 70
     1
  0
VERTEX
  5
229
  8
IMPORT_-_TVSTAND_BACK
 10
841.7189711306047
 20
1010.526514623754
 30
0.0
  0
VERTEX
  5
22A
  8
IMPORT_-_TVSTAND_BACK
 10
841.7189711306047
 20
942.3117959979926
 30
0.0
 42
1.0
  0
VERTEX
  5
22B
  8
IMPORT_-_TVSTAND_BACK
 10
845.9616118177239
 20
938.0691553108733
 30
0.0
  0
VERTEX
  5
22C
  8
IMPORT_-_TVSTAND_BACK
 10
849.9763304434854
 20
938.0691553108733
 30
0.0
 42
1.0
  0
VERTEX
  5
22D
  8
IMPORT_-_TVSTAND_BACK
 10
854.2189711306047
 20
942.3117959979926
 30
0.0
  0
VERTEX
  5
22E
  8
IMPORT_-_TVSTAND_BACK
 10
854.2189711306047
 20
1010.526514623754
 30
0.0
 42
1.0
  0
VERTEX
  5
22F
  8
IMPORT_-_TVSTAND_BACK
 10
849.9763304434854
 20
1014.769155310873
 30
0.0
  0
VERTEX
  5
230
  8
IMPORT_-_TVSTAND_BACK
 10
845.9616118177239
 20
1014.769155310873
 30
0.0
 42
1.0
  0
SEQEND
  5
231
  8
IMPORT_-_TVSTAND_BACK
  0
POLYLINE
  5
4F
  8
IMPORT_-_TVSTAND_BACK
 66
     1
 10
0.0
 20
0.0
 30
0.0
 70
     1
  0
VERTEX
  5
232
  8
IMPORT_-_TVSTAND_BACK
 10
711.6855767585862
 20
960.0467748193307
 30
0.0
 42
0.4142135623730951
  0
VERTEX
  5
233
  8
IMPORT_-_TVSTAND_BACK
 10
741.6855767585862
 20
930.0467748193307
 30
0.0
  0
VERTEX
  5
234
  8
IMPORT_-_TVSTAND_BACK
 10
852.2523655026208
 20
930.0467748193307
 30
0.0
 42
0.4142135623730951
  0
VERTEX
  5
235
  8
IMPORT_-_TVSTAND_BACK
 10
882.2523655026208
 20
960.0467748193307
 30
0.0
  0
VERTEX
  5
236
  8
IMPORT_-_TVSTAND_BACK
 10
882.2523655026208
 20
1145.191535802415
 30
0.0
 42
0.4142135623730951
  0
VERTEX
  5
237
  8
IMPORT_-_TVSTAND_BACK
 10
852.2523655026208
 20
1175.191535802415
 30
0.0
  0
VERTEX
  5
238
  8
IMPORT_-_TVSTAND_BACK
 10
741.6855767585862
 20
1175.191535802415
 30
0.0
 42
0.4142135623730951
  0
VERTEX
  5
239
  8
IMPORT_-_TVSTAND_BACK
 10
711.6855767585862
 20
1145.191535802415
 30
0.0
  0
SEQEND
  5
23A
  8
IMPORT_-_TVSTAND_BACK
  0
POLYLINE
  5
50
  8
IMPORT_-_TVSTAND_BACK
 66
     1
 10
0.0
 20
0.0
 30
0.0
 70
     1
  0
VERTEX
  5
23B
  8
IMPORT_-_TVSTAND_BACK
 10
790.9689711306034
 20
963.5151596450107
 30
0.0
  0
VERTEX
  5
23C
  8
IMPORT_-_TVSTAND_BACK
 10
790.9736739091109
 20
963.0005607483431
 30
0.0
  0
VERTEX
  5
23D
  8
IMPORT_-_TVSTAND_BACK
 10
790.9876308532272
 20
962.4927172923592
 30
0.0
  0
VERTEX
  5
23E
  8
IMPORT_-_TVSTAND_BACK
 10
791.0106148758432
 20
961.9922575959661
 30
0.0
  0
VERTEX
  5
23F
  8
IMPORT_-_TVSTAND_BACK
 10
791.0423988898498
 20
961.4998099780713
 30
0.0
  0
VERTEX
  5
240
  8
IMPORT_-_TVSTAND_BACK
 10
791.0827558081378
 20
961.0160027575821
 30
0.0
  0
VERTEX
  5
241
  8
IMPORT_-_TVSTAND_BACK
 10
791.1314585435985
 20
960.5414642534056
 30
0.0
  0
VERTEX
  5
242
  8
IMPORT_-_TVSTAND_BACK
 10
791.1882800091223
 20
960.0768227844492
 30
0.0
  0
VERTEX
  5
243
  8
IMPORT_-_TVSTAND_BACK
 10
791.2529931176001
 20
959.6227066696201
 30
0.0
  0
VERTEX
  5
244
  8
IMPORT_-_TVSTAND_BACK
 10
791.3253707819231
 20
959.1797442278257
 30
0.0
  0
VERTEX
  5
245
  8
IMPORT_-_TVSTAND_BACK
 10
791.4051859149822
 20
958.7485637779733
 30
0.0
  0
VERTEX
  5
246
  8
IMPORT_-_TVSTAND_BACK
 10
791.492211429668
 20
958.3297936389702
 30
0.0
  0
VERTEX
  5
247
  8
IMPORT_-_TVSTAND_BACK
 10
791.5862202388716
 20
957.9240621297233
 30
0.0
  0
VERTEX
  5
248
  8
IMPORT_-_TVSTAND_BACK
 10
791.6869852554839
 20
957.5319975691403
 30
0.0
  0
VERTEX
  5
249
  8
IMPORT_-_TVSTAND_BACK
 10
791.7942793923958
 20
957.1542282761285
 30
0.0
  0
VERTEX
  5
24A
  8
IMPORT_-_TVSTAND_BACK
 10
791.907875562498
 20
956.7913825695949
 30
0.0
  0
VERTEX
  5
24B
  8
IMPORT_-_TVSTAND_BACK
 10
792.0275466786816
 20
956.444088768447
 30
0.0
  0
VERTEX
  5
24C
  8
IMPORT_-_TVSTAND_BACK
 10
792.1530656538374
 20
956.1129751915921
 30
0.0
  0
VERTEX
  5
24D
  8
IMPORT_-_TVSTAND_BACK
 10
792.2842054008563
 20
955.7986701579374
 30
0.0
  0
VERTEX
  5
24E
  8
IMPORT_-_TVSTAND_BACK
 10
792.4207388326292
 20
955.5018019863901
 30
0.0
  0
VERTEX
  5
24F
  8
IMPORT_-_TVSTAND_BACK
 10
792.5624388620471
 20
955.2229989958578
 30
0.0
  0
VERTEX
  5
250
  8
IMPORT_-_TVSTAND_BACK
 10
792.7090784020007
 20
954.9628895052474
 30
0.0
  0
VERTEX
  5
251
  8
IMPORT_-_TVSTAND_BACK
 10
792.860430365381
 20
954.7221018334664
 30
0.0
  0
VERTEX
  5
252
  8
IMPORT_-_TVSTAND_BACK
 10
793.0162676650789
 20
954.501264299422
 30
0.0
  0
VERTEX
  5
253
  8
IMPORT_-_TVSTAND_BACK
 10
793.1763632139853
 20
954.3010052220216
 30
0.0
  0
VERTEX
  5
254
  8
IMPORT_-_TVSTAND_BACK
 10
793.340489924991
 20
954.1219529201722
 30
0.0
  0
VERTEX
  5
255
  8
IMPORT_-_TVSTAND_BACK
 10
793.508420710987
 20
953.9647357127815
 30
0.0
  0
VERTEX
  5
256
  8
IMPORT_-_TVSTAND_BACK
 10
793.6799284848641
 20
953.8299819187566
 30
0.0
  0
VERTEX
  5
257
  8
IMPORT_-_TVSTAND_BACK
 10
793.8547861595134
 20
953.7183198570046
 30
0.0
  0
VERTEX
  5
258
  8
IMPORT_-_TVSTAND_BACK
 10
794.0327666478256
 20
953.630377846433
 30
0.0
  0
VERTEX
  5
259
  8
IMPORT_-_TVSTAND_BACK
 10
794.2136428626916
 20
953.566784205949
 30
0.0
  0
VERTEX
  5
25A
  8
IMPORT_-_TVSTAND_BACK
 10
794.3971877170023
 20
953.52816725446
 30
0.0
  0
VERTEX
  5
25B
  8
IMPORT_-_TVSTAND_BACK
 10
794.5831741236486
 20
953.5151553108731
 30
0.0
  0
VERTEX
  5
25C
  8
IMPORT_-_TVSTAND_BACK
 10
799.3547681375583
 20
953.5151553108731
 30
0.0
  0
VERTEX
  5
25D
  8
IMPORT_-_TVSTAND_BACK
 10
799.5407545442046
 20
953.52816725446
 30
0.0
  0
VERTEX
  5
25E
  8
IMPORT_-_TVSTAND_BACK
 10
799.7242993985153
 20
953.566784205949
 30
0.0
  0
VERTEX
  5
25F
  8
IMPORT_-_TVSTAND_BACK
 10
799.9051756133813
 20
953.630377846433
 30
0.0
  0
VERTEX
  5
260
  8
IMPORT_-_TVSTAND_BACK
 10
800.0831561016935
 20
953.7183198570046
 30
0.0
  0
VERTEX
  5
261
  8
IMPORT_-_TVSTAND_BACK
 10
800.2580137763428
 20
953.8299819187566
 30
0.0
  0
VERTEX
  5
262
  8
IMPORT_-_TVSTAND_BACK
 10
800.4295215502199
 20
953.9647357127815
 30
0.0
  0
VERTEX
  5
263
  8
IMPORT_-_TVSTAND_BACK
 10
800.597452336216
 20
954.1219529201722
 30
0.0
  0
VERTEX
  5
264
  8
IMPORT_-_TVSTAND_BACK
 10
800.7615790472216
 20
954.3010052220216
 30
0.0
  0
VERTEX
  5
265
  8
IMPORT_-_TVSTAND_BACK
 10
800.921674596128
 20
954.501264299422
 30
0.0
  0
VERTEX
  5
266
  8
IMPORT_-_TVSTAND_BACK
 10
801.0775118958259
 20
954.7221018334664
 30
0.0
  0
VERTEX
  5
267
  8
IMPORT_-_TVSTAND_BACK
 10
801.2288638592062
 20
954.9628895052474
 30
0.0
  0
VERTEX
  5
268
  8
IMPORT_-_TVSTAND_BACK
 10
801.3755033991598
 20
955.2229989958578
 30
0.0
  0
VERTEX
  5
269
  8
IMPORT_-_TVSTAND_BACK
 10
801.5172034285777
 20
955.5018019863901
 30
0.0
  0
VERTEX
  5
26A
  8
IMPORT_-_TVSTAND_BACK
 10
801.6537368603506
 20
955.7986701579374
 30
0.0
  0
VERTEX
  5
26B
  8
IMPORT_-_TVSTAND_BACK
 10
801.7848766073695
 20
956.1129751915921
 30
0.0
  0
VERTEX
  5
26C
  8
IMPORT_-_TVSTAND_BACK
 10
801.9103955825253
 20
956.444088768447
 30
0.0
  0
VERTEX
  5
26D
  8
IMPORT_-_TVSTAND_BACK
 10
802.0300666987089
 20
956.7913825695949
 30
0.0
  0
VERTEX
  5
26E
  8
IMPORT_-_TVSTAND_BACK
 10
802.1436628688111
 20
957.1542282761285
 30
0.0
  0
VERTEX
  5
26F
  8
IMPORT_-_TVSTAND_BACK
 10
802.250957005723
 20
957.5319975691403
 30
0.0
  0
VERTEX
  5
270
  8
IMPORT_-_TVSTAND_BACK
 10
802.3517220223353
 20
957.9240621297233
 30
0.0
  0
VERTEX
  5
271
  8
IMPORT_-_TVSTAND_BACK
 10
802.4457308315389
 20
958.3297936389702
 30
0.0
  0
VERTEX
  5
272
  8
IMPORT_-_TVSTAND_BACK
 10
802.5327563462247
 20
958.7485637779733
 30
0.0
  0
VERTEX
  5
273
  8
IMPORT_-_TVSTAND_BACK
 10
802.6125714792838
 20
959.1797442278257
 30
0.0
  0
VERTEX
  5
274
  8
IMPORT_-_TVSTAND_BACK
 10
802.6849491436068
 20
959.6227066696201
 30
0.0
  0
VERTEX
  5
275
  8
IMPORT_-_TVSTAND_BACK
 10
802.7496622520846
 20
960.0768227844492
 30
0.0
  0
VERTEX
  5
276
  8
IMPORT_-_TVSTAND_BACK
 10
802.8064837176084
 20
960.5414642534056
 30
0.0
  0
VERTEX
  5
277
  8
IMPORT_-_TVSTAND_BACK
 10
802.8551864530691
 20
961.0160027575821
 30
0.0
  0
VERTEX
  5
278
  8
IMPORT_-_TVSTAND_BACK
 10
802.8955433713571
 20
961.4998099780713
 30
0.0
  0
VERTEX
  5
279
  8
IMPORT_-_TVSTAND_BACK
 10
802.9273273853637
 20
961.9922575959661
 30
0.0
  0
VERTEX
  5
27A
  8
IMPORT_-_TVSTAND_BACK
 10
802.9503114079797
 20
962.4927172923592
 30
0.0
  0
VERTEX
  5
27B
  8
IMPORT_-_TVSTAND_BACK
 10
802.964268352096
 20
963.0005607483431
 30
0.0
  0
VERTEX
  5
27C
  8
IMPORT_-_TVSTAND_BACK
 10
802.9689711306034
 20
963.5151596450107
 30
0.0
  0
VERTEX
  5
27D
  8
IMPORT_-_TVSTAND_BACK
 10
802.9689711306034
 20
1141.723150976735
 30
0.0
  0
VERTEX
  5
27E
  8
IMPORT_-_TVSTAND_BACK
 10
802.964268352096
 20
1142.237749873403
 30
0.0
  0
VERTEX
  5
27F
  8
IMPORT_-_TVSTAND_BACK
 10
802.9503114079797
 20
1142.745593329387
 30
0.0
  0
VERTEX
  5
280
  8
IMPORT_-_TVSTAND_BACK
 10
802.9273273853637
 20
1143.24605302578
 30
0.0
  0
VERTEX
  5
281
  8
IMPORT_-_TVSTAND_BACK
 10
802.8955433713571
 20
1143.738500643675
 30
0.0
  0
VERTEX
  5
282
  8
IMPORT_-_TVSTAND_BACK
 10
802.8551864530691
 20
1144.222307864164
 30
0.0
  0
VERTEX
  5
283
  8
IMPORT_-_TVSTAND_BACK
 10
802.8064837176084
 20
1144.696846368341
 30
0.0
  0
VERTEX
  5
284
  8
IMPORT_-_TVSTAND_BACK
 10
802.7496622520846
 20
1145.161487837297
 30
0.0
  0
VERTEX
  5
285
  8
IMPORT_-_TVSTAND_BACK
 10
802.6849491436068
 20
1145.615603952126
 30
0.0
  0
VERTEX
  5
286
  8
IMPORT_-_TVSTAND_BACK
 10
802.6125714792838
 20
1146.058566393921
 30
0.0
  0
VERTEX
  5
287
  8
IMPORT_-_TVSTAND_BACK
 10
802.5327563462247
 20
1146.489746843773
 30
0.0
  0
VERTEX
  5
288
  8
IMPORT_-_TVSTAND_BACK
 10
802.4457308315389
 20
1146.908516982776
 30
0.0
  0
VERTEX
  5
289
  8
IMPORT_-_TVSTAND_BACK
 10
802.3517220223353
 20
1147.314248492023
 30
0.0
  0
VERTEX
  5
28A
  8
IMPORT_-_TVSTAND_BACK
 10
802.250957005723
 20
1147.706313052606
 30
0.0
  0
VERTEX
  5
28B
  8
IMPORT_-_TVSTAND_BACK
 10
802.1436628688111
 20
1148.084082345618
 30
0.0
  0
VERTEX
  5
28C
  8
IMPORT_-_TVSTAND_BACK
 10
802.0300666987089
 20
1148.446928052151
 30
0.0
  0
VERTEX
  5
28D
  8
IMPORT_-_TVSTAND_BACK
 10
801.9103955825253
 20
1148.794221853299
 30
0.0
  0
VERTEX
  5
28E
  8
IMPORT_-_TVSTAND_BACK
 10
801.7848766073695
 20
1149.125335430154
 30
0.0
  0
VERTEX
  5
28F
  8
IMPORT_-_TVSTAND_BACK
 10
801.6537368603506
 20
1149.439640463808
 30
0.0
  0
VERTEX
  5
290
  8
IMPORT_-_TVSTAND_BACK
 10
801.5172034285777
 20
1149.736508635356
 30
0.0
  0
VERTEX
  5
291
  8
IMPORT_-_TVSTAND_BACK
 10
801.3755033991598
 20
1150.015311625888
 30
0.0
  0
VERTEX
  5
292
  8
IMPORT_-_TVSTAND_BACK
 10
801.2288638592062
 20
1150.275421116499
 30
0.0
  0
VERTEX
  5
293
  8
IMPORT_-_TVSTAND_BACK
 10
801.0775118958259
 20
1150.51620878828
 30
0.0
  0
VERTEX
  5
294
  8
IMPORT_-_TVSTAND_BACK
 10
800.921674596128
 20
1150.737046322324
 30
0.0
  0
VERTEX
  5
295
  8
IMPORT_-_TVSTAND_BACK
 10
800.7615790472216
 20
1150.937305399725
 30
0.0
  0
VERTEX
  5
296
  8
IMPORT_-_TVSTAND_BACK
 10
800.597452336216
 20
1151.116357701574
 30
0.0
  0
VERTEX
  5
297
  8
IMPORT_-_TVSTAND_BACK
 10
800.4295215502199
 20
1151.273574908965
 30
0.0
  0
VERTEX
  5
298
  8
IMPORT_-_TVSTAND_BACK
 10
800.2580137763428
 20
1151.40832870299
 30
0.0
  0
VERTEX
  5
299
  8
IMPORT_-_TVSTAND_BACK
 10
800.0831561016935
 20
1151.519990764742
 30
0.0
  0
VERTEX
  5
29A
  8
IMPORT_-_TVSTAND_BACK
 10
799.9051756133813
 20
1151.607932775313
 30
0.0
  0
VERTEX
  5
29B
  8
IMPORT_-_TVSTAND_BACK
 10
799.7242993985153
 20
1151.671526415797
 30
0.0
  0
VERTEX
  5
29C
  8
IMPORT_-_TVSTAND_BACK
 10
799.5407545442046
 20
1151.710143367286
 30
0.0
  0
VERTEX
  5
29D
  8
IMPORT_-_TVSTAND_BACK
 10
799.3547681375583
 20
1151.723155310873
 30
0.0
  0
VERTEX
  5
29E
  8
IMPORT_-_TVSTAND_BACK
 10
794.5831741236486
 20
1151.723155310873
 30
0.0
  0
VERTEX
  5
29F
  8
IMPORT_-_TVSTAND_BACK
 10
794.3971877170023
 20
1151.710143367286
 30
0.0
  0
VERTEX
  5
2A0
  8
IMPORT_-_TVSTAND_BACK
 10
794.2136428626916
 20
1151.671526415797
 30
0.0
  0
VERTEX
  5
2A1
  8
IMPORT_-_TVSTAND_BACK
 10
794.0327666478256
 20
1151.607932775313
 30
0.0
  0
VERTEX
  5
2A2
  8
IMPORT_-_TVSTAND_BACK
 10
793.8547861595134
 20
1151.519990764742
 30
0.0
  0
VERTEX
  5
2A3
  8
IMPORT_-_TVSTAND_BACK
 10
793.6799284848641
 20
1151.40832870299
 30
0.0
  0
VERTEX
  5
2A4
  8
IMPORT_-_TVSTAND_BACK
 10
793.508420710987
 20
1151.273574908965
 30
0.0
  0
VERTEX
  5
2A5
  8
IMPORT_-_TVSTAND_BACK
 10
793.340489924991
 20
1151.116357701574
 30
0.0
  0
VERTEX
  5
2A6
  8
IMPORT_-_TVSTAND_BACK
 10
793.1763632139853
 20
1150.937305399725
 30
0.0
  0
VERTEX
  5
2A7
  8
IMPORT_-_TVSTAND_BACK
 10
793.0162676650789
 20
1150.737046322324
 30
0.0
  0
VERTEX
  5
2A8
  8
IMPORT_-_TVSTAND_BACK
 10
792.860430365381
 20
1150.51620878828
 30
0.0
  0
VERTEX
  5
2A9
  8
IMPORT_-_TVSTAND_BACK
 10
792.7090784020007
 20
1150.275421116499
 30
0.0
  0
VERTEX
  5
2AA
  8
IMPORT_-_TVSTAND_BACK
 10
792.5624388620471
 20
1150.015311625888
 30
0.0
  0
VERTEX
  5
2AB
  8
IMPORT_-_TVSTAND_BACK
 10
792.4207388326292
 20
1149.736508635356
 30
0.0
  0
VERTEX
  5
2AC
  8
IMPORT_-_TVSTAND_BACK
 10
792.2842054008563
 20
1149.439640463808
 30
0.0
  0
VERTEX
  5
2AD
  8
IMPORT_-_TVSTAND_BACK
 10
792.1530656538374
 20
1149.125335430154
 30
0.0
  0
VERTEX
  5
2AE
  8
IMPORT_-_TVSTAND_BACK
 10
792.0275466786816
 20
1148.794221853299
 30
0.0
  0
VERTEX
  5
2AF
  8
IMPORT_-_TVSTAND_BACK
 10
791.907875562498
 20
1148.446928052151
 30
0.0
  0
VERTEX
  5
2B0
  8
IMPORT_-_TVSTAND_BACK
 10
791.7942793923958
 20
1148.084082345618
 30
0.0
  0
VERTEX
  5
2B1
  8
IMPORT_-_TVSTAND_BACK
 10
791.6869852554839
 20
1147.706313052606
 30
0.0
  0
VERTEX
  5
2B2
  8
IMPORT_-_TVSTAND_BACK
 10
791.5862202388716
 20
1147.314248492023
 30
0.0
  0
VERTEX
  5
2B3
  8
IMPORT_-_TVSTAND_BACK
 10
791.492211429668
 20
1146.908516982776
 30
0.0
  0
VERTEX
  5
2B4
  8
IMPORT_-_TVSTAND_BACK
 10
791.4051859149822
 20
1146.489746843773
 30
0.0
  0
VERTEX
  5
2B5
  8
IMPORT_-_TVSTAND_BACK
 10
791.3253707819231
 20
1146.058566393921
 30
0.0
  0
VERTEX
  5
2B6
  8
IMPORT_-_TVSTAND_BACK
 10
791.2529931176001
 20
1145.615603952126
 30
0.0
  0
VERTEX
  5
2B7
  8
IMPORT_-_TVSTAND_BACK
 10
791.1882800091223
 20
1145.161487837297
 30
0.0
  0
VERTEX
  5
2B8
  8
IMPORT_-_TVSTAND_BACK
 10
791.1314585435985
 20
1144.696846368341
 30
0.0
  0
VERTEX
  5
2B9
  8
IMPORT_-_TVSTAND_BACK
 10
791.0827558081378
 20
1144.222307864164
 30
0.0
  0
VERTEX
  5
2BA
  8
IMPORT_-_TVSTAND_BACK
 10
791.0423988898498
 20
1143.738500643675
 30
0.0
  0
VERTEX
  5
2BB
  8
IMPORT_-_TVSTAND_BACK
 10
791.0106148758432
 20
1143.24605302578
 30
0.0
  0
VERTEX
  5
2BC
  8
IMPORT_-_TVSTAND_BACK
 10
790.9876308532272
 20
1142.745593329387
 30
0.0
  0
VERTEX
  5
2BD
  8
IMPORT_-_TVSTAND_BACK
 10
790.9736739091109
 20
1142.237749873403
 30
0.0
  0
VERTEX
  5
2BE
  8
IMPORT_-_TVSTAND_BACK
 10
790.9689711306034
 20
1141.723150976735
 30
0.0
  0
SEQEND
  5
2BF
  8
IMPORT_-_TVSTAND_BACK
  0
POLYLINE
  5
51
  8
IMPORT_-_TVSTAND_BACK
 66
     1
 10
0.0
 20
0.0
 30
0.0
 70
     1
  0
VERTEX
  5
2C0
  8
IMPORT_-_TVSTAND_BACK
 10
755.6578973051011
 20
632.9710416752984
 30
0.0
  0
VERTEX
  5
2C1
  8
IMPORT_-_TVSTAND_BACK
 10
755.6578973051011
 20
701.1857603010598
 30
0.0
 42
1.0
  0
VERTEX
  5
2C2
  8
IMPORT_-_TVSTAND_BACK
 10
751.4152566179819
 20
705.4284009881791
 30
0.0
  0
VERTEX
  5
2C3
  8
IMPORT_-_TVSTAND_BACK
 10
747.4005379922204
 20
705.4284009881791
 30
0.0
 42
1.0
  0
VERTEX
  5
2C4
  8
IMPORT_-_TVSTAND_BACK
 10
743.1578973051011
 20
701.1857603010598
 30
0.0
  0
VERTEX
  5
2C5
  8
IMPORT_-_TVSTAND_BACK
 10
743.1578973051011
 20
632.9710416752984
 30
0.0
 42
1.0
  0
VERTEX
  5
2C6
  8
IMPORT_-_TVSTAND_BACK
 10
747.4005379922204
 20
628.728400988179
 30
0.0
  0
VERTEX
  5
2C7
  8
IMPORT_-_TVSTAND_BACK
 10
751.4152566179819
 20
628.728400988179
 30
0.0
 42
1.0
  0
SEQEND
  5
2C8
  8
IMPORT_-_TVSTAND_BACK
  0
POLYLINE
  5
52
  8
IMPORT_-_TVSTAND_BACK
 66
     1
 10
0.0
 20
0.0
 30
0.0
 70
     1
  0
VERTEX
  5
2C9
  8
IMPORT_-_TVSTAND_BACK
 10
755.6578973051011
 20
785.3710416752983
 30
0.0
  0
VERTEX
  5
2CA
  8
IMPORT_-_TVSTAND_BACK
 10
755.6578973051011
 20
853.5857603010597
 30
0.0
 42
1.0
  0
VERTEX
  5
2CB
  8
IMPORT_-_TVSTAND_BACK
 10
751.4152566179819
 20
857.828400988179
 30
0.0
  0
VERTEX
  5
2CC
  8
IMPORT_-_TVSTAND_BACK
 10
747.4005379922204
 20
857.828400988179
 30
0.0
 42
1.0
  0
VERTEX
  5
2CD
  8
IMPORT_-_TVSTAND_BACK
 10
743.1578973051011
 20
853.5857603010597
 30
0.0
  0
VERTEX
  5
2CE
  8
IMPORT_-_TVSTAND_BACK
 10
743.1578973051011
 20
785.3710416752983
 30
0.0
 42
1.0
  0
VERTEX
  5
2CF
  8
IMPORT_-_TVSTAND_BACK
 10
747.4005379922204
 20
781.128400988179
 30
0.0
  0
VERTEX
  5
2D0
  8
IMPORT_-_TVSTAND_BACK
 10
751.4152566179819
 20
781.128400988179
 30
0.0
 42
1.0
  0
SEQEND
  5
2D1
  8
IMPORT_-_TVSTAND_BACK
  0
POLYLINE
  5
53
  8
IMPORT_-_TVSTAND_BACK
 66
     1
 10
0.0
 20
0.0
 30
0.0
 70
     1
  0
VERTEX
  5
2D2
  8
IMPORT_-_TVSTAND_BACK
 10
845.1578973051013
 20
853.5857603010597
 30
0.0
  0
VERTEX
  5
2D3
  8
IMPORT_-_TVSTAND_BACK
 10
845.1578973051013
 20
785.3710416752983
 30
0.0
 42
1.0
  0
VERTEX
  5
2D4
  8
IMPORT_-_TVSTAND_BACK
 10
849.4005379922205
 20
781.128400988179
 30
0.0
  0
VERTEX
  5
2D5
  8
IMPORT_-_TVSTAND_BACK
 10
853.415256617982
 20
781.128400988179
 30
0.0
 42
1.0
  0
VERTEX
  5
2D6
  8
IMPORT_-_TVSTAND_BACK
 10
857.6578973051012
 20
785.3710416752983
 30
0.0
  0
VERTEX
  5
2D7
  8
IMPORT_-_TVSTAND_BACK
 10
857.6578973051013
 20
853.5857603010597
 30
0.0
 42
1.0
  0
VERTEX
  5
2D8
  8
IMPORT_-_TVSTAND_BACK
 10
853.415256617982
 20
857.828400988179
 30
0.0
  0
VERTEX
  5
2D9
  8
IMPORT_-_TVSTAND_BACK
 10
849.4005379922206
 20
857.828400988179
 30
0.0
 42
1.0
  0
SEQEND
  5
2DA
  8
IMPORT_-_TVSTAND_BACK
  0
POLYLINE
  5
54
  8
IMPORT_-_TVSTAND_BACK
 66
     1
 10
0.0
 20
0.0
 30
0.0
 70
     1
  0
VERTEX
  5
2DB
  8
IMPORT_-_TVSTAND_BACK
 10
845.1578973051013
 20
701.1857603010598
 30
0.0
  0
VERTEX
  5
2DC
  8
IMPORT_-_TVSTAND_BACK
 10
845.1578973051013
 20
632.9710416752984
 30
0.0
 42
1.0
  0
VERTEX
  5
2DD
  8
IMPORT_-_TVSTAND_BACK
 10
849.4005379922205
 20
628.728400988179
 30
0.0
  0
VERTEX
  5
2DE
  8
IMPORT_-_TVSTAND_BACK
 10
853.415256617982
 20
628.728400988179
 30
0.0
 42
1.0
  0
VERTEX
  5
2DF
  8
IMPORT_-_TVSTAND_BACK
 10
857.6578973051013
 20
632.9710416752984
 30
0.0
  0
VERTEX
  5
2E0
  8
IMPORT_-_TVSTAND_BACK
 10
857.6578973051013
 20
701.1857603010598
 30
0.0
 42
1.0
  0
VERTEX
  5
2E1
  8
IMPORT_-_TVSTAND_BACK
 10
853.415256617982
 20
705.4284009881791
 30
0.0
  0
VERTEX
  5
2E2
  8
IMPORT_-_TVSTAND_BACK
 10
849.4005379922205
 20
705.4284009881791
 30
0.0
 42
1.0
  0
SEQEND
  5
2E3
  8
IMPORT_-_TVSTAND_BACK
  0
POLYLINE
  5
55
  8
IMPORT_-_TVSTAND_BACK
 66
     1
 10
0.0
 20
0.0
 30
0.0
 70
     1
  0
VERTEX
  5
2E4
  8
IMPORT_-_TVSTAND_BACK
 10
715.1245029330828
 20
650.7060204966365
 30
0.0
 42
0.4142135623730951
  0
VERTEX
  5
2E5
  8
IMPORT_-_TVSTAND_BACK
 10
745.1245029330828
 20
620.7060204966365
 30
0.0
  0
VERTEX
  5
2E6
  8
IMPORT_-_TVSTAND_BACK
 10
855.6912916771174
 20
620.7060204966365
 30
0.0
 42
0.4142135623730951
  0
VERTEX
  5
2E7
  8
IMPORT_-_TVSTAND_BACK
 10
885.6912916771174
 20
650.7060204966365
 30
0.0
  0
VERTEX
  5
2E8
  8
IMPORT_-_TVSTAND_BACK
 10
885.6912916771174
 20
835.850781479721
 30
0.0
 42
0.4142135623730951
  0
VERTEX
  5
2E9
  8
IMPORT_-_TVSTAND_BACK
 10
855.6912916771174
 20
865.850781479721
 30
0.0
  0
VERTEX
  5
2EA
  8
IMPORT_-_TVSTAND_BACK
 10
745.1245029330828
 20
865.850781479721
 30
0.0
 42
0.4142135623730951
  0
VERTEX
  5
2EB
  8
IMPORT_-_TVSTAND_BACK
 10
715.1245029330828
 20
835.850781479721
 30
0.0
  0
SEQEND
  5
2EC
  8
IMPORT_-_TVSTAND_BACK
  0
POLYLINE
  5
56
  8
IMPORT_-_TVSTAND_BACK
 66
     1
 10
0.0
 20
0.0
 30
0.0
 70
     1
  0
VERTEX
  5
2ED
  8
IMPORT_-_TVSTAND_BACK
 10
794.4078973051
 20
654.1744053223165
 30
0.0
  0
VERTEX
  5
2EE
  8
IMPORT_-_TVSTAND_BACK
 10
794.4126000836075
 20
653.6598064256489
 30
0.0
  0
VERTEX
  5
2EF
  8
IMPORT_-_TVSTAND_BACK
 10
794.4265570277238
 20
653.151962969665
 30
0.0
  0
VERTEX
  5
2F0
  8
IMPORT_-_TVSTAND_BACK
 10
794.4495410503398
 20
652.6515032732718
 30
0.0
  0
VERTEX
  5
2F1
  8
IMPORT_-_TVSTAND_BACK
 10
794.4813250643464
 20
652.1590556553771
 30
0.0
  0
VERTEX
  5
2F2
  8
IMPORT_-_TVSTAND_BACK
 10
794.5216819826344
 20
651.6752484348879
 30
0.0
  0
VERTEX
  5
2F3
  8
IMPORT_-_TVSTAND_BACK
 10
794.570384718095
 20
651.2007099307114
 30
0.0
  0
VERTEX
  5
2F4
  8
IMPORT_-_TVSTAND_BACK
 10
794.6272061836189
 20
650.7360684617549
 30
0.0
  0
VERTEX
  5
2F5
  8
IMPORT_-_TVSTAND_BACK
 10
794.6919192920967
 20
650.2819523469259
 30
0.0
  0
VERTEX
  5
2F6
  8
IMPORT_-_TVSTAND_BACK
 10
794.7642969564197
 20
649.8389899051315
 30
0.0
  0
VERTEX
  5
2F7
  8
IMPORT_-_TVSTAND_BACK
 10
794.8441120894788
 20
649.4078094552791
 30
0.0
  0
VERTEX
  5
2F8
  8
IMPORT_-_TVSTAND_BACK
 10
794.9311376041646
 20
648.9890393162759
 30
0.0
  0
VERTEX
  5
2F9
  8
IMPORT_-_TVSTAND_BACK
 10
795.0251464133682
 20
648.5833078070291
 30
0.0
  0
VERTEX
  5
2FA
  8
IMPORT_-_TVSTAND_BACK
 10
795.1259114299805
 20
648.1912432464461
 30
0.0
  0
VERTEX
  5
2FB
  8
IMPORT_-_TVSTAND_BACK
 10
795.2332055668924
 20
647.8134739534343
 30
0.0
  0
VERTEX
  5
2FC
  8
IMPORT_-_TVSTAND_BACK
 10
795.3468017369946
 20
647.4506282469007
 30
0.0
  0
VERTEX
  5
2FD
  8
IMPORT_-_TVSTAND_BACK
 10
795.4664728531782
 20
647.1033344457528
 30
0.0
  0
VERTEX
  5
2FE
  8
IMPORT_-_TVSTAND_BACK
 10
795.591991828334
 20
646.7722208688979
 30
0.0
  0
VERTEX
  5
2FF
  8
IMPORT_-_TVSTAND_BACK
 10
795.7231315753529
 20
646.4579158352432
 30
0.0
  0
VERTEX
  5
300
  8
IMPORT_-_TVSTAND_BACK
 10
795.8596650071258
 20
646.1610476636959
 30
0.0
  0
VERTEX
  5
301
  8
IMPORT_-_TVSTAND_BACK
 10
796.0013650365437
 20
645.8822446731635
 30
0.0
  0
VERTEX
  5
302
  8
IMPORT_-_TVSTAND_BACK
 10
796.1480045764973
 20
645.6221351825532
 30
0.0
  0
VERTEX
  5
303
  8
IMPORT_-_TVSTAND_BACK
 10
796.2993565398776
 20
645.3813475107721
 30
0.0
  0
VERTEX
  5
304
  8
IMPORT_-_TVSTAND_BACK
 10
796.4551938395755
 20
645.1605099767278
 30
0.0
  0
VERTEX
  5
305
  8
IMPORT_-_TVSTAND_BACK
 10
796.6152893884819
 20
644.9602508993273
 30
0.0
  0
VERTEX
  5
306
  8
IMPORT_-_TVSTAND_BACK
 10
796.7794160994875
 20
644.781198597478
 30
0.0
  0
VERTEX
  5
307
  8
IMPORT_-_TVSTAND_BACK
 10
796.9473468854836
 20
644.6239813900872
 30
0.0
  0
VERTEX
  5
308
  8
IMPORT_-_TVSTAND_BACK
 10
797.1188546593607
 20
644.4892275960624
 30
0.0
  0
VERTEX
  5
309
  8
IMPORT_-_TVSTAND_BACK
 10
797.29371233401
 20
644.3775655343104
 30
0.0
  0
VERTEX
  5
30A
  8
IMPORT_-_TVSTAND_BACK
 10
797.4716928223222
 20
644.2896235237388
 30
0.0
  0
VERTEX
  5
30B
  8
IMPORT_-_TVSTAND_BACK
 10
797.6525690371882
 20
644.2260298832548
 30
0.0
  0
VERTEX
  5
30C
  8
IMPORT_-_TVSTAND_BACK
 10
797.8361138914989
 20
644.1874129317657
 30
0.0
  0
VERTEX
  5
30D
  8
IMPORT_-_TVSTAND_BACK
 10
798.0221002981452
 20
644.1744009881788
 30
0.0
  0
VERTEX
  5
30E
  8
IMPORT_-_TVSTAND_BACK
 10
802.7936943120549
 20
644.1744009881788
 30
0.0
  0
VERTEX
  5
30F
  8
IMPORT_-_TVSTAND_BACK
 10
802.9796807187012
 20
644.1874129317657
 30
0.0
  0
VERTEX
  5
310
  8
IMPORT_-_TVSTAND_BACK
 10
803.1632255730119
 20
644.2260298832548
 30
0.0
  0
VERTEX
  5
311
  8
IMPORT_-_TVSTAND_BACK
 10
803.3441017878779
 20
644.2896235237388
 30
0.0
  0
VERTEX
  5
312
  8
IMPORT_-_TVSTAND_BACK
 10
803.5220822761901
 20
644.3775655343104
 30
0.0
  0
VERTEX
  5
313
  8
IMPORT_-_TVSTAND_BACK
 10
803.6969399508394
 20
644.4892275960624
 30
0.0
  0
VERTEX
  5
314
  8
IMPORT_-_TVSTAND_BACK
 10
803.8684477247165
 20
644.6239813900872
 30
0.0
  0
VERTEX
  5
315
  8
IMPORT_-_TVSTAND_BACK
 10
804.0363785107126
 20
644.781198597478
 30
0.0
  0
VERTEX
  5
316
  8
IMPORT_-_TVSTAND_BACK
 10
804.2005052217182
 20
644.9602508993273
 30
0.0
  0
VERTEX
  5
317
  8
IMPORT_-_TVSTAND_BACK
 10
804.3606007706246
 20
645.1605099767278
 30
0.0
  0
VERTEX
  5
318
  8
IMPORT_-_TVSTAND_BACK
 10
804.5164380703225
 20
645.3813475107721
 30
0.0
  0
VERTEX
  5
319
  8
IMPORT_-_TVSTAND_BACK
 10
804.6677900337028
 20
645.6221351825532
 30
0.0
  0
VERTEX
  5
31A
  8
IMPORT_-_TVSTAND_BACK
 10
804.8144295736564
 20
645.8822446731635
 30
0.0
  0
VERTEX
  5
31B
  8
IMPORT_-_TVSTAND_BACK
 10
804.9561296030743
 20
646.1610476636959
 30
0.0
  0
VERTEX
  5
31C
  8
IMPORT_-_TVSTAND_BACK
 10
805.0926630348472
 20
646.4579158352432
 30
0.0
  0
VERTEX
  5
31D
  8
IMPORT_-_TVSTAND_BACK
 10
805.2238027818661
 20
646.7722208688979
 30
0.0
  0
VERTEX
  5
31E
  8
IMPORT_-_TVSTAND_BACK
 10
805.3493217570219
 20
647.1033344457528
 30
0.0
  0
VERTEX
  5
31F
  8
IMPORT_-_TVSTAND_BACK
 10
805.4689928732055
 20
647.4506282469007
 30
0.0
  0
VERTEX
  5
320
  8
IMPORT_-_TVSTAND_BACK
 10
805.5825890433077
 20
647.8134739534343
 30
0.0
  0
VERTEX
  5
321
  8
IMPORT_-_TVSTAND_BACK
 10
805.6898831802196
 20
648.1912432464461
 30
0.0
  0
VERTEX
  5
322
  8
IMPORT_-_TVSTAND_BACK
 10
805.7906481968319
 20
648.5833078070291
 30
0.0
  0
VERTEX
  5
323
  8
IMPORT_-_TVSTAND_BACK
 10
805.8846570060355
 20
648.9890393162759
 30
0.0
  0
VERTEX
  5
324
  8
IMPORT_-_TVSTAND_BACK
 10
805.9716825207213
 20
649.4078094552791
 30
0.0
  0
VERTEX
  5
325
  8
IMPORT_-_TVSTAND_BACK
 10
806.0514976537804
 20
649.8389899051315
 30
0.0
  0
VERTEX
  5
326
  8
IMPORT_-_TVSTAND_BACK
 10
806.1238753181034
 20
650.2819523469259
 30
0.0
  0
VERTEX
  5
327
  8
IMPORT_-_TVSTAND_BACK
 10
806.1885884265812
 20
650.7360684617549
 30
0.0
  0
VERTEX
  5
328
  8
IMPORT_-_TVSTAND_BACK
 10
806.245409892105
 20
651.2007099307114
 30
0.0
  0
VERTEX
  5
329
  8
IMPORT_-_TVSTAND_BACK
 10
806.2941126275657
 20
651.6752484348879
 30
0.0
  0
VERTEX
  5
32A
  8
IMPORT_-_TVSTAND_BACK
 10
806.3344695458537
 20
652.1590556553771
 30
0.0
  0
VERTEX
  5
32B
  8
IMPORT_-_TVSTAND_BACK
 10
806.3662535598603
 20
652.6515032732718
 30
0.0
  0
VERTEX
  5
32C
  8
IMPORT_-_TVSTAND_BACK
 10
806.3892375824763
 20
653.151962969665
 30
0.0
  0
VERTEX
  5
32D
  8
IMPORT_-_TVSTAND_BACK
 10
806.4031945265926
 20
653.6598064256489
 30
0.0
  0
VERTEX
  5
32E
  8
IMPORT_-_TVSTAND_BACK
 10
806.4078973051
 20
654.1744053223165
 30
0.0
  0
VERTEX
  5
32F
  8
IMPORT_-_TVSTAND_BACK
 10
806.4078973051
 20
832.382396654041
 30
0.0
  0
VERTEX
  5
330
  8
IMPORT_-_TVSTAND_BACK
 10
806.4031945265926
 20
832.8969955507087
 30
0.0
  0
VERTEX
  5
331
  8
IMPORT_-_TVSTAND_BACK
 10
806.3892375824763
 20
833.4048390066926
 30
0.0
  0
VERTEX
  5
332
  8
IMPORT_-_TVSTAND_BACK
 10
806.3662535598603
 20
833.9052987030857
 30
0.0
  0
VERTEX
  5
333
  8
IMPORT_-_TVSTAND_BACK
 10
806.3344695458537
 20
834.3977463209804
 30
0.0
  0
VERTEX
  5
334
  8
IMPORT_-_TVSTAND_BACK
 10
806.2941126275657
 20
834.8815535414697
 30
0.0
  0
VERTEX
  5
335
  8
IMPORT_-_TVSTAND_BACK
 10
806.245409892105
 20
835.3560920456462
 30
0.0
  0
VERTEX
  5
336
  8
IMPORT_-_TVSTAND_BACK
 10
806.1885884265812
 20
835.8207335146026
 30
0.0
  0
VERTEX
  5
337
  8
IMPORT_-_TVSTAND_BACK
 10
806.1238753181034
 20
836.2748496294317
 30
0.0
  0
VERTEX
  5
338
  8
IMPORT_-_TVSTAND_BACK
 10
806.0514976537804
 20
836.7178120712263
 30
0.0
  0
VERTEX
  5
339
  8
IMPORT_-_TVSTAND_BACK
 10
805.9716825207213
 20
837.1489925210786
 30
0.0
  0
VERTEX
  5
33A
  8
IMPORT_-_TVSTAND_BACK
 10
805.8846570060355
 20
837.5677626600818
 30
0.0
  0
VERTEX
  5
33B
  8
IMPORT_-_TVSTAND_BACK
 10
805.7906481968319
 20
837.9734941693287
 30
0.0
  0
VERTEX
  5
33C
  8
IMPORT_-_TVSTAND_BACK
 10
805.6898831802196
 20
838.3655587299115
 30
0.0
  0
VERTEX
  5
33D
  8
IMPORT_-_TVSTAND_BACK
 10
805.5825890433077
 20
838.7433280229234
 30
0.0
  0
VERTEX
  5
33E
  8
IMPORT_-_TVSTAND_BACK
 10
805.4689928732055
 20
839.1061737294568
 30
0.0
  0
VERTEX
  5
33F
  8
IMPORT_-_TVSTAND_BACK
 10
805.3493217570219
 20
839.4534675306047
 30
0.0
  0
VERTEX
  5
340
  8
IMPORT_-_TVSTAND_BACK
 10
805.2238027818661
 20
839.7845811074596
 30
0.0
  0
VERTEX
  5
341
  8
IMPORT_-_TVSTAND_BACK
 10
805.0926630348472
 20
840.0988861411143
 30
0.0
  0
VERTEX
  5
342
  8
IMPORT_-_TVSTAND_BACK
 10
804.9561296030743
 20
840.3957543126617
 30
0.0
  0
VERTEX
  5
343
  8
IMPORT_-_TVSTAND_BACK
 10
804.8144295736564
 20
840.674557303194
 30
0.0
  0
VERTEX
  5
344
  8
IMPORT_-_TVSTAND_BACK
 10
804.6677900337028
 20
840.9346667938044
 30
0.0
  0
VERTEX
  5
345
  8
IMPORT_-_TVSTAND_BACK
 10
804.5164380703225
 20
841.1754544655854
 30
0.0
  0
VERTEX
  5
346
  8
IMPORT_-_TVSTAND_BACK
 10
804.3606007706246
 20
841.3962919996297
 30
0.0
  0
VERTEX
  5
347
  8
IMPORT_-_TVSTAND_BACK
 10
804.2005052217182
 20
841.5965510770302
 30
0.0
  0
VERTEX
  5
348
  8
IMPORT_-_TVSTAND_BACK
 10
804.0363785107126
 20
841.7756033788795
 30
0.0
  0
VERTEX
  5
349
  8
IMPORT_-_TVSTAND_BACK
 10
803.8684477247165
 20
841.9328205862703
 30
0.0
  0
VERTEX
  5
34A
  8
IMPORT_-_TVSTAND_BACK
 10
803.6969399508394
 20
842.0675743802951
 30
0.0
  0
VERTEX
  5
34B
  8
IMPORT_-_TVSTAND_BACK
 10
803.5220822761901
 20
842.1792364420471
 30
0.0
  0
VERTEX
  5
34C
  8
IMPORT_-_TVSTAND_BACK
 10
803.3441017878779
 20
842.2671784526187
 30
0.0
  0
VERTEX
  5
34D
  8
IMPORT_-_TVSTAND_BACK
 10
803.1632255730119
 20
842.3307720931027
 30
0.0
  0
VERTEX
  5
34E
  8
IMPORT_-_TVSTAND_BACK
 10
802.9796807187012
 20
842.3693890445918
 30
0.0
  0
VERTEX
  5
34F
  8
IMPORT_-_TVSTAND_BACK
 10
802.7936943120549
 20
842.3824009881787
 30
0.0
  0
VERTEX
  5
350
  8
IMPORT_-_TVSTAND_BACK
 10
798.0221002981452
 20
842.3824009881787
 30
0.0
  0
VERTEX
  5
351
  8
IMPORT_-_TVSTAND_BACK
 10
797.8361138914989
 20
842.3693890445918
 30
0.0
  0
VERTEX
  5
352
  8
IMPORT_-_TVSTAND_BACK
 10
797.6525690371882
 20
842.3307720931027
 30
0.0
  0
VERTEX
  5
353
  8
IMPORT_-_TVSTAND_BACK
 10
797.4716928223222
 20
842.2671784526187
 30
0.0
  0
VERTEX
  5
354
  8
IMPORT_-_TVSTAND_BACK
 10
797.29371233401
 20
842.1792364420471
 30
0.0
  0
VERTEX
  5
355
  8
IMPORT_-_TVSTAND_BACK
 10
797.1188546593607
 20
842.0675743802951
 30
0.0
  0
VERTEX
  5
356
  8
IMPORT_-_TVSTAND_BACK
 10
796.9473468854836
 20
841.9328205862703
 30
0.0
  0
VERTEX
  5
357
  8
IMPORT_-_TVSTAND_BACK
 10
796.7794160994875
 20
841.7756033788795
 30
0.0
  0
VERTEX
  5
358
  8
IMPORT_-_TVSTAND_BACK
 10
796.6152893884819
 20
841.5965510770302
 30
0.0
  0
VERTEX
  5
359
  8
IMPORT_-_TVSTAND_BACK
 10
796.4551938395755
 20
841.3962919996297
 30
0.0
  0
VERTEX
  5
35A
  8
IMPORT_-_TVSTAND_BACK
 10
796.2993565398776
 20
841.1754544655854
 30
0.0
  0
VERTEX
  5
35B
  8
IMPORT_-_TVSTAND_BACK
 10
796.1480045764973
 20
840.9346667938044
 30
0.0
  0
VERTEX
  5
35C
  8
IMPORT_-_TVSTAND_BACK
 10
796.0013650365437
 20
840.674557303194
 30
0.0
  0
VERTEX
  5
35D
  8
IMPORT_-_TVSTAND_BACK
 10
795.8596650071258
 20
840.3957543126617
 30
0.0
  0
VERTEX
  5
35E
  8
IMPORT_-_TVSTAND_BACK
 10
795.7231315753529
 20
840.0988861411143
 30
0.0
  0
VERTEX
  5
35F
  8
IMPORT_-_TVSTAND_BACK
 10
795.591991828334
 20
839.7845811074596
 30
0.0
  0
VERTEX
  5
360
  8
IMPORT_-_TVSTAND_BACK
 10
795.4664728531782
 20
839.4534675306047
 30
0.0
  0
VERTEX
  5
361
  8
IMPORT_-_TVSTAND_BACK
 10
795.3468017369946
 20
839.1061737294568
 30
0.0
  0
VERTEX
  5
362
  8
IMPORT_-_TVSTAND_BACK
 10
795.2332055668924
 20
838.7433280229234
 30
0.0
  0
VERTEX
  5
363
  8
IMPORT_-_TVSTAND_BACK
 10
795.1259114299805
 20
838.3655587299115
 30
0.0
  0
VERTEX
  5
364
  8
IMPORT_-_TVSTAND_BACK
 10
795.0251464133682
 20
837.9734941693287
 30
0.0
  0
VERTEX
  5
365
  8
IMPORT_-_TVSTAND_BACK
 10
794.9311376041646
 20
837.5677626600818
 30
0.0
  0
VERTEX
  5
366
  8
IMPORT_-_TVSTAND_BACK
 10
794.8441120894788
 20
837.1489925210786
 30
0.0
  0
VERTEX
  5
367
  8
IMPORT_-_TVSTAND_BACK
 10
794.7642969564197
 20
836.7178120712263
 30
0.0
  0
VERTEX
  5
368
  8
IMPORT_-_TVSTAND_BACK
 10
794.6919192920967
 20
836.2748496294317
 30
0.0
  0
VERTEX
  5
369
  8
IMPORT_-_TVSTAND_BACK
 10
794.6272061836189
 20
835.8207335146026
 30
0.0
  0
VERTEX
  5
36A
  8
IMPORT_-_TVSTAND_BACK
 10
794.570384718095
 20
835.3560920456462
 30
0.0
  0
VERTEX
  5
36B
  8
IMPORT_-_TVSTAND_BACK
 10
794.5216819826344
 20
834.8815535414697
 30
0.0
  0
VERTEX
  5
36C
  8
IMPORT_-_TVSTAND_BACK
 10
794.4813250643464
 20
834.3977463209804
 30
0.0
  0
VERTEX
  5
36D
  8
IMPORT_-_TVSTAND_BACK
 10
794.4495410503398
 20
833.9052987030857
 30
0.0
  0
VERTEX
  5
36E
  8
IMPORT_-_TVSTAND_BACK
 10
794.4265570277238
 20
833.4048390066926
 30
0.0
  0
VERTEX
  5
36F
  8
IMPORT_-_TVSTAND_BACK
 10
794.4126000836075
 20
832.8969955507087
 30
0.0
  0
VERTEX
  5
370
  8
IMPORT_-_TVSTAND_BACK
 10
794.4078973051
 20
832.382396654041
 30
0.0
  0
SEQEND
  5
371
  8
IMPORT_-_TVSTAND_BACK
  0
POLYLINE
  5
57
  8
IMPORT_-_TVSTAND_BACK
 66
     1
 10
0.0
 20
0.0
 30
0.0
 70
     1
  0
VERTEX
  5
372
  8
IMPORT_-_TVSTAND_BACK
 10
2120.346368238223
 20
431.446
 30
0.0
  0
VERTEX
  5
373
  8
IMPORT_-_TVSTAND_BACK
 10
2120.346856083851
 20
444.222367648802
 30
0.0
 42
-1.0
  0
VERTEX
  5
374
  8
IMPORT_-_TVSTAND_BACK
 10
2124.58949677097
 20
448.4650083359213
 30
0.0
  0
VERTEX
  5
375
  8
IMPORT_-_TVSTAND_BACK
 10
2184.552411639406
 20
448.4650083359213
 30
0.0
  0
VERTEX
  5
376
  8
IMPORT_-_TVSTAND_BACK
 10
2184.552575812809
 20
808.3879986315956
 30
0.0
 42
0.4142136959220712
  0
VERTEX
  5
377
  8
IMPORT_-_TVSTAND_BACK
 10
2181.552575812809
 20
811.388
 30
0.0
  0
VERTEX
  5
378
  8
IMPORT_-_TVSTAND_BACK
 10
2004.292217868331
 20
811.388
 30
0.0
 42
-1.0
  0
VERTEX
  5
379
  8
IMPORT_-_TVSTAND_BACK
 10
2000.049577181212
 20
815.6306406871194
 30
0.0
  0
VERTEX
  5
37A
  8
IMPORT_-_TVSTAND_BACK
 10
2000.049577181212
 20
819.2753593128807
 30
0.0
 42
-1.0
  0
VERTEX
  5
37B
  8
IMPORT_-_TVSTAND_BACK
 10
2004.292217868331
 20
823.518
 30
0.0
  0
VERTEX
  5
37C
  8
IMPORT_-_TVSTAND_BACK
 10
2181.552575812809
 20
823.518
 30
0.0
 42
0.4142136959170108
  0
VERTEX
  5
37D
  8
IMPORT_-_TVSTAND_BACK
 10
2184.552575812808
 20
826.5180013684051
 30
0.0
  0
VERTEX
  5
37E
  8
IMPORT_-_TVSTAND_BACK
 10
2184.552411639406
 20
1186.440841669254
 30
0.0
  0
VERTEX
  5
37F
  8
IMPORT_-_TVSTAND_BACK
 10
2124.58949677097
 20
1186.440841669254
 30
0.0
 42
-1.0
  0
VERTEX
  5
380
  8
IMPORT_-_TVSTAND_BACK
 10
2120.346856083851
 20
1190.683482356374
 30
0.0
  0
VERTEX
  5
381
  8
IMPORT_-_TVSTAND_BACK
 10
2120.346368238223
 20
1203.46
 30
0.0
  0
VERTEX
  5
382
  8
IMPORT_-_TVSTAND_BACK
 10
2044.146368238222
 20
1203.46
 30
0.0
  0
VERTEX
  5
383
  8
IMPORT_-_TVSTAND_BACK
 10
2044.14685608385
 20
1190.683482356374
 30
0.0
 42
-1.0
  0
VERTEX
  5
384
  8
IMPORT_-_TVSTAND_BACK
 10
2039.90421539673
 20
1186.440841669254
 30
0.0
  0
VERTEX
  5
385
  8
IMPORT_-_TVSTAND_BACK
 10
1972.189496770966
 20
1186.440841669254
 30
0.0
 42
-1.0
  0
VERTEX
  5
386
  8
IMPORT_-_TVSTAND_BACK
 10
1967.946856083847
 20
1190.683482356374
 30
0.0
  0
VERTEX
  5
387
  8
IMPORT_-_TVSTAND_BACK
 10
1967.946368238219
 20
1203.46
 30
0.0
  0
VERTEX
  5
388
  8
IMPORT_-_TVSTAND_BACK
 10
1891.746368238217
 20
1203.46
 30
0.0
  0
VERTEX
  5
389
  8
IMPORT_-_TVSTAND_BACK
 10
1891.746856083845
 20
1190.683482356374
 30
0.0
 42
-1.0
  0
VERTEX
  5
38A
  8
IMPORT_-_TVSTAND_BACK
 10
1887.504215396725
 20
1186.440841669254
 30
0.0
  0
VERTEX
  5
38B
  8
IMPORT_-_TVSTAND_BACK
 10
1815.546856083845
 20
1186.440841669254
 30
0.0
  0
VERTEX
  5
38C
  8
IMPORT_-_TVSTAND_BACK
 10
1815.546856083845
 20
1043.081260134152
 30
0.0
 42
-1.0
  0
VERTEX
  5
38D
  8
IMPORT_-_TVSTAND_BACK
 10
1811.304215396726
 20
1038.838619447032
 30
0.0
  0
VERTEX
  5
38E
  8
IMPORT_-_TVSTAND_BACK
 10
1803.5524116394
 20
1038.838619447032
 30
0.0
  0
VERTEX
  5
38F
  8
IMPORT_-_TVSTAND_BACK
 10
1803.5524116394
 20
891.2363972248102
 30
0.0
  0
VERTEX
  5
390
  8
IMPORT_-_TVSTAND_BACK
 10
1811.304215396726
 20
891.2363972248102
 30
0.0
 42
-1.0
  0
VERTEX
  5
391
  8
IMPORT_-_TVSTAND_BACK
 10
1815.546856083845
 20
886.9937565376908
 30
0.0
  0
VERTEX
  5
392
  8
IMPORT_-_TVSTAND_BACK
 10
1815.546856083845
 20
747.8768156897072
 30
0.0
 42
-1.0
  0
VERTEX
  5
393
  8
IMPORT_-_TVSTAND_BACK
 10
1811.304215396726
 20
743.6341750025879
 30
0.0
  0
VERTEX
  5
394
  8
IMPORT_-_TVSTAND_BACK
 10
1803.5524116394
 20
743.6341750025879
 30
0.0
  0
VERTEX
  5
395
  8
IMPORT_-_TVSTAND_BACK
 10
1803.5524116394
 20
596.0672305581436
 30
0.0
  0
VERTEX
  5
396
  8
IMPORT_-_TVSTAND_BACK
 10
1811.304215396726
 20
596.0672305581436
 30
0.0
 42
-1.0
  0
VERTEX
  5
397
  8
IMPORT_-_TVSTAND_BACK
 10
1815.546856083845
 20
591.8245898710243
 30
0.0
  0
VERTEX
  5
398
  8
IMPORT_-_TVSTAND_BACK
 10
1815.546856083845
 20
448.4650083359218
 30
0.0
  0
VERTEX
  5
399
  8
IMPORT_-_TVSTAND_BACK
 10
1887.504215396726
 20
448.4650083359213
 30
0.0
 42
-1.0
  0
VERTEX
  5
39A
  8
IMPORT_-_TVSTAND_BACK
 10
1891.746856083845
 20
444.222367648802
 30
0.0
  0
VERTEX
  5
39B
  8
IMPORT_-_TVSTAND_BACK
 10
1891.746368238217
 20
431.446
 30
0.0
  0
VERTEX
  5
39C
  8
IMPORT_-_TVSTAND_BACK
 10
1967.946368238219
 20
431.446
 30
0.0
  0
VERTEX
  5
39D
  8
IMPORT_-_TVSTAND_BACK
 10
1967.946856083847
 20
444.222367648802
 30
0.0
 42
-1.0
  0
VERTEX
  5
39E
  8
IMPORT_-_TVSTAND_BACK
 10
1972.189496770966
 20
448.4650083359213
 30
0.0
  0
VERTEX
  5
39F
  8
IMPORT_-_TVSTAND_BACK
 10
2039.90421539673
 20
448.4650083359213
 30
0.0
 42
-1.0
  0
VERTEX
  5
3A0
  8
IMPORT_-_TVSTAND_BACK
 10
2044.14685608385
 20
444.222367648802
 30
0.0
  0
VERTEX
  5
3A1
  8
IMPORT_-_TVSTAND_BACK
 10
2044.146368238222
 20
431.446
 30
0.0
  0
SEQEND
  5
3A2
  8
IMPORT_-_TVSTAND_BACK
  0
POLYLINE
  5
58
  8
IMPORT_-_TVSTAND_BACK
 66
     1
 10
0.0
 20
0.0
 30
0.0
 70
     1
  0
VERTEX
  5
3A3
  8
IMPORT_-_TVSTAND_BACK
 10
358.2479774770946
 20
383.5290828552793
 30
0.0
 42
0.4142135623730951
  0
VERTEX
  5
3A4
  8
IMPORT_-_TVSTAND_BACK
 10
332.7479774770955
 20
358.0290828552793
 30
0.0
 42
0.4142135623730951
  0
VERTEX
  5
3A5
  8
IMPORT_-_TVSTAND_BACK
 10
358.2479774770946
 20
332.5290828552793
 30
0.0
 42
0.4142135623730951
  0
VERTEX
  5
3A6
  8
IMPORT_-_TVSTAND_BACK
 10
383.7479774770936
 20
358.0290828552793
 30
0.0
 42
0.4142135623730951
  0
SEQEND
  5
3A7
  8
IMPORT_-_TVSTAND_BACK
  0
POLYLINE
  5
59
  8
IMPORT_-_TVSTAND_BACK
 66
     1
 10
0.0
 20
0.0
 30
0.0
 70
     1
  0
VERTEX
  5
3A8
  8
IMPORT_-_TVSTAND_BACK
 10
900.2949661022323
 20
409.5290268456375
 30
0.0
  0
VERTEX
  5
3A9
  8
IMPORT_-_TVSTAND_BACK
 10
1057.394966102232
 20
409.5290268456375
 30
0.0
  0
VERTEX
  5
3AA
  8
IMPORT_-_TVSTAND_BACK
 10
1057.394966102232
 20
397.5345824011933
 30
0.0
  0
VERTEX
  5
3AB
  8
IMPORT_-_TVSTAND_BACK
 10
1165.547325415113
 20
397.5345824011929
 30
0.0
 42
1.0
  0
VERTEX
  5
3AC
  8
IMPORT_-_TVSTAND_BACK
 10
1169.789966102232
 20
401.7772230883123
 30
0.0
  0
VERTEX
  5
3AD
  8
IMPORT_-_TVSTAND_BACK
 10
1169.789966102232
 20
409.5290268456375
 30
0.0
  0
VERTEX
  5
3AE
  8
IMPORT_-_TVSTAND_BACK
 10
1282.184966102232
 20
409.5290268456375
 30
0.0
  0
VERTEX
  5
3AF
  8
IMPORT_-_TVSTAND_BACK
 10
1282.184966102232
 20
401.7772230883122
 30
0.0
 42
1.0
  0
VERTEX
  5
3B0
  8
IMPORT_-_TVSTAND_BACK
 10
1286.427606789352
 20
397.5345824011929
 30
0.0
  0
VERTEX
  5
3B1
  8
IMPORT_-_TVSTAND_BACK
 10
1390.337325415113
 20
397.5345824011928
 30
0.0
 42
1.0
  0
VERTEX
  5
3B2
  8
IMPORT_-_TVSTAND_BACK
 10
1394.579966102232
 20
401.7772230883121
 30
0.0
  0
VERTEX
  5
3B3
  8
IMPORT_-_TVSTAND_BACK
 10
1394.579966102232
 20
409.5290268456374
 30
0.0
  0
VERTEX
  5
3B4
  8
IMPORT_-_TVSTAND_BACK
 10
1506.974966102232
 20
409.5290268456374
 30
0.0
  0
VERTEX
  5
3B5
  8
IMPORT_-_TVSTAND_BACK
 10
1506.974966102232
 20
401.7772230883121
 30
0.0
 42
1.0
  0
VERTEX
  5
3B6
  8
IMPORT_-_TVSTAND_BACK
 10
1511.217606789352
 20
397.5345824011928
 30
0.0
  0
VERTEX
  5
3B7
  8
IMPORT_-_TVSTAND_BACK
 10
1619.394966102232
 20
397.5346095552435
 30
0.0
  0
VERTEX
  5
3B8
  8
IMPORT_-_TVSTAND_BACK
 10
1619.394966102232
 20
409.5290268456375
 30
0.0
  0
VERTEX
  5
3B9
  8
IMPORT_-_TVSTAND_BACK
 10
1776.494966102232
 20
409.5290268456375
 30
0.0
  0
VERTEX
  5
3BA
  8
IMPORT_-_TVSTAND_BACK
 10
1776.492396657788
 20
397.5510367660194
 30
0.0
  0
VERTEX
  5
3BB
  8
IMPORT_-_TVSTAND_BACK
 10
1838.922186526224
 20
397.5510367660194
 30
0.0
 42
1.0
  0
VERTEX
  5
3BC
  8
IMPORT_-_TVSTAND_BACK
 10
1843.164827213344
 20
401.7936774531386
 30
0.0
  0
VERTEX
  5
3BD
  8
IMPORT_-_TVSTAND_BACK
 10
1843.164827213344
 20
409.5454812104639
 30
0.0
  0
VERTEX
  5
3BE
  8
IMPORT_-_TVSTAND_BACK
 10
1909.875104991121
 20
409.5454812104639
 30
0.0
  0
VERTEX
  5
3BF
  8
IMPORT_-_TVSTAND_BACK
 10
1909.875104991121
 20
401.7936774531386
 30
0.0
 42
1.0
  0
VERTEX
  5
3C0
  8
IMPORT_-_TVSTAND_BACK
 10
1914.117745678241
 20
397.5510367660194
 30
0.0
  0
VERTEX
  5
3C1
  8
IMPORT_-_TVSTAND_BACK
 10
1972.307464304002
 20
397.5510367660193
 30
0.0
 42
1.0
  0
VERTEX
  5
3C2
  8
IMPORT_-_TVSTAND_BACK
 10
1976.550104991121
 20
401.7936774531386
 30
0.0
  0
VERTEX
  5
3C3
  8
IMPORT_-_TVSTAND_BACK
 10
1976.550104991121
 20
409.5454812104638
 30
0.0
  0
VERTEX
  5
3C4
  8
IMPORT_-_TVSTAND_BACK
 10
2043.225104991121
 20
409.5454812104638
 30
0.0
  0
VERTEX
  5
3C5
  8
IMPORT_-_TVSTAND_BACK
 10
2043.225104991121
 20
401.7936774531385
 30
0.0
 42
1.0
  0
VERTEX
  5
3C6
  8
IMPORT_-_TVSTAND_BACK
 10
2047.467745678241
 20
397.5510367660193
 30
0.0
  0
VERTEX
  5
3C7
  8
IMPORT_-_TVSTAND_BACK
 10
2109.897535546676
 20
397.5510367660191
 30
0.0
  0
VERTEX
  5
3C8
  8
IMPORT_-_TVSTAND_BACK
 10
2109.894966102232
 20
409.5290268456375
 30
0.0
  0
VERTEX
  5
3C9
  8
IMPORT_-_TVSTAND_BACK
 10
2266.99496610223
 20
409.5290268456375
 30
0.0
  0
VERTEX
  5
3CA
  8
IMPORT_-_TVSTAND_BACK
 10
2266.99496610223
 20
397.5345824011932
 30
0.0
  0
VERTEX
  5
3CB
  8
IMPORT_-_TVSTAND_BACK
 10
2375.14732541511
 20
397.534582401193
 30
0.0
 42
1.0
  0
VERTEX
  5
3CC
  8
IMPORT_-_TVSTAND_BACK
 10
2379.389966102229
 20
401.7772230883123
 30
0.0
  0
VERTEX
  5
3CD
  8
IMPORT_-_TVSTAND_BACK
 10
2379.389966102229
 20
409.5290268456375
 30
0.0
  0
VERTEX
  5
3CE
  8
IMPORT_-_TVSTAND_BACK
 10
2435.58727675153
 20
409.5290268456375
 30
0.0
  0
VERTEX
  5
3CF
  8
IMPORT_-_TVSTAND_BACK
 10
2435.587477452322
 20
333.3290268456374
 30
0.0
  0
VERTEX
  5
3D0
  8
IMPORT_-_TVSTAND_BACK
 10
2423.587477452323
 20
333.3290268456374
 30
0.0
  0
VERTEX
  5
3D1
  8
IMPORT_-_TVSTAND_BACK
 10
2423.587477452323
 20
257.1290268456374
 30
0.0
  0
VERTEX
  5
3D2
  8
IMPORT_-_TVSTAND_BACK
 10
2435.587477452322
 20
257.1290268456374
 30
0.0
  0
VERTEX
  5
3D3
  8
IMPORT_-_TVSTAND_BACK
 10
2435.587477452322
 20
180.9290268456373
 30
0.0
  0
VERTEX
  5
3D4
  8
IMPORT_-_TVSTAND_BACK
 10
2423.587477452323
 20
180.9290268456373
 30
0.0
  0
VERTEX
  5
3D5
  8
IMPORT_-_TVSTAND_BACK
 10
2423.587477452323
 20
104.7290268456373
 30
0.0
  0
VERTEX
  5
3D6
  8
IMPORT_-_TVSTAND_BACK
 10
2435.587477452322
 20
104.7290268456373
 30
0.0
  0
VERTEX
  5
3D7
  8
IMPORT_-_TVSTAND_BACK
 10
2435.587272467433
 20
28.52902684563749
 30
0.0
  0
VERTEX
  5
3D8
  8
IMPORT_-_TVSTAND_BACK
 10
1776.494966102232
 20
28.52902684563745
 30
0.0
  0
VERTEX
  5
3D9
  8
IMPORT_-_TVSTAND_BACK
 10
1619.394966102232
 20
28.52902684563745
 30
0.0
  0
VERTEX
  5
3DA
  8
IMPORT_-_TVSTAND_BACK
 10
1057.394966102232
 20
28.52902684563745
 30
0.0
  0
VERTEX
  5
3DB
  8
IMPORT_-_TVSTAND_BACK
 10
900.2949661022323
 20
28.52902684563745
 30
0.0
  0
VERTEX
  5
3DC
  8
IMPORT_-_TVSTAND_BACK
 10
566.8949661022316
 20
28.52902684563747
 30
0.0
  0
VERTEX
  5
3DD
  8
IMPORT_-_TVSTAND_BACK
 10
409.8074886499076
 20
28.52902684563745
 30
0.0
  0
VERTEX
  5
3DE
  8
IMPORT_-_TVSTAND_BACK
 10
16.4123175627881
 20
28.5290268456374
 30
0.0
  0
VERTEX
  5
3DF
  8
IMPORT_-_TVSTAND_BACK
 10
16.41251113455984
 20
100.4863747454309
 30
0.0
 42
1.0
  0
VERTEX
  5
3E0
  8
IMPORT_-_TVSTAND_BACK
 10
12.16987044745591
 20
104.7290268456372
 30
0.0
  0
VERTEX
  5
3E1
  8
IMPORT_-_TVSTAND_BACK
 10
4.412522547677582
 20
104.7290268456372
 30
0.0
  0
VERTEX
  5
3E2
  8
IMPORT_-_TVSTAND_BACK
 10
4.412522547677582
 20
180.9290268456372
 30
0.0
  0
VERTEX
  5
3E3
  8
IMPORT_-_TVSTAND_BACK
 10
12.1698818605583
 20
180.9290268456372
 30
0.0
 42
1.0
  0
VERTEX
  5
3E4
  8
IMPORT_-_TVSTAND_BACK
 10
16.41252254767758
 20
185.1716675327565
 30
0.0
  0
VERTEX
  5
3E5
  8
IMPORT_-_TVSTAND_BACK
 10
16.41252254767758
 20
252.886386158518
 30
0.0
 42
1.0
  0
VERTEX
  5
3E6
  8
IMPORT_-_TVSTAND_BACK
 10
12.1698818605583
 20
257.1290268456373
 30
0.0
  0
VERTEX
  5
3E7
  8
IMPORT_-_TVSTAND_BACK
 10
4.412522547677582
 20
257.1290268456373
 30
0.0
  0
VERTEX
  5
3E8
  8
IMPORT_-_TVSTAND_BACK
 10
4.412522547677582
 20
333.3290268456373
 30
0.0
  0
VERTEX
  5
3E9
  8
IMPORT_-_TVSTAND_BACK
 10
12.16987068598524
 20
333.3290268456373
 30
0.0
 42
1.0
  0
VERTEX
  5
3EA
  8
IMPORT_-_TVSTAND_BACK
 10
16.4125113730898
 20
337.5716787073149
 30
0.0
  0
VERTEX
  5
3EB
  8
IMPORT_-_TVSTAND_BACK
 10
16.41232184688559
 20
409.5290268456375
 30
0.0
  0
VERTEX
  5
3EC
  8
IMPORT_-_TVSTAND_BACK
 10
72.61001119758369
 20
409.5290268456375
 30
0.0
  0
VERTEX
  5
3ED
  8
IMPORT_-_TVSTAND_BACK
 10
72.61001119758369
 20
401.7772230883122
 30
0.0
 42
1.0
  0
VERTEX
  5
3EE
  8
IMPORT_-_TVSTAND_BACK
 10
76.8526518847028
 20
397.5345824011929
 30
0.0
  0
VERTEX
  5
3EF
  8
IMPORT_-_TVSTAND_BACK
 10
180.7623705104642
 20
397.5345824011928
 30
0.0
 42
1.0
  0
VERTEX
  5
3F0
  8
IMPORT_-_TVSTAND_BACK
 10
185.0050111975833
 20
401.7772230883121
 30
0.0
  0
VERTEX
  5
3F1
  8
IMPORT_-_TVSTAND_BACK
 10
185.0050111975833
 20
409.5290268456374
 30
0.0
  0
VERTEX
  5
3F2
  8
IMPORT_-_TVSTAND_BACK
 10
297.4000111975836
 20
409.5290268456374
 30
0.0
  0
VERTEX
  5
3F3
  8
IMPORT_-_TVSTAND_BACK
 10
297.4000111975836
 20
401.7772230883121
 30
0.0
 42
1.0
  0
VERTEX
  5
3F4
  8
IMPORT_-_TVSTAND_BACK
 10
301.6426518847027
 20
397.5345824011928
 30
0.0
  0
VERTEX
  5
3F5
  8
IMPORT_-_TVSTAND_BACK
 10
409.7949886499076
 20
397.5345824011927
 30
0.0
  0
VERTEX
  5
3F6
  8
IMPORT_-_TVSTAND_BACK
 10
409.7949661022316
 20
409.5290268456375
 30
0.0
  0
VERTEX
  5
3F7
  8
IMPORT_-_TVSTAND_BACK
 10
566.8949661022316
 20
409.5290268456375
 30
0.0
  0
VERTEX
  5
3F8
  8
IMPORT_-_TVSTAND_BACK
 10
566.8949661022316
 20
397.5674911308457
 30
0.0
  0
VERTEX
  5
3F9
  8
IMPORT_-_TVSTAND_BACK
 10
629.3273254151125
 20
397.5674911308457
 30
0.0
 42
1.0
  0
VERTEX
  5
3FA
  8
IMPORT_-_TVSTAND_BACK
 10
633.5699661022318
 20
401.810131817965
 30
0.0
  0
VERTEX
  5
3FB
  8
IMPORT_-_TVSTAND_BACK
 10
633.5699661022318
 20
409.5619355752902
 30
0.0
  0
VERTEX
  5
3FC
  8
IMPORT_-_TVSTAND_BACK
 10
700.2802438800096
 20
409.5619355752902
 30
0.0
  0
VERTEX
  5
3FD
  8
IMPORT_-_TVSTAND_BACK
 10
700.2802438800096
 20
401.810131817965
 30
0.0
 42
1.0
  0
VERTEX
  5
3FE
  8
IMPORT_-_TVSTAND_BACK
 10
704.5228845671288
 20
397.5674911308457
 30
0.0
  0
VERTEX
  5
3FF
  8
IMPORT_-_TVSTAND_BACK
 10
762.7126031928904
 20
397.5674911308456
 30
0.0
 42
1.0
  0
VERTEX
  5
400
  8
IMPORT_-_TVSTAND_BACK
 10
766.9552438800097
 20
401.8101318179649
 30
0.0
  0
VERTEX
  5
401
  8
IMPORT_-_TVSTAND_BACK
 10
766.9552438800097
 20
409.5619355752901
 30
0.0
  0
VERTEX
  5
402
  8
IMPORT_-_TVSTAND_BACK
 10
833.6302438800099
 20
409.5619355752901
 30
0.0
  0
VERTEX
  5
403
  8
IMPORT_-_TVSTAND_BACK
 10
833.6302438800099
 20
401.8101318179649
 30
0.0
 42
1.0
  0
VERTEX
  5
404
  8
IMPORT_-_TVSTAND_BACK
 10
837.8728845671292
 20
397.5674911308456
 30
0.0
  0
VERTEX
  5
405
  8
IMPORT_-_TVSTAND_BACK
 10
900.300104991121
 20
397.5674911308456
 30
0.0
  0
SEQEND
  5
406
  8
IMPORT_-_TVSTAND_BACK
  0
POLYLINE
  5
5A
  8
IMPORT_-_TVSTAND_BACK
 66
     1
 10
0.0
 20
0.0
 30
0.0
  0
VERTEX
  5
407
  8
IMPORT_-_TVSTAND_BACK
 10
422.3449661022316
 20
40.45833061369119
 30
0.0
  0
VERTEX
  5
408
  8
IMPORT_-_TVSTAND_BACK
 10
422.3449661022316
 20
149.3196106695302
 30
0.0
  0
SEQEND
  5
409
  8
IMPORT_-_TVSTAND_BACK
  0
POLYLINE
  5
5B
  8
IMPORT_-_TVSTAND_BACK
 66
     1
 10
0.0
 20
0.0
 30
0.0
  0
VERTEX
  5
40A
  8
IMPORT_-_TVSTAND_BACK
 10
422.3449661022316
 20
164.5983868177181
 30
0.0
  0
VERTEX
  5
40B
  8
IMPORT_-_TVSTAND_BACK
 10
422.3449661022316
 20
273.4596668735568
 30
0.0
  0
SEQEND
  5
40C
  8
IMPORT_-_TVSTAND_BACK
  0
POLYLINE
  5
5C
  8
IMPORT_-_TVSTAND_BACK
 66
     1
 10
0.0
 20
0.0
 30
0.0
  0
VERTEX
  5
40D
  8
IMPORT_-_TVSTAND_BACK
 10
422.3449661022316
 20
288.7384430217447
 30
0.0
  0
VERTEX
  5
40E
  8
IMPORT_-_TVSTAND_BACK
 10
422.3449661022316
 20
397.5997230775837
 30
0.0
  0
SEQEND
  5
40F
  8
IMPORT_-_TVSTAND_BACK
  0
POLYLINE
  5
5D
  8
IMPORT_-_TVSTAND_BACK
 66
     1
 10
0.0
 20
0.0
 30
0.0
  0
VERTEX
  5
410
  8
IMPORT_-_TVSTAND_BACK
 10
434.3449661022316
 20
350.8084711237582
 30
0.0
  0
VERTEX
  5
411
  8
IMPORT_-_TVSTAND_BACK
 10
434.3449661022316
 20
410.0137286979864
 30
0.0
  0
SEQEND
  5
412
  8
IMPORT_-_TVSTAND_BACK
  0
POLYLINE
  5
5E
  8
IMPORT_-_TVSTAND_BACK
 66
     1
 10
0.0
 20
0.0
 30
0.0
  0
VERTEX
  5
413
  8
IMPORT_-_TVSTAND_BACK
 10
434.3449661022316
 20
226.6684149197316
 30
0.0
  0
VERTEX
  5
414
  8
IMPORT_-_TVSTAND_BACK
 10
434.3449661022316
 20
335.5296949755702
 30
0.0
  0
SEQEND
  5
415
  8
IMPORT_-_TVSTAND_BACK
  0
POLYLINE
  5
5F
  8
IMPORT_-_TVSTAND_BACK
 66
     1
 10
0.0
 20
0.0
 30
0.0
  0
VERTEX
  5
416
  8
IMPORT_-_TVSTAND_BACK
 10
434.3449661022316
 20
102.5283587157047
 30
0.0
  0
VERTEX
  5
417
  8
IMPORT_-_TVSTAND_BACK
 10
434.3449661022316
 20
211.3896387715436
 30
0.0
  0
SEQEND
  5
418
  8
IMPORT_-_TVSTAND_BACK
  0
POLYLINE
  5
60
  8
IMPORT_-_TVSTAND_BACK
 66
     1
 10
0.0
 20
0.0
 30
0.0
  0
VERTEX
  5
419
  8
IMPORT_-_TVSTAND_BACK
 10
434.3449661022316
 20
28.04432499328851
 30
0.0
  0
VERTEX
  5
41A
  8
IMPORT_-_TVSTAND_BACK
 10
434.3449661022316
 20
87.24958256751677
 30
0.0
  0
SEQEND
  5
41B
  8
IMPORT_-_TVSTAND_BACK
  0
POLYLINE
  5
61
  8
IMPORT_-_TVSTAND_BACK
 66
     1
 10
0.0
 20
0.0
 30
0.0
  0
VERTEX
  5
41C
  8
IMPORT_-_TVSTAND_BACK
 10
446.3449661022315
 20
164.5983868177181
 30
0.0
  0
VERTEX
  5
41D
  8
IMPORT_-_TVSTAND_BACK
 10
446.3449661022315
 20
273.4596668735568
 30
0.0
  0
SEQEND
  5
41E
  8
IMPORT_-_TVSTAND_BACK
  0
POLYLINE
  5
62
  8
IMPORT_-_TVSTAND_BACK
 66
     1
 10
0.0
 20
0.0
 30
0.0
  0
VERTEX
  5
41F
  8
IMPORT_-_TVSTAND_BACK
 10
446.3449661022315
 20
288.7384430217447
 30
0.0
  0
VERTEX
  5
420
  8
IMPORT_-_TVSTAND_BACK
 10
446.3449661022315
 20
397.5997230775837
 30
0.0
  0
SEQEND
  5
421
  8
IMPORT_-_TVSTAND_BACK
  0
POLYLINE
  5
63
  8
IMPORT_-_TVSTAND_BACK
 66
     1
 10
0.0
 20
0.0
 30
0.0
  0
VERTEX
  5
422
  8
IMPORT_-_TVSTAND_BACK
 10
446.3449661022315
 20
40.45833061369119
 30
0.0
  0
VERTEX
  5
423
  8
IMPORT_-_TVSTAND_BACK
 10
446.3449661022315
 20
149.3196106695302
 30
0.0
  0
SEQEND
  5
424
  8
IMPORT_-_TVSTAND_BACK
  0
POLYLINE
  5
64
  8
IMPORT_-_TVSTAND_BACK
 66
     1
 10
0.0
 20
0.0
 30
0.0
  0
VERTEX
  5
425
  8
IMPORT_-_TVSTAND_BACK
 10
470.3449661022315
 20
164.5983868177181
 30
0.0
  0
VERTEX
  5
426
  8
IMPORT_-_TVSTAND_BACK
 10
470.3449661022315
 20
273.4596668735568
 30
0.0
  0
SEQEND
  5
427
  8
IMPORT_-_TVSTAND_BACK
  0
POLYLINE
  5
65
  8
IMPORT_-_TVSTAND_BACK
 66
     1
 10
0.0
 20
0.0
 30
0.0
  0
VERTEX
  5
428
  8
IMPORT_-_TVSTAND_BACK
 10
470.3449661022315
 20
288.7384430217447
 30
0.0
  0
VERTEX
  5
429
  8
IMPORT_-_TVSTAND_BACK
 10
470.3449661022315
 20
397.5997230775837
 30
0.0
  0
SEQEND
  5
42A
  8
IMPORT_-_TVSTAND_BACK
  0
POLYLINE
  5
66
  8
IMPORT_-_TVSTAND_BACK
 66
     1
 10
0.0
 20
0.0
 30
0.0
  0
VERTEX
  5
42B
  8
IMPORT_-_TVSTAND_BACK
 10
470.3449661022315
 20
40.45833061369119
 30
0.0
  0
VERTEX
  5
42C
  8
IMPORT_-_TVSTAND_BACK
 10
470.3449661022315
 20
149.3196106695302
 30
0.0
  0
SEQEND
  5
42D
  8
IMPORT_-_TVSTAND_BACK
  0
POLYLINE
  5
67
  8
IMPORT_-_TVSTAND_BACK
 66
     1
 10
0.0
 20
0.0
 30
0.0
  0
VERTEX
  5
42E
  8
IMPORT_-_TVSTAND_BACK
 10
494.3449661022314
 20
164.5983868177181
 30
0.0
  0
VERTEX
  5
42F
  8
IMPORT_-_TVSTAND_BACK
 10
494.3449661022314
 20
273.4596668735568
 30
0.0
  0
SEQEND
  5
430
  8
IMPORT_-_TVSTAND_BACK
  0
POLYLINE
  5
68
  8
IMPORT_-_TVSTAND_BACK
 66
     1
 10
0.0
 20
0.0
 30
0.0
  0
VERTEX
  5
431
  8
IMPORT_-_TVSTAND_BACK
 10
494.3449661022314
 20
288.7384430217447
 30
0.0
  0
VERTEX
  5
432
  8
IMPORT_-_TVSTAND_BACK
 10
494.3449661022314
 20
397.5997230775837
 30
0.0
  0
SEQEND
  5
433
  8
IMPORT_-_TVSTAND_BACK
  0
POLYLINE
  5
69
  8
IMPORT_-_TVSTAND_BACK
 66
     1
 10
0.0
 20
0.0
 30
0.0
  0
VERTEX
  5
434
  8
IMPORT_-_TVSTAND_BACK
 10
494.3449661022314
 20
40.45833061369119
 30
0.0
  0
VERTEX
  5
435
  8
IMPORT_-_TVSTAND_BACK
 10
494.3449661022314
 20
149.3196106695302
 30
0.0
  0
SEQEND
  5
436
  8
IMPORT_-_TVSTAND_BACK
  0
POLYLINE
  5
6A
  8
IMPORT_-_TVSTAND_BACK
 66
     1
 10
0.0
 20
0.0
 30
0.0
  0
VERTEX
  5
437
  8
IMPORT_-_TVSTAND_BACK
 10
518.3449661022314
 20
164.5983868177181
 30
0.0
  0
VERTEX
  5
438
  8
IMPORT_-_TVSTAND_BACK
 10
518.3449661022314
 20
273.4596668735568
 30
0.0
  0
SEQEND
  5
439
  8
IMPORT_-_TVSTAND_BACK
  0
POLYLINE
  5
6B
  8
IMPORT_-_TVSTAND_BACK
 66
     1
 10
0.0
 20
0.0
 30
0.0
  0
VERTEX
  5
43A
  8
IMPORT_-_TVSTAND_BACK
 10
518.3449661022314
 20
288.7384430217447
 30
0.0
  0
VERTEX
  5
43B
  8
IMPORT_-_TVSTAND_BACK
 10
518.3449661022314
 20
397.5997230775837
 30
0.0
  0
SEQEND
  5
43C
  8
IMPORT_-_TVSTAND_BACK
  0
POLYLINE
  5
6C
  8
IMPORT_-_TVSTAND_BACK
 66
     1
 10
0.0
 20
0.0
 30
0.0
  0
VERTEX
  5
43D
  8
IMPORT_-_TVSTAND_BACK
 10
518.3449661022314
 20
40.45833061369119
 30
0.0
  0
VERTEX
  5
43E
  8
IMPORT_-_TVSTAND_BACK
 10
518.3449661022314
 20
149.3196106695302
 30
0.0
  0
SEQEND
  5
43F
  8
IMPORT_-_TVSTAND_BACK
  0
POLYLINE
  5
6D
  8
IMPORT_-_TVSTAND_BACK
 66
     1
 10
0.0
 20
0.0
 30
0.0
  0
VERTEX
  5
440
  8
IMPORT_-_TVSTAND_BACK
 10
458.3449661022315
 20
350.8084711237582
 30
0.0
  0
VERTEX
  5
441
  8
IMPORT_-_TVSTAND_BACK
 10
458.3449661022315
 20
410.0137286979864
 30
0.0
  0
SEQEND
  5
442
  8
IMPORT_-_TVSTAND_BACK
  0
POLYLINE
  5
6E
  8
IMPORT_-_TVSTAND_BACK
 66
     1
 10
0.0
 20
0.0
 30
0.0
  0
VERTEX
  5
443
  8
IMPORT_-_TVSTAND_BACK
 10
458.3449661022315
 20
226.6684149197316
 30
0.0
  0
VERTEX
  5
444
  8
IMPORT_-_TVSTAND_BACK
 10
458.3449661022315
 20
335.5296949755702
 30
0.0
  0
SEQEND
  5
445
  8
IMPORT_-_TVSTAND_BACK
  0
POLYLINE
  5
6F
  8
IMPORT_-_TVSTAND_BACK
 66
     1
 10
0.0
 20
0.0
 30
0.0
  0
VERTEX
  5
446
  8
IMPORT_-_TVSTAND_BACK
 10
458.3449661022315
 20
102.5283587157047
 30
0.0
  0
VERTEX
  5
447
  8
IMPORT_-_TVSTAND_BACK
 10
458.3449661022315
 20
211.3896387715436
 30
0.0
  0
SEQEND
  5
448
  8
IMPORT_-_TVSTAND_BACK
  0
POLYLINE
  5
70
  8
IMPORT_-_TVSTAND_BACK
 66
     1
 10
0.0
 20
0.0
 30
0.0
  0
VERTEX
  5
449
  8
IMPORT_-_TVSTAND_BACK
 10
458.3449661022315
 20
28.04432499328851
 30
0.0
  0
VERTEX
  5
44A
  8
IMPORT_-_TVSTAND_BACK
 10
458.3449661022315
 20
87.24958256751677
 30
0.0
  0
SEQEND
  5
44B
  8
IMPORT_-_TVSTAND_BACK
  0
POLYLINE
  5
71
  8
IMPORT_-_TVSTAND_BACK
 66
     1
 10
0.0
 20
0.0
 30
0.0
  0
VERTEX
  5
44C
  8
IMPORT_-_TVSTAND_BACK
 10
482.3449661022315
 20
350.8084711237582
 30
0.0
  0
VERTEX
  5
44D
  8
IMPORT_-_TVSTAND_BACK
 10
482.3449661022315
 20
410.0137286979864
 30
0.0
  0
SEQEND
  5
44E
  8
IMPORT_-_TVSTAND_BACK
  0
POLYLINE
  5
72
  8
IMPORT_-_TVSTAND_BACK
 66
     1
 10
0.0
 20
0.0
 30
0.0
  0
VERTEX
  5
44F
  8
IMPORT_-_TVSTAND_BACK
 10
482.3449661022315
 20
226.6684149197316
 30
0.0
  0
VERTEX
  5
450
  8
IMPORT_-_TVSTAND_BACK
 10
482.3449661022315
 20
335.5296949755702
 30
0.0
  0
SEQEND
  5
451
  8
IMPORT_-_TVSTAND_BACK
  0
POLYLINE
  5
73
  8
IMPORT_-_TVSTAND_BACK
 66
     1
 10
0.0
 20
0.0
 30
0.0
  0
VERTEX
  5
452
  8
IMPORT_-_TVSTAND_BACK
 10
482.3449661022315
 20
102.5283587157047
 30
0.0
  0
VERTEX
  5
453
  8
IMPORT_-_TVSTAND_BACK
 10
482.3449661022315
 20
211.3896387715436
 30
0.0
  0
SEQEND
  5
454
  8
IMPORT_-_TVSTAND_BACK
  0
POLYLINE
  5
74
  8
IMPORT_-_TVSTAND_BACK
 66
     1
 10
0.0
 20
0.0
 30
0.0
  0
VERTEX
  5
455
  8
IMPORT_-_TVSTAND_BACK
 10
482.3449661022315
 20
28.04432499328851
 30
0.0
  0
VERTEX
  5
456
  8
IMPORT_-_TVSTAND_BACK
 10
482.3449661022315
 20
87.24958256751677
 30
0.0
  0
SEQEND
  5
457
  8
IMPORT_-_TVSTAND_BACK
  0
POLYLINE
  5
75
  8
IMPORT_-_TVSTAND_BACK
 66
     1
 10
0.0
 20
0.0
 30
0.0
  0
VERTEX
  5
458
  8
IMPORT_-_TVSTAND_BACK
 10
506.3449661022314
 20
350.8084711237582
 30
0.0
  0
VERTEX
  5
459
  8
IMPORT_-_TVSTAND_BACK
 10
506.3449661022314
 20
410.0137286979864
 30
0.0
  0
SEQEND
  5
45A
  8
IMPORT_-_TVSTAND_BACK
  0
POLYLINE
  5
76
  8
IMPORT_-_TVSTAND_BACK
 66
     1
 10
0.0
 20
0.0
 30
0.0
  0
VERTEX
  5
45B
  8
IMPORT_-_TVSTAND_BACK
 10
506.3449661022314
 20
226.6684149197316
 30
0.0
  0
VERTEX
  5
45C
  8
IMPORT_-_TVSTAND_BACK
 10
506.3449661022314
 20
335.5296949755702
 30
0.0
  0
SEQEND
  5
45D
  8
IMPORT_-_TVSTAND_BACK
  0
POLYLINE
  5
77
  8
IMPORT_-_TVSTAND_BACK
 66
     1
 10
0.0
 20
0.0
 30
0.0
  0
VERTEX
  5
45E
  8
IMPORT_-_TVSTAND_BACK
 10
506.3449661022314
 20
102.5283587157047
 30
0.0
  0
VERTEX
  5
45F
  8
IMPORT_-_TVSTAND_BACK
 10
506.3449661022314
 20
211.3896387715436
 30
0.0
  0
SEQEND
  5
460
  8
IMPORT_-_TVSTAND_BACK
  0
POLYLINE
  5
78
  8
IMPORT_-_TVSTAND_BACK
 66
     1
 10
0.0
 20
0.0
 30
0.0
  0
VERTEX
  5
461
  8
IMPORT_-_TVSTAND_BACK
 10
506.3449661022314
 20
28.04432499328851
 30
0.0
  0
VERTEX
  5
462
  8
IMPORT_-_TVSTAND_BACK
 10
506.3449661022314
 20
87.24958256751677
 30
0.0
  0
SEQEND
  5
463
  8
IMPORT_-_TVSTAND_BACK
  0
POLYLINE
  5
79
  8
IMPORT_-_TVSTAND_BACK
 66
     1
 10
0.0
 20
0.0
 30
0.0
  0
VERTEX
  5
464
  8
IMPORT_-_TVSTAND_BACK
 10
530.3449661022315
 20
350.8084711237582
 30
0.0
  0
VERTEX
  5
465
  8
IMPORT_-_TVSTAND_BACK
 10
530.3449661022315
 20
410.0137286979864
 30
0.0
  0
SEQEND
  5
466
  8
IMPORT_-_TVSTAND_BACK
  0
POLYLINE
  5
7A
  8
IMPORT_-_TVSTAND_BACK
 66
     1
 10
0.0
 20
0.0
 30
0.0
  0
VERTEX
  5
467
  8
IMPORT_-_TVSTAND_BACK
 10
530.3449661022315
 20
226.6684149197316
 30
0.0
  0
VERTEX
  5
468
  8
IMPORT_-_TVSTAND_BACK
 10
530.3449661022315
 20
335.5296949755702
 30
0.0
  0
SEQEND
  5
469
  8
IMPORT_-_TVSTAND_BACK
  0
POLYLINE
  5
7B
  8
IMPORT_-_TVSTAND_BACK
 66
     1
 10
0.0
 20
0.0
 30
0.0
  0
VERTEX
  5
46A
  8
IMPORT_-_TVSTAND_BACK
 10
530.3449661022315
 20
102.5283587157047
 30
0.0
  0
VERTEX
  5
46B
  8
IMPORT_-_TVSTAND_BACK
 10
530.3449661022315
 20
211.3896387715436
 30
0.0
  0
SEQEND
  5
46C
  8
IMPORT_-_TVSTAND_BACK
  0
POLYLINE
  5
7C
  8
IMPORT_-_TVSTAND_BACK
 66
     1
 10
0.0
 20
0.0
 30
0.0
  0
VERTEX
  5
46D
  8
IMPORT_-_TVSTAND_BACK
 10
530.3449661022315
 20
28.04432499328851
 30
0.0
  0
VERTEX
  5
46E
  8
IMPORT_-_TVSTAND_BACK
 10
530.3449661022315
 20
87.24958256751677
 30
0.0
  0
SEQEND
  5
46F
  8
IMPORT_-_TVSTAND_BACK
  0
POLYLINE
  5
7D
  8
IMPORT_-_TVSTAND_BACK
 66
     1
 10
0.0
 20
0.0
 30
0.0
  0
VERTEX
  5
470
  8
IMPORT_-_TVSTAND_BACK
 10
542.3449661022314
 20
164.5983868177181
 30
0.0
  0
VERTEX
  5
471
  8
IMPORT_-_TVSTAND_BACK
 10
542.3449661022314
 20
273.4596668735568
 30
0.0
  0
SEQEND
  5
472
  8
IMPORT_-_TVSTAND_BACK
  0
POLYLINE
  5
7E
  8
IMPORT_-_TVSTAND_BACK
 66
     1
 10
0.0
 20
0.0
 30
0.0
  0
VERTEX
  5
473
  8
IMPORT_-_TVSTAND_BACK
 10
542.3449661022314
 20
288.7384430217447
 30
0.0
  0
VERTEX
  5
474
  8
IMPORT_-_TVSTAND_BACK
 10
542.3449661022314
 20
397.5997230775837
 30
0.0
  0
SEQEND
  5
475
  8
IMPORT_-_TVSTAND_BACK
  0
POLYLINE
  5
7F
  8
IMPORT_-_TVSTAND_BACK
 66
     1
 10
0.0
 20
0.0
 30
0.0
  0
VERTEX
  5
476
  8
IMPORT_-_TVSTAND_BACK
 10
542.3449661022314
 20
40.45833061369119
 30
0.0
  0
VERTEX
  5
477
  8
IMPORT_-_TVSTAND_BACK
 10
542.3449661022314
 20
149.3196106695302
 30
0.0
  0
SEQEND
  5
478
  8
IMPORT_-_TVSTAND_BACK
  0
POLYLINE
  5
80
  8
IMPORT_-_TVSTAND_BACK
 66
     1
 10
0.0
 20
0.0
 30
0.0
  0
VERTEX
  5
479
  8
IMPORT_-_TVSTAND_BACK
 10
554.3449661022315
 20
350.8084711237582
 30
0.0
  0
VERTEX
  5
47A
  8
IMPORT_-_TVSTAND_BACK
 10
554.3449661022315
 20
410.0137286979864
 30
0.0
  0
SEQEND
  5
47B
  8
IMPORT_-_TVSTAND_BACK
  0
POLYLINE
  5
81
  8
IMPORT_-_TVSTAND_BACK
 66
     1
 10
0.0
 20
0.0
 30
0.0
  0
VERTEX
  5
47C
  8
IMPORT_-_TVSTAND_BACK
 10
554.3449661022315
 20
226.6684149197316
 30
0.0
  0
VERTEX
  5
47D
  8
IMPORT_-_TVSTAND_BACK
 10
554.3449661022315
 20
335.5296949755702
 30
0.0
  0
SEQEND
  5
47E
  8
IMPORT_-_TVSTAND_BACK
  0
POLYLINE
  5
82
  8
IMPORT_-_TVSTAND_BACK
 66
     1
 10
0.0
 20
0.0
 30
0.0
  0
VERTEX
  5
47F
  8
IMPORT_-_TVSTAND_BACK
 10
554.3449661022315
 20
102.5283587157047
 30
0.0
  0
VERTEX
  5
480
  8
IMPORT_-_TVSTAND_BACK
 10
554.3449661022315
 20
211.3896387715436
 30
0.0
  0
SEQEND
  5
481
  8
IMPORT_-_TVSTAND_BACK
  0
POLYLINE
  5
83
  8
IMPORT_-_TVSTAND_BACK
 66
     1
 10
0.0
 20
0.0
 30
0.0
  0
VERTEX
  5
482
  8
IMPORT_-_TVSTAND_BACK
 10
554.3449661022315
 20
28.04432499328851
 30
0.0
  0
VERTEX
  5
483
  8
IMPORT_-_TVSTAND_BACK
 10
554.3449661022315
 20
87.24958256751677
 30
0.0
  0
SEQEND
  5
484
  8
IMPORT_-_TVSTAND_BACK
  0
POLYLINE
  5
84
  8
IMPORT_-_TVSTAND_BACK
 66
     1
 10
0.0
 20
0.0
 30
0.0
  0
VERTEX
  5
485
  8
IMPORT_-_TVSTAND_BACK
 10
912.8449661022323
 20
40.45833061369122
 30
0.0
  0
VERTEX
  5
486
  8
IMPORT_-_TVSTAND_BACK
 10
912.8449661022323
 20
149.3196106695302
 30
0.0
  0
SEQEND
  5
487
  8
IMPORT_-_TVSTAND_BACK
  0
POLYLINE
  5
85
  8
IMPORT_-_TVSTAND_BACK
 66
     1
 10
0.0
 20
0.0
 30
0.0
  0
VERTEX
  5
488
  8
IMPORT_-_TVSTAND_BACK
 10
912.8449661022323
 20
164.5983868177182
 30
0.0
  0
VERTEX
  5
489
  8
IMPORT_-_TVSTAND_BACK
 10
912.8449661022323
 20
273.4596668735568
 30
0.0
  0
SEQEND
  5
48A
  8
IMPORT_-_TVSTAND_BACK
  0
POLYLINE
  5
86
  8
IMPORT_-_TVSTAND_BACK
 66
     1
 10
0.0
 20
0.0
 30
0.0
  0
VERTEX
  5
48B
  8
IMPORT_-_TVSTAND_BACK
 10
912.8449661022323
 20
288.7384430217448
 30
0.0
  0
VERTEX
  5
48C
  8
IMPORT_-_TVSTAND_BACK
 10
912.8449661022323
 20
397.5997230775837
 30
0.0
  0
SEQEND
  5
48D
  8
IMPORT_-_TVSTAND_BACK
  0
POLYLINE
  5
87
  8
IMPORT_-_TVSTAND_BACK
 66
     1
 10
0.0
 20
0.0
 30
0.0
  0
VERTEX
  5
48E
  8
IMPORT_-_TVSTAND_BACK
 10
924.8449661022323
 20
350.8084711237582
 30
0.0
  0
VERTEX
  5
48F
  8
IMPORT_-_TVSTAND_BACK
 10
924.8449661022323
 20
410.0137286979864
 30
0.0
  0
SEQEND
  5
490
  8
IMPORT_-_TVSTAND_BACK
  0
POLYLINE
  5
88
  8
IMPORT_-_TVSTAND_BACK
 66
     1
 10
0.0
 20
0.0
 30
0.0
  0
VERTEX
  5
491
  8
IMPORT_-_TVSTAND_BACK
 10
924.8449661022323
 20
226.6684149197316
 30
0.0
  0
VERTEX
  5
492
  8
IMPORT_-_TVSTAND_BACK
 10
924.8449661022323
 20
335.5296949755703
 30
0.0
  0
SEQEND
  5
493
  8
IMPORT_-_TVSTAND_BACK
  0
POLYLINE
  5
89
  8
IMPORT_-_TVSTAND_BACK
 66
     1
 10
0.0
 20
0.0
 30
0.0
  0
VERTEX
  5
494
  8
IMPORT_-_TVSTAND_BACK
 10
924.8449661022323
 20
102.5283587157047
 30
0.0
  0
VERTEX
  5
495
  8
IMPORT_-_TVSTAND_BACK
 10
924.8449661022323
 20
211.3896387715437
 30
0.0
  0
SEQEND
  5
496
  8
IMPORT_-_TVSTAND_BACK
  0
POLYLINE
  5
8A
  8
IMPORT_-_TVSTAND_BACK
 66
     1
 10
0.0
 20
0.0
 30
0.0
  0
VERTEX
  5
497
  8
IMPORT_-_TVSTAND_BACK
 10
924.8449661022323
 20
28.04432499328854
 30
0.0
  0
VERTEX
  5
498
  8
IMPORT_-_TVSTAND_BACK
 10
924.8449661022323
 20
87.2495825675168
 30
0.0
  0
SEQEND
  5
499
  8
IMPORT_-_TVSTAND_BACK
  0
POLYLINE
  5
8B
  8
IMPORT_-_TVSTAND_BACK
 66
     1
 10
0.0
 20
0.0
 30
0.0
  0
VERTEX
  5
49A
  8
IMPORT_-_TVSTAND_BACK
 10
936.8449661022323
 20
164.5983868177182
 30
0.0
  0
VERTEX
  5
49B
  8
IMPORT_-_TVSTAND_BACK
 10
936.8449661022323
 20
273.4596668735568
 30
0.0
  0
SEQEND
  5
49C
  8
IMPORT_-_TVSTAND_BACK
  0
POLYLINE
  5
8C
  8
IMPORT_-_TVSTAND_BACK
 66
     1
 10
0.0
 20
0.0
 30
0.0
  0
VERTEX
  5
49D
  8
IMPORT_-_TVSTAND_BACK
 10
936.8449661022323
 20
288.7384430217448
 30
0.0
  0
VERTEX
  5
49E
  8
IMPORT_-_TVSTAND_BACK
 10
936.8449661022323
 20
397.5997230775837
 30
0.0
  0
SEQEND
  5
49F
  8
IMPORT_-_TVSTAND_BACK
  0
POLYLINE
  5
8D
  8
IMPORT_-_TVSTAND_BACK
 66
     1
 10
0.0
 20
0.0
 30
0.0
  0
VERTEX
  5
4A0
  8
IMPORT_-_TVSTAND_BACK
 10
936.8449661022323
 20
40.45833061369122
 30
0.0
  0
VERTEX
  5
4A1
  8
IMPORT_-_TVSTAND_BACK
 10
936.8449661022323
 20
149.3196106695302
 30
0.0
  0
SEQEND
  5
4A2
  8
IMPORT_-_TVSTAND_BACK
  0
POLYLINE
  5
8E
  8
IMPORT_-_TVSTAND_BACK
 66
     1
 10
0.0
 20
0.0
 30
0.0
  0
VERTEX
  5
4A3
  8
IMPORT_-_TVSTAND_BACK
 10
960.8449661022322
 20
164.5983868177182
 30
0.0
  0
VERTEX
  5
4A4
  8
IMPORT_-_TVSTAND_BACK
 10
960.8449661022322
 20
273.4596668735568
 30
0.0
  0
SEQEND
  5
4A5
  8
IMPORT_-_TVSTAND_BACK
  0
POLYLINE
  5
8F
  8
IMPORT_-_TVSTAND_BACK
 66
     1
 10
0.0
 20
0.0
 30
0.0
  0
VERTEX
  5
4A6
  8
IMPORT_-_TVSTAND_BACK
 10
960.8449661022322
 20
288.7384430217448
 30
0.0
  0
VERTEX
  5
4A7
  8
IMPORT_-_TVSTAND_BACK
 10
960.8449661022322
 20
397.5997230775837
 30
0.0
  0
SEQEND
  5
4A8
  8
IMPORT_-_TVSTAND_BACK
  0
POLYLINE
  5
90
  8
IMPORT_-_TVSTAND_BACK
 66
     1
 10
0.0
 20
0.0
 30
0.0
  0
VERTEX
  5
4A9
  8
IMPORT_-_TVSTAND_BACK
 10
960.8449661022322
 20
40.45833061369122
 30
0.0
  0
VERTEX
  5
4AA
  8
IMPORT_-_TVSTAND_BACK
 10
960.8449661022322
 20
149.3196106695302
 30
0.0
  0
SEQEND
  5
4AB
  8
IMPORT_-_TVSTAND_BACK
  0
POLYLINE
  5
91
  8
IMPORT_-_TVSTAND_BACK
 66
     1
 10
0.0
 20
0.0
 30
0.0
  0
VERTEX
  5
4AC
  8
IMPORT_-_TVSTAND_BACK
 10
984.8449661022322
 20
164.5983868177182
 30
0.0
  0
VERTEX
  5
4AD
  8
IMPORT_-_TVSTAND_BACK
 10
984.8449661022322
 20
273.4596668735568
 30
0.0
  0
SEQEND
  5
4AE
  8
IMPORT_-_TVSTAND_BACK
  0
POLYLINE
  5
92
  8
IMPORT_-_TVSTAND_BACK
 66
     1
 10
0.0
 20
0.0
 30
0.0
  0
VERTEX
  5
4AF
  8
IMPORT_-_TVSTAND_BACK
 10
984.8449661022322
 20
288.7384430217448
 30
0.0
  0
VERTEX
  5
4B0
  8
IMPORT_-_TVSTAND_BACK
 10
984.8449661022322
 20
397.5997230775837
 30
0.0
  0
SEQEND
  5
4B1
  8
IMPORT_-_TVSTAND_BACK
  0
POLYLINE
  5
93
  8
IMPORT_-_TVSTAND_BACK
 66
     1
 10
0.0
 20
0.0
 30
0.0
  0
VERTEX
  5
4B2
  8
IMPORT_-_TVSTAND_BACK
 10
984.8449661022322
 20
40.45833061369122
 30
0.0
  0
VERTEX
  5
4B3
  8
IMPORT_-_TVSTAND_BACK
 10
984.8449661022322
 20
149.3196106695302
 30
0.0
  0
SEQEND
  5
4B4
  8
IMPORT_-_TVSTAND_BACK
  0
POLYLINE
  5
94
  8
IMPORT_-_TVSTAND_BACK
 66
     1
 10
0.0
 20
0.0
 30
0.0
  0
VERTEX
  5
4B5
  8
IMPORT_-_TVSTAND_BACK
 10
1008.844966102232
 20
164.5983868177182
 30
0.0
  0
VERTEX
  5
4B6
  8
IMPORT_-_TVSTAND_BACK
 10
1008.844966102232
 20
273.4596668735568
 30
0.0
  0
SEQEND
  5
4B7
  8
IMPORT_-_TVSTAND_BACK
  0
POLYLINE
  5
95
  8
IMPORT_-_TVSTAND_BACK
 66
     1
 10
0.0
 20
0.0
 30
0.0
  0
VERTEX
  5
4B8
  8
IMPORT_-_TVSTAND_BACK
 10
1008.844966102232
 20
288.7384430217448
 30
0.0
  0
VERTEX
  5
4B9
  8
IMPORT_-_TVSTAND_BACK
 10
1008.844966102232
 20
397.5997230775837
 30
0.0
  0
SEQEND
  5
4BA
  8
IMPORT_-_TVSTAND_BACK
  0
POLYLINE
  5
96
  8
IMPORT_-_TVSTAND_BACK
 66
     1
 10
0.0
 20
0.0
 30
0.0
  0
VERTEX
  5
4BB
  8
IMPORT_-_TVSTAND_BACK
 10
1008.844966102232
 20
40.45833061369122
 30
0.0
  0
VERTEX
  5
4BC
  8
IMPORT_-_TVSTAND_BACK
 10
1008.844966102232
 20
149.3196106695302
 30
0.0
  0
SEQEND
  5
4BD
  8
IMPORT_-_TVSTAND_BACK
  0
POLYLINE
  5
97
  8
IMPORT_-_TVSTAND_BACK
 66
     1
 10
0.0
 20
0.0
 30
0.0
  0
VERTEX
  5
4BE
  8
IMPORT_-_TVSTAND_BACK
 10
948.8449661022322
 20
350.8084711237582
 30
0.0
  0
VERTEX
  5
4BF
  8
IMPORT_-_TVSTAND_BACK
 10
948.8449661022322
 20
410.0137286979864
 30
0.0
  0
SEQEND
  5
4C0
  8
IMPORT_-_TVSTAND_BACK
  0
POLYLINE
  5
98
  8
IMPORT_-_TVSTAND_BACK
 66
     1
 10
0.0
 20
0.0
 30
0.0
  0
VERTEX
  5
4C1
  8
IMPORT_-_TVSTAND_BACK
 10
948.8449661022322
 20
226.6684149197316
 30
0.0
  0
VERTEX
  5
4C2
  8
IMPORT_-_TVSTAND_BACK
 10
948.8449661022322
 20
335.5296949755703
 30
0.0
  0
SEQEND
  5
4C3
  8
IMPORT_-_TVSTAND_BACK
  0
POLYLINE
  5
99
  8
IMPORT_-_TVSTAND_BACK
 66
     1
 10
0.0
 20
0.0
 30
0.0
  0
VERTEX
  5
4C4
  8
IMPORT_-_TVSTAND_BACK
 10
948.8449661022322
 20
102.5283587157047
 30
0.0
  0
VERTEX
  5
4C5
  8
IMPORT_-_TVSTAND_BACK
 10
948.8449661022322
 20
211.3896387715437
 30
0.0
  0
SEQEND
  5
4C6
  8
IMPORT_-_TVSTAND_BACK
  0
POLYLINE
  5
9A
  8
IMPORT_-_TVSTAND_BACK
 66
     1
 10
0.0
 20
0.0
 30
0.0
  0
VERTEX
  5
4C7
  8
IMPORT_-_TVSTAND_BACK
 10
948.8449661022322
 20
28.04432499328854
 30
0.0
  0
VERTEX
  5
4C8
  8
IMPORT_-_TVSTAND_BACK
 10
948.8449661022322
 20
87.2495825675168
 30
0.0
  0
SEQEND
  5
4C9
  8
IMPORT_-_TVSTAND_BACK
  0
POLYLINE
  5
9B
  8
IMPORT_-_TVSTAND_BACK
 66
     1
 10
0.0
 20
0.0
 30
0.0
  0
VERTEX
  5
4CA
  8
IMPORT_-_TVSTAND_BACK
 10
972.8449661022322
 20
350.8084711237582
 30
0.0
  0
VERTEX
  5
4CB
  8
IMPORT_-_TVSTAND_BACK
 10
972.8449661022322
 20
410.0137286979864
 30
0.0
  0
SEQEND
  5
4CC
  8
IMPORT_-_TVSTAND_BACK
  0
POLYLINE
  5
9C
  8
IMPORT_-_TVSTAND_BACK
 66
     1
 10
0.0
 20
0.0
 30
0.0
  0
VERTEX
  5
4CD
  8
IMPORT_-_TVSTAND_BACK
 10
972.8449661022322
 20
226.6684149197316
 30
0.0
  0
VERTEX
  5
4CE
  8
IMPORT_-_TVSTAND_BACK
 10
972.8449661022322
 20
335.5296949755703
 30
0.0
  0
SEQEND
  5
4CF
  8
IMPORT_-_TVSTAND_BACK
  0
POLYLINE
  5
9D
  8
IMPORT_-_TVSTAND_BACK
 66
     1
 10
0.0
 20
0.0
 30
0.0
  0
VERTEX
  5
4D0
  8
IMPORT_-_TVSTAND_BACK
 10
972.8449661022322
 20
102.5283587157047
 30
0.0
  0
VERTEX
  5
4D1
  8
IMPORT_-_TVSTAND_BACK
 10
972.8449661022322
 20
211.3896387715437
 30
0.0
  0
SEQEND
  5
4D2
  8
IMPORT_-_TVSTAND_BACK
  0
POLYLINE
  5
9E
  8
IMPORT_-_TVSTAND_BACK
 66
     1
 10
0.0
 20
0.0
 30
0.0
  0
VERTEX
  5
4D3
  8
IMPORT_-_TVSTAND_BACK
 10
972.8449661022322
 20
28.04432499328854
 30
0.0
  0
VERTEX
  5
4D4
  8
IMPORT_-_TVSTAND_BACK
 10
972.8449661022322
 20
87.2495825675168
 30
0.0
  0
SEQEND
  5
4D5
  8
IMPORT_-_TVSTAND_BACK
  0
POLYLINE
  5
9F
  8
IMPORT_-_TVSTAND_BACK
 66
     1
 10
0.0
 20
0.0
 30
0.0
  0
VERTEX
  5
4D6
  8
IMPORT_-_TVSTAND_BACK
 10
996.8449661022322
 20
350.8084711237582
 30
0.0
  0
VERTEX
  5
4D7
  8
IMPORT_-_TVSTAND_BACK
 10
996.8449661022322
 20
410.0137286979864
 30
0.0
  0
SEQEND
  5
4D8
  8
IMPORT_-_TVSTAND_BACK
  0
POLYLINE
  5
A0
  8
IMPORT_-_TVSTAND_BACK
 66
     1
 10
0.0
 20
0.0
 30
0.0
  0
VERTEX
  5
4D9
  8
IMPORT_-_TVSTAND_BACK
 10
996.8449661022322
 20
226.6684149197316
 30
0.0
  0
VERTEX
  5
4DA
  8
IMPORT_-_TVSTAND_BACK
 10
996.8449661022322
 20
335.5296949755703
 30
0.0
  0
SEQEND
  5
4DB
  8
IMPORT_-_TVSTAND_BACK
  0
POLYLINE
  5
A1
  8
IMPORT_-_TVSTAND_BACK
 66
     1
 10
0.0
 20
0.0
 30
0.0
  0
VERTEX
  5
4DC
  8
IMPORT_-_TVSTAND_BACK
 10
996.8449661022322
 20
102.5283587157047
 30
0.0
  0
VERTEX
  5
4DD
  8
IMPORT_-_TVSTAND_BACK
 10
996.8449661022322
 20
211.3896387715437
 30
0.0
  0
SEQEND
  5
4DE
  8
IMPORT_-_TVSTAND_BACK
  0
POLYLINE
  5
A2
  8
IMPORT_-_TVSTAND_BACK
 66
     1
 10
0.0
 20
0.0
 30
0.0
  0
VERTEX
  5
4DF
  8
IMPORT_-_TVSTAND_BACK
 10
996.8449661022322
 20
28.04432499328854
 30
0.0
  0
VERTEX
  5
4E0
  8
IMPORT_-_TVSTAND_BACK
 10
996.8449661022322
 20
87.2495825675168
 30
0.0
  0
SEQEND
  5
4E1
  8
IMPORT_-_TVSTAND_BACK
  0
POLYLINE
  5
A3
  8
IMPORT_-_TVSTAND_BACK
 66
     1
 10
0.0
 20
0.0
 30
0.0
  0
VERTEX
  5
4E2
  8
IMPORT_-_TVSTAND_BACK
 10
1020.844966102232
 20
350.8084711237582
 30
0.0
  0
VERTEX
  5
4E3
  8
IMPORT_-_TVSTAND_BACK
 10
1020.844966102232
 20
410.0137286979864
 30
0.0
  0
SEQEND
  5
4E4
  8
IMPORT_-_TVSTAND_BACK
  0
POLYLINE
  5
A4
  8
IMPORT_-_TVSTAND_BACK
 66
     1
 10
0.0
 20
0.0
 30
0.0
  0
VERTEX
  5
4E5
  8
IMPORT_-_TVSTAND_BACK
 10
1020.844966102232
 20
226.6684149197316
 30
0.0
  0
VERTEX
  5
4E6
  8
IMPORT_-_TVSTAND_BACK
 10
1020.844966102232
 20
335.5296949755703
 30
0.0
  0
SEQEND
  5
4E7
  8
IMPORT_-_TVSTAND_BACK
  0
POLYLINE
  5
A5
  8
IMPORT_-_TVSTAND_BACK
 66
     1
 10
0.0
 20
0.0
 30
0.0
  0
VERTEX
  5
4E8
  8
IMPORT_-_TVSTAND_BACK
 10
1020.844966102232
 20
102.5283587157047
 30
0.0
  0
VERTEX
  5
4E9
  8
IMPORT_-_TVSTAND_BACK
 10
1020.844966102232
 20
211.3896387715437
 30
0.0
  0
SEQEND
  5
4EA
  8
IMPORT_-_TVSTAND_BACK
  0
POLYLINE
  5
A6
  8
IMPORT_-_TVSTAND_BACK
 66
     1
 10
0.0
 20
0.0
 30
0.0
  0
VERTEX
  5
4EB
  8
IMPORT_-_TVSTAND_BACK
 10
1020.844966102232
 20
28.04432499328854
 30
0.0
  0
VERTEX
  5
4EC
  8
IMPORT_-_TVSTAND_BACK
 10
1020.844966102232
 20
87.2495825675168
 30
0.0
  0
SEQEND
  5
4ED
  8
IMPORT_-_TVSTAND_BACK
  0
POLYLINE
  5
A7
  8
IMPORT_-_TVSTAND_BACK
 66
     1
 10
0.0
 20
0.0
 30
0.0
  0
VERTEX
  5
4EE
  8
IMPORT_-_TVSTAND_BACK
 10
1032.844966102232
 20
164.5983868177182
 30
0.0
  0
VERTEX
  5
4EF
  8
IMPORT_-_TVSTAND_BACK
 10
1032.844966102232
 20
273.4596668735568
 30
0.0
  0
SEQEND
  5
4F0
  8
IMPORT_-_TVSTAND_BACK
  0
POLYLINE
  5
A8
  8
IMPORT_-_TVSTAND_BACK
 66
     1
 10
0.0
 20
0.0
 30
0.0
  0
VERTEX
  5
4F1
  8
IMPORT_-_TVSTAND_BACK
 10
1032.844966102232
 20
288.7384430217448
 30
0.0
  0
VERTEX
  5
4F2
  8
IMPORT_-_TVSTAND_BACK
 10
1032.844966102232
 20
397.5997230775837
 30
0.0
  0
SEQEND
  5
4F3
  8
IMPORT_-_TVSTAND_BACK
  0
POLYLINE
  5
A9
  8
IMPORT_-_TVSTAND_BACK
 66
     1
 10
0.0
 20
0.0
 30
0.0
  0
VERTEX
  5
4F4
  8
IMPORT_-_TVSTAND_BACK
 10
1032.844966102232
 20
40.45833061369122
 30
0.0
  0
VERTEX
  5
4F5
  8
IMPORT_-_TVSTAND_BACK
 10
1032.844966102232
 20
149.3196106695302
 30
0.0
  0
SEQEND
  5
4F6
  8
IMPORT_-_TVSTAND_BACK
  0
POLYLINE
  5
AA
  8
IMPORT_-_TVSTAND_BACK
 66
     1
 10
0.0
 20
0.0
 30
0.0
  0
VERTEX
  5
4F7
  8
IMPORT_-_TVSTAND_BACK
 10
1044.844966102232
 20
350.8084711237582
 30
0.0
  0
VERTEX
  5
4F8
  8
IMPORT_-_TVSTAND_BACK
 10
1044.844966102232
 20
410.0137286979864
 30
0.0
  0
SEQEND
  5
4F9
  8
IMPORT_-_TVSTAND_BACK
  0
POLYLINE
  5
AB
  8
IMPORT_-_TVSTAND_BACK
 66
     1
 10
0.0
 20
0.0
 30
0.0
  0
VERTEX
  5
4FA
  8
IMPORT_-_TVSTAND_BACK
 10
1044.844966102232
 20
226.6684149197316
 30
0.0
  0
VERTEX
  5
4FB
  8
IMPORT_-_TVSTAND_BACK
 10
1044.844966102232
 20
335.5296949755703
 30
0.0
  0
SEQEND
  5
4FC
  8
IMPORT_-_TVSTAND_BACK
  0
POLYLINE
  5
AC
  8
IMPORT_-_TVSTAND_BACK
 66
     1
 10
0.0
 20
0.0
 30
0.0
  0
VERTEX
  5
4FD
  8
IMPORT_-_TVSTAND_BACK
 10
1044.844966102232
 20
102.5283587157047
 30
0.0
  0
VERTEX
  5
4FE
  8
IMPORT_-_TVSTAND_BACK
 10
1044.844966102232
 20
211.3896387715437
 30
0.0
  0
SEQEND
  5
4FF
  8
IMPORT_-_TVSTAND_BACK
  0
POLYLINE
  5
AD
  8
IMPORT_-_TVSTAND_BACK
 66
     1
 10
0.0
 20
0.0
 30
0.0
  0
VERTEX
  5
500
  8
IMPORT_-_TVSTAND_BACK
 10
1044.844966102232
 20
28.04432499328854
 30
0.0
  0
VERTEX
  5
501
  8
IMPORT_-_TVSTAND_BACK
 10
1044.844966102232
 20
87.2495825675168
 30
0.0
  0
SEQEND
  5
502
  8
IMPORT_-_TVSTAND_BACK
  0
POLYLINE
  5
AE
  8
IMPORT_-_TVSTAND_BACK
 66
     1
 10
0.0
 20
0.0
 30
0.0
  0
VERTEX
  5
503
  8
IMPORT_-_TVSTAND_BACK
 10
1631.944966102232
 20
40.45833061369119
 30
0.0
  0
VERTEX
  5
504
  8
IMPORT_-_TVSTAND_BACK
 10
1631.944966102232
 20
149.3196106695302
 30
0.0
  0
SEQEND
  5
505
  8
IMPORT_-_TVSTAND_BACK
  0
POLYLINE
  5
AF
  8
IMPORT_-_TVSTAND_BACK
 66
     1
 10
0.0
 20
0.0
 30
0.0
  0
VERTEX
  5
506
  8
IMPORT_-_TVSTAND_BACK
 10
1631.944966102232
 20
164.5983868177181
 30
0.0
  0
VERTEX
  5
507
  8
IMPORT_-_TVSTAND_BACK
 10
1631.944966102232
 20
273.4596668735568
 30
0.0
  0
SEQEND
  5
508
  8
IMPORT_-_TVSTAND_BACK
  0
POLYLINE
  5
B0
  8
IMPORT_-_TVSTAND_BACK
 66
     1
 10
0.0
 20
0.0
 30
0.0
  0
VERTEX
  5
509
  8
IMPORT_-_TVSTAND_BACK
 10
1631.944966102232
 20
288.7384430217448
 30
0.0
  0
VERTEX
  5
50A
  8
IMPORT_-_TVSTAND_BACK
 10
1631.944966102232
 20
397.5997230775837
 30
0.0
  0
SEQEND
  5
50B
  8
IMPORT_-_TVSTAND_BACK
  0
POLYLINE
  5
B1
  8
IMPORT_-_TVSTAND_BACK
 66
     1
 10
0.0
 20
0.0
 30
0.0
  0
VERTEX
  5
50C
  8
IMPORT_-_TVSTAND_BACK
 10
1643.944966102232
 20
350.8084711237582
 30
0.0
  0
VERTEX
  5
50D
  8
IMPORT_-_TVSTAND_BACK
 10
1643.944966102232
 20
410.0137286979864
 30
0.0
  0
SEQEND
  5
50E
  8
IMPORT_-_TVSTAND_BACK
  0
POLYLINE
  5
B2
  8
IMPORT_-_TVSTAND_BACK
 66
     1
 10
0.0
 20
0.0
 30
0.0
  0
VERTEX
  5
50F
  8
IMPORT_-_TVSTAND_BACK
 10
1643.944966102232
 20
226.6684149197316
 30
0.0
  0
VERTEX
  5
510
  8
IMPORT_-_TVSTAND_BACK
 10
1643.944966102232
 20
335.5296949755703
 30
0.0
  0
SEQEND
  5
511
  8
IMPORT_-_TVSTAND_BACK
  0
POLYLINE
  5
B3
  8
IMPORT_-_TVSTAND_BACK
 66
     1
 10
0.0
 20
0.0
 30
0.0
  0
VERTEX
  5
512
  8
IMPORT_-_TVSTAND_BACK
 10
1643.944966102232
 20
102.5283587157047
 30
0.0
  0
VERTEX
  5
513
  8
IMPORT_-_TVSTAND_BACK
 10
1643.944966102232
 20
211.3896387715436
 30
0.0
  0
SEQEND
  5
514
  8
IMPORT_-_TVSTAND_BACK
  0
POLYLINE
  5
B4
  8
IMPORT_-_TVSTAND_BACK
 66
     1
 10
0.0
 20
0.0
 30
0.0
  0
VERTEX
  5
515
  8
IMPORT_-_TVSTAND_BACK
 10
1643.944966102232
 20
28.04432499328851
 30
0.0
  0
VERTEX
  5
516
  8
IMPORT_-_TVSTAND_BACK
 10
1643.944966102232
 20
87.24958256751677
 30
0.0
  0
SEQEND
  5
517
  8
IMPORT_-_TVSTAND_BACK
  0
POLYLINE
  5
B5
  8
IMPORT_-_TVSTAND_BACK
 66
     1
 10
0.0
 20
0.0
 30
0.0
  0
VERTEX
  5
518
  8
IMPORT_-_TVSTAND_BACK
 10
1655.944966102232
 20
164.5983868177181
 30
0.0
  0
VERTEX
  5
519
  8
IMPORT_-_TVSTAND_BACK
 10
1655.944966102232
 20
273.4596668735568
 30
0.0
  0
SEQEND
  5
51A
  8
IMPORT_-_TVSTAND_BACK
  0
POLYLINE
  5
B6
  8
IMPORT_-_TVSTAND_BACK
 66
     1
 10
0.0
 20
0.0
 30
0.0
  0
VERTEX
  5
51B
  8
IMPORT_-_TVSTAND_BACK
 10
1655.944966102232
 20
288.7384430217448
 30
0.0
  0
VERTEX
  5
51C
  8
IMPORT_-_TVSTAND_BACK
 10
1655.944966102232
 20
397.5997230775837
 30
0.0
  0
SEQEND
  5
51D
  8
IMPORT_-_TVSTAND_BACK
  0
POLYLINE
  5
B7
  8
IMPORT_-_TVSTAND_BACK
 66
     1
 10
0.0
 20
0.0
 30
0.0
  0
VERTEX
  5
51E
  8
IMPORT_-_TVSTAND_BACK
 10
1655.944966102232
 20
40.45833061369119
 30
0.0
  0
VERTEX
  5
51F
  8
IMPORT_-_TVSTAND_BACK
 10
1655.944966102232
 20
149.3196106695302
 30
0.0
  0
SEQEND
  5
520
  8
IMPORT_-_TVSTAND_BACK
  0
POLYLINE
  5
B8
  8
IMPORT_-_TVSTAND_BACK
 66
     1
 10
0.0
 20
0.0
 30
0.0
  0
VERTEX
  5
521
  8
IMPORT_-_TVSTAND_BACK
 10
1679.944966102232
 20
164.5983868177181
 30
0.0
  0
VERTEX
  5
522
  8
IMPORT_-_TVSTAND_BACK
 10
1679.944966102232
 20
273.4596668735568
 30
0.0
  0
SEQEND
  5
523
  8
IMPORT_-_TVSTAND_BACK
  0
POLYLINE
  5
B9
  8
IMPORT_-_TVSTAND_BACK
 66
     1
 10
0.0
 20
0.0
 30
0.0
  0
VERTEX
  5
524
  8
IMPORT_-_TVSTAND_BACK
 10
1679.944966102232
 20
288.7384430217448
 30
0.0
  0
VERTEX
  5
525
  8
IMPORT_-_TVSTAND_BACK
 10
1679.944966102232
 20
397.5997230775837
 30
0.0
  0
SEQEND
  5
526
  8
IMPORT_-_TVSTAND_BACK
  0
POLYLINE
  5
BA
  8
IMPORT_-_TVSTAND_BACK
 66
     1
 10
0.0
 20
0.0
 30
0.0
  0
VERTEX
  5
527
  8
IMPORT_-_TVSTAND_BACK
 10
1679.944966102232
 20
40.45833061369119
 30
0.0
  0
VERTEX
  5
528
  8
IMPORT_-_TVSTAND_BACK
 10
1679.944966102232
 20
149.3196106695302
 30
0.0
  0
SEQEND
  5
529
  8
IMPORT_-_TVSTAND_BACK
  0
POLYLINE
  5
BB
  8
IMPORT_-_TVSTAND_BACK
 66
     1
 10
0.0
 20
0.0
 30
0.0
  0
VERTEX
  5
52A
  8
IMPORT_-_TVSTAND_BACK
 10
1703.944966102232
 20
164.5983868177181
 30
0.0
  0
VERTEX
  5
52B
  8
IMPORT_-_TVSTAND_BACK
 10
1703.944966102232
 20
273.4596668735568
 30
0.0
  0
SEQEND
  5
52C
  8
IMPORT_-_TVSTAND_BACK
  0
POLYLINE
  5
BC
  8
IMPORT_-_TVSTAND_BACK
 66
     1
 10
0.0
 20
0.0
 30
0.0
  0
VERTEX
  5
52D
  8
IMPORT_-_TVSTAND_BACK
 10
1703.944966102232
 20
288.7384430217448
 30
0.0
  0
VERTEX
  5
52E
  8
IMPORT_-_TVSTAND_BACK
 10
1703.944966102232
 20
397.5997230775837
 30
0.0
  0
SEQEND
  5
52F
  8
IMPORT_-_TVSTAND_BACK
  0
POLYLINE
  5
BD
  8
IMPORT_-_TVSTAND_BACK
 66
     1
 10
0.0
 20
0.0
 30
0.0
  0
VERTEX
  5
530
  8
IMPORT_-_TVSTAND_BACK
 10
1703.944966102232
 20
40.45833061369119
 30
0.0
  0
VERTEX
  5
531
  8
IMPORT_-_TVSTAND_BACK
 10
1703.944966102232
 20
149.3196106695302
 30
0.0
  0
SEQEND
  5
532
  8
IMPORT_-_TVSTAND_BACK
  0
POLYLINE
  5
BE
  8
IMPORT_-_TVSTAND_BACK
 66
     1
 10
0.0
 20
0.0
 30
0.0
  0
VERTEX
  5
533
  8
IMPORT_-_TVSTAND_BACK
 10
1727.944966102232
 20
164.5983868177181
 30
0.0
  0
VERTEX
  5
534
  8
IMPORT_-_TVSTAND_BACK
 10
1727.944966102232
 20
273.4596668735568
 30
0.0
  0
SEQEND
  5
535
  8
IMPORT_-_TVSTAND_BACK
  0
POLYLINE
  5
BF
  8
IMPORT_-_TVSTAND_BACK
 66
     1
 10
0.0
 20
0.0
 30
0.0
  0
VERTEX
  5
536
  8
IMPORT_-_TVSTAND_BACK
 10
1727.944966102232
 20
288.7384430217448
 30
0.0
  0
VERTEX
  5
537
  8
IMPORT_-_TVSTAND_BACK
 10
1727.944966102232
 20
397.5997230775837
 30
0.0
  0
SEQEND
  5
538
  8
IMPORT_-_TVSTAND_BACK
  0
POLYLINE
  5
C0
  8
IMPORT_-_TVSTAND_BACK
 66
     1
 10
0.0
 20
0.0
 30
0.0
  0
VERTEX
  5
539
  8
IMPORT_-_TVSTAND_BACK
 10
1727.944966102232
 20
40.45833061369119
 30
0.0
  0
VERTEX
  5
53A
  8
IMPORT_-_TVSTAND_BACK
 10
1727.944966102232
 20
149.3196106695302
 30
0.0
  0
SEQEND
  5
53B
  8
IMPORT_-_TVSTAND_BACK
  0
POLYLINE
  5
C1
  8
IMPORT_-_TVSTAND_BACK
 66
     1
 10
0.0
 20
0.0
 30
0.0
  0
VERTEX
  5
53C
  8
IMPORT_-_TVSTAND_BACK
 10
1667.944966102232
 20
350.8084711237582
 30
0.0
  0
VERTEX
  5
53D
  8
IMPORT_-_TVSTAND_BACK
 10
1667.944966102232
 20
410.0137286979864
 30
0.0
  0
SEQEND
  5
53E
  8
IMPORT_-_TVSTAND_BACK
  0
POLYLINE
  5
C2
  8
IMPORT_-_TVSTAND_BACK
 66
     1
 10
0.0
 20
0.0
 30
0.0
  0
VERTEX
  5
53F
  8
IMPORT_-_TVSTAND_BACK
 10
1667.944966102232
 20
226.6684149197316
 30
0.0
  0
VERTEX
  5
540
  8
IMPORT_-_TVSTAND_BACK
 10
1667.944966102232
 20
335.5296949755703
 30
0.0
  0
SEQEND
  5
541
  8
IMPORT_-_TVSTAND_BACK
  0
POLYLINE
  5
C3
  8
IMPORT_-_TVSTAND_BACK
 66
     1
 10
0.0
 20
0.0
 30
0.0
  0
VERTEX
  5
542
  8
IMPORT_-_TVSTAND_BACK
 10
1667.944966102232
 20
102.5283587157047
 30
0.0
  0
VERTEX
  5
543
  8
IMPORT_-_TVSTAND_BACK
 10
1667.944966102232
 20
211.3896387715436
 30
0.0
  0
SEQEND
  5
544
  8
IMPORT_-_TVSTAND_BACK
  0
POLYLINE
  5
C4
  8
IMPORT_-_TVSTAND_BACK
 66
     1
 10
0.0
 20
0.0
 30
0.0
  0
VERTEX
  5
545
  8
IMPORT_-_TVSTAND_BACK
 10
1667.944966102232
 20
28.04432499328851
 30
0.0
  0
VERTEX
  5
546
  8
IMPORT_-_TVSTAND_BACK
 10
1667.944966102232
 20
87.24958256751677
 30
0.0
  0
SEQEND
  5
547
  8
IMPORT_-_TVSTAND_BACK
  0
POLYLINE
  5
C5
  8
IMPORT_-_TVSTAND_BACK
 66
     1
 10
0.0
 20
0.0
 30
0.0
  0
VERTEX
  5
548
  8
IMPORT_-_TVSTAND_BACK
 10
1691.944966102232
 20
350.8084711237582
 30
0.0
  0
VERTEX
  5
549
  8
IMPORT_-_TVSTAND_BACK
 10
1691.944966102232
 20
410.0137286979864
 30
0.0
  0
SEQEND
  5
54A
  8
IMPORT_-_TVSTAND_BACK
  0
POLYLINE
  5
C6
  8
IMPORT_-_TVSTAND_BACK
 66
     1
 10
0.0
 20
0.0
 30
0.0
  0
VERTEX
  5
54B
  8
IMPORT_-_TVSTAND_BACK
 10
1691.944966102232
 20
226.6684149197316
 30
0.0
  0
VERTEX
  5
54C
  8
IMPORT_-_TVSTAND_BACK
 10
1691.944966102232
 20
335.5296949755703
 30
0.0
  0
SEQEND
  5
54D
  8
IMPORT_-_TVSTAND_BACK
  0
POLYLINE
  5
C7
  8
IMPORT_-_TVSTAND_BACK
 66
     1
 10
0.0
 20
0.0
 30
0.0
  0
VERTEX
  5
54E
  8
IMPORT_-_TVSTAND_BACK
 10
1691.944966102232
 20
102.5283587157047
 30
0.0
  0
VERTEX
  5
54F
  8
IMPORT_-_TVSTAND_BACK
 10
1691.944966102232
 20
211.3896387715436
 30
0.0
  0
SEQEND
  5
550
  8
IMPORT_-_TVSTAND_BACK
  0
POLYLINE
  5
C8
  8
IMPORT_-_TVSTAND_BACK
 66
     1
 10
0.0
 20
0.0
 30
0.0
  0
VERTEX
  5
551
  8
IMPORT_-_TVSTAND_BACK
 10
1691.944966102232
 20
28.04432499328851
 30
0.0
  0
VERTEX
  5
552
  8
IMPORT_-_TVSTAND_BACK
 10
1691.944966102232
 20
87.24958256751677
 30
0.0
  0
SEQEND
  5
553
  8
IMPORT_-_TVSTAND_BACK
  0
POLYLINE
  5
C9
  8
IMPORT_-_TVSTAND_BACK
 66
     1
 10
0.0
 20
0.0
 30
0.0
  0
VERTEX
  5
554
  8
IMPORT_-_TVSTAND_BACK
 10
1715.944966102232
 20
350.8084711237582
 30
0.0
  0
VERTEX
  5
555
  8
IMPORT_-_TVSTAND_BACK
 10
1715.944966102232
 20
410.0137286979864
 30
0.0
  0
SEQEND
  5
556
  8
IMPORT_-_TVSTAND_BACK
  0
POLYLINE
  5
CA
  8
IMPORT_-_TVSTAND_BACK
 66
     1
 10
0.0
 20
0.0
 30
0.0
  0
VERTEX
  5
557
  8
IMPORT_-_TVSTAND_BACK
 10
1715.944966102232
 20
226.6684149197316
 30
0.0
  0
VERTEX
  5
558
  8
IMPORT_-_TVSTAND_BACK
 10
1715.944966102232
 20
335.5296949755703
 30
0.0
  0
SEQEND
  5
559
  8
IMPORT_-_TVSTAND_BACK
  0
POLYLINE
  5
CB
  8
IMPORT_-_TVSTAND_BACK
 66
     1
 10
0.0
 20
0.0
 30
0.0
  0
VERTEX
  5
55A
  8
IMPORT_-_TVSTAND_BACK
 10
1715.944966102232
 20
102.5283587157047
 30
0.0
  0
VERTEX
  5
55B
  8
IMPORT_-_TVSTAND_BACK
 10
1715.944966102232
 20
211.3896387715436
 30
0.0
  0
SEQEND
  5
55C
  8
IMPORT_-_TVSTAND_BACK
  0
POLYLINE
  5
CC
  8
IMPORT_-_TVSTAND_BACK
 66
     1
 10
0.0
 20
0.0
 30
0.0
  0
VERTEX
  5
55D
  8
IMPORT_-_TVSTAND_BACK
 10
1715.944966102232
 20
28.04432499328851
 30
0.0
  0
VERTEX
  5
55E
  8
IMPORT_-_TVSTAND_BACK
 10
1715.944966102232
 20
87.24958256751677
 30
0.0
  0
SEQEND
  5
55F
  8
IMPORT_-_TVSTAND_BACK
  0
POLYLINE
  5
CD
  8
IMPORT_-_TVSTAND_BACK
 66
     1
 10
0.0
 20
0.0
 30
0.0
  0
VERTEX
  5
560
  8
IMPORT_-_TVSTAND_BACK
 10
1739.944966102232
 20
350.8084711237582
 30
0.0
  0
VERTEX
  5
561
  8
IMPORT_-_TVSTAND_BACK
 10
1739.944966102232
 20
410.0137286979864
 30
0.0
  0
SEQEND
  5
562
  8
IMPORT_-_TVSTAND_BACK
  0
POLYLINE
  5
CE
  8
IMPORT_-_TVSTAND_BACK
 66
     1
 10
0.0
 20
0.0
 30
0.0
  0
VERTEX
  5
563
  8
IMPORT_-_TVSTAND_BACK
 10
1739.944966102232
 20
226.6684149197316
 30
0.0
  0
VERTEX
  5
564
  8
IMPORT_-_TVSTAND_BACK
 10
1739.944966102232
 20
335.5296949755703
 30
0.0
  0
SEQEND
  5
565
  8
IMPORT_-_TVSTAND_BACK
  0
POLYLINE
  5
CF
  8
IMPORT_-_TVSTAND_BACK
 66
     1
 10
0.0
 20
0.0
 30
0.0
  0
VERTEX
  5
566
  8
IMPORT_-_TVSTAND_BACK
 10
1739.944966102232
 20
102.5283587157047
 30
0.0
  0
VERTEX
  5
567
  8
IMPORT_-_TVSTAND_BACK
 10
1739.944966102232
 20
211.3896387715436
 30
0.0
  0
SEQEND
  5
568
  8
IMPORT_-_TVSTAND_BACK
  0
POLYLINE
  5
D0
  8
IMPORT_-_TVSTAND_BACK
 66
     1
 10
0.0
 20
0.0
 30
0.0
  0
VERTEX
  5
569
  8
IMPORT_-_TVSTAND_BACK
 10
1739.944966102232
 20
28.04432499328851
 30
0.0
  0
VERTEX
  5
56A
  8
IMPORT_-_TVSTAND_BACK
 10
1739.944966102232
 20
87.24958256751677
 30
0.0
  0
SEQEND
  5
56B
  8
IMPORT_-_TVSTAND_BACK
  0
POLYLINE
  5
D1
  8
IMPORT_-_TVSTAND_BACK
 66
     1
 10
0.0
 20
0.0
 30
0.0
  0
VERTEX
  5
56C
  8
IMPORT_-_TVSTAND_BACK
 10
1751.944966102232
 20
164.5983868177181
 30
0.0
  0
VERTEX
  5
56D
  8
IMPORT_-_TVSTAND_BACK
 10
1751.944966102232
 20
273.4596668735568
 30
0.0
  0
SEQEND
  5
56E
  8
IMPORT_-_TVSTAND_BACK
  0
POLYLINE
  5
D2
  8
IMPORT_-_TVSTAND_BACK
 66
     1
 10
0.0
 20
0.0
 30
0.0
  0
VERTEX
  5
56F
  8
IMPORT_-_TVSTAND_BACK
 10
1751.944966102232
 20
288.7384430217448
 30
0.0
  0
VERTEX
  5
570
  8
IMPORT_-_TVSTAND_BACK
 10
1751.944966102232
 20
397.5997230775837
 30
0.0
  0
SEQEND
  5
571
  8
IMPORT_-_TVSTAND_BACK
  0
POLYLINE
  5
D3
  8
IMPORT_-_TVSTAND_BACK
 66
     1
 10
0.0
 20
0.0
 30
0.0
  0
VERTEX
  5
572
  8
IMPORT_-_TVSTAND_BACK
 10
1751.944966102232
 20
40.45833061369119
 30
0.0
  0
VERTEX
  5
573
  8
IMPORT_-_TVSTAND_BACK
 10
1751.944966102232
 20
149.3196106695302
 30
0.0
  0
SEQEND
  5
574
  8
IMPORT_-_TVSTAND_BACK
  0
POLYLINE
  5
D4
  8
IMPORT_-_TVSTAND_BACK
 66
     1
 10
0.0
 20
0.0
 30
0.0
  0
VERTEX
  5
575
  8
IMPORT_-_TVSTAND_BACK
 10
1763.944966102232
 20
350.8084711237582
 30
0.0
  0
VERTEX
  5
576
  8
IMPORT_-_TVSTAND_BACK
 10
1763.944966102232
 20
410.0137286979864
 30
0.0
  0
SEQEND
  5
577
  8
IMPORT_-_TVSTAND_BACK
  0
POLYLINE
  5
D5
  8
IMPORT_-_TVSTAND_BACK
 66
     1
 10
0.0
 20
0.0
 30
0.0
  0
VERTEX
  5
578
  8
IMPORT_-_TVSTAND_BACK
 10
1763.944966102232
 20
226.6684149197316
 30
0.0
  0
VERTEX
  5
579
  8
IMPORT_-_TVSTAND_BACK
 10
1763.944966102232
 20
335.5296949755703
 30
0.0
  0
SEQEND
  5
57A
  8
IMPORT_-_TVSTAND_BACK
  0
POLYLINE
  5
D6
  8
IMPORT_-_TVSTAND_BACK
 66
     1
 10
0.0
 20
0.0
 30
0.0
  0
VERTEX
  5
57B
  8
IMPORT_-_TVSTAND_BACK
 10
1763.944966102232
 20
102.5283587157047
 30
0.0
  0
VERTEX
  5
57C
  8
IMPORT_-_TVSTAND_BACK
 10
1763.944966102232
 20
211.3896387715436
 30
0.0
  0
SEQEND
  5
57D
  8
IMPORT_-_TVSTAND_BACK
  0
POLYLINE
  5
D7
  8
IMPORT_-_TVSTAND_BACK
 66
     1
 10
0.0
 20
0.0
 30
0.0
  0
VERTEX
  5
57E
  8
IMPORT_-_TVSTAND_BACK
 10
1763.944966102232
 20
28.04432499328851
 30
0.0
  0
VERTEX
  5
57F
  8
IMPORT_-_TVSTAND_BACK
 10
1763.944966102232
 20
87.24958256751677
 30
0.0
  0
SEQEND
  5
580
  8
IMPORT_-_TVSTAND_BACK
  0
POLYLINE
  5
D8
  8
IMPORT_-_TVSTAND_BACK
 66
     1
 10
0.0
 20
0.0
 30
0.0
  0
VERTEX
  5
581
  8
IMPORT_-_TVSTAND_BACK
 10
2122.444966102232
 20
40.45833061369116
 30
0.0
  0
VERTEX
  5
582
  8
IMPORT_-_TVSTAND_BACK
 10
2122.444966102232
 20
149.3196106695302
 30
0.0
  0
SEQEND
  5
583
  8
IMPORT_-_TVSTAND_BACK
  0
POLYLINE
  5
D9
  8
IMPORT_-_TVSTAND_BACK
 66
     1
 10
0.0
 20
0.0
 30
0.0
  0
VERTEX
  5
584
  8
IMPORT_-_TVSTAND_BACK
 10
2122.444966102232
 20
164.5983868177181
 30
0.0
  0
VERTEX
  5
585
  8
IMPORT_-_TVSTAND_BACK
 10
2122.444966102232
 20
273.4596668735568
 30
0.0
  0
SEQEND
  5
586
  8
IMPORT_-_TVSTAND_BACK
  0
POLYLINE
  5
DA
  8
IMPORT_-_TVSTAND_BACK
 66
     1
 10
0.0
 20
0.0
 30
0.0
  0
VERTEX
  5
587
  8
IMPORT_-_TVSTAND_BACK
 10
2122.444966102232
 20
288.7384430217448
 30
0.0
  0
VERTEX
  5
588
  8
IMPORT_-_TVSTAND_BACK
 10
2122.444966102232
 20
397.5997230775837
 30
0.0
  0
SEQEND
  5
589
  8
IMPORT_-_TVSTAND_BACK
  0
POLYLINE
  5
DB
  8
IMPORT_-_TVSTAND_BACK
 66
     1
 10
0.0
 20
0.0
 30
0.0
  0
VERTEX
  5
58A
  8
IMPORT_-_TVSTAND_BACK
 10
2134.444966102232
 20
350.8084711237582
 30
0.0
  0
VERTEX
  5
58B
  8
IMPORT_-_TVSTAND_BACK
 10
2134.444966102232
 20
410.0137286979864
 30
0.0
  0
SEQEND
  5
58C
  8
IMPORT_-_TVSTAND_BACK
  0
POLYLINE
  5
DC
  8
IMPORT_-_TVSTAND_BACK
 66
     1
 10
0.0
 20
0.0
 30
0.0
  0
VERTEX
  5
58D
  8
IMPORT_-_TVSTAND_BACK
 10
2134.444966102232
 20
226.6684149197315
 30
0.0
  0
VERTEX
  5
58E
  8
IMPORT_-_TVSTAND_BACK
 10
2134.444966102232
 20
335.5296949755703
 30
0.0
  0
SEQEND
  5
58F
  8
IMPORT_-_TVSTAND_BACK
  0
POLYLINE
  5
DD
  8
IMPORT_-_TVSTAND_BACK
 66
     1
 10
0.0
 20
0.0
 30
0.0
  0
VERTEX
  5
590
  8
IMPORT_-_TVSTAND_BACK
 10
2134.444966102232
 20
102.5283587157047
 30
0.0
  0
VERTEX
  5
591
  8
IMPORT_-_TVSTAND_BACK
 10
2134.444966102232
 20
211.3896387715436
 30
0.0
  0
SEQEND
  5
592
  8
IMPORT_-_TVSTAND_BACK
  0
POLYLINE
  5
DE
  8
IMPORT_-_TVSTAND_BACK
 66
     1
 10
0.0
 20
0.0
 30
0.0
  0
VERTEX
  5
593
  8
IMPORT_-_TVSTAND_BACK
 10
2134.444966102232
 20
28.04432499328848
 30
0.0
  0
VERTEX
  5
594
  8
IMPORT_-_TVSTAND_BACK
 10
2134.444966102232
 20
87.24958256751674
 30
0.0
  0
SEQEND
  5
595
  8
IMPORT_-_TVSTAND_BACK
  0
POLYLINE
  5
DF
  8
IMPORT_-_TVSTAND_BACK
 66
     1
 10
0.0
 20
0.0
 30
0.0
  0
VERTEX
  5
596
  8
IMPORT_-_TVSTAND_BACK
 10
2146.444966102231
 20
164.5983868177181
 30
0.0
  0
VERTEX
  5
597
  8
IMPORT_-_TVSTAND_BACK
 10
2146.444966102231
 20
273.4596668735568
 30
0.0
  0
SEQEND
  5
598
  8
IMPORT_-_TVSTAND_BACK
  0
POLYLINE
  5
E0
  8
IMPORT_-_TVSTAND_BACK
 66
     1
 10
0.0
 20
0.0
 30
0.0
  0
VERTEX
  5
599
  8
IMPORT_-_TVSTAND_BACK
 10
2146.444966102231
 20
288.7384430217448
 30
0.0
  0
VERTEX
  5
59A
  8
IMPORT_-_TVSTAND_BACK
 10
2146.444966102231
 20
397.5997230775837
 30
0.0
  0
SEQEND
  5
59B
  8
IMPORT_-_TVSTAND_BACK
  0
POLYLINE
  5
E1
  8
IMPORT_-_TVSTAND_BACK
 66
     1
 10
0.0
 20
0.0
 30
0.0
  0
VERTEX
  5
59C
  8
IMPORT_-_TVSTAND_BACK
 10
2146.444966102231
 20
40.45833061369116
 30
0.0
  0
VERTEX
  5
59D
  8
IMPORT_-_TVSTAND_BACK
 10
2146.444966102231
 20
149.3196106695302
 30
0.0
  0
SEQEND
  5
59E
  8
IMPORT_-_TVSTAND_BACK
  0
POLYLINE
  5
E2
  8
IMPORT_-_TVSTAND_BACK
 66
     1
 10
0.0
 20
0.0
 30
0.0
  0
VERTEX
  5
59F
  8
IMPORT_-_TVSTAND_BACK
 10
2170.444966102231
 20
164.5983868177181
 30
0.0
  0
VERTEX
  5
5A0
  8
IMPORT_-_TVSTAND_BACK
 10
2170.444966102231
 20
273.4596668735568
 30
0.0
  0
SEQEND
  5
5A1
  8
IMPORT_-_TVSTAND_BACK
  0
POLYLINE
  5
E3
  8
IMPORT_-_TVSTAND_BACK
 66
     1
 10
0.0
 20
0.0
 30
0.0
  0
VERTEX
  5
5A2
  8
IMPORT_-_TVSTAND_BACK
 10
2170.444966102231
 20
288.7384430217448
 30
0.0
  0
VERTEX
  5
5A3
  8
IMPORT_-_TVSTAND_BACK
 10
2170.444966102231
 20
397.5997230775837
 30
0.0
  0
SEQEND
  5
5A4
  8
IMPORT_-_TVSTAND_BACK
  0
POLYLINE
  5
E4
  8
IMPORT_-_TVSTAND_BACK
 66
     1
 10
0.0
 20
0.0
 30
0.0
  0
VERTEX
  5
5A5
  8
IMPORT_-_TVSTAND_BACK
 10
2170.444966102231
 20
40.45833061369116
 30
0.0
  0
VERTEX
  5
5A6
  8
IMPORT_-_TVSTAND_BACK
 10
2170.444966102231
 20
149.3196106695302
 30
0.0
  0
SEQEND
  5
5A7
  8
IMPORT_-_TVSTAND_BACK
  0
POLYLINE
  5
E5
  8
IMPORT_-_TVSTAND_BACK
 66
     1
 10
0.0
 20
0.0
 30
0.0
  0
VERTEX
  5
5A8
  8
IMPORT_-_TVSTAND_BACK
 10
2194.444966102231
 20
164.5983868177181
 30
0.0
  0
VERTEX
  5
5A9
  8
IMPORT_-_TVSTAND_BACK
 10
2194.444966102231
 20
273.4596668735568
 30
0.0
  0
SEQEND
  5
5AA
  8
IMPORT_-_TVSTAND_BACK
  0
POLYLINE
  5
E6
  8
IMPORT_-_TVSTAND_BACK
 66
     1
 10
0.0
 20
0.0
 30
0.0
  0
VERTEX
  5
5AB
  8
IMPORT_-_TVSTAND_BACK
 10
2194.444966102231
 20
288.7384430217448
 30
0.0
  0
VERTEX
  5
5AC
  8
IMPORT_-_TVSTAND_BACK
 10
2194.444966102231
 20
397.5997230775837
 30
0.0
  0
SEQEND
  5
5AD
  8
IMPORT_-_TVSTAND_BACK
  0
POLYLINE
  5
E7
  8
IMPORT_-_TVSTAND_BACK
 66
     1
 10
0.0
 20
0.0
 30
0.0
  0
VERTEX
  5
5AE
  8
IMPORT_-_TVSTAND_BACK
 10
2194.444966102231
 20
40.45833061369116
 30
0.0
  0
VERTEX
  5
5AF
  8
IMPORT_-_TVSTAND_BACK
 10
2194.444966102231
 20
149.3196106695302
 30
0.0
  0
SEQEND
  5
5B0
  8
IMPORT_-_TVSTAND_BACK
  0
POLYLINE
  5
E8
  8
IMPORT_-_TVSTAND_BACK
 66
     1
 10
0.0
 20
0.0
 30
0.0
  0
VERTEX
  5
5B1
  8
IMPORT_-_TVSTAND_BACK
 10
2218.44496610223
 20
164.5983868177181
 30
0.0
  0
VERTEX
  5
5B2
  8
IMPORT_-_TVSTAND_BACK
 10
2218.44496610223
 20
273.4596668735568
 30
0.0
  0
SEQEND
  5
5B3
  8
IMPORT_-_TVSTAND_BACK
  0
POLYLINE
  5
E9
  8
IMPORT_-_TVSTAND_BACK
 66
     1
 10
0.0
 20
0.0
 30
0.0
  0
VERTEX
  5
5B4
  8
IMPORT_-_TVSTAND_BACK
 10
2218.44496610223
 20
288.7384430217448
 30
0.0
  0
VERTEX
  5
5B5
  8
IMPORT_-_TVSTAND_BACK
 10
2218.44496610223
 20
397.5997230775837
 30
0.0
  0
SEQEND
  5
5B6
  8
IMPORT_-_TVSTAND_BACK
  0
POLYLINE
  5
EA
  8
IMPORT_-_TVSTAND_BACK
 66
     1
 10
0.0
 20
0.0
 30
0.0
  0
VERTEX
  5
5B7
  8
IMPORT_-_TVSTAND_BACK
 10
2218.44496610223
 20
40.45833061369116
 30
0.0
  0
VERTEX
  5
5B8
  8
IMPORT_-_TVSTAND_BACK
 10
2218.44496610223
 20
149.3196106695302
 30
0.0
  0
SEQEND
  5
5B9
  8
IMPORT_-_TVSTAND_BACK
  0
POLYLINE
  5
EB
  8
IMPORT_-_TVSTAND_BACK
 66
     1
 10
0.0
 20
0.0
 30
0.0
  0
VERTEX
  5
5BA
  8
IMPORT_-_TVSTAND_BACK
 10
2158.444966102231
 20
350.8084711237582
 30
0.0
  0
VERTEX
  5
5BB
  8
IMPORT_-_TVSTAND_BACK
 10
2158.444966102231
 20
410.0137286979864
 30
0.0
  0
SEQEND
  5
5BC
  8
IMPORT_-_TVSTAND_BACK
  0
POLYLINE
  5
EC
  8
IMPORT_-_TVSTAND_BACK
 66
     1
 10
0.0
 20
0.0
 30
0.0
  0
VERTEX
  5
5BD
  8
IMPORT_-_TVSTAND_BACK
 10
2158.444966102231
 20
226.6684149197315
 30
0.0
  0
VERTEX
  5
5BE
  8
IMPORT_-_TVSTAND_BACK
 10
2158.444966102231
 20
335.5296949755703
 30
0.0
  0
SEQEND
  5
5BF
  8
IMPORT_-_TVSTAND_BACK
  0
POLYLINE
  5
ED
  8
IMPORT_-_TVSTAND_BACK
 66
     1
 10
0.0
 20
0.0
 30
0.0
  0
VERTEX
  5
5C0
  8
IMPORT_-_TVSTAND_BACK
 10
2158.444966102231
 20
102.5283587157047
 30
0.0
  0
VERTEX
  5
5C1
  8
IMPORT_-_TVSTAND_BACK
 10
2158.444966102231
 20
211.3896387715436
 30
0.0
  0
SEQEND
  5
5C2
  8
IMPORT_-_TVSTAND_BACK
  0
POLYLINE
  5
EE
  8
IMPORT_-_TVSTAND_BACK
 66
     1
 10
0.0
 20
0.0
 30
0.0
  0
VERTEX
  5
5C3
  8
IMPORT_-_TVSTAND_BACK
 10
2158.444966102231
 20
28.04432499328848
 30
0.0
  0
VERTEX
  5
5C4
  8
IMPORT_-_TVSTAND_BACK
 10
2158.444966102231
 20
87.24958256751674
 30
0.0
  0
SEQEND
  5
5C5
  8
IMPORT_-_TVSTAND_BACK
  0
POLYLINE
  5
EF
  8
IMPORT_-_TVSTAND_BACK
 66
     1
 10
0.0
 20
0.0
 30
0.0
  0
VERTEX
  5
5C6
  8
IMPORT_-_TVSTAND_BACK
 10
2182.444966102231
 20
350.8084711237582
 30
0.0
  0
VERTEX
  5
5C7
  8
IMPORT_-_TVSTAND_BACK
 10
2182.444966102231
 20
410.0137286979864
 30
0.0
  0
SEQEND
  5
5C8
  8
IMPORT_-_TVSTAND_BACK
  0
POLYLINE
  5
F0
  8
IMPORT_-_TVSTAND_BACK
 66
     1
 10
0.0
 20
0.0
 30
0.0
  0
VERTEX
  5
5C9
  8
IMPORT_-_TVSTAND_BACK
 10
2182.444966102231
 20
226.6684149197315
 30
0.0
  0
VERTEX
  5
5CA
  8
IMPORT_-_TVSTAND_BACK
 10
2182.444966102231
 20
335.5296949755703
 30
0.0
  0
SEQEND
  5
5CB
  8
IMPORT_-_TVSTAND_BACK
  0
POLYLINE
  5
F1
  8
IMPORT_-_TVSTAND_BACK
 66
     1
 10
0.0
 20
0.0
 30
0.0
  0
VERTEX
  5
5CC
  8
IMPORT_-_TVSTAND_BACK
 10
2182.444966102231
 20
102.5283587157047
 30
0.0
  0
VERTEX
  5
5CD
  8
IMPORT_-_TVSTAND_BACK
 10
2182.444966102231
 20
211.3896387715436
 30
0.0
  0
SEQEND
  5
5CE
  8
IMPORT_-_TVSTAND_BACK
  0
POLYLINE
  5
F2
  8
IMPORT_-_TVSTAND_BACK
 66
     1
 10
0.0
 20
0.0
 30
0.0
  0
VERTEX
  5
5CF
  8
IMPORT_-_TVSTAND_BACK
 10
2182.444966102231
 20
28.04432499328848
 30
0.0
  0
VERTEX
  5
5D0
  8
IMPORT_-_TVSTAND_BACK
 10
2182.444966102231
 20
87.24958256751674
 30
0.0
  0
SEQEND
  5
5D1
  8
IMPORT_-_TVSTAND_BACK
  0
POLYLINE
  5
F3
  8
IMPORT_-_TVSTAND_BACK
 66
     1
 10
0.0
 20
0.0
 30
0.0
  0
VERTEX
  5
5D2
  8
IMPORT_-_TVSTAND_BACK
 10
2206.444966102231
 20
350.8084711237582
 30
0.0
  0
VERTEX
  5
5D3
  8
IMPORT_-_TVSTAND_BACK
 10
2206.444966102231
 20
410.0137286979864
 30
0.0
  0
SEQEND
  5
5D4
  8
IMPORT_-_TVSTAND_BACK
  0
POLYLINE
  5
F4
  8
IMPORT_-_TVSTAND_BACK
 66
     1
 10
0.0
 20
0.0
 30
0.0
  0
VERTEX
  5
5D5
  8
IMPORT_-_TVSTAND_BACK
 10
2206.444966102231
 20
226.6684149197315
 30
0.0
  0
VERTEX
  5
5D6
  8
IMPORT_-_TVSTAND_BACK
 10
2206.444966102231
 20
335.5296949755703
 30
0.0
  0
SEQEND
  5
5D7
  8
IMPORT_-_TVSTAND_BACK
  0
POLYLINE
  5
F5
  8
IMPORT_-_TVSTAND_BACK
 66
     1
 10
0.0
 20
0.0
 30
0.0
  0
VERTEX
  5
5D8
  8
IMPORT_-_TVSTAND_BACK
 10
2206.444966102231
 20
102.5283587157047
 30
0.0
  0
VERTEX
  5
5D9
  8
IMPORT_-_TVSTAND_BACK
 10
2206.444966102231
 20
211.3896387715436
 30
0.0
  0
SEQEND
  5
5DA
  8
IMPORT_-_TVSTAND_BACK
  0
POLYLINE
  5
F6
  8
IMPORT_-_TVSTAND_BACK
 66
     1
 10
0.0
 20
0.0
 30
0.0
  0
VERTEX
  5
5DB
  8
IMPORT_-_TVSTAND_BACK
 10
2206.444966102231
 20
28.04432499328848
 30
0.0
  0
VERTEX
  5
5DC
  8
IMPORT_-_TVSTAND_BACK
 10
2206.444966102231
 20
87.24958256751674
 30
0.0
  0
SEQEND
  5
5DD
  8
IMPORT_-_TVSTAND_BACK
  0
POLYLINE
  5
F7
  8
IMPORT_-_TVSTAND_BACK
 66
     1
 10
0.0
 20
0.0
 30
0.0
  0
VERTEX
  5
5DE
  8
IMPORT_-_TVSTAND_BACK
 10
2230.44496610223
 20
350.8084711237582
 30
0.0
  0
VERTEX
  5
5DF
  8
IMPORT_-_TVSTAND_BACK
 10
2230.44496610223
 20
410.0137286979864
 30
0.0
  0
SEQEND
  5
5E0
  8
IMPORT_-_TVSTAND_BACK
  0
POLYLINE
  5
F8
  8
IMPORT_-_TVSTAND_BACK
 66
     1
 10
0.0
 20
0.0
 30
0.0
  0
VERTEX
  5
5E1
  8
IMPORT_-_TVSTAND_BACK
 10
2230.44496610223
 20
226.6684149197315
 30
0.0
  0
VERTEX
  5
5E2
  8
IMPORT_-_TVSTAND_BACK
 10
2230.44496610223
 20
335.5296949755703
 30
0.0
  0
SEQEND
  5
5E3
  8
IMPORT_-_TVSTAND_BACK
  0
POLYLINE
  5
F9
  8
IMPORT_-_TVSTAND_BACK
 66
     1
 10
0.0
 20
0.0
 30
0.0
  0
VERTEX
  5
5E4
  8
IMPORT_-_TVSTAND_BACK
 10
2230.44496610223
 20
102.5283587157047
 30
0.0
  0
VERTEX
  5
5E5
  8
IMPORT_-_TVSTAND_BACK
 10
2230.44496610223
 20
211.3896387715436
 30
0.0
  0
SEQEND
  5
5E6
  8
IMPORT_-_TVSTAND_BACK
  0
POLYLINE
  5
FA
  8
IMPORT_-_TVSTAND_BACK
 66
     1
 10
0.0
 20
0.0
 30
0.0
  0
VERTEX
  5
5E7
  8
IMPORT_-_TVSTAND_BACK
 10
2230.44496610223
 20
28.04432499328848
 30
0.0
  0
VERTEX
  5
5E8
  8
IMPORT_-_TVSTAND_BACK
 10
2230.44496610223
 20
87.24958256751674
 30
0.0
  0
SEQEND
  5
5E9
  8
IMPORT_-_TVSTAND_BACK
  0
POLYLINE
  5
FB
  8
IMPORT_-_TVSTAND_BACK
 66
     1
 10
0.0
 20
0.0
 30
0.0
  0
VERTEX
  5
5EA
  8
IMPORT_-_TVSTAND_BACK
 10
2242.44496610223
 20
164.5983868177181
 30
0.0
  0
VERTEX
  5
5EB
  8
IMPORT_-_TVSTAND_BACK
 10
2242.44496610223
 20
273.4596668735568
 30
0.0
  0
SEQEND
  5
5EC
  8
IMPORT_-_TVSTAND_BACK
  0
POLYLINE
  5
FC
  8
IMPORT_-_TVSTAND_BACK
 66
     1
 10
0.0
 20
0.0
 30
0.0
  0
VERTEX
  5
5ED
  8
IMPORT_-_TVSTAND_BACK
 10
2242.44496610223
 20
288.7384430217448
 30
0.0
  0
VERTEX
  5
5EE
  8
IMPORT_-_TVSTAND_BACK
 10
2242.44496610223
 20
397.5997230775837
 30
0.0
  0
SEQEND
  5
5EF
  8
IMPORT_-_TVSTAND_BACK
  0
POLYLINE
  5
FD
  8
IMPORT_-_TVSTAND_BACK
 66
     1
 10
0.0
 20
0.0
 30
0.0
  0
VERTEX
  5
5F0
  8
IMPORT_-_TVSTAND_BACK
 10
2242.44496610223
 20
40.45833061369116
 30
0.0
  0
VERTEX
  5
5F1
  8
IMPORT_-_TVSTAND_BACK
 10
2242.44496610223
 20
149.3196106695302
 30
0.0
  0
SEQEND
  5
5F2
  8
IMPORT_-_TVSTAND_BACK
  0
POLYLINE
  5
FE
  8
IMPORT_-_TVSTAND_BACK
 66
     1
 10
0.0
 20
0.0
 30
0.0
  0
VERTEX
  5
5F3
  8
IMPORT_-_TVSTAND_BACK
 10
2254.44496610223
 20
350.8084711237582
 30
0.0
  0
VERTEX
  5
5F4
  8
IMPORT_-_TVSTAND_BACK
 10
2254.44496610223
 20
410.0137286979864
 30
0.0
  0
SEQEND
  5
5F5
  8
IMPORT_-_TVSTAND_BACK
  0
POLYLINE
  5
FF
  8
IMPORT_-_TVSTAND_BACK
 66
     1
 10
0.0
 20
0.0
 30
0.0
  0
VERTEX
  5
5F6
  8
IMPORT_-_TVSTAND_BACK
 10
2254.44496610223
 20
226.6684149197315
 30
0.0
  0
VERTEX
  5
5F7
  8
IMPORT_-_TVSTAND_BACK
 10
2254.44496610223
 20
335.5296949755703
 30
0.0
  0
SEQEND
  5
5F8
  8
IMPORT_-_TVSTAND_BACK
  0
POLYLINE
  5
100
  8
IMPORT_-_TVSTAND_BACK
 66
     1
 10
0.0
 20
0.0
 30
0.0
  0
VERTEX
  5
5F9
  8
IMPORT_-_TVSTAND_BACK
 10
2254.44496610223
 20
102.5283587157047
 30
0.0
  0
VERTEX
  5
5FA
  8
IMPORT_-_TVSTAND_BACK
 10
2254.44496610223
 20
211.3896387715436
 30
0.0
  0
SEQEND
  5
5FB
  8
IMPORT_-_TVSTAND_BACK
  0
POLYLINE
  5
101
  8
IMPORT_-_TVSTAND_BACK
 66
     1
 10
0.0
 20
0.0
 30
0.0
  0
VERTEX
  5
5FC
  8
IMPORT_-_TVSTAND_BACK
 10
2254.44496610223
 20
28.04432499328848
 30
0.0
  0
VERTEX
  5
5FD
  8
IMPORT_-_TVSTAND_BACK
 10
2254.44496610223
 20
87.24958256751674
 30
0.0
  0
SEQEND
  5
5FE
  8
IMPORT_-_TVSTAND_BACK
  0
POLYLINE
  5
102
  8
IMPORT_-_TVSTAND_BACK
 66
     1
 10
0.0
 20
0.0
 30
0.0
 70
     1
  0
VERTEX
  5
5FF
  8
IMPORT_-_TVSTAND_BACK
 10
688.844474486309
 20
108.7381218975831
 30
0.0
  0
VERTEX
  5
600
  8
IMPORT_-_TVSTAND_BACK
 10
688.844474486309
 20
176.9528405233445
 30
0.0
 42
1.0
  0
VERTEX
  5
601
  8
IMPORT_-_TVSTAND_BACK
 10
684.6018337991898
 20
181.1954812104638
 30
0.0
  0
VERTEX
  5
602
  8
IMPORT_-_TVSTAND_BACK
 10
680.5871151734283
 20
181.1954812104638
 30
0.0
 42
1.0
  0
VERTEX
  5
603
  8
IMPORT_-_TVSTAND_BACK
 10
676.344474486309
 20
176.9528405233445
 30
0.0
  0
VERTEX
  5
604
  8
IMPORT_-_TVSTAND_BACK
 10
676.344474486309
 20
108.7381218975831
 30
0.0
 42
1.0
  0
VERTEX
  5
605
  8
IMPORT_-_TVSTAND_BACK
 10
680.5871151734283
 20
104.4954812104638
 30
0.0
  0
VERTEX
  5
606
  8
IMPORT_-_TVSTAND_BACK
 10
684.6018337991898
 20
104.4954812104638
 30
0.0
 42
1.0
  0
SEQEND
  5
607
  8
IMPORT_-_TVSTAND_BACK
  0
POLYLINE
  5
103
  8
IMPORT_-_TVSTAND_BACK
 66
     1
 10
0.0
 20
0.0
 30
0.0
 70
     1
  0
VERTEX
  5
608
  8
IMPORT_-_TVSTAND_BACK
 10
688.844474486309
 20
261.1381218975831
 30
0.0
  0
VERTEX
  5
609
  8
IMPORT_-_TVSTAND_BACK
 10
688.844474486309
 20
329.3528405233446
 30
0.0
 42
1.0
  0
VERTEX
  5
60A
  8
IMPORT_-_TVSTAND_BACK
 10
684.6018337991898
 20
333.5954812104638
 30
0.0
  0
VERTEX
  5
60B
  8
IMPORT_-_TVSTAND_BACK
 10
680.5871151734283
 20
333.5954812104638
 30
0.0
 42
1.0
  0
VERTEX
  5
60C
  8
IMPORT_-_TVSTAND_BACK
 10
676.344474486309
 20
329.3528405233446
 30
0.0
  0
VERTEX
  5
60D
  8
IMPORT_-_TVSTAND_BACK
 10
676.344474486309
 20
261.1381218975831
 30
0.0
 42
1.0
  0
VERTEX
  5
60E
  8
IMPORT_-_TVSTAND_BACK
 10
680.5871151734283
 20
256.8954812104638
 30
0.0
  0
VERTEX
  5
60F
  8
IMPORT_-_TVSTAND_BACK
 10
684.6018337991898
 20
256.8954812104638
 30
0.0
 42
1.0
  0
SEQEND
  5
610
  8
IMPORT_-_TVSTAND_BACK
  0
POLYLINE
  5
104
  8
IMPORT_-_TVSTAND_BACK
 66
     1
 10
0.0
 20
0.0
 30
0.0
 70
     1
  0
VERTEX
  5
611
  8
IMPORT_-_TVSTAND_BACK
 10
778.3444744863092
 20
329.3528405233446
 30
0.0
  0
VERTEX
  5
612
  8
IMPORT_-_TVSTAND_BACK
 10
778.3444744863092
 20
261.1381218975831
 30
0.0
 42
1.0
  0
VERTEX
  5
613
  8
IMPORT_-_TVSTAND_BACK
 10
782.5871151734284
 20
256.8954812104638
 30
0.0
  0
VERTEX
  5
614
  8
IMPORT_-_TVSTAND_BACK
 10
786.6018337991899
 20
256.8954812104638
 30
0.0
 42
1.0
  0
VERTEX
  5
615
  8
IMPORT_-_TVSTAND_BACK
 10
790.8444744863091
 20
261.1381218975831
 30
0.0
  0
VERTEX
  5
616
  8
IMPORT_-_TVSTAND_BACK
 10
790.8444744863092
 20
329.3528405233446
 30
0.0
 42
1.0
  0
VERTEX
  5
617
  8
IMPORT_-_TVSTAND_BACK
 10
786.6018337991899
 20
333.5954812104638
 30
0.0
  0
VERTEX
  5
618
  8
IMPORT_-_TVSTAND_BACK
 10
782.5871151734285
 20
333.5954812104638
 30
0.0
 42
1.0
  0
SEQEND
  5
619
  8
IMPORT_-_TVSTAND_BACK
  0
POLYLINE
  5
105
  8
IMPORT_-_TVSTAND_BACK
 66
     1
 10
0.0
 20
0.0
 30
0.0
 70
     1
  0
VERTEX
  5
61A
  8
IMPORT_-_TVSTAND_BACK
 10
778.3444744863092
 20
176.9528405233445
 30
0.0
  0
VERTEX
  5
61B
  8
IMPORT_-_TVSTAND_BACK
 10
778.3444744863092
 20
108.7381218975831
 30
0.0
 42
1.0
  0
VERTEX
  5
61C
  8
IMPORT_-_TVSTAND_BACK
 10
782.5871151734284
 20
104.4954812104638
 30
0.0
  0
VERTEX
  5
61D
  8
IMPORT_-_TVSTAND_BACK
 10
786.6018337991899
 20
104.4954812104638
 30
0.0
 42
1.0
  0
VERTEX
  5
61E
  8
IMPORT_-_TVSTAND_BACK
 10
790.8444744863092
 20
108.7381218975831
 30
0.0
  0
VERTEX
  5
61F
  8
IMPORT_-_TVSTAND_BACK
 10
790.8444744863092
 20
176.9528405233445
 30
0.0
 42
1.0
  0
VERTEX
  5
620
  8
IMPORT_-_TVSTAND_BACK
 10
786.6018337991899
 20
181.1954812104638
 30
0.0
  0
VERTEX
  5
621
  8
IMPORT_-_TVSTAND_BACK
 10
782.5871151734284
 20
181.1954812104638
 30
0.0
 42
1.0
  0
SEQEND
  5
622
  8
IMPORT_-_TVSTAND_BACK
  0
POLYLINE
  5
106
  8
IMPORT_-_TVSTAND_BACK
 66
     1
 10
0.0
 20
0.0
 30
0.0
 70
     1
  0
VERTEX
  5
623
  8
IMPORT_-_TVSTAND_BACK
 10
1885.93947448631
 20
176.9528405233445
 30
0.0
  0
VERTEX
  5
624
  8
IMPORT_-_TVSTAND_BACK
 10
1885.93947448631
 20
108.7381218975831
 30
0.0
 42
1.0
  0
VERTEX
  5
625
  8
IMPORT_-_TVSTAND_BACK
 10
1890.182115173429
 20
104.4954812104638
 30
0.0
  0
VERTEX
  5
626
  8
IMPORT_-_TVSTAND_BACK
 10
1894.19683379919
 20
104.4954812104638
 30
0.0
 42
1.0
  0
VERTEX
  5
627
  8
IMPORT_-_TVSTAND_BACK
 10
1898.43947448631
 20
108.7381218975831
 30
0.0
  0
VERTEX
  5
628
  8
IMPORT_-_TVSTAND_BACK
 10
1898.43947448631
 20
176.9528405233445
 30
0.0
 42
1.0
  0
VERTEX
  5
629
  8
IMPORT_-_TVSTAND_BACK
 10
1894.19683379919
 20
181.1954812104638
 30
0.0
  0
VERTEX
  5
62A
  8
IMPORT_-_TVSTAND_BACK
 10
1890.182115173429
 20
181.1954812104638
 30
0.0
 42
1.0
  0
SEQEND
  5
62B
  8
IMPORT_-_TVSTAND_BACK
  0
POLYLINE
  5
107
  8
IMPORT_-_TVSTAND_BACK
 66
     1
 10
0.0
 20
0.0
 30
0.0
 70
     1
  0
VERTEX
  5
62C
  8
IMPORT_-_TVSTAND_BACK
 10
1885.93947448631
 20
329.3528405233446
 30
0.0
  0
VERTEX
  5
62D
  8
IMPORT_-_TVSTAND_BACK
 10
1885.93947448631
 20
261.1381218975831
 30
0.0
 42
1.0
  0
VERTEX
  5
62E
  8
IMPORT_-_TVSTAND_BACK
 10
1890.182115173429
 20
256.8954812104638
 30
0.0
  0
VERTEX
  5
62F
  8
IMPORT_-_TVSTAND_BACK
 10
1894.19683379919
 20
256.8954812104638
 30
0.0
 42
1.0
  0
VERTEX
  5
630
  8
IMPORT_-_TVSTAND_BACK
 10
1898.43947448631
 20
261.1381218975831
 30
0.0
  0
VERTEX
  5
631
  8
IMPORT_-_TVSTAND_BACK
 10
1898.43947448631
 20
329.3528405233446
 30
0.0
 42
1.0
  0
VERTEX
  5
632
  8
IMPORT_-_TVSTAND_BACK
 10
1894.19683379919
 20
333.5954812104638
 30
0.0
  0
VERTEX
  5
633
  8
IMPORT_-_TVSTAND_BACK
 10
1890.182115173429
 20
333.5954812104638
 30
0.0
 42
1.0
  0
SEQEND
  5
634
  8
IMPORT_-_TVSTAND_BACK
  0
POLYLINE
  5
108
  8
IMPORT_-_TVSTAND_BACK
 66
     1
 10
0.0
 20
0.0
 30
0.0
 70
     1
  0
VERTEX
  5
635
  8
IMPORT_-_TVSTAND_BACK
 10
2000.43947448631
 20
261.1381218975831
 30
0.0
  0
VERTEX
  5
636
  8
IMPORT_-_TVSTAND_BACK
 10
2000.43947448631
 20
329.3528405233446
 30
0.0
 42
1.0
  0
VERTEX
  5
637
  8
IMPORT_-_TVSTAND_BACK
 10
1996.19683379919
 20
333.5954812104638
 30
0.0
  0
VERTEX
  5
638
  8
IMPORT_-_TVSTAND_BACK
 10
1992.182115173429
 20
333.5954812104638
 30
0.0
 42
1.0
  0
VERTEX
  5
639
  8
IMPORT_-_TVSTAND_BACK
 10
1987.93947448631
 20
329.3528405233446
 30
0.0
  0
VERTEX
  5
63A
  8
IMPORT_-_TVSTAND_BACK
 10
1987.93947448631
 20
261.1381218975831
 30
0.0
 42
1.0
  0
VERTEX
  5
63B
  8
IMPORT_-_TVSTAND_BACK
 10
1992.182115173429
 20
256.8954812104638
 30
0.0
  0
VERTEX
  5
63C
  8
IMPORT_-_TVSTAND_BACK
 10
1996.19683379919
 20
256.8954812104638
 30
0.0
 42
1.0
  0
SEQEND
  5
63D
  8
IMPORT_-_TVSTAND_BACK
  0
POLYLINE
  5
109
  8
IMPORT_-_TVSTAND_BACK
 66
     1
 10
0.0
 20
0.0
 30
0.0
 70
     1
  0
VERTEX
  5
63E
  8
IMPORT_-_TVSTAND_BACK
 10
2000.43947448631
 20
108.7381218975831
 30
0.0
  0
VERTEX
  5
63F
  8
IMPORT_-_TVSTAND_BACK
 10
2000.43947448631
 20
176.9528405233445
 30
0.0
 42
1.0
  0
VERTEX
  5
640
  8
IMPORT_-_TVSTAND_BACK
 10
1996.19683379919
 20
181.1954812104638
 30
0.0
  0
VERTEX
  5
641
  8
IMPORT_-_TVSTAND_BACK
 10
1992.182115173429
 20
181.1954812104638
 30
0.0
 42
1.0
  0
VERTEX
  5
642
  8
IMPORT_-_TVSTAND_BACK
 10
1987.93947448631
 20
176.9528405233445
 30
0.0
  0
VERTEX
  5
643
  8
IMPORT_-_TVSTAND_BACK
 10
1987.93947448631
 20
108.7381218975831
 30
0.0
 42
1.0
  0
VERTEX
  5
644
  8
IMPORT_-_TVSTAND_BACK
 10
1992.182115173429
 20
104.4954812104638
 30
0.0
  0
VERTEX
  5
645
  8
IMPORT_-_TVSTAND_BACK
 10
1996.19683379919
 20
104.4954812104638
 30
0.0
 42
1.0
  0
SEQEND
  5
646
  8
IMPORT_-_TVSTAND_BACK
  0
POLYLINE
  5
10A
  8
IMPORT_-_TVSTAND_BACK
 66
     1
 10
0.0
 20
0.0
 30
0.0
 70
     1
  0
VERTEX
  5
647
  8
IMPORT_-_TVSTAND_BACK
 10
285.031291946325
 20
747.5757364074909
 30
0.0
  0
VERTEX
  5
648
  8
IMPORT_-_TVSTAND_BACK
 10
285.031291946325
 20
608.0610177817296
 30
0.0
 42
1.0
  0
VERTEX
  5
649
  8
IMPORT_-_TVSTAND_BACK
 10
289.2739326334443
 20
603.8183770946102
 30
0.0
  0
VERTEX
  5
64A
  8
IMPORT_-_TVSTAND_BACK
 10
293.2886512592057
 20
603.8183770946102
 30
0.0
 42
1.0
  0
VERTEX
  5
64B
  8
IMPORT_-_TVSTAND_BACK
 10
297.531291946325
 20
608.0610177817296
 30
0.0
  0
VERTEX
  5
64C
  8
IMPORT_-_TVSTAND_BACK
 10
297.531291946325
 20
747.5757364074909
 30
0.0
 42
1.0
  0
VERTEX
  5
64D
  8
IMPORT_-_TVSTAND_BACK
 10
293.2886512592057
 20
751.8183770946102
 30
0.0
  0
VERTEX
  5
64E
  8
IMPORT_-_TVSTAND_BACK
 10
289.2739326334443
 20
751.8183770946102
 30
0.0
 42
1.0
  0
SEQEND
  5
64F
  8
IMPORT_-_TVSTAND_BACK
  0
POLYLINE
  5
10B
  8
IMPORT_-_TVSTAND_BACK
 66
     1
 10
0.0
 20
0.0
 30
0.0
 70
     1
  0
VERTEX
  5
650
  8
IMPORT_-_TVSTAND_BACK
 10
387.031291946325
 20
747.5757364074909
 30
0.0
  0
VERTEX
  5
651
  8
IMPORT_-_TVSTAND_BACK
 10
387.031291946325
 20
608.0610177817296
 30
0.0
 42
1.0
  0
VERTEX
  5
652
  8
IMPORT_-_TVSTAND_BACK
 10
391.2739326334443
 20
603.8183770946102
 30
0.0
  0
VERTEX
  5
653
  8
IMPORT_-_TVSTAND_BACK
 10
395.2886512592058
 20
603.8183770946102
 30
0.0
 42
1.0
  0
VERTEX
  5
654
  8
IMPORT_-_TVSTAND_BACK
 10
399.531291946325
 20
608.0610177817296
 30
0.0
  0
VERTEX
  5
655
  8
IMPORT_-_TVSTAND_BACK
 10
399.531291946325
 20
747.5757364074909
 30
0.0
 42
1.0
  0
VERTEX
  5
656
  8
IMPORT_-_TVSTAND_BACK
 10
395.2886512592058
 20
751.8183770946102
 30
0.0
  0
VERTEX
  5
657
  8
IMPORT_-_TVSTAND_BACK
 10
391.2739326334443
 20
751.8183770946102
 30
0.0
 42
1.0
  0
SEQEND
  5
658
  8
IMPORT_-_TVSTAND_BACK
  0
POLYLINE
  5
10C
  8
IMPORT_-_TVSTAND_BACK
 66
     1
 10
0.0
 20
0.0
 30
0.0
 70
     1
  0
VERTEX
  5
659
  8
IMPORT_-_TVSTAND_BACK
 10
285.0312919463252
 20
1042.775736407491
 30
0.0
  0
VERTEX
  5
65A
  8
IMPORT_-_TVSTAND_BACK
 10
285.0312919463252
 20
903.2610177817295
 30
0.0
 42
1.0
  0
VERTEX
  5
65B
  8
IMPORT_-_TVSTAND_BACK
 10
289.2739326334444
 20
899.0183770946102
 30
0.0
  0
VERTEX
  5
65C
  8
IMPORT_-_TVSTAND_BACK
 10
293.2886512592058
 20
899.0183770946102
 30
0.0
 42
1.0
  0
VERTEX
  5
65D
  8
IMPORT_-_TVSTAND_BACK
 10
297.5312919463252
 20
903.2610177817295
 30
0.0
  0
VERTEX
  5
65E
  8
IMPORT_-_TVSTAND_BACK
 10
297.5312919463252
 20
1042.775736407491
 30
0.0
 42
1.0
  0
VERTEX
  5
65F
  8
IMPORT_-_TVSTAND_BACK
 10
293.2886512592058
 20
1047.01837709461
 30
0.0
  0
VERTEX
  5
660
  8
IMPORT_-_TVSTAND_BACK
 10
289.2739326334444
 20
1047.01837709461
 30
0.0
 42
1.0
  0
SEQEND
  5
661
  8
IMPORT_-_TVSTAND_BACK
  0
POLYLINE
  5
10D
  8
IMPORT_-_TVSTAND_BACK
 66
     1
 10
0.0
 20
0.0
 30
0.0
 70
     1
  0
VERTEX
  5
662
  8
IMPORT_-_TVSTAND_BACK
 10
387.0312919463252
 20
1042.775736407491
 30
0.0
  0
VERTEX
  5
663
  8
IMPORT_-_TVSTAND_BACK
 10
387.0312919463252
 20
903.2610177817295
 30
0.0
 42
1.0
  0
VERTEX
  5
664
  8
IMPORT_-_TVSTAND_BACK
 10
391.2739326334444
 20
899.0183770946102
 30
0.0
  0
VERTEX
  5
665
  8
IMPORT_-_TVSTAND_BACK
 10
395.2886512592059
 20
899.0183770946102
 30
0.0
 42
1.0
  0
VERTEX
  5
666
  8
IMPORT_-_TVSTAND_BACK
 10
399.5312919463252
 20
903.2610177817295
 30
0.0
  0
VERTEX
  5
667
  8
IMPORT_-_TVSTAND_BACK
 10
399.5312919463252
 20
1042.775736407491
 30
0.0
 42
1.0
  0
VERTEX
  5
668
  8
IMPORT_-_TVSTAND_BACK
 10
395.2886512592059
 20
1047.01837709461
 30
0.0
  0
VERTEX
  5
669
  8
IMPORT_-_TVSTAND_BACK
 10
391.2739326334444
 20
1047.01837709461
 30
0.0
 42
1.0
  0
SEQEND
  5
66A
  8
IMPORT_-_TVSTAND_BACK
  0
POLYLINE
  5
10E
  8
IMPORT_-_TVSTAND_BACK
 66
     1
 10
0.0
 20
0.0
 30
0.0
 70
     1
  0
VERTEX
  5
66B
  8
IMPORT_-_TVSTAND_BACK
 10
145.3783023093097
 20
54.52975318220398
 30
0.0
 42
-0.4142135623730951
  0
VERTEX
  5
66C
  8
IMPORT_-_TVSTAND_BACK
 10
119.8783023093107
 20
80.02975318220386
 30
0.0
 42
-0.4142135623730951
  0
VERTEX
  5
66D
  8
IMPORT_-_TVSTAND_BACK
 10
145.3783023093097
 20
105.5297531822037
 30
0.0
 42
-0.4142135623730951
  0
VERTEX
  5
66E
  8
IMPORT_-_TVSTAND_BACK
 10
170.8783023093085
 20
80.02975318220386
 30
0.0
 42
-0.4142135623730951
  0
SEQEND
  5
66F
  8
IMPORT_-_TVSTAND_BACK
  0
POLYLINE
  5
10F
  8
IMPORT_-_TVSTAND_BACK
 66
     1
 10
0.0
 20
0.0
 30
0.0
 70
     1
  0
VERTEX
  5
670
  8
IMPORT_-_TVSTAND_BACK
 10
145.3783023093097
 20
383.5290828552793
 30
0.0
 42
0.4142135623730951
  0
VERTEX
  5
671
  8
IMPORT_-_TVSTAND_BACK
 10
119.8783023093107
 20
358.0290828552793
 30
0.0
 42
0.4142135623730951
  0
VERTEX
  5
672
  8
IMPORT_-_TVSTAND_BACK
 10
145.3783023093097
 20
332.5290828552793
 30
0.0
 42
0.4142135623730951
  0
VERTEX
  5
673
  8
IMPORT_-_TVSTAND_BACK
 10
170.8783023093085
 20
358.0290828552793
 30
0.0
 42
0.4142135623730951
  0
SEQEND
  5
674
  8
IMPORT_-_TVSTAND_BACK
  0
POLYLINE
  5
110
  8
IMPORT_-_TVSTAND_BACK
 66
     1
 10
0.0
 20
0.0
 30
0.0
 70
     1
  0
VERTEX
  5
675
  8
IMPORT_-_TVSTAND_BACK
 10
737.6211354182844
 20
473.6311920179701
 30
0.0
 42
0.4142135623730951
  0
VERTEX
  5
676
  8
IMPORT_-_TVSTAND_BACK
 10
712.6211354182844
 20
498.6311920179702
 30
0.0
 42
0.4142135623730951
  0
VERTEX
  5
677
  8
IMPORT_-_TVSTAND_BACK
 10
687.6211354182844
 20
473.6311920179702
 30
0.0
 42
0.4142135623730951
  0
VERTEX
  5
678
  8
IMPORT_-_TVSTAND_BACK
 10
712.6211354182844
 20
448.6311920179702
 30
0.0
 42
0.4142135623730951
  0
SEQEND
  5
679
  8
IMPORT_-_TVSTAND_BACK
  0
POLYLINE
  5
111
  8
IMPORT_-_TVSTAND_BACK
 66
     1
 10
0.0
 20
0.0
 30
0.0
 70
     1
  0
VERTEX
  5
67A
  8
IMPORT_-_TVSTAND_BACK
 10
831.0665290865586
 20
473.6311920179701
 30
0.0
 42
0.4142135623730951
  0
VERTEX
  5
67B
  8
IMPORT_-_TVSTAND_BACK
 10
806.0665290865586
 20
498.6311920179701
 30
0.0
 42
0.4142135623730951
  0
VERTEX
  5
67C
  8
IMPORT_-_TVSTAND_BACK
 10
781.0665290865586
 20
473.6311920179701
 30
0.0
 42
0.4142135623730951
  0
VERTEX
  5
67D
  8
IMPORT_-_TVSTAND_BACK
 10
806.0665290865586
 20
448.6311920179701
 30
0.0
 42
0.4142135623730951
  0
SEQEND
  5
67E
  8
IMPORT_-_TVSTAND_BACK
  0
POLYLINE
  5
112
  8
IMPORT_-_TVSTAND_BACK
 66
     1
 10
0.0
 20
0.0
 30
0.0
 70
     1
  0
VERTEX
  5
67F
  8
IMPORT_-_TVSTAND_BACK
 10
1274.190892617449
 20
431.446
 30
0.0
  0
VERTEX
  5
680
  8
IMPORT_-_TVSTAND_BACK
 10
1274.191380463076
 20
444.222367648802
 30
0.0
 42
-1.0
  0
VERTEX
  5
681
  8
IMPORT_-_TVSTAND_BACK
 10
1278.434021150196
 20
448.4650083359213
 30
0.0
  0
VERTEX
  5
682
  8
IMPORT_-_TVSTAND_BACK
 10
1338.396936018632
 20
448.4650083359213
 30
0.0
  0
VERTEX
  5
683
  8
IMPORT_-_TVSTAND_BACK
 10
1338.397099310088
 20
808.3879986389468
 30
0.0
 42
0.4142136952593349
  0
VERTEX
  5
684
  8
IMPORT_-_TVSTAND_BACK
 10
1335.397099310088
 20
811.388
 30
0.0
  0
VERTEX
  5
685
  8
IMPORT_-_TVSTAND_BACK
 10
1158.136741358261
 20
811.388
 30
0.0
 42
-1.0
  0
VERTEX
  5
686
  8
IMPORT_-_TVSTAND_BACK
 10
1153.894100671142
 20
815.6306406871194
 30
0.0
  0
VERTEX
  5
687
  8
IMPORT_-_TVSTAND_BACK
 10
1153.894100671142
 20
819.2753593128807
 30
0.0
 42
-1.0
  0
VERTEX
  5
688
  8
IMPORT_-_TVSTAND_BACK
 10
1158.136741358261
 20
823.518
 30
0.0
  0
VERTEX
  5
689
  8
IMPORT_-_TVSTAND_BACK
 10
1335.397099310088
 20
823.518
 30
0.0
 42
0.4142136952418226
  0
VERTEX
  5
68A
  8
IMPORT_-_TVSTAND_BACK
 10
1338.397099310087
 20
826.5180013610538
 30
0.0
  0
VERTEX
  5
68B
  8
IMPORT_-_TVSTAND_BACK
 10
1338.396936018632
 20
1186.440841669254
 30
0.0
  0
VERTEX
  5
68C
  8
IMPORT_-_TVSTAND_BACK
 10
1278.434021150196
 20
1186.440841669254
 30
0.0
 42
-1.0
  0
VERTEX
  5
68D
  8
IMPORT_-_TVSTAND_BACK
 10
1274.191380463076
 20
1190.683482356374
 30
0.0
  0
VERTEX
  5
68E
  8
IMPORT_-_TVSTAND_BACK
 10
1274.190892617449
 20
1203.46
 30
0.0
  0
VERTEX
  5
68F
  8
IMPORT_-_TVSTAND_BACK
 10
1197.990892617449
 20
1203.46
 30
0.0
  0
VERTEX
  5
690
  8
IMPORT_-_TVSTAND_BACK
 10
1197.991380463077
 20
1190.683482356374
 30
0.0
 42
-1.0
  0
VERTEX
  5
691
  8
IMPORT_-_TVSTAND_BACK
 10
1193.748739775957
 20
1186.440841669254
 30
0.0
  0
VERTEX
  5
692
  8
IMPORT_-_TVSTAND_BACK
 10
1126.034021150196
 20
1186.440841669254
 30
0.0
 42
-1.0
  0
VERTEX
  5
693
  8
IMPORT_-_TVSTAND_BACK
 10
1121.791380463076
 20
1190.683482356374
 30
0.0
  0
VERTEX
  5
694
  8
IMPORT_-_TVSTAND_BACK
 10
1121.790892617449
 20
1203.46
 30
0.0
  0
VERTEX
  5
695
  8
IMPORT_-_TVSTAND_BACK
 10
1045.590892617449
 20
1203.46
 30
0.0
  0
VERTEX
  5
696
  8
IMPORT_-_TVSTAND_BACK
 10
1045.591380463077
 20
1190.683482356374
 30
0.0
 42
-1.0
  0
VERTEX
  5
697
  8
IMPORT_-_TVSTAND_BACK
 10
1041.348739775957
 20
1186.440841669254
 30
0.0
  0
VERTEX
  5
698
  8
IMPORT_-_TVSTAND_BACK
 10
969.3913804630774
 20
1186.440841669254
 30
0.0
  0
VERTEX
  5
699
  8
IMPORT_-_TVSTAND_BACK
 10
969.3913804630774
 20
1043.081260134152
 30
0.0
 42
-1.0
  0
VERTEX
  5
69A
  8
IMPORT_-_TVSTAND_BACK
 10
965.1487397759583
 20
1038.838619447032
 30
0.0
  0
VERTEX
  5
69B
  8
IMPORT_-_TVSTAND_BACK
 10
957.3969360186331
 20
1038.838619447032
 30
0.0
  0
VERTEX
  5
69C
  8
IMPORT_-_TVSTAND_BACK
 10
957.3969360186331
 20
891.2363972248102
 30
0.0
  0
VERTEX
  5
69D
  8
IMPORT_-_TVSTAND_BACK
 10
965.1487397759583
 20
891.2363972248102
 30
0.0
 42
-1.0
  0
VERTEX
  5
69E
  8
IMPORT_-_TVSTAND_BACK
 10
969.3913804630774
 20
886.9937565376908
 30
0.0
  0
VERTEX
  5
69F
  8
IMPORT_-_TVSTAND_BACK
 10
969.3913804630774
 20
747.8768156897072
 30
0.0
 42
-1.0
  0
VERTEX
  5
6A0
  8
IMPORT_-_TVSTAND_BACK
 10
965.1487397759583
 20
743.6341750025879
 30
0.0
  0
VERTEX
  5
6A1
  8
IMPORT_-_TVSTAND_BACK
 10
957.3969360186331
 20
743.6341750025879
 30
0.0
  0
VERTEX
  5
6A2
  8
IMPORT_-_TVSTAND_BACK
 10
957.3969360186331
 20
596.0672305581436
 30
0.0
  0
VERTEX
  5
6A3
  8
IMPORT_-_TVSTAND_BACK
 10
965.1487397759583
 20
596.0672305581436
 30
0.0
 42
-1.0
  0
VERTEX
  5
6A4
  8
IMPORT_-_TVSTAND_BACK
 10
969.3913804630774
 20
591.8245898710243
 30
0.0
  0
VERTEX
  5
6A5
  8
IMPORT_-_TVSTAND_BACK
 10
969.3913804630774
 20
448.4650083359218
 30
0.0
  0
VERTEX
  5
6A6
  8
IMPORT_-_TVSTAND_BACK
 10
1041.348739775958
 20
448.4650083359213
 30
0.0
 42
-1.0
  0
VERTEX
  5
6A7
  8
IMPORT_-_TVSTAND_BACK
 10
1045.591380463077
 20
444.222367648802
 30
0.0
  0
VERTEX
  5
6A8
  8
IMPORT_-_TVSTAND_BACK
 10
1045.590892617449
 20
431.446
 30
0.0
  0
VERTEX
  5
6A9
  8
IMPORT_-_TVSTAND_BACK
 10
1121.790892617449
 20
431.446
 30
0.0
  0
VERTEX
  5
6AA
  8
IMPORT_-_TVSTAND_BACK
 10
1121.791380463076
 20
444.222367648802
 30
0.0
 42
-1.0
  0
VERTEX
  5
6AB
  8
IMPORT_-_TVSTAND_BACK
 10
1126.034021150196
 20
448.4650083359213
 30
0.0
  0
VERTEX
  5
6AC
  8
IMPORT_-_TVSTAND_BACK
 10
1193.748739775957
 20
448.4650083359213
 30
0.0
 42
-1.0
  0
VERTEX
  5
6AD
  8
IMPORT_-_TVSTAND_BACK
 10
1197.991380463077
 20
444.222367648802
 30
0.0
  0
VERTEX
  5
6AE
  8
IMPORT_-_TVSTAND_BACK
 10
1197.990892617449
 20
431.446
 30
0.0
  0
SEQEND
  5
6AF
  8
IMPORT_-_TVSTAND_BACK
  0
POLYLINE
  5
113
  8
IMPORT_-_TVSTAND_BACK
 66
     1
 10
0.0
 20
0.0
 30
0.0
 70
     1
  0
VERTEX
  5
6B0
  8
IMPORT_-_TVSTAND_BACK
 10
206.38001150085
 20
571.2198411777086
 30
0.0
  0
VERTEX
  5
6B1
  8
IMPORT_-_TVSTAND_BACK
 10
206.3926239049233
 20
570.9680441964028
 30
0.0
  0
VERTEX
  5
6B2
  8
IMPORT_-_TVSTAND_BACK
 10
206.4300550998104
 20
570.719552701336
 30
0.0
  0
VERTEX
  5
6B3
  8
IMPORT_-_TVSTAND_BACK
 10
206.4916960595119
 20
570.4746741335175
 30
0.0
  0
VERTEX
  5
6B4
  8
IMPORT_-_TVSTAND_BACK
 10
206.5769377580287
 20
570.2337159339564
 30
0.0
  0
VERTEX
  5
6B5
  8
IMPORT_-_TVSTAND_BACK
 10
206.6851711693613
 20
569.996985543662
 30
0.0
  0
VERTEX
  5
6B6
  8
IMPORT_-_TVSTAND_BACK
 10
206.8157872675106
 20
569.7647904036438
 30
0.0
  0
VERTEX
  5
6B7
  8
IMPORT_-_TVSTAND_BACK
 10
206.9681770264773
 20
569.5374379549107
 30
0.0
  0
VERTEX
  5
6B8
  8
IMPORT_-_TVSTAND_BACK
 10
207.141731420262
 20
569.3152356384722
 30
0.0
  0
VERTEX
  5
6B9
  8
IMPORT_-_TVSTAND_BACK
 10
207.3358414228655
 20
569.0984908953375
 30
0.0
  0
VERTEX
  5
6BA
  8
IMPORT_-_TVSTAND_BACK
 10
207.5498980082886
 20
568.8875111665157
 30
0.0
  0
VERTEX
  5
6BB
  8
IMPORT_-_TVSTAND_BACK
 10
207.7832921505318
 20
568.6826038930161
 30
0.0
  0
VERTEX
  5
6BC
  8
IMPORT_-_TVSTAND_BACK
 10
208.0354148235961
 20
568.4840765158482
 30
0.0
  0
VERTEX
  5
6BD
  8
IMPORT_-_TVSTAND_BACK
 10
208.305657001482
 20
568.292236476021
 30
0.0
  0
VERTEX
  5
6BE
  8
IMPORT_-_TVSTAND_BACK
 10
208.5934096581903
 20
568.1073912145438
 30
0.0
  0
VERTEX
  5
6BF
  8
IMPORT_-_TVSTAND_BACK
 10
208.8980637677217
 20
567.9298481724259
 30
0.0
  0
VERTEX
  5
6C0
  8
IMPORT_-_TVSTAND_BACK
 10
209.2190103040769
 20
567.7599147906765
 30
0.0
  0
VERTEX
  5
6C1
  8
IMPORT_-_TVSTAND_BACK
 10
209.5556402412567
 20
567.5978985103047
 30
0.0
  0
VERTEX
  5
6C2
  8
IMPORT_-_TVSTAND_BACK
 10
209.9073445532618
 20
567.4441067723202
 30
0.0
  0
VERTEX
  5
6C3
  8
IMPORT_-_TVSTAND_BACK
 10
210.2735142140928
 20
567.2988470177318
 30
0.0
  0
VERTEX
  5
6C4
  8
IMPORT_-_TVSTAND_BACK
 10
210.6535401977505
 20
567.1624266875491
 30
0.0
  0
VERTEX
  5
6C5
  8
IMPORT_-_TVSTAND_BACK
 10
211.0468134782357
 20
567.0351532227811
 30
0.0
  0
VERTEX
  5
6C6
  8
IMPORT_-_TVSTAND_BACK
 10
211.452725029549
 20
566.9173340644372
 30
0.0
  0
VERTEX
  5
6C7
  8
IMPORT_-_TVSTAND_BACK
 10
211.8706658256912
 20
566.8092766535265
 30
0.0
  0
VERTEX
  5
6C8
  8
IMPORT_-_TVSTAND_BACK
 10
212.300026840663
 20
566.7112884310584
 30
0.0
  0
VERTEX
  5
6C9
  8
IMPORT_-_TVSTAND_BACK
 10
212.7401990484651
 20
566.623676838042
 30
0.0
  0
VERTEX
  5
6CA
  8
IMPORT_-_TVSTAND_BACK
 10
213.1905734230982
 20
566.5467493154867
 30
0.0
  0
VERTEX
  5
6CB
  8
IMPORT_-_TVSTAND_BACK
 10
213.650540938563
 20
566.4808133044017
 30
0.0
  0
VERTEX
  5
6CC
  8
IMPORT_-_TVSTAND_BACK
 10
214.1194925688603
 20
566.4261762457963
 30
0.0
  0
VERTEX
  5
6CD
  8
IMPORT_-_TVSTAND_BACK
 10
214.5968192879907
 20
566.3831455806796
 30
0.0
  0
VERTEX
  5
6CE
  8
IMPORT_-_TVSTAND_BACK
 10
215.0819120699551
 20
566.3520287500611
 30
0.0
  0
VERTEX
  5
6CF
  8
IMPORT_-_TVSTAND_BACK
 10
215.5741618887541
 20
566.3331331949498
 30
0.0
  0
VERTEX
  5
6D0
  8
IMPORT_-_TVSTAND_BACK
 10
216.0729597183884
 20
566.3267663563552
 30
0.0
  0
VERTEX
  5
6D1
  8
IMPORT_-_TVSTAND_BACK
 10
236.6870632833117
 20
566.3267663563552
 30
0.0
  0
VERTEX
  5
6D2
  8
IMPORT_-_TVSTAND_BACK
 10
237.185861112946
 20
566.3331331949498
 30
0.0
  0
VERTEX
  5
6D3
  8
IMPORT_-_TVSTAND_BACK
 10
237.678110931745
 20
566.3520287500611
 30
0.0
  0
VERTEX
  5
6D4
  8
IMPORT_-_TVSTAND_BACK
 10
238.1632037137093
 20
566.3831455806796
 30
0.0
  0
VERTEX
  5
6D5
  8
IMPORT_-_TVSTAND_BACK
 10
238.6405304328398
 20
566.4261762457963
 30
0.0
  0
VERTEX
  5
6D6
  8
IMPORT_-_TVSTAND_BACK
 10
239.1094820631371
 20
566.4808133044017
 30
0.0
  0
VERTEX
  5
6D7
  8
IMPORT_-_TVSTAND_BACK
 10
239.5694495786019
 20
566.5467493154867
 30
0.0
  0
VERTEX
  5
6D8
  8
IMPORT_-_TVSTAND_BACK
 10
240.019823953235
 20
566.623676838042
 30
0.0
  0
VERTEX
  5
6D9
  8
IMPORT_-_TVSTAND_BACK
 10
240.4599961610371
 20
566.7112884310584
 30
0.0
  0
VERTEX
  5
6DA
  8
IMPORT_-_TVSTAND_BACK
 10
240.8893571760088
 20
566.8092766535265
 30
0.0
  0
VERTEX
  5
6DB
  8
IMPORT_-_TVSTAND_BACK
 10
241.307297972151
 20
566.9173340644372
 30
0.0
  0
VERTEX
  5
6DC
  8
IMPORT_-_TVSTAND_BACK
 10
241.7132095234643
 20
567.0351532227811
 30
0.0
  0
VERTEX
  5
6DD
  8
IMPORT_-_TVSTAND_BACK
 10
242.1064828039495
 20
567.1624266875491
 30
0.0
  0
VERTEX
  5
6DE
  8
IMPORT_-_TVSTAND_BACK
 10
242.4865087876072
 20
567.2988470177318
 30
0.0
  0
VERTEX
  5
6DF
  8
IMPORT_-_TVSTAND_BACK
 10
242.8526784484383
 20
567.4441067723202
 30
0.0
  0
VERTEX
  5
6E0
  8
IMPORT_-_TVSTAND_BACK
 10
243.2043827604433
 20
567.5978985103047
 30
0.0
  0
VERTEX
  5
6E1
  8
IMPORT_-_TVSTAND_BACK
 10
243.5410126976231
 20
567.7599147906765
 30
0.0
  0
VERTEX
  5
6E2
  8
IMPORT_-_TVSTAND_BACK
 10
243.8619592339783
 20
567.9298481724259
 30
0.0
  0
VERTEX
  5
6E3
  8
IMPORT_-_TVSTAND_BACK
 10
244.1666133435097
 20
568.1073912145438
 30
0.0
  0
VERTEX
  5
6E4
  8
IMPORT_-_TVSTAND_BACK
 10
244.454366000218
 20
568.292236476021
 30
0.0
  0
VERTEX
  5
6E5
  8
IMPORT_-_TVSTAND_BACK
 10
244.7246081781039
 20
568.4840765158482
 30
0.0
  0
VERTEX
  5
6E6
  8
IMPORT_-_TVSTAND_BACK
 10
244.9767308511682
 20
568.6826038930161
 30
0.0
  0
VERTEX
  5
6E7
  8
IMPORT_-_TVSTAND_BACK
 10
245.2101249934114
 20
568.8875111665157
 30
0.0
  0
VERTEX
  5
6E8
  8
IMPORT_-_TVSTAND_BACK
 10
245.4241815788345
 20
569.0984908953375
 30
0.0
  0
VERTEX
  5
6E9
  8
IMPORT_-_TVSTAND_BACK
 10
245.618291581438
 20
569.3152356384722
 30
0.0
  0
VERTEX
  5
6EA
  8
IMPORT_-_TVSTAND_BACK
 10
245.7918459752227
 20
569.5374379549107
 30
0.0
  0
VERTEX
  5
6EB
  8
IMPORT_-_TVSTAND_BACK
 10
245.9442357341894
 20
569.7647904036438
 30
0.0
  0
VERTEX
  5
6EC
  8
IMPORT_-_TVSTAND_BACK
 10
246.0748518323387
 20
569.996985543662
 30
0.0
  0
VERTEX
  5
6ED
  8
IMPORT_-_TVSTAND_BACK
 10
246.1830852436713
 20
570.2337159339564
 30
0.0
  0
VERTEX
  5
6EE
  8
IMPORT_-_TVSTAND_BACK
 10
246.2683269421881
 20
570.4746741335175
 30
0.0
  0
VERTEX
  5
6EF
  8
IMPORT_-_TVSTAND_BACK
 10
246.3299679018896
 20
570.719552701336
 30
0.0
  0
VERTEX
  5
6F0
  8
IMPORT_-_TVSTAND_BACK
 10
246.3673990967767
 20
570.9680441964028
 30
0.0
  0
VERTEX
  5
6F1
  8
IMPORT_-_TVSTAND_BACK
 10
246.38001150085
 20
571.2198411777086
 30
0.0
  0
VERTEX
  5
6F2
  8
IMPORT_-_TVSTAND_BACK
 10
246.38001150085
 20
711.4336915350017
 30
0.0
  0
VERTEX
  5
6F3
  8
IMPORT_-_TVSTAND_BACK
 10
246.3673990967767
 20
711.6854885163075
 30
0.0
  0
VERTEX
  5
6F4
  8
IMPORT_-_TVSTAND_BACK
 10
246.3299679018896
 20
711.9339800113743
 30
0.0
  0
VERTEX
  5
6F5
  8
IMPORT_-_TVSTAND_BACK
 10
246.2683269421881
 20
712.1788585791928
 30
0.0
  0
VERTEX
  5
6F6
  8
IMPORT_-_TVSTAND_BACK
 10
246.1830852436713
 20
712.4198167787539
 30
0.0
  0
VERTEX
  5
6F7
  8
IMPORT_-_TVSTAND_BACK
 10
246.0748518323387
 20
712.6565471690483
 30
0.0
  0
VERTEX
  5
6F8
  8
IMPORT_-_TVSTAND_BACK
 10
245.9442357341894
 20
712.8887423090665
 30
0.0
  0
VERTEX
  5
6F9
  8
IMPORT_-_TVSTAND_BACK
 10
245.7918459752227
 20
713.1160947577996
 30
0.0
  0
VERTEX
  5
6FA
  8
IMPORT_-_TVSTAND_BACK
 10
245.618291581438
 20
713.3382970742381
 30
0.0
  0
VERTEX
  5
6FB
  8
IMPORT_-_TVSTAND_BACK
 10
245.4241815788344
 20
713.5550418173729
 30
0.0
  0
VERTEX
  5
6FC
  8
IMPORT_-_TVSTAND_BACK
 10
245.2101249934114
 20
713.7660215461947
 30
0.0
  0
VERTEX
  5
6FD
  8
IMPORT_-_TVSTAND_BACK
 10
244.9767308511681
 20
713.9709288196942
 30
0.0
  0
VERTEX
  5
6FE
  8
IMPORT_-_TVSTAND_BACK
 10
244.7246081781039
 20
714.1694561968621
 30
0.0
  0
VERTEX
  5
6FF
  8
IMPORT_-_TVSTAND_BACK
 10
244.454366000218
 20
714.3612962366893
 30
0.0
  0
VERTEX
  5
700
  8
IMPORT_-_TVSTAND_BACK
 10
244.1666133435097
 20
714.5461414981665
 30
0.0
  0
VERTEX
  5
701
  8
IMPORT_-_TVSTAND_BACK
 10
243.8619592339782
 20
714.7236845402845
 30
0.0
  0
VERTEX
  5
702
  8
IMPORT_-_TVSTAND_BACK
 10
243.541012697623
 20
714.8936179220339
 30
0.0
  0
VERTEX
  5
703
  8
IMPORT_-_TVSTAND_BACK
 10
243.2043827604433
 20
715.0556342024056
 30
0.0
  0
VERTEX
  5
704
  8
IMPORT_-_TVSTAND_BACK
 10
242.8526784484382
 20
715.2094259403901
 30
0.0
  0
VERTEX
  5
705
  8
IMPORT_-_TVSTAND_BACK
 10
242.4865087876072
 20
715.3546856949786
 30
0.0
  0
VERTEX
  5
706
  8
IMPORT_-_TVSTAND_BACK
 10
242.1064828039494
 20
715.4911060251612
 30
0.0
  0
VERTEX
  5
707
  8
IMPORT_-_TVSTAND_BACK
 10
241.7132095234642
 20
715.6183794899292
 30
0.0
  0
VERTEX
  5
708
  8
IMPORT_-_TVSTAND_BACK
 10
241.3072979721509
 20
715.7361986482731
 30
0.0
  0
VERTEX
  5
709
  8
IMPORT_-_TVSTAND_BACK
 10
240.8893571760087
 20
715.8442560591839
 30
0.0
  0
VERTEX
  5
70A
  8
IMPORT_-_TVSTAND_BACK
 10
240.459996161037
 20
715.9422442816519
 30
0.0
  0
VERTEX
  5
70B
  8
IMPORT_-_TVSTAND_BACK
 10
240.0198239532349
 20
716.0298558746683
 30
0.0
  0
VERTEX
  5
70C
  8
IMPORT_-_TVSTAND_BACK
 10
239.5694495786018
 20
716.1067833972236
 30
0.0
  0
VERTEX
  5
70D
  8
IMPORT_-_TVSTAND_BACK
 10
239.109482063137
 20
716.1727194083086
 30
0.0
  0
VERTEX
  5
70E
  8
IMPORT_-_TVSTAND_BACK
 10
238.6405304328397
 20
716.227356466914
 30
0.0
  0
VERTEX
  5
70F
  8
IMPORT_-_TVSTAND_BACK
 10
238.1632037137093
 20
716.2703871320307
 30
0.0
  0
VERTEX
  5
710
  8
IMPORT_-_TVSTAND_BACK
 10
237.6781109317449
 20
716.3015039626492
 30
0.0
  0
VERTEX
  5
711
  8
IMPORT_-_TVSTAND_BACK
 10
237.185861112946
 20
716.3203995177605
 30
0.0
  0
VERTEX
  5
712
  8
IMPORT_-_TVSTAND_BACK
 10
236.6870632833117
 20
716.3267663563552
 30
0.0
  0
VERTEX
  5
713
  8
IMPORT_-_TVSTAND_BACK
 10
216.0729597183884
 20
716.3267663563552
 30
0.0
  0
VERTEX
  5
714
  8
IMPORT_-_TVSTAND_BACK
 10
215.5741618887541
 20
716.3203995177605
 30
0.0
  0
VERTEX
  5
715
  8
IMPORT_-_TVSTAND_BACK
 10
215.0819120699551
 20
716.3015039626492
 30
0.0
  0
VERTEX
  5
716
  8
IMPORT_-_TVSTAND_BACK
 10
214.5968192879908
 20
716.2703871320307
 30
0.0
  0
VERTEX
  5
717
  8
IMPORT_-_TVSTAND_BACK
 10
214.1194925688603
 20
716.227356466914
 30
0.0
  0
VERTEX
  5
718
  8
IMPORT_-_TVSTAND_BACK
 10
213.650540938563
 20
716.1727194083086
 30
0.0
  0
VERTEX
  5
719
  8
IMPORT_-_TVSTAND_BACK
 10
213.1905734230982
 20
716.1067833972236
 30
0.0
  0
VERTEX
  5
71A
  8
IMPORT_-_TVSTAND_BACK
 10
212.7401990484651
 20
716.0298558746683
 30
0.0
  0
VERTEX
  5
71B
  8
IMPORT_-_TVSTAND_BACK
 10
212.3000268406631
 20
715.9422442816519
 30
0.0
  0
VERTEX
  5
71C
  8
IMPORT_-_TVSTAND_BACK
 10
211.8706658256913
 20
715.8442560591839
 30
0.0
  0
VERTEX
  5
71D
  8
IMPORT_-_TVSTAND_BACK
 10
211.4527250295491
 20
715.7361986482731
 30
0.0
  0
VERTEX
  5
71E
  8
IMPORT_-_TVSTAND_BACK
 10
211.0468134782358
 20
715.6183794899292
 30
0.0
  0
VERTEX
  5
71F
  8
IMPORT_-_TVSTAND_BACK
 10
210.6535401977506
 20
715.4911060251612
 30
0.0
  0
VERTEX
  5
720
  8
IMPORT_-_TVSTAND_BACK
 10
210.2735142140929
 20
715.3546856949786
 30
0.0
  0
VERTEX
  5
721
  8
IMPORT_-_TVSTAND_BACK
 10
209.9073445532619
 20
715.2094259403901
 30
0.0
  0
VERTEX
  5
722
  8
IMPORT_-_TVSTAND_BACK
 10
209.5556402412568
 20
715.0556342024056
 30
0.0
  0
VERTEX
  5
723
  8
IMPORT_-_TVSTAND_BACK
 10
209.219010304077
 20
714.8936179220339
 30
0.0
  0
VERTEX
  5
724
  8
IMPORT_-_TVSTAND_BACK
 10
208.8980637677218
 20
714.7236845402845
 30
0.0
  0
VERTEX
  5
725
  8
IMPORT_-_TVSTAND_BACK
 10
208.5934096581904
 20
714.5461414981665
 30
0.0
  0
VERTEX
  5
726
  8
IMPORT_-_TVSTAND_BACK
 10
208.3056570014821
 20
714.3612962366893
 30
0.0
  0
VERTEX
  5
727
  8
IMPORT_-_TVSTAND_BACK
 10
208.0354148235962
 20
714.1694561968621
 30
0.0
  0
VERTEX
  5
728
  8
IMPORT_-_TVSTAND_BACK
 10
207.7832921505319
 20
713.9709288196942
 30
0.0
  0
VERTEX
  5
729
  8
IMPORT_-_TVSTAND_BACK
 10
207.5498980082886
 20
713.7660215461947
 30
0.0
  0
VERTEX
  5
72A
  8
IMPORT_-_TVSTAND_BACK
 10
207.3358414228656
 20
713.5550418173729
 30
0.0
  0
VERTEX
  5
72B
  8
IMPORT_-_TVSTAND_BACK
 10
207.141731420262
 20
713.3382970742381
 30
0.0
  0
VERTEX
  5
72C
  8
IMPORT_-_TVSTAND_BACK
 10
206.9681770264773
 20
713.1160947577996
 30
0.0
  0
VERTEX
  5
72D
  8
IMPORT_-_TVSTAND_BACK
 10
206.8157872675106
 20
712.8887423090665
 30
0.0
  0
VERTEX
  5
72E
  8
IMPORT_-_TVSTAND_BACK
 10
206.6851711693613
 20
712.6565471690483
 30
0.0
  0
VERTEX
  5
72F
  8
IMPORT_-_TVSTAND_BACK
 10
206.5769377580287
 20
712.4198167787539
 30
0.0
  0
VERTEX
  5
730
  8
IMPORT_-_TVSTAND_BACK
 10
206.4916960595119
 20
712.1788585791928
 30
0.0
  0
VERTEX
  5
731
  8
IMPORT_-_TVSTAND_BACK
 10
206.4300550998104
 20
711.9339800113743
 30
0.0
  0
VERTEX
  5
732
  8
IMPORT_-_TVSTAND_BACK
 10
206.3926239049233
 20
711.6854885163075
 30
0.0
  0
VERTEX
  5
733
  8
IMPORT_-_TVSTAND_BACK
 10
206.38001150085
 20
711.4336915350017
 30
0.0
  0
SEQEND
  5
734
  8
IMPORT_-_TVSTAND_BACK
  0
POLYLINE
  5
114
  8
IMPORT_-_TVSTAND_BACK
 66
     1
 10
0.0
 20
0.0
 30
0.0
 70
     1
  0
VERTEX
  5
735
  8
IMPORT_-_TVSTAND_BACK
 10
321.2243513557062
 20
571.2198411777086
 30
0.0
  0
VERTEX
  5
736
  8
IMPORT_-_TVSTAND_BACK
 10
321.2369637597795
 20
570.9680441964028
 30
0.0
  0
VERTEX
  5
737
  8
IMPORT_-_TVSTAND_BACK
 10
321.2743949546665
 20
570.719552701336
 30
0.0
  0
VERTEX
  5
738
  8
IMPORT_-_TVSTAND_BACK
 10
321.3360359143681
 20
570.4746741335175
 30
0.0
  0
VERTEX
  5
739
  8
IMPORT_-_TVSTAND_BACK
 10
321.4212776128849
 20
570.2337159339564
 30
0.0
  0
VERTEX
  5
73A
  8
IMPORT_-_TVSTAND_BACK
 10
321.5295110242175
 20
569.996985543662
 30
0.0
  0
VERTEX
  5
73B
  8
IMPORT_-_TVSTAND_BACK
 10
321.6601271223668
 20
569.7647904036438
 30
0.0
  0
VERTEX
  5
73C
  8
IMPORT_-_TVSTAND_BACK
 10
321.8125168813335
 20
569.5374379549107
 30
0.0
  0
VERTEX
  5
73D
  8
IMPORT_-_TVSTAND_BACK
 10
321.9860712751182
 20
569.3152356384722
 30
0.0
  0
VERTEX
  5
73E
  8
IMPORT_-_TVSTAND_BACK
 10
322.1801812777217
 20
569.0984908953375
 30
0.0
  0
VERTEX
  5
73F
  8
IMPORT_-_TVSTAND_BACK
 10
322.3942378631448
 20
568.8875111665157
 30
0.0
  0
VERTEX
  5
740
  8
IMPORT_-_TVSTAND_BACK
 10
322.627632005388
 20
568.6826038930161
 30
0.0
  0
VERTEX
  5
741
  8
IMPORT_-_TVSTAND_BACK
 10
322.8797546784522
 20
568.4840765158482
 30
0.0
  0
VERTEX
  5
742
  8
IMPORT_-_TVSTAND_BACK
 10
323.1499968563381
 20
568.292236476021
 30
0.0
  0
VERTEX
  5
743
  8
IMPORT_-_TVSTAND_BACK
 10
323.4377495130464
 20
568.1073912145438
 30
0.0
  0
VERTEX
  5
744
  8
IMPORT_-_TVSTAND_BACK
 10
323.7424036225779
 20
567.9298481724259
 30
0.0
  0
VERTEX
  5
745
  8
IMPORT_-_TVSTAND_BACK
 10
324.0633501589331
 20
567.7599147906765
 30
0.0
  0
VERTEX
  5
746
  8
IMPORT_-_TVSTAND_BACK
 10
324.3999800961129
 20
567.5978985103047
 30
0.0
  0
VERTEX
  5
747
  8
IMPORT_-_TVSTAND_BACK
 10
324.751684408118
 20
567.4441067723202
 30
0.0
  0
VERTEX
  5
748
  8
IMPORT_-_TVSTAND_BACK
 10
325.117854068949
 20
567.2988470177318
 30
0.0
  0
VERTEX
  5
749
  8
IMPORT_-_TVSTAND_BACK
 10
325.4978800526068
 20
567.1624266875491
 30
0.0
  0
VERTEX
  5
74A
  8
IMPORT_-_TVSTAND_BACK
 10
325.8911533330919
 20
567.0351532227811
 30
0.0
  0
VERTEX
  5
74B
  8
IMPORT_-_TVSTAND_BACK
 10
326.2970648844052
 20
566.9173340644372
 30
0.0
  0
VERTEX
  5
74C
  8
IMPORT_-_TVSTAND_BACK
 10
326.7150056805474
 20
566.8092766535265
 30
0.0
  0
VERTEX
  5
74D
  8
IMPORT_-_TVSTAND_BACK
 10
327.1443666955192
 20
566.7112884310584
 30
0.0
  0
VERTEX
  5
74E
  8
IMPORT_-_TVSTAND_BACK
 10
327.5845389033212
 20
566.623676838042
 30
0.0
  0
VERTEX
  5
74F
  8
IMPORT_-_TVSTAND_BACK
 10
328.0349132779543
 20
566.5467493154867
 30
0.0
  0
VERTEX
  5
750
  8
IMPORT_-_TVSTAND_BACK
 10
328.4948807934191
 20
566.4808133044017
 30
0.0
  0
VERTEX
  5
751
  8
IMPORT_-_TVSTAND_BACK
 10
328.9638324237164
 20
566.4261762457963
 30
0.0
  0
VERTEX
  5
752
  8
IMPORT_-_TVSTAND_BACK
 10
329.4411591428469
 20
566.3831455806796
 30
0.0
  0
VERTEX
  5
753
  8
IMPORT_-_TVSTAND_BACK
 10
329.9262519248113
 20
566.3520287500611
 30
0.0
  0
VERTEX
  5
754
  8
IMPORT_-_TVSTAND_BACK
 10
330.4185017436102
 20
566.3331331949498
 30
0.0
  0
VERTEX
  5
755
  8
IMPORT_-_TVSTAND_BACK
 10
330.9172995732446
 20
566.3267663563552
 30
0.0
  0
VERTEX
  5
756
  8
IMPORT_-_TVSTAND_BACK
 10
351.5314031381678
 20
566.3267663563552
 30
0.0
  0
VERTEX
  5
757
  8
IMPORT_-_TVSTAND_BACK
 10
352.0302009678022
 20
566.3331331949498
 30
0.0
  0
VERTEX
  5
758
  8
IMPORT_-_TVSTAND_BACK
 10
352.5224507866012
 20
566.3520287500611
 30
0.0
  0
VERTEX
  5
759
  8
IMPORT_-_TVSTAND_BACK
 10
353.0075435685656
 20
566.3831455806796
 30
0.0
  0
VERTEX
  5
75A
  8
IMPORT_-_TVSTAND_BACK
 10
353.484870287696
 20
566.4261762457963
 30
0.0
  0
VERTEX
  5
75B
  8
IMPORT_-_TVSTAND_BACK
 10
353.9538219179934
 20
566.4808133044017
 30
0.0
  0
VERTEX
  5
75C
  8
IMPORT_-_TVSTAND_BACK
 10
354.4137894334582
 20
566.5467493154867
 30
0.0
  0
VERTEX
  5
75D
  8
IMPORT_-_TVSTAND_BACK
 10
354.8641638080912
 20
566.623676838042
 30
0.0
  0
VERTEX
  5
75E
  8
IMPORT_-_TVSTAND_BACK
 10
355.3043360158933
 20
566.7112884310584
 30
0.0
  0
VERTEX
  5
75F
  8
IMPORT_-_TVSTAND_BACK
 10
355.733697030865
 20
566.8092766535265
 30
0.0
  0
VERTEX
  5
760
  8
IMPORT_-_TVSTAND_BACK
 10
356.1516378270072
 20
566.9173340644372
 30
0.0
  0
VERTEX
  5
761
  8
IMPORT_-_TVSTAND_BACK
 10
356.5575493783205
 20
567.0351532227811
 30
0.0
  0
VERTEX
  5
762
  8
IMPORT_-_TVSTAND_BACK
 10
356.9508226588057
 20
567.1624266875491
 30
0.0
  0
VERTEX
  5
763
  8
IMPORT_-_TVSTAND_BACK
 10
357.3308486424634
 20
567.2988470177318
 30
0.0
  0
VERTEX
  5
764
  8
IMPORT_-_TVSTAND_BACK
 10
357.6970183032944
 20
567.4441067723202
 30
0.0
  0
VERTEX
  5
765
  8
IMPORT_-_TVSTAND_BACK
 10
358.0487226152995
 20
567.5978985103047
 30
0.0
  0
VERTEX
  5
766
  8
IMPORT_-_TVSTAND_BACK
 10
358.3853525524793
 20
567.7599147906765
 30
0.0
  0
VERTEX
  5
767
  8
IMPORT_-_TVSTAND_BACK
 10
358.7062990888345
 20
567.9298481724259
 30
0.0
  0
VERTEX
  5
768
  8
IMPORT_-_TVSTAND_BACK
 10
359.0109531983659
 20
568.1073912145438
 30
0.0
  0
VERTEX
  5
769
  8
IMPORT_-_TVSTAND_BACK
 10
359.2987058550742
 20
568.292236476021
 30
0.0
  0
VERTEX
  5
76A
  8
IMPORT_-_TVSTAND_BACK
 10
359.5689480329601
 20
568.4840765158482
 30
0.0
  0
VERTEX
  5
76B
  8
IMPORT_-_TVSTAND_BACK
 10
359.8210707060243
 20
568.6826038930161
 30
0.0
  0
VERTEX
  5
76C
  8
IMPORT_-_TVSTAND_BACK
 10
360.0544648482676
 20
568.8875111665157
 30
0.0
  0
VERTEX
  5
76D
  8
IMPORT_-_TVSTAND_BACK
 10
360.2685214336907
 20
569.0984908953375
 30
0.0
  0
VERTEX
  5
76E
  8
IMPORT_-_TVSTAND_BACK
 10
360.4626314362941
 20
569.3152356384722
 30
0.0
  0
VERTEX
  5
76F
  8
IMPORT_-_TVSTAND_BACK
 10
360.6361858300789
 20
569.5374379549107
 30
0.0
  0
VERTEX
  5
770
  8
IMPORT_-_TVSTAND_BACK
 10
360.7885755890455
 20
569.7647904036438
 30
0.0
  0
VERTEX
  5
771
  8
IMPORT_-_TVSTAND_BACK
 10
360.9191916871948
 20
569.996985543662
 30
0.0
  0
VERTEX
  5
772
  8
IMPORT_-_TVSTAND_BACK
 10
361.0274250985275
 20
570.2337159339564
 30
0.0
  0
VERTEX
  5
773
  8
IMPORT_-_TVSTAND_BACK
 10
361.1126667970443
 20
570.4746741335175
 30
0.0
  0
VERTEX
  5
774
  8
IMPORT_-_TVSTAND_BACK
 10
361.1743077567458
 20
570.719552701336
 30
0.0
  0
VERTEX
  5
775
  8
IMPORT_-_TVSTAND_BACK
 10
361.2117389516329
 20
570.9680441964028
 30
0.0
  0
VERTEX
  5
776
  8
IMPORT_-_TVSTAND_BACK
 10
361.2243513557062
 20
571.2198411777086
 30
0.0
  0
VERTEX
  5
777
  8
IMPORT_-_TVSTAND_BACK
 10
361.2243513557062
 20
711.4336915350017
 30
0.0
  0
VERTEX
  5
778
  8
IMPORT_-_TVSTAND_BACK
 10
361.2117389516329
 20
711.6854885163075
 30
0.0
  0
VERTEX
  5
779
  8
IMPORT_-_TVSTAND_BACK
 10
361.1743077567458
 20
711.9339800113743
 30
0.0
  0
VERTEX
  5
77A
  8
IMPORT_-_TVSTAND_BACK
 10
361.1126667970443
 20
712.1788585791928
 30
0.0
  0
VERTEX
  5
77B
  8
IMPORT_-_TVSTAND_BACK
 10
361.0274250985275
 20
712.4198167787539
 30
0.0
  0
VERTEX
  5
77C
  8
IMPORT_-_TVSTAND_BACK
 10
360.9191916871948
 20
712.6565471690483
 30
0.0
  0
VERTEX
  5
77D
  8
IMPORT_-_TVSTAND_BACK
 10
360.7885755890455
 20
712.8887423090665
 30
0.0
  0
VERTEX
  5
77E
  8
IMPORT_-_TVSTAND_BACK
 10
360.6361858300789
 20
713.1160947577996
 30
0.0
  0
VERTEX
  5
77F
  8
IMPORT_-_TVSTAND_BACK
 10
360.4626314362941
 20
713.3382970742381
 30
0.0
  0
VERTEX
  5
780
  8
IMPORT_-_TVSTAND_BACK
 10
360.2685214336907
 20
713.5550418173729
 30
0.0
  0
VERTEX
  5
781
  8
IMPORT_-_TVSTAND_BACK
 10
360.0544648482676
 20
713.7660215461947
 30
0.0
  0
VERTEX
  5
782
  8
IMPORT_-_TVSTAND_BACK
 10
359.8210707060243
 20
713.9709288196942
 30
0.0
  0
VERTEX
  5
783
  8
IMPORT_-_TVSTAND_BACK
 10
359.5689480329601
 20
714.1694561968621
 30
0.0
  0
VERTEX
  5
784
  8
IMPORT_-_TVSTAND_BACK
 10
359.2987058550741
 20
714.3612962366893
 30
0.0
  0
VERTEX
  5
785
  8
IMPORT_-_TVSTAND_BACK
 10
359.0109531983658
 20
714.5461414981665
 30
0.0
  0
VERTEX
  5
786
  8
IMPORT_-_TVSTAND_BACK
 10
358.7062990888344
 20
714.7236845402845
 30
0.0
  0
VERTEX
  5
787
  8
IMPORT_-_TVSTAND_BACK
 10
358.3853525524792
 20
714.8936179220339
 30
0.0
  0
VERTEX
  5
788
  8
IMPORT_-_TVSTAND_BACK
 10
358.0487226152994
 20
715.0556342024056
 30
0.0
  0
VERTEX
  5
789
  8
IMPORT_-_TVSTAND_BACK
 10
357.6970183032943
 20
715.2094259403901
 30
0.0
  0
VERTEX
  5
78A
  8
IMPORT_-_TVSTAND_BACK
 10
357.3308486424633
 20
715.3546856949786
 30
0.0
  0
VERTEX
  5
78B
  8
IMPORT_-_TVSTAND_BACK
 10
356.9508226588056
 20
715.4911060251612
 30
0.0
  0
VERTEX
  5
78C
  8
IMPORT_-_TVSTAND_BACK
 10
356.5575493783204
 20
715.6183794899292
 30
0.0
  0
VERTEX
  5
78D
  8
IMPORT_-_TVSTAND_BACK
 10
356.1516378270071
 20
715.7361986482731
 30
0.0
  0
VERTEX
  5
78E
  8
IMPORT_-_TVSTAND_BACK
 10
355.7336970308649
 20
715.8442560591839
 30
0.0
  0
VERTEX
  5
78F
  8
IMPORT_-_TVSTAND_BACK
 10
355.3043360158932
 20
715.9422442816519
 30
0.0
  0
VERTEX
  5
790
  8
IMPORT_-_TVSTAND_BACK
 10
354.8641638080911
 20
716.0298558746683
 30
0.0
  0
VERTEX
  5
791
  8
IMPORT_-_TVSTAND_BACK
 10
354.4137894334581
 20
716.1067833972236
 30
0.0
  0
VERTEX
  5
792
  8
IMPORT_-_TVSTAND_BACK
 10
353.9538219179933
 20
716.1727194083086
 30
0.0
  0
VERTEX
  5
793
  8
IMPORT_-_TVSTAND_BACK
 10
353.4848702876959
 20
716.227356466914
 30
0.0
  0
VERTEX
  5
794
  8
IMPORT_-_TVSTAND_BACK
 10
353.0075435685654
 20
716.2703871320307
 30
0.0
  0
VERTEX
  5
795
  8
IMPORT_-_TVSTAND_BACK
 10
352.5224507866011
 20
716.3015039626492
 30
0.0
  0
VERTEX
  5
796
  8
IMPORT_-_TVSTAND_BACK
 10
352.0302009678021
 20
716.3203995177605
 30
0.0
  0
VERTEX
  5
797
  8
IMPORT_-_TVSTAND_BACK
 10
351.5314031381678
 20
716.3267663563552
 30
0.0
  0
VERTEX
  5
798
  8
IMPORT_-_TVSTAND_BACK
 10
330.9172995732446
 20
716.3267663563552
 30
0.0
  0
VERTEX
  5
799
  8
IMPORT_-_TVSTAND_BACK
 10
330.4185017436102
 20
716.3203995177605
 30
0.0
  0
VERTEX
  5
79A
  8
IMPORT_-_TVSTAND_BACK
 10
329.9262519248113
 20
716.3015039626492
 30
0.0
  0
VERTEX
  5
79B
  8
IMPORT_-_TVSTAND_BACK
 10
329.4411591428469
 20
716.2703871320307
 30
0.0
  0
VERTEX
  5
79C
  8
IMPORT_-_TVSTAND_BACK
 10
328.9638324237164
 20
716.227356466914
 30
0.0
  0
VERTEX
  5
79D
  8
IMPORT_-_TVSTAND_BACK
 10
328.4948807934191
 20
716.1727194083086
 30
0.0
  0
VERTEX
  5
79E
  8
IMPORT_-_TVSTAND_BACK
 10
328.0349132779543
 20
716.1067833972236
 30
0.0
  0
VERTEX
  5
79F
  8
IMPORT_-_TVSTAND_BACK
 10
327.5845389033212
 20
716.0298558746683
 30
0.0
  0
VERTEX
  5
7A0
  8
IMPORT_-_TVSTAND_BACK
 10
327.1443666955192
 20
715.9422442816519
 30
0.0
  0
VERTEX
  5
7A1
  8
IMPORT_-_TVSTAND_BACK
 10
326.7150056805474
 20
715.8442560591839
 30
0.0
  0
VERTEX
  5
7A2
  8
IMPORT_-_TVSTAND_BACK
 10
326.2970648844052
 20
715.7361986482731
 30
0.0
  0
VERTEX
  5
7A3
  8
IMPORT_-_TVSTAND_BACK
 10
325.8911533330919
 20
715.6183794899292
 30
0.0
  0
VERTEX
  5
7A4
  8
IMPORT_-_TVSTAND_BACK
 10
325.4978800526068
 20
715.4911060251612
 30
0.0
  0
VERTEX
  5
7A5
  8
IMPORT_-_TVSTAND_BACK
 10
325.117854068949
 20
715.3546856949786
 30
0.0
  0
VERTEX
  5
7A6
  8
IMPORT_-_TVSTAND_BACK
 10
324.751684408118
 20
715.2094259403901
 30
0.0
  0
VERTEX
  5
7A7
  8
IMPORT_-_TVSTAND_BACK
 10
324.399980096113
 20
715.0556342024056
 30
0.0
  0
VERTEX
  5
7A8
  8
IMPORT_-_TVSTAND_BACK
 10
324.0633501589332
 20
714.8936179220339
 30
0.0
  0
VERTEX
  5
7A9
  8
IMPORT_-_TVSTAND_BACK
 10
323.742403622578
 20
714.7236845402845
 30
0.0
  0
VERTEX
  5
7AA
  8
IMPORT_-_TVSTAND_BACK
 10
323.4377495130465
 20
714.5461414981665
 30
0.0
  0
VERTEX
  5
7AB
  8
IMPORT_-_TVSTAND_BACK
 10
323.1499968563382
 20
714.3612962366893
 30
0.0
  0
VERTEX
  5
7AC
  8
IMPORT_-_TVSTAND_BACK
 10
322.8797546784523
 20
714.1694561968621
 30
0.0
  0
VERTEX
  5
7AD
  8
IMPORT_-_TVSTAND_BACK
 10
322.627632005388
 20
713.9709288196942
 30
0.0
  0
VERTEX
  5
7AE
  8
IMPORT_-_TVSTAND_BACK
 10
322.3942378631448
 20
713.7660215461947
 30
0.0
  0
VERTEX
  5
7AF
  8
IMPORT_-_TVSTAND_BACK
 10
322.1801812777217
 20
713.5550418173729
 30
0.0
  0
VERTEX
  5
7B0
  8
IMPORT_-_TVSTAND_BACK
 10
321.9860712751182
 20
713.3382970742381
 30
0.0
  0
VERTEX
  5
7B1
  8
IMPORT_-_TVSTAND_BACK
 10
321.8125168813335
 20
713.1160947577996
 30
0.0
  0
VERTEX
  5
7B2
  8
IMPORT_-_TVSTAND_BACK
 10
321.6601271223668
 20
712.8887423090665
 30
0.0
  0
VERTEX
  5
7B3
  8
IMPORT_-_TVSTAND_BACK
 10
321.5295110242175
 20
712.6565471690483
 30
0.0
  0
VERTEX
  5
7B4
  8
IMPORT_-_TVSTAND_BACK
 10
321.4212776128849
 20
712.4198167787539
 30
0.0
  0
VERTEX
  5
7B5
  8
IMPORT_-_TVSTAND_BACK
 10
321.3360359143681
 20
712.1788585791928
 30
0.0
  0
VERTEX
  5
7B6
  8
IMPORT_-_TVSTAND_BACK
 10
321.2743949546665
 20
711.9339800113743
 30
0.0
  0
VERTEX
  5
7B7
  8
IMPORT_-_TVSTAND_BACK
 10
321.2369637597795
 20
711.6854885163075
 30
0.0
  0
VERTEX
  5
7B8
  8
IMPORT_-_TVSTAND_BACK
 10
321.2243513557062
 20
711.4336915350017
 30
0.0
  0
SEQEND
  5
7B9
  8
IMPORT_-_TVSTAND_BACK
  0
POLYLINE
  5
115
  8
IMPORT_-_TVSTAND_BACK
 66
     1
 10
0.0
 20
0.0
 30
0.0
 70
     1
  0
VERTEX
  5
7BA
  8
IMPORT_-_TVSTAND_BACK
 10
506.4115819706478
 20
571.2198411777086
 30
0.0
  0
VERTEX
  5
7BB
  8
IMPORT_-_TVSTAND_BACK
 10
506.4241943747211
 20
570.9680441964028
 30
0.0
  0
VERTEX
  5
7BC
  8
IMPORT_-_TVSTAND_BACK
 10
506.4616255696082
 20
570.719552701336
 30
0.0
  0
VERTEX
  5
7BD
  8
IMPORT_-_TVSTAND_BACK
 10
506.5232665293098
 20
570.4746741335175
 30
0.0
  0
VERTEX
  5
7BE
  8
IMPORT_-_TVSTAND_BACK
 10
506.6085082278265
 20
570.2337159339564
 30
0.0
  0
VERTEX
  5
7BF
  8
IMPORT_-_TVSTAND_BACK
 10
506.7167416391592
 20
569.996985543662
 30
0.0
  0
VERTEX
  5
7C0
  8
IMPORT_-_TVSTAND_BACK
 10
506.8473577373085
 20
569.7647904036438
 30
0.0
  0
VERTEX
  5
7C1
  8
IMPORT_-_TVSTAND_BACK
 10
506.9997474962751
 20
569.5374379549107
 30
0.0
  0
VERTEX
  5
7C2
  8
IMPORT_-_TVSTAND_BACK
 10
507.1733018900599
 20
569.3152356384722
 30
0.0
  0
VERTEX
  5
7C3
  8
IMPORT_-_TVSTAND_BACK
 10
507.3674118926633
 20
569.0984908953375
 30
0.0
  0
VERTEX
  5
7C4
  8
IMPORT_-_TVSTAND_BACK
 10
507.5814684780864
 20
568.8875111665157
 30
0.0
  0
VERTEX
  5
7C5
  8
IMPORT_-_TVSTAND_BACK
 10
507.8148626203297
 20
568.6826038930161
 30
0.0
  0
VERTEX
  5
7C6
  8
IMPORT_-_TVSTAND_BACK
 10
508.0669852933939
 20
568.4840765158482
 30
0.0
  0
VERTEX
  5
7C7
  8
IMPORT_-_TVSTAND_BACK
 10
508.3372274712798
 20
568.292236476021
 30
0.0
  0
VERTEX
  5
7C8
  8
IMPORT_-_TVSTAND_BACK
 10
508.6249801279881
 20
568.1073912145438
 30
0.0
  0
VERTEX
  5
7C9
  8
IMPORT_-_TVSTAND_BACK
 10
508.9296342375195
 20
567.9298481724259
 30
0.0
  0
VERTEX
  5
7CA
  8
IMPORT_-_TVSTAND_BACK
 10
509.2505807738747
 20
567.7599147906765
 30
0.0
  0
VERTEX
  5
7CB
  8
IMPORT_-_TVSTAND_BACK
 10
509.5872107110545
 20
567.5978985103047
 30
0.0
  0
VERTEX
  5
7CC
  8
IMPORT_-_TVSTAND_BACK
 10
509.9389150230596
 20
567.4441067723202
 30
0.0
  0
VERTEX
  5
7CD
  8
IMPORT_-_TVSTAND_BACK
 10
510.3050846838906
 20
567.2988470177318
 30
0.0
  0
VERTEX
  5
7CE
  8
IMPORT_-_TVSTAND_BACK
 10
510.6851106675483
 20
567.1624266875491
 30
0.0
  0
VERTEX
  5
7CF
  8
IMPORT_-_TVSTAND_BACK
 10
511.0783839480334
 20
567.0351532227811
 30
0.0
  0
VERTEX
  5
7D0
  8
IMPORT_-_TVSTAND_BACK
 10
511.4842954993468
 20
566.9173340644372
 30
0.0
  0
VERTEX
  5
7D1
  8
IMPORT_-_TVSTAND_BACK
 10
511.9022362954889
 20
566.8092766535265
 30
0.0
  0
VERTEX
  5
7D2
  8
IMPORT_-_TVSTAND_BACK
 10
512.3315973104607
 20
566.7112884310584
 30
0.0
  0
VERTEX
  5
7D3
  8
IMPORT_-_TVSTAND_BACK
 10
512.7717695182628
 20
566.623676838042
 30
0.0
  0
VERTEX
  5
7D4
  8
IMPORT_-_TVSTAND_BACK
 10
513.2221438928959
 20
566.5467493154867
 30
0.0
  0
VERTEX
  5
7D5
  8
IMPORT_-_TVSTAND_BACK
 10
513.6821114083607
 20
566.4808133044017
 30
0.0
  0
VERTEX
  5
7D6
  8
IMPORT_-_TVSTAND_BACK
 10
514.151063038658
 20
566.4261762457963
 30
0.0
  0
VERTEX
  5
7D7
  8
IMPORT_-_TVSTAND_BACK
 10
514.6283897577885
 20
566.3831455806796
 30
0.0
  0
VERTEX
  5
7D8
  8
IMPORT_-_TVSTAND_BACK
 10
515.1134825397528
 20
566.3520287500611
 30
0.0
  0
VERTEX
  5
7D9
  8
IMPORT_-_TVSTAND_BACK
 10
515.6057323585519
 20
566.3331331949498
 30
0.0
  0
VERTEX
  5
7DA
  8
IMPORT_-_TVSTAND_BACK
 10
516.1045301881861
 20
566.3267663563552
 30
0.0
  0
VERTEX
  5
7DB
  8
IMPORT_-_TVSTAND_BACK
 10
536.7186337531095
 20
566.3267663563552
 30
0.0
  0
VERTEX
  5
7DC
  8
IMPORT_-_TVSTAND_BACK
 10
537.2174315827438
 20
566.3331331949498
 30
0.0
  0
VERTEX
  5
7DD
  8
IMPORT_-_TVSTAND_BACK
 10
537.7096814015429
 20
566.3520287500611
 30
0.0
  0
VERTEX
  5
7DE
  8
IMPORT_-_TVSTAND_BACK
 10
538.1947741835072
 20
566.3831455806796
 30
0.0
  0
VERTEX
  5
7DF
  8
IMPORT_-_TVSTAND_BACK
 10
538.6721009026377
 20
566.4261762457963
 30
0.0
  0
VERTEX
  5
7E0
  8
IMPORT_-_TVSTAND_BACK
 10
539.141052532935
 20
566.4808133044017
 30
0.0
  0
VERTEX
  5
7E1
  8
IMPORT_-_TVSTAND_BACK
 10
539.6010200483997
 20
566.5467493154867
 30
0.0
  0
VERTEX
  5
7E2
  8
IMPORT_-_TVSTAND_BACK
 10
540.0513944230329
 20
566.623676838042
 30
0.0
  0
VERTEX
  5
7E3
  8
IMPORT_-_TVSTAND_BACK
 10
540.491566630835
 20
566.7112884310584
 30
0.0
  0
VERTEX
  5
7E4
  8
IMPORT_-_TVSTAND_BACK
 10
540.9209276458066
 20
566.8092766535265
 30
0.0
  0
VERTEX
  5
7E5
  8
IMPORT_-_TVSTAND_BACK
 10
541.3388684419488
 20
566.9173340644372
 30
0.0
  0
VERTEX
  5
7E6
  8
IMPORT_-_TVSTAND_BACK
 10
541.7447799932621
 20
567.0351532227811
 30
0.0
  0
VERTEX
  5
7E7
  8
IMPORT_-_TVSTAND_BACK
 10
542.1380532737473
 20
567.1624266875491
 30
0.0
  0
VERTEX
  5
7E8
  8
IMPORT_-_TVSTAND_BACK
 10
542.5180792574051
 20
567.2988470177318
 30
0.0
  0
VERTEX
  5
7E9
  8
IMPORT_-_TVSTAND_BACK
 10
542.8842489182362
 20
567.4441067723202
 30
0.0
  0
VERTEX
  5
7EA
  8
IMPORT_-_TVSTAND_BACK
 10
543.2359532302412
 20
567.5978985103047
 30
0.0
  0
VERTEX
  5
7EB
  8
IMPORT_-_TVSTAND_BACK
 10
543.5725831674209
 20
567.7599147906765
 30
0.0
  0
VERTEX
  5
7EC
  8
IMPORT_-_TVSTAND_BACK
 10
543.893529703776
 20
567.9298481724259
 30
0.0
  0
VERTEX
  5
7ED
  8
IMPORT_-_TVSTAND_BACK
 10
544.1981838133074
 20
568.1073912145438
 30
0.0
  0
VERTEX
  5
7EE
  8
IMPORT_-_TVSTAND_BACK
 10
544.4859364700158
 20
568.292236476021
 30
0.0
  0
VERTEX
  5
7EF
  8
IMPORT_-_TVSTAND_BACK
 10
544.7561786479016
 20
568.4840765158482
 30
0.0
  0
VERTEX
  5
7F0
  8
IMPORT_-_TVSTAND_BACK
 10
545.0083013209659
 20
568.6826038930161
 30
0.0
  0
VERTEX
  5
7F1
  8
IMPORT_-_TVSTAND_BACK
 10
545.2416954632092
 20
568.8875111665157
 30
0.0
  0
VERTEX
  5
7F2
  8
IMPORT_-_TVSTAND_BACK
 10
545.4557520486322
 20
569.0984908953375
 30
0.0
  0
VERTEX
  5
7F3
  8
IMPORT_-_TVSTAND_BACK
 10
545.6498620512358
 20
569.3152356384722
 30
0.0
  0
VERTEX
  5
7F4
  8
IMPORT_-_TVSTAND_BACK
 10
545.8234164450206
 20
569.5374379549107
 30
0.0
  0
VERTEX
  5
7F5
  8
IMPORT_-_TVSTAND_BACK
 10
545.9758062039873
 20
569.7647904036438
 30
0.0
  0
VERTEX
  5
7F6
  8
IMPORT_-_TVSTAND_BACK
 10
546.1064223021365
 20
569.996985543662
 30
0.0
  0
VERTEX
  5
7F7
  8
IMPORT_-_TVSTAND_BACK
 10
546.2146557134693
 20
570.2337159339564
 30
0.0
  0
VERTEX
  5
7F8
  8
IMPORT_-_TVSTAND_BACK
 10
546.299897411986
 20
570.4746741335175
 30
0.0
  0
VERTEX
  5
7F9
  8
IMPORT_-_TVSTAND_BACK
 10
546.3615383716874
 20
570.719552701336
 30
0.0
  0
VERTEX
  5
7FA
  8
IMPORT_-_TVSTAND_BACK
 10
546.3989695665746
 20
570.9680441964028
 30
0.0
  0
VERTEX
  5
7FB
  8
IMPORT_-_TVSTAND_BACK
 10
546.4115819706478
 20
571.2198411777086
 30
0.0
  0
VERTEX
  5
7FC
  8
IMPORT_-_TVSTAND_BACK
 10
546.4115819706478
 20
711.4336915350017
 30
0.0
  0
VERTEX
  5
7FD
  8
IMPORT_-_TVSTAND_BACK
 10
546.3989695665746
 20
711.6854885163075
 30
0.0
  0
VERTEX
  5
7FE
  8
IMPORT_-_TVSTAND_BACK
 10
546.3615383716874
 20
711.9339800113743
 30
0.0
  0
VERTEX
  5
7FF
  8
IMPORT_-_TVSTAND_BACK
 10
546.299897411986
 20
712.1788585791928
 30
0.0
  0
VERTEX
  5
800
  8
IMPORT_-_TVSTAND_BACK
 10
546.2146557134693
 20
712.4198167787539
 30
0.0
  0
VERTEX
  5
801
  8
IMPORT_-_TVSTAND_BACK
 10
546.1064223021365
 20
712.6565471690483
 30
0.0
  0
VERTEX
  5
802
  8
IMPORT_-_TVSTAND_BACK
 10
545.9758062039873
 20
712.8887423090665
 30
0.0
  0
VERTEX
  5
803
  8
IMPORT_-_TVSTAND_BACK
 10
545.8234164450206
 20
713.1160947577996
 30
0.0
  0
VERTEX
  5
804
  8
IMPORT_-_TVSTAND_BACK
 10
545.6498620512358
 20
713.3382970742381
 30
0.0
  0
VERTEX
  5
805
  8
IMPORT_-_TVSTAND_BACK
 10
545.4557520486322
 20
713.5550418173729
 30
0.0
  0
VERTEX
  5
806
  8
IMPORT_-_TVSTAND_BACK
 10
545.2416954632092
 20
713.7660215461947
 30
0.0
  0
VERTEX
  5
807
  8
IMPORT_-_TVSTAND_BACK
 10
545.0083013209659
 20
713.9709288196942
 30
0.0
  0
VERTEX
  5
808
  8
IMPORT_-_TVSTAND_BACK
 10
544.7561786479016
 20
714.1694561968621
 30
0.0
  0
VERTEX
  5
809
  8
IMPORT_-_TVSTAND_BACK
 10
544.4859364700158
 20
714.3612962366893
 30
0.0
  0
VERTEX
  5
80A
  8
IMPORT_-_TVSTAND_BACK
 10
544.1981838133074
 20
714.5461414981665
 30
0.0
  0
VERTEX
  5
80B
  8
IMPORT_-_TVSTAND_BACK
 10
543.893529703776
 20
714.7236845402845
 30
0.0
  0
VERTEX
  5
80C
  8
IMPORT_-_TVSTAND_BACK
 10
543.5725831674208
 20
714.8936179220339
 30
0.0
  0
VERTEX
  5
80D
  8
IMPORT_-_TVSTAND_BACK
 10
543.235953230241
 20
715.0556342024056
 30
0.0
  0
VERTEX
  5
80E
  8
IMPORT_-_TVSTAND_BACK
 10
542.8842489182359
 20
715.2094259403901
 30
0.0
  0
VERTEX
  5
80F
  8
IMPORT_-_TVSTAND_BACK
 10
542.5180792574049
 20
715.3546856949786
 30
0.0
  0
VERTEX
  5
810
  8
IMPORT_-_TVSTAND_BACK
 10
542.1380532737472
 20
715.4911060251612
 30
0.0
  0
VERTEX
  5
811
  8
IMPORT_-_TVSTAND_BACK
 10
541.744779993262
 20
715.6183794899292
 30
0.0
  0
VERTEX
  5
812
  8
IMPORT_-_TVSTAND_BACK
 10
541.3388684419488
 20
715.7361986482731
 30
0.0
  0
VERTEX
  5
813
  8
IMPORT_-_TVSTAND_BACK
 10
540.9209276458066
 20
715.8442560591839
 30
0.0
  0
VERTEX
  5
814
  8
IMPORT_-_TVSTAND_BACK
 10
540.4915666308349
 20
715.9422442816519
 30
0.0
  0
VERTEX
  5
815
  8
IMPORT_-_TVSTAND_BACK
 10
540.0513944230327
 20
716.0298558746683
 30
0.0
  0
VERTEX
  5
816
  8
IMPORT_-_TVSTAND_BACK
 10
539.6010200483997
 20
716.1067833972236
 30
0.0
  0
VERTEX
  5
817
  8
IMPORT_-_TVSTAND_BACK
 10
539.141052532935
 20
716.1727194083086
 30
0.0
  0
VERTEX
  5
818
  8
IMPORT_-_TVSTAND_BACK
 10
538.6721009026377
 20
716.227356466914
 30
0.0
  0
VERTEX
  5
819
  8
IMPORT_-_TVSTAND_BACK
 10
538.1947741835072
 20
716.2703871320307
 30
0.0
  0
VERTEX
  5
81A
  8
IMPORT_-_TVSTAND_BACK
 10
537.7096814015429
 20
716.3015039626492
 30
0.0
  0
VERTEX
  5
81B
  8
IMPORT_-_TVSTAND_BACK
 10
537.2174315827438
 20
716.3203995177605
 30
0.0
  0
VERTEX
  5
81C
  8
IMPORT_-_TVSTAND_BACK
 10
536.7186337531095
 20
716.3267663563552
 30
0.0
  0
VERTEX
  5
81D
  8
IMPORT_-_TVSTAND_BACK
 10
516.1045301881861
 20
716.3267663563552
 30
0.0
  0
VERTEX
  5
81E
  8
IMPORT_-_TVSTAND_BACK
 10
515.6057323585519
 20
716.3203995177605
 30
0.0
  0
VERTEX
  5
81F
  8
IMPORT_-_TVSTAND_BACK
 10
515.1134825397528
 20
716.3015039626492
 30
0.0
  0
VERTEX
  5
820
  8
IMPORT_-_TVSTAND_BACK
 10
514.6283897577885
 20
716.2703871320307
 30
0.0
  0
VERTEX
  5
821
  8
IMPORT_-_TVSTAND_BACK
 10
514.151063038658
 20
716.227356466914
 30
0.0
  0
VERTEX
  5
822
  8
IMPORT_-_TVSTAND_BACK
 10
513.6821114083607
 20
716.1727194083086
 30
0.0
  0
VERTEX
  5
823
  8
IMPORT_-_TVSTAND_BACK
 10
513.2221438928959
 20
716.1067833972236
 30
0.0
  0
VERTEX
  5
824
  8
IMPORT_-_TVSTAND_BACK
 10
512.771769518263
 20
716.0298558746683
 30
0.0
  0
VERTEX
  5
825
  8
IMPORT_-_TVSTAND_BACK
 10
512.3315973104608
 20
715.9422442816519
 30
0.0
  0
VERTEX
  5
826
  8
IMPORT_-_TVSTAND_BACK
 10
511.902236295489
 20
715.8442560591839
 30
0.0
  0
VERTEX
  5
827
  8
IMPORT_-_TVSTAND_BACK
 10
511.4842954993469
 20
715.7361986482731
 30
0.0
  0
VERTEX
  5
828
  8
IMPORT_-_TVSTAND_BACK
 10
511.0783839480335
 20
715.6183794899292
 30
0.0
  0
VERTEX
  5
829
  8
IMPORT_-_TVSTAND_BACK
 10
510.6851106675484
 20
715.4911060251612
 30
0.0
  0
VERTEX
  5
82A
  8
IMPORT_-_TVSTAND_BACK
 10
510.3050846838907
 20
715.3546856949786
 30
0.0
  0
VERTEX
  5
82B
  8
IMPORT_-_TVSTAND_BACK
 10
509.9389150230597
 20
715.2094259403901
 30
0.0
  0
VERTEX
  5
82C
  8
IMPORT_-_TVSTAND_BACK
 10
509.5872107110546
 20
715.0556342024056
 30
0.0
  0
VERTEX
  5
82D
  8
IMPORT_-_TVSTAND_BACK
 10
509.2505807738748
 20
714.8936179220339
 30
0.0
  0
VERTEX
  5
82E
  8
IMPORT_-_TVSTAND_BACK
 10
508.9296342375196
 20
714.7236845402845
 30
0.0
  0
VERTEX
  5
82F
  8
IMPORT_-_TVSTAND_BACK
 10
508.6249801279882
 20
714.5461414981665
 30
0.0
  0
VERTEX
  5
830
  8
IMPORT_-_TVSTAND_BACK
 10
508.3372274712799
 20
714.3612962366893
 30
0.0
  0
VERTEX
  5
831
  8
IMPORT_-_TVSTAND_BACK
 10
508.0669852933939
 20
714.1694561968621
 30
0.0
  0
VERTEX
  5
832
  8
IMPORT_-_TVSTAND_BACK
 10
507.8148626203297
 20
713.9709288196942
 30
0.0
  0
VERTEX
  5
833
  8
IMPORT_-_TVSTAND_BACK
 10
507.5814684780864
 20
713.7660215461947
 30
0.0
  0
VERTEX
  5
834
  8
IMPORT_-_TVSTAND_BACK
 10
507.3674118926633
 20
713.5550418173729
 30
0.0
  0
VERTEX
  5
835
  8
IMPORT_-_TVSTAND_BACK
 10
507.1733018900599
 20
713.3382970742381
 30
0.0
  0
VERTEX
  5
836
  8
IMPORT_-_TVSTAND_BACK
 10
506.9997474962751
 20
713.1160947577996
 30
0.0
  0
VERTEX
  5
837
  8
IMPORT_-_TVSTAND_BACK
 10
506.8473577373085
 20
712.8887423090665
 30
0.0
  0
VERTEX
  5
838
  8
IMPORT_-_TVSTAND_BACK
 10
506.7167416391592
 20
712.6565471690483
 30
0.0
  0
VERTEX
  5
839
  8
IMPORT_-_TVSTAND_BACK
 10
506.6085082278265
 20
712.4198167787539
 30
0.0
  0
VERTEX
  5
83A
  8
IMPORT_-_TVSTAND_BACK
 10
506.5232665293098
 20
712.1788585791928
 30
0.0
  0
VERTEX
  5
83B
  8
IMPORT_-_TVSTAND_BACK
 10
506.4616255696082
 20
711.9339800113743
 30
0.0
  0
VERTEX
  5
83C
  8
IMPORT_-_TVSTAND_BACK
 10
506.4241943747211
 20
711.6854885163075
 30
0.0
  0
VERTEX
  5
83D
  8
IMPORT_-_TVSTAND_BACK
 10
506.4115819706478
 20
711.4336915350017
 30
0.0
  0
SEQEND
  5
83E
  8
IMPORT_-_TVSTAND_BACK
  0
POLYLINE
  5
116
  8
IMPORT_-_TVSTAND_BACK
 66
     1
 10
0.0
 20
0.0
 30
0.0
 70
     1
  0
VERTEX
  5
83F
  8
IMPORT_-_TVSTAND_BACK
 10
506.4115819706478
 20
940.5238680233457
 30
0.0
  0
VERTEX
  5
840
  8
IMPORT_-_TVSTAND_BACK
 10
506.4241943747211
 20
940.2720710420399
 30
0.0
  0
VERTEX
  5
841
  8
IMPORT_-_TVSTAND_BACK
 10
506.4616255696082
 20
940.0235795469731
 30
0.0
  0
VERTEX
  5
842
  8
IMPORT_-_TVSTAND_BACK
 10
506.5232665293098
 20
939.7787009791546
 30
0.0
  0
VERTEX
  5
843
  8
IMPORT_-_TVSTAND_BACK
 10
506.6085082278265
 20
939.5377427795935
 30
0.0
  0
VERTEX
  5
844
  8
IMPORT_-_TVSTAND_BACK
 10
506.7167416391592
 20
939.3010123892991
 30
0.0
  0
VERTEX
  5
845
  8
IMPORT_-_TVSTAND_BACK
 10
506.8473577373085
 20
939.0688172492809
 30
0.0
  0
VERTEX
  5
846
  8
IMPORT_-_TVSTAND_BACK
 10
506.9997474962751
 20
938.8414648005478
 30
0.0
  0
VERTEX
  5
847
  8
IMPORT_-_TVSTAND_BACK
 10
507.1733018900599
 20
938.6192624841093
 30
0.0
  0
VERTEX
  5
848
  8
IMPORT_-_TVSTAND_BACK
 10
507.3674118926633
 20
938.4025177409745
 30
0.0
  0
VERTEX
  5
849
  8
IMPORT_-_TVSTAND_BACK
 10
507.5814684780864
 20
938.1915380121527
 30
0.0
  0
VERTEX
  5
84A
  8
IMPORT_-_TVSTAND_BACK
 10
507.8148626203297
 20
937.9866307386532
 30
0.0
  0
VERTEX
  5
84B
  8
IMPORT_-_TVSTAND_BACK
 10
508.0669852933939
 20
937.7881033614852
 30
0.0
  0
VERTEX
  5
84C
  8
IMPORT_-_TVSTAND_BACK
 10
508.3372274712798
 20
937.5962633216581
 30
0.0
  0
VERTEX
  5
84D
  8
IMPORT_-_TVSTAND_BACK
 10
508.6249801279881
 20
937.4114180601808
 30
0.0
  0
VERTEX
  5
84E
  8
IMPORT_-_TVSTAND_BACK
 10
508.9296342375195
 20
937.2338750180629
 30
0.0
  0
VERTEX
  5
84F
  8
IMPORT_-_TVSTAND_BACK
 10
509.2505807738747
 20
937.0639416363135
 30
0.0
  0
VERTEX
  5
850
  8
IMPORT_-_TVSTAND_BACK
 10
509.5872107110545
 20
936.9019253559418
 30
0.0
  0
VERTEX
  5
851
  8
IMPORT_-_TVSTAND_BACK
 10
509.9389150230596
 20
936.7481336179573
 30
0.0
  0
VERTEX
  5
852
  8
IMPORT_-_TVSTAND_BACK
 10
510.3050846838906
 20
936.6028738633688
 30
0.0
  0
VERTEX
  5
853
  8
IMPORT_-_TVSTAND_BACK
 10
510.6851106675483
 20
936.4664535331862
 30
0.0
  0
VERTEX
  5
854
  8
IMPORT_-_TVSTAND_BACK
 10
511.0783839480334
 20
936.3391800684182
 30
0.0
  0
VERTEX
  5
855
  8
IMPORT_-_TVSTAND_BACK
 10
511.4842954993468
 20
936.2213609100743
 30
0.0
  0
VERTEX
  5
856
  8
IMPORT_-_TVSTAND_BACK
 10
511.9022362954889
 20
936.1133034991635
 30
0.0
  0
VERTEX
  5
857
  8
IMPORT_-_TVSTAND_BACK
 10
512.3315973104607
 20
936.0153152766954
 30
0.0
  0
VERTEX
  5
858
  8
IMPORT_-_TVSTAND_BACK
 10
512.7717695182628
 20
935.927703683679
 30
0.0
  0
VERTEX
  5
859
  8
IMPORT_-_TVSTAND_BACK
 10
513.2221438928959
 20
935.8507761611238
 30
0.0
  0
VERTEX
  5
85A
  8
IMPORT_-_TVSTAND_BACK
 10
513.6821114083607
 20
935.7848401500388
 30
0.0
  0
VERTEX
  5
85B
  8
IMPORT_-_TVSTAND_BACK
 10
514.151063038658
 20
935.7302030914334
 30
0.0
  0
VERTEX
  5
85C
  8
IMPORT_-_TVSTAND_BACK
 10
514.6283897577885
 20
935.6871724263167
 30
0.0
  0
VERTEX
  5
85D
  8
IMPORT_-_TVSTAND_BACK
 10
515.1134825397528
 20
935.6560555956981
 30
0.0
  0
VERTEX
  5
85E
  8
IMPORT_-_TVSTAND_BACK
 10
515.6057323585519
 20
935.6371600405869
 30
0.0
  0
VERTEX
  5
85F
  8
IMPORT_-_TVSTAND_BACK
 10
516.1045301881861
 20
935.6307932019922
 30
0.0
  0
VERTEX
  5
860
  8
IMPORT_-_TVSTAND_BACK
 10
536.7186337531095
 20
935.6307932019922
 30
0.0
  0
VERTEX
  5
861
  8
IMPORT_-_TVSTAND_BACK
 10
537.2174315827438
 20
935.6371600405869
 30
0.0
  0
VERTEX
  5
862
  8
IMPORT_-_TVSTAND_BACK
 10
537.7096814015429
 20
935.6560555956981
 30
0.0
  0
VERTEX
  5
863
  8
IMPORT_-_TVSTAND_BACK
 10
538.1947741835072
 20
935.6871724263167
 30
0.0
  0
VERTEX
  5
864
  8
IMPORT_-_TVSTAND_BACK
 10
538.6721009026377
 20
935.7302030914334
 30
0.0
  0
VERTEX
  5
865
  8
IMPORT_-_TVSTAND_BACK
 10
539.141052532935
 20
935.7848401500388
 30
0.0
  0
VERTEX
  5
866
  8
IMPORT_-_TVSTAND_BACK
 10
539.6010200483997
 20
935.8507761611238
 30
0.0
  0
VERTEX
  5
867
  8
IMPORT_-_TVSTAND_BACK
 10
540.0513944230329
 20
935.927703683679
 30
0.0
  0
VERTEX
  5
868
  8
IMPORT_-_TVSTAND_BACK
 10
540.491566630835
 20
936.0153152766954
 30
0.0
  0
VERTEX
  5
869
  8
IMPORT_-_TVSTAND_BACK
 10
540.9209276458066
 20
936.1133034991635
 30
0.0
  0
VERTEX
  5
86A
  8
IMPORT_-_TVSTAND_BACK
 10
541.3388684419488
 20
936.2213609100743
 30
0.0
  0
VERTEX
  5
86B
  8
IMPORT_-_TVSTAND_BACK
 10
541.7447799932621
 20
936.3391800684182
 30
0.0
  0
VERTEX
  5
86C
  8
IMPORT_-_TVSTAND_BACK
 10
542.1380532737473
 20
936.4664535331862
 30
0.0
  0
VERTEX
  5
86D
  8
IMPORT_-_TVSTAND_BACK
 10
542.5180792574051
 20
936.6028738633688
 30
0.0
  0
VERTEX
  5
86E
  8
IMPORT_-_TVSTAND_BACK
 10
542.8842489182362
 20
936.7481336179573
 30
0.0
  0
VERTEX
  5
86F
  8
IMPORT_-_TVSTAND_BACK
 10
543.2359532302412
 20
936.9019253559418
 30
0.0
  0
VERTEX
  5
870
  8
IMPORT_-_TVSTAND_BACK
 10
543.5725831674209
 20
937.0639416363135
 30
0.0
  0
VERTEX
  5
871
  8
IMPORT_-_TVSTAND_BACK
 10
543.893529703776
 20
937.2338750180629
 30
0.0
  0
VERTEX
  5
872
  8
IMPORT_-_TVSTAND_BACK
 10
544.1981838133074
 20
937.4114180601808
 30
0.0
  0
VERTEX
  5
873
  8
IMPORT_-_TVSTAND_BACK
 10
544.4859364700158
 20
937.5962633216581
 30
0.0
  0
VERTEX
  5
874
  8
IMPORT_-_TVSTAND_BACK
 10
544.7561786479016
 20
937.7881033614852
 30
0.0
  0
VERTEX
  5
875
  8
IMPORT_-_TVSTAND_BACK
 10
545.0083013209659
 20
937.9866307386532
 30
0.0
  0
VERTEX
  5
876
  8
IMPORT_-_TVSTAND_BACK
 10
545.2416954632092
 20
938.1915380121527
 30
0.0
  0
VERTEX
  5
877
  8
IMPORT_-_TVSTAND_BACK
 10
545.4557520486322
 20
938.4025177409745
 30
0.0
  0
VERTEX
  5
878
  8
IMPORT_-_TVSTAND_BACK
 10
545.6498620512358
 20
938.6192624841093
 30
0.0
  0
VERTEX
  5
879
  8
IMPORT_-_TVSTAND_BACK
 10
545.8234164450206
 20
938.8414648005478
 30
0.0
  0
VERTEX
  5
87A
  8
IMPORT_-_TVSTAND_BACK
 10
545.9758062039873
 20
939.0688172492809
 30
0.0
  0
VERTEX
  5
87B
  8
IMPORT_-_TVSTAND_BACK
 10
546.1064223021365
 20
939.3010123892991
 30
0.0
  0
VERTEX
  5
87C
  8
IMPORT_-_TVSTAND_BACK
 10
546.2146557134693
 20
939.5377427795935
 30
0.0
  0
VERTEX
  5
87D
  8
IMPORT_-_TVSTAND_BACK
 10
546.299897411986
 20
939.7787009791546
 30
0.0
  0
VERTEX
  5
87E
  8
IMPORT_-_TVSTAND_BACK
 10
546.3615383716874
 20
940.0235795469731
 30
0.0
  0
VERTEX
  5
87F
  8
IMPORT_-_TVSTAND_BACK
 10
546.3989695665746
 20
940.2720710420399
 30
0.0
  0
VERTEX
  5
880
  8
IMPORT_-_TVSTAND_BACK
 10
546.4115819706478
 20
940.5238680233457
 30
0.0
  0
VERTEX
  5
881
  8
IMPORT_-_TVSTAND_BACK
 10
546.4115819706478
 20
1080.737718380639
 30
0.0
  0
VERTEX
  5
882
  8
IMPORT_-_TVSTAND_BACK
 10
546.3989695665746
 20
1080.989515361945
 30
0.0
  0
VERTEX
  5
883
  8
IMPORT_-_TVSTAND_BACK
 10
546.3615383716874
 20
1081.238006857011
 30
0.0
  0
VERTEX
  5
884
  8
IMPORT_-_TVSTAND_BACK
 10
546.299897411986
 20
1081.48288542483
 30
0.0
  0
VERTEX
  5
885
  8
IMPORT_-_TVSTAND_BACK
 10
546.2146557134693
 20
1081.723843624391
 30
0.0
  0
VERTEX
  5
886
  8
IMPORT_-_TVSTAND_BACK
 10
546.1064223021365
 20
1081.960574014685
 30
0.0
  0
VERTEX
  5
887
  8
IMPORT_-_TVSTAND_BACK
 10
545.9758062039873
 20
1082.192769154703
 30
0.0
  0
VERTEX
  5
888
  8
IMPORT_-_TVSTAND_BACK
 10
545.8234164450206
 20
1082.420121603437
 30
0.0
  0
VERTEX
  5
889
  8
IMPORT_-_TVSTAND_BACK
 10
545.6498620512358
 20
1082.642323919875
 30
0.0
  0
VERTEX
  5
88A
  8
IMPORT_-_TVSTAND_BACK
 10
545.4557520486322
 20
1082.85906866301
 30
0.0
  0
VERTEX
  5
88B
  8
IMPORT_-_TVSTAND_BACK
 10
545.2416954632092
 20
1083.070048391832
 30
0.0
  0
VERTEX
  5
88C
  8
IMPORT_-_TVSTAND_BACK
 10
545.0083013209659
 20
1083.274955665331
 30
0.0
  0
VERTEX
  5
88D
  8
IMPORT_-_TVSTAND_BACK
 10
544.7561786479016
 20
1083.473483042499
 30
0.0
  0
VERTEX
  5
88E
  8
IMPORT_-_TVSTAND_BACK
 10
544.4859364700158
 20
1083.665323082326
 30
0.0
  0
VERTEX
  5
88F
  8
IMPORT_-_TVSTAND_BACK
 10
544.1981838133074
 20
1083.850168343804
 30
0.0
  0
VERTEX
  5
890
  8
IMPORT_-_TVSTAND_BACK
 10
543.893529703776
 20
1084.027711385922
 30
0.0
  0
VERTEX
  5
891
  8
IMPORT_-_TVSTAND_BACK
 10
543.5725831674208
 20
1084.197644767671
 30
0.0
  0
VERTEX
  5
892
  8
IMPORT_-_TVSTAND_BACK
 10
543.235953230241
 20
1084.359661048042
 30
0.0
  0
VERTEX
  5
893
  8
IMPORT_-_TVSTAND_BACK
 10
542.8842489182359
 20
1084.513452786027
 30
0.0
  0
VERTEX
  5
894
  8
IMPORT_-_TVSTAND_BACK
 10
542.5180792574049
 20
1084.658712540615
 30
0.0
  0
VERTEX
  5
895
  8
IMPORT_-_TVSTAND_BACK
 10
542.1380532737472
 20
1084.795132870798
 30
0.0
  0
VERTEX
  5
896
  8
IMPORT_-_TVSTAND_BACK
 10
541.744779993262
 20
1084.922406335566
 30
0.0
  0
VERTEX
  5
897
  8
IMPORT_-_TVSTAND_BACK
 10
541.3388684419488
 20
1085.04022549391
 30
0.0
  0
VERTEX
  5
898
  8
IMPORT_-_TVSTAND_BACK
 10
540.9209276458066
 20
1085.148282904821
 30
0.0
  0
VERTEX
  5
899
  8
IMPORT_-_TVSTAND_BACK
 10
540.4915666308349
 20
1085.246271127289
 30
0.0
  0
VERTEX
  5
89A
  8
IMPORT_-_TVSTAND_BACK
 10
540.0513944230327
 20
1085.333882720305
 30
0.0
  0
VERTEX
  5
89B
  8
IMPORT_-_TVSTAND_BACK
 10
539.6010200483997
 20
1085.410810242861
 30
0.0
  0
VERTEX
  5
89C
  8
IMPORT_-_TVSTAND_BACK
 10
539.141052532935
 20
1085.476746253946
 30
0.0
  0
VERTEX
  5
89D
  8
IMPORT_-_TVSTAND_BACK
 10
538.6721009026377
 20
1085.531383312551
 30
0.0
  0
VERTEX
  5
89E
  8
IMPORT_-_TVSTAND_BACK
 10
538.1947741835072
 20
1085.574413977668
 30
0.0
  0
VERTEX
  5
89F
  8
IMPORT_-_TVSTAND_BACK
 10
537.7096814015429
 20
1085.605530808286
 30
0.0
  0
VERTEX
  5
8A0
  8
IMPORT_-_TVSTAND_BACK
 10
537.2174315827438
 20
1085.624426363398
 30
0.0
  0
VERTEX
  5
8A1
  8
IMPORT_-_TVSTAND_BACK
 10
536.7186337531095
 20
1085.630793201992
 30
0.0
  0
VERTEX
  5
8A2
  8
IMPORT_-_TVSTAND_BACK
 10
516.1045301881861
 20
1085.630793201992
 30
0.0
  0
VERTEX
  5
8A3
  8
IMPORT_-_TVSTAND_BACK
 10
515.6057323585519
 20
1085.624426363398
 30
0.0
  0
VERTEX
  5
8A4
  8
IMPORT_-_TVSTAND_BACK
 10
515.1134825397528
 20
1085.605530808286
 30
0.0
  0
VERTEX
  5
8A5
  8
IMPORT_-_TVSTAND_BACK
 10
514.6283897577885
 20
1085.574413977668
 30
0.0
  0
VERTEX
  5
8A6
  8
IMPORT_-_TVSTAND_BACK
 10
514.151063038658
 20
1085.531383312551
 30
0.0
  0
VERTEX
  5
8A7
  8
IMPORT_-_TVSTAND_BACK
 10
513.6821114083607
 20
1085.476746253946
 30
0.0
  0
VERTEX
  5
8A8
  8
IMPORT_-_TVSTAND_BACK
 10
513.2221438928959
 20
1085.410810242861
 30
0.0
  0
VERTEX
  5
8A9
  8
IMPORT_-_TVSTAND_BACK
 10
512.771769518263
 20
1085.333882720305
 30
0.0
  0
VERTEX
  5
8AA
  8
IMPORT_-_TVSTAND_BACK
 10
512.3315973104608
 20
1085.246271127289
 30
0.0
  0
VERTEX
  5
8AB
  8
IMPORT_-_TVSTAND_BACK
 10
511.902236295489
 20
1085.148282904821
 30
0.0
  0
VERTEX
  5
8AC
  8
IMPORT_-_TVSTAND_BACK
 10
511.4842954993469
 20
1085.04022549391
 30
0.0
  0
VERTEX
  5
8AD
  8
IMPORT_-_TVSTAND_BACK
 10
511.0783839480335
 20
1084.922406335566
 30
0.0
  0
VERTEX
  5
8AE
  8
IMPORT_-_TVSTAND_BACK
 10
510.6851106675484
 20
1084.795132870798
 30
0.0
  0
VERTEX
  5
8AF
  8
IMPORT_-_TVSTAND_BACK
 10
510.3050846838907
 20
1084.658712540615
 30
0.0
  0
VERTEX
  5
8B0
  8
IMPORT_-_TVSTAND_BACK
 10
509.9389150230597
 20
1084.513452786027
 30
0.0
  0
VERTEX
  5
8B1
  8
IMPORT_-_TVSTAND_BACK
 10
509.5872107110546
 20
1084.359661048042
 30
0.0
  0
VERTEX
  5
8B2
  8
IMPORT_-_TVSTAND_BACK
 10
509.2505807738748
 20
1084.197644767671
 30
0.0
  0
VERTEX
  5
8B3
  8
IMPORT_-_TVSTAND_BACK
 10
508.9296342375196
 20
1084.027711385922
 30
0.0
  0
VERTEX
  5
8B4
  8
IMPORT_-_TVSTAND_BACK
 10
508.6249801279882
 20
1083.850168343804
 30
0.0
  0
VERTEX
  5
8B5
  8
IMPORT_-_TVSTAND_BACK
 10
508.3372274712799
 20
1083.665323082326
 30
0.0
  0
VERTEX
  5
8B6
  8
IMPORT_-_TVSTAND_BACK
 10
508.0669852933939
 20
1083.473483042499
 30
0.0
  0
VERTEX
  5
8B7
  8
IMPORT_-_TVSTAND_BACK
 10
507.8148626203297
 20
1083.274955665331
 30
0.0
  0
VERTEX
  5
8B8
  8
IMPORT_-_TVSTAND_BACK
 10
507.5814684780864
 20
1083.070048391832
 30
0.0
  0
VERTEX
  5
8B9
  8
IMPORT_-_TVSTAND_BACK
 10
507.3674118926633
 20
1082.85906866301
 30
0.0
  0
VERTEX
  5
8BA
  8
IMPORT_-_TVSTAND_BACK
 10
507.1733018900599
 20
1082.642323919875
 30
0.0
  0
VERTEX
  5
8BB
  8
IMPORT_-_TVSTAND_BACK
 10
506.9997474962751
 20
1082.420121603437
 30
0.0
  0
VERTEX
  5
8BC
  8
IMPORT_-_TVSTAND_BACK
 10
506.8473577373085
 20
1082.192769154703
 30
0.0
  0
VERTEX
  5
8BD
  8
IMPORT_-_TVSTAND_BACK
 10
506.7167416391592
 20
1081.960574014685
 30
0.0
  0
VERTEX
  5
8BE
  8
IMPORT_-_TVSTAND_BACK
 10
506.6085082278265
 20
1081.723843624391
 30
0.0
  0
VERTEX
  5
8BF
  8
IMPORT_-_TVSTAND_BACK
 10
506.5232665293098
 20
1081.48288542483
 30
0.0
  0
VERTEX
  5
8C0
  8
IMPORT_-_TVSTAND_BACK
 10
506.4616255696082
 20
1081.238006857011
 30
0.0
  0
VERTEX
  5
8C1
  8
IMPORT_-_TVSTAND_BACK
 10
506.4241943747211
 20
1080.989515361945
 30
0.0
  0
VERTEX
  5
8C2
  8
IMPORT_-_TVSTAND_BACK
 10
506.4115819706478
 20
1080.737718380639
 30
0.0
  0
SEQEND
  5
8C3
  8
IMPORT_-_TVSTAND_BACK
  0
POLYLINE
  5
117
  8
IMPORT_-_TVSTAND_BACK
 66
     1
 10
0.0
 20
0.0
 30
0.0
 70
     1
  0
VERTEX
  5
8C4
  8
IMPORT_-_TVSTAND_BACK
 10
321.2243513557062
 20
940.5238680233457
 30
0.0
  0
VERTEX
  5
8C5
  8
IMPORT_-_TVSTAND_BACK
 10
321.2369637597795
 20
940.2720710420399
 30
0.0
  0
VERTEX
  5
8C6
  8
IMPORT_-_TVSTAND_BACK
 10
321.2743949546665
 20
940.0235795469731
 30
0.0
  0
VERTEX
  5
8C7
  8
IMPORT_-_TVSTAND_BACK
 10
321.3360359143681
 20
939.7787009791546
 30
0.0
  0
VERTEX
  5
8C8
  8
IMPORT_-_TVSTAND_BACK
 10
321.4212776128849
 20
939.5377427795935
 30
0.0
  0
VERTEX
  5
8C9
  8
IMPORT_-_TVSTAND_BACK
 10
321.5295110242175
 20
939.3010123892991
 30
0.0
  0
VERTEX
  5
8CA
  8
IMPORT_-_TVSTAND_BACK
 10
321.6601271223668
 20
939.0688172492809
 30
0.0
  0
VERTEX
  5
8CB
  8
IMPORT_-_TVSTAND_BACK
 10
321.8125168813335
 20
938.8414648005478
 30
0.0
  0
VERTEX
  5
8CC
  8
IMPORT_-_TVSTAND_BACK
 10
321.9860712751182
 20
938.6192624841093
 30
0.0
  0
VERTEX
  5
8CD
  8
IMPORT_-_TVSTAND_BACK
 10
322.1801812777217
 20
938.4025177409745
 30
0.0
  0
VERTEX
  5
8CE
  8
IMPORT_-_TVSTAND_BACK
 10
322.3942378631448
 20
938.1915380121527
 30
0.0
  0
VERTEX
  5
8CF
  8
IMPORT_-_TVSTAND_BACK
 10
322.627632005388
 20
937.9866307386532
 30
0.0
  0
VERTEX
  5
8D0
  8
IMPORT_-_TVSTAND_BACK
 10
322.8797546784522
 20
937.7881033614852
 30
0.0
  0
VERTEX
  5
8D1
  8
IMPORT_-_TVSTAND_BACK
 10
323.1499968563381
 20
937.5962633216581
 30
0.0
  0
VERTEX
  5
8D2
  8
IMPORT_-_TVSTAND_BACK
 10
323.4377495130464
 20
937.4114180601808
 30
0.0
  0
VERTEX
  5
8D3
  8
IMPORT_-_TVSTAND_BACK
 10
323.7424036225779
 20
937.2338750180629
 30
0.0
  0
VERTEX
  5
8D4
  8
IMPORT_-_TVSTAND_BACK
 10
324.0633501589331
 20
937.0639416363135
 30
0.0
  0
VERTEX
  5
8D5
  8
IMPORT_-_TVSTAND_BACK
 10
324.3999800961129
 20
936.9019253559418
 30
0.0
  0
VERTEX
  5
8D6
  8
IMPORT_-_TVSTAND_BACK
 10
324.751684408118
 20
936.7481336179573
 30
0.0
  0
VERTEX
  5
8D7
  8
IMPORT_-_TVSTAND_BACK
 10
325.117854068949
 20
936.6028738633688
 30
0.0
  0
VERTEX
  5
8D8
  8
IMPORT_-_TVSTAND_BACK
 10
325.4978800526068
 20
936.4664535331862
 30
0.0
  0
VERTEX
  5
8D9
  8
IMPORT_-_TVSTAND_BACK
 10
325.8911533330919
 20
936.3391800684182
 30
0.0
  0
VERTEX
  5
8DA
  8
IMPORT_-_TVSTAND_BACK
 10
326.2970648844052
 20
936.2213609100743
 30
0.0
  0
VERTEX
  5
8DB
  8
IMPORT_-_TVSTAND_BACK
 10
326.7150056805474
 20
936.1133034991635
 30
0.0
  0
VERTEX
  5
8DC
  8
IMPORT_-_TVSTAND_BACK
 10
327.1443666955192
 20
936.0153152766954
 30
0.0
  0
VERTEX
  5
8DD
  8
IMPORT_-_TVSTAND_BACK
 10
327.5845389033212
 20
935.927703683679
 30
0.0
  0
VERTEX
  5
8DE
  8
IMPORT_-_TVSTAND_BACK
 10
328.0349132779543
 20
935.8507761611238
 30
0.0
  0
VERTEX
  5
8DF
  8
IMPORT_-_TVSTAND_BACK
 10
328.4948807934191
 20
935.7848401500388
 30
0.0
  0
VERTEX
  5
8E0
  8
IMPORT_-_TVSTAND_BACK
 10
328.9638324237164
 20
935.7302030914334
 30
0.0
  0
VERTEX
  5
8E1
  8
IMPORT_-_TVSTAND_BACK
 10
329.4411591428469
 20
935.6871724263167
 30
0.0
  0
VERTEX
  5
8E2
  8
IMPORT_-_TVSTAND_BACK
 10
329.9262519248113
 20
935.6560555956981
 30
0.0
  0
VERTEX
  5
8E3
  8
IMPORT_-_TVSTAND_BACK
 10
330.4185017436102
 20
935.6371600405869
 30
0.0
  0
VERTEX
  5
8E4
  8
IMPORT_-_TVSTAND_BACK
 10
330.9172995732446
 20
935.6307932019922
 30
0.0
  0
VERTEX
  5
8E5
  8
IMPORT_-_TVSTAND_BACK
 10
351.5314031381678
 20
935.6307932019922
 30
0.0
  0
VERTEX
  5
8E6
  8
IMPORT_-_TVSTAND_BACK
 10
352.0302009678022
 20
935.6371600405869
 30
0.0
  0
VERTEX
  5
8E7
  8
IMPORT_-_TVSTAND_BACK
 10
352.5224507866012
 20
935.6560555956981
 30
0.0
  0
VERTEX
  5
8E8
  8
IMPORT_-_TVSTAND_BACK
 10
353.0075435685656
 20
935.6871724263167
 30
0.0
  0
VERTEX
  5
8E9
  8
IMPORT_-_TVSTAND_BACK
 10
353.484870287696
 20
935.7302030914334
 30
0.0
  0
VERTEX
  5
8EA
  8
IMPORT_-_TVSTAND_BACK
 10
353.9538219179934
 20
935.7848401500388
 30
0.0
  0
VERTEX
  5
8EB
  8
IMPORT_-_TVSTAND_BACK
 10
354.4137894334582
 20
935.8507761611238
 30
0.0
  0
VERTEX
  5
8EC
  8
IMPORT_-_TVSTAND_BACK
 10
354.8641638080912
 20
935.927703683679
 30
0.0
  0
VERTEX
  5
8ED
  8
IMPORT_-_TVSTAND_BACK
 10
355.3043360158933
 20
936.0153152766954
 30
0.0
  0
VERTEX
  5
8EE
  8
IMPORT_-_TVSTAND_BACK
 10
355.733697030865
 20
936.1133034991635
 30
0.0
  0
VERTEX
  5
8EF
  8
IMPORT_-_TVSTAND_BACK
 10
356.1516378270072
 20
936.2213609100743
 30
0.0
  0
VERTEX
  5
8F0
  8
IMPORT_-_TVSTAND_BACK
 10
356.5575493783205
 20
936.3391800684182
 30
0.0
  0
VERTEX
  5
8F1
  8
IMPORT_-_TVSTAND_BACK
 10
356.9508226588057
 20
936.4664535331862
 30
0.0
  0
VERTEX
  5
8F2
  8
IMPORT_-_TVSTAND_BACK
 10
357.3308486424634
 20
936.6028738633688
 30
0.0
  0
VERTEX
  5
8F3
  8
IMPORT_-_TVSTAND_BACK
 10
357.6970183032944
 20
936.7481336179573
 30
0.0
  0
VERTEX
  5
8F4
  8
IMPORT_-_TVSTAND_BACK
 10
358.0487226152995
 20
936.9019253559418
 30
0.0
  0
VERTEX
  5
8F5
  8
IMPORT_-_TVSTAND_BACK
 10
358.3853525524793
 20
937.0639416363135
 30
0.0
  0
VERTEX
  5
8F6
  8
IMPORT_-_TVSTAND_BACK
 10
358.7062990888345
 20
937.2338750180629
 30
0.0
  0
VERTEX
  5
8F7
  8
IMPORT_-_TVSTAND_BACK
 10
359.0109531983659
 20
937.4114180601808
 30
0.0
  0
VERTEX
  5
8F8
  8
IMPORT_-_TVSTAND_BACK
 10
359.2987058550742
 20
937.5962633216581
 30
0.0
  0
VERTEX
  5
8F9
  8
IMPORT_-_TVSTAND_BACK
 10
359.5689480329601
 20
937.7881033614852
 30
0.0
  0
VERTEX
  5
8FA
  8
IMPORT_-_TVSTAND_BACK
 10
359.8210707060243
 20
937.9866307386532
 30
0.0
  0
VERTEX
  5
8FB
  8
IMPORT_-_TVSTAND_BACK
 10
360.0544648482676
 20
938.1915380121527
 30
0.0
  0
VERTEX
  5
8FC
  8
IMPORT_-_TVSTAND_BACK
 10
360.2685214336907
 20
938.4025177409745
 30
0.0
  0
VERTEX
  5
8FD
  8
IMPORT_-_TVSTAND_BACK
 10
360.4626314362941
 20
938.6192624841093
 30
0.0
  0
VERTEX
  5
8FE
  8
IMPORT_-_TVSTAND_BACK
 10
360.6361858300789
 20
938.8414648005478
 30
0.0
  0
VERTEX
  5
8FF
  8
IMPORT_-_TVSTAND_BACK
 10
360.7885755890455
 20
939.0688172492809
 30
0.0
  0
VERTEX
  5
900
  8
IMPORT_-_TVSTAND_BACK
 10
360.9191916871948
 20
939.3010123892991
 30
0.0
  0
VERTEX
  5
901
  8
IMPORT_-_TVSTAND_BACK
 10
361.0274250985275
 20
939.5377427795935
 30
0.0
  0
VERTEX
  5
902
  8
IMPORT_-_TVSTAND_BACK
 10
361.1126667970443
 20
939.7787009791546
 30
0.0
  0
VERTEX
  5
903
  8
IMPORT_-_TVSTAND_BACK
 10
361.1743077567458
 20
940.0235795469731
 30
0.0
  0
VERTEX
  5
904
  8
IMPORT_-_TVSTAND_BACK
 10
361.2117389516329
 20
940.2720710420399
 30
0.0
  0
VERTEX
  5
905
  8
IMPORT_-_TVSTAND_BACK
 10
361.2243513557062
 20
940.5238680233457
 30
0.0
  0
VERTEX
  5
906
  8
IMPORT_-_TVSTAND_BACK
 10
361.2243513557062
 20
1080.737718380639
 30
0.0
  0
VERTEX
  5
907
  8
IMPORT_-_TVSTAND_BACK
 10
361.2117389516329
 20
1080.989515361945
 30
0.0
  0
VERTEX
  5
908
  8
IMPORT_-_TVSTAND_BACK
 10
361.1743077567458
 20
1081.238006857011
 30
0.0
  0
VERTEX
  5
909
  8
IMPORT_-_TVSTAND_BACK
 10
361.1126667970443
 20
1081.48288542483
 30
0.0
  0
VERTEX
  5
90A
  8
IMPORT_-_TVSTAND_BACK
 10
361.0274250985275
 20
1081.723843624391
 30
0.0
  0
VERTEX
  5
90B
  8
IMPORT_-_TVSTAND_BACK
 10
360.9191916871948
 20
1081.960574014685
 30
0.0
  0
VERTEX
  5
90C
  8
IMPORT_-_TVSTAND_BACK
 10
360.7885755890455
 20
1082.192769154703
 30
0.0
  0
VERTEX
  5
90D
  8
IMPORT_-_TVSTAND_BACK
 10
360.6361858300789
 20
1082.420121603437
 30
0.0
  0
VERTEX
  5
90E
  8
IMPORT_-_TVSTAND_BACK
 10
360.4626314362941
 20
1082.642323919875
 30
0.0
  0
VERTEX
  5
90F
  8
IMPORT_-_TVSTAND_BACK
 10
360.2685214336907
 20
1082.85906866301
 30
0.0
  0
VERTEX
  5
910
  8
IMPORT_-_TVSTAND_BACK
 10
360.0544648482676
 20
1083.070048391832
 30
0.0
  0
VERTEX
  5
911
  8
IMPORT_-_TVSTAND_BACK
 10
359.8210707060243
 20
1083.274955665331
 30
0.0
  0
VERTEX
  5
912
  8
IMPORT_-_TVSTAND_BACK
 10
359.5689480329601
 20
1083.473483042499
 30
0.0
  0
VERTEX
  5
913
  8
IMPORT_-_TVSTAND_BACK
 10
359.2987058550741
 20
1083.665323082326
 30
0.0
  0
VERTEX
  5
914
  8
IMPORT_-_TVSTAND_BACK
 10
359.0109531983658
 20
1083.850168343804
 30
0.0
  0
VERTEX
  5
915
  8
IMPORT_-_TVSTAND_BACK
 10
358.7062990888344
 20
1084.027711385922
 30
0.0
  0
VERTEX
  5
916
  8
IMPORT_-_TVSTAND_BACK
 10
358.3853525524792
 20
1084.197644767671
 30
0.0
  0
VERTEX
  5
917
  8
IMPORT_-_TVSTAND_BACK
 10
358.0487226152994
 20
1084.359661048042
 30
0.0
  0
VERTEX
  5
918
  8
IMPORT_-_TVSTAND_BACK
 10
357.6970183032943
 20
1084.513452786027
 30
0.0
  0
VERTEX
  5
919
  8
IMPORT_-_TVSTAND_BACK
 10
357.3308486424633
 20
1084.658712540615
 30
0.0
  0
VERTEX
  5
91A
  8
IMPORT_-_TVSTAND_BACK
 10
356.9508226588056
 20
1084.795132870798
 30
0.0
  0
VERTEX
  5
91B
  8
IMPORT_-_TVSTAND_BACK
 10
356.5575493783204
 20
1084.922406335566
 30
0.0
  0
VERTEX
  5
91C
  8
IMPORT_-_TVSTAND_BACK
 10
356.1516378270071
 20
1085.04022549391
 30
0.0
  0
VERTEX
  5
91D
  8
IMPORT_-_TVSTAND_BACK
 10
355.7336970308649
 20
1085.148282904821
 30
0.0
  0
VERTEX
  5
91E
  8
IMPORT_-_TVSTAND_BACK
 10
355.3043360158932
 20
1085.246271127289
 30
0.0
  0
VERTEX
  5
91F
  8
IMPORT_-_TVSTAND_BACK
 10
354.8641638080911
 20
1085.333882720305
 30
0.0
  0
VERTEX
  5
920
  8
IMPORT_-_TVSTAND_BACK
 10
354.4137894334581
 20
1085.410810242861
 30
0.0
  0
VERTEX
  5
921
  8
IMPORT_-_TVSTAND_BACK
 10
353.9538219179933
 20
1085.476746253946
 30
0.0
  0
VERTEX
  5
922
  8
IMPORT_-_TVSTAND_BACK
 10
353.4848702876959
 20
1085.531383312551
 30
0.0
  0
VERTEX
  5
923
  8
IMPORT_-_TVSTAND_BACK
 10
353.0075435685654
 20
1085.574413977668
 30
0.0
  0
VERTEX
  5
924
  8
IMPORT_-_TVSTAND_BACK
 10
352.5224507866011
 20
1085.605530808286
 30
0.0
  0
VERTEX
  5
925
  8
IMPORT_-_TVSTAND_BACK
 10
352.0302009678021
 20
1085.624426363398
 30
0.0
  0
VERTEX
  5
926
  8
IMPORT_-_TVSTAND_BACK
 10
351.5314031381678
 20
1085.630793201992
 30
0.0
  0
VERTEX
  5
927
  8
IMPORT_-_TVSTAND_BACK
 10
330.9172995732446
 20
1085.630793201992
 30
0.0
  0
VERTEX
  5
928
  8
IMPORT_-_TVSTAND_BACK
 10
330.4185017436102
 20
1085.624426363398
 30
0.0
  0
VERTEX
  5
929
  8
IMPORT_-_TVSTAND_BACK
 10
329.9262519248113
 20
1085.605530808286
 30
0.0
  0
VERTEX
  5
92A
  8
IMPORT_-_TVSTAND_BACK
 10
329.4411591428469
 20
1085.574413977668
 30
0.0
  0
VERTEX
  5
92B
  8
IMPORT_-_TVSTAND_BACK
 10
328.9638324237164
 20
1085.531383312551
 30
0.0
  0
VERTEX
  5
92C
  8
IMPORT_-_TVSTAND_BACK
 10
328.4948807934191
 20
1085.476746253946
 30
0.0
  0
VERTEX
  5
92D
  8
IMPORT_-_TVSTAND_BACK
 10
328.0349132779543
 20
1085.410810242861
 30
0.0
  0
VERTEX
  5
92E
  8
IMPORT_-_TVSTAND_BACK
 10
327.5845389033212
 20
1085.333882720305
 30
0.0
  0
VERTEX
  5
92F
  8
IMPORT_-_TVSTAND_BACK
 10
327.1443666955192
 20
1085.246271127289
 30
0.0
  0
VERTEX
  5
930
  8
IMPORT_-_TVSTAND_BACK
 10
326.7150056805474
 20
1085.148282904821
 30
0.0
  0
VERTEX
  5
931
  8
IMPORT_-_TVSTAND_BACK
 10
326.2970648844052
 20
1085.04022549391
 30
0.0
  0
VERTEX
  5
932
  8
IMPORT_-_TVSTAND_BACK
 10
325.8911533330919
 20
1084.922406335566
 30
0.0
  0
VERTEX
  5
933
  8
IMPORT_-_TVSTAND_BACK
 10
325.4978800526068
 20
1084.795132870798
 30
0.0
  0
VERTEX
  5
934
  8
IMPORT_-_TVSTAND_BACK
 10
325.117854068949
 20
1084.658712540615
 30
0.0
  0
VERTEX
  5
935
  8
IMPORT_-_TVSTAND_BACK
 10
324.751684408118
 20
1084.513452786027
 30
0.0
  0
VERTEX
  5
936
  8
IMPORT_-_TVSTAND_BACK
 10
324.399980096113
 20
1084.359661048042
 30
0.0
  0
VERTEX
  5
937
  8
IMPORT_-_TVSTAND_BACK
 10
324.0633501589332
 20
1084.197644767671
 30
0.0
  0
VERTEX
  5
938
  8
IMPORT_-_TVSTAND_BACK
 10
323.742403622578
 20
1084.027711385922
 30
0.0
  0
VERTEX
  5
939
  8
IMPORT_-_TVSTAND_BACK
 10
323.4377495130465
 20
1083.850168343804
 30
0.0
  0
VERTEX
  5
93A
  8
IMPORT_-_TVSTAND_BACK
 10
323.1499968563382
 20
1083.665323082326
 30
0.0
  0
VERTEX
  5
93B
  8
IMPORT_-_TVSTAND_BACK
 10
322.8797546784523
 20
1083.473483042499
 30
0.0
  0
VERTEX
  5
93C
  8
IMPORT_-_TVSTAND_BACK
 10
322.627632005388
 20
1083.274955665331
 30
0.0
  0
VERTEX
  5
93D
  8
IMPORT_-_TVSTAND_BACK
 10
322.3942378631448
 20
1083.070048391832
 30
0.0
  0
VERTEX
  5
93E
  8
IMPORT_-_TVSTAND_BACK
 10
322.1801812777217
 20
1082.85906866301
 30
0.0
  0
VERTEX
  5
93F
  8
IMPORT_-_TVSTAND_BACK
 10
321.9860712751182
 20
1082.642323919875
 30
0.0
  0
VERTEX
  5
940
  8
IMPORT_-_TVSTAND_BACK
 10
321.8125168813335
 20
1082.420121603437
 30
0.0
  0
VERTEX
  5
941
  8
IMPORT_-_TVSTAND_BACK
 10
321.6601271223668
 20
1082.192769154703
 30
0.0
  0
VERTEX
  5
942
  8
IMPORT_-_TVSTAND_BACK
 10
321.5295110242175
 20
1081.960574014685
 30
0.0
  0
VERTEX
  5
943
  8
IMPORT_-_TVSTAND_BACK
 10
321.4212776128849
 20
1081.723843624391
 30
0.0
  0
VERTEX
  5
944
  8
IMPORT_-_TVSTAND_BACK
 10
321.3360359143681
 20
1081.48288542483
 30
0.0
  0
VERTEX
  5
945
  8
IMPORT_-_TVSTAND_BACK
 10
321.2743949546665
 20
1081.238006857011
 30
0.0
  0
VERTEX
  5
946
  8
IMPORT_-_TVSTAND_BACK
 10
321.2369637597795
 20
1080.989515361945
 30
0.0
  0
VERTEX
  5
947
  8
IMPORT_-_TVSTAND_BACK
 10
321.2243513557062
 20
1080.737718380639
 30
0.0
  0
SEQEND
  5
948
  8
IMPORT_-_TVSTAND_BACK
  0
POLYLINE
  5
118
  8
IMPORT_-_TVSTAND_BACK
 66
     1
 10
0.0
 20
0.0
 30
0.0
 70
     1
  0
VERTEX
  5
949
  8
IMPORT_-_TVSTAND_BACK
 10
206.38001150085
 20
940.5238680233457
 30
0.0
  0
VERTEX
  5
94A
  8
IMPORT_-_TVSTAND_BACK
 10
206.3926239049233
 20
940.2720710420399
 30
0.0
  0
VERTEX
  5
94B
  8
IMPORT_-_TVSTAND_BACK
 10
206.4300550998104
 20
940.0235795469731
 30
0.0
  0
VERTEX
  5
94C
  8
IMPORT_-_TVSTAND_BACK
 10
206.4916960595119
 20
939.7787009791546
 30
0.0
  0
VERTEX
  5
94D
  8
IMPORT_-_TVSTAND_BACK
 10
206.5769377580287
 20
939.5377427795935
 30
0.0
  0
VERTEX
  5
94E
  8
IMPORT_-_TVSTAND_BACK
 10
206.6851711693613
 20
939.3010123892991
 30
0.0
  0
VERTEX
  5
94F
  8
IMPORT_-_TVSTAND_BACK
 10
206.8157872675106
 20
939.0688172492809
 30
0.0
  0
VERTEX
  5
950
  8
IMPORT_-_TVSTAND_BACK
 10
206.9681770264773
 20
938.8414648005478
 30
0.0
  0
VERTEX
  5
951
  8
IMPORT_-_TVSTAND_BACK
 10
207.141731420262
 20
938.6192624841093
 30
0.0
  0
VERTEX
  5
952
  8
IMPORT_-_TVSTAND_BACK
 10
207.3358414228655
 20
938.4025177409745
 30
0.0
  0
VERTEX
  5
953
  8
IMPORT_-_TVSTAND_BACK
 10
207.5498980082886
 20
938.1915380121527
 30
0.0
  0
VERTEX
  5
954
  8
IMPORT_-_TVSTAND_BACK
 10
207.7832921505318
 20
937.9866307386532
 30
0.0
  0
VERTEX
  5
955
  8
IMPORT_-_TVSTAND_BACK
 10
208.0354148235961
 20
937.7881033614852
 30
0.0
  0
VERTEX
  5
956
  8
IMPORT_-_TVSTAND_BACK
 10
208.305657001482
 20
937.5962633216581
 30
0.0
  0
VERTEX
  5
957
  8
IMPORT_-_TVSTAND_BACK
 10
208.5934096581903
 20
937.4114180601808
 30
0.0
  0
VERTEX
  5
958
  8
IMPORT_-_TVSTAND_BACK
 10
208.8980637677217
 20
937.2338750180629
 30
0.0
  0
VERTEX
  5
959
  8
IMPORT_-_TVSTAND_BACK
 10
209.2190103040769
 20
937.0639416363135
 30
0.0
  0
VERTEX
  5
95A
  8
IMPORT_-_TVSTAND_BACK
 10
209.5556402412567
 20
936.9019253559418
 30
0.0
  0
VERTEX
  5
95B
  8
IMPORT_-_TVSTAND_BACK
 10
209.9073445532618
 20
936.7481336179573
 30
0.0
  0
VERTEX
  5
95C
  8
IMPORT_-_TVSTAND_BACK
 10
210.2735142140928
 20
936.6028738633688
 30
0.0
  0
VERTEX
  5
95D
  8
IMPORT_-_TVSTAND_BACK
 10
210.6535401977505
 20
936.4664535331862
 30
0.0
  0
VERTEX
  5
95E
  8
IMPORT_-_TVSTAND_BACK
 10
211.0468134782357
 20
936.3391800684182
 30
0.0
  0
VERTEX
  5
95F
  8
IMPORT_-_TVSTAND_BACK
 10
211.452725029549
 20
936.2213609100743
 30
0.0
  0
VERTEX
  5
960
  8
IMPORT_-_TVSTAND_BACK
 10
211.8706658256912
 20
936.1133034991635
 30
0.0
  0
VERTEX
  5
961
  8
IMPORT_-_TVSTAND_BACK
 10
212.300026840663
 20
936.0153152766954
 30
0.0
  0
VERTEX
  5
962
  8
IMPORT_-_TVSTAND_BACK
 10
212.7401990484651
 20
935.927703683679
 30
0.0
  0
VERTEX
  5
963
  8
IMPORT_-_TVSTAND_BACK
 10
213.1905734230982
 20
935.8507761611238
 30
0.0
  0
VERTEX
  5
964
  8
IMPORT_-_TVSTAND_BACK
 10
213.650540938563
 20
935.7848401500388
 30
0.0
  0
VERTEX
  5
965
  8
IMPORT_-_TVSTAND_BACK
 10
214.1194925688603
 20
935.7302030914334
 30
0.0
  0
VERTEX
  5
966
  8
IMPORT_-_TVSTAND_BACK
 10
214.5968192879907
 20
935.6871724263167
 30
0.0
  0
VERTEX
  5
967
  8
IMPORT_-_TVSTAND_BACK
 10
215.0819120699551
 20
935.6560555956981
 30
0.0
  0
VERTEX
  5
968
  8
IMPORT_-_TVSTAND_BACK
 10
215.5741618887541
 20
935.6371600405869
 30
0.0
  0
VERTEX
  5
969
  8
IMPORT_-_TVSTAND_BACK
 10
216.0729597183884
 20
935.6307932019922
 30
0.0
  0
VERTEX
  5
96A
  8
IMPORT_-_TVSTAND_BACK
 10
236.6870632833117
 20
935.6307932019922
 30
0.0
  0
VERTEX
  5
96B
  8
IMPORT_-_TVSTAND_BACK
 10
237.185861112946
 20
935.6371600405869
 30
0.0
  0
VERTEX
  5
96C
  8
IMPORT_-_TVSTAND_BACK
 10
237.678110931745
 20
935.6560555956981
 30
0.0
  0
VERTEX
  5
96D
  8
IMPORT_-_TVSTAND_BACK
 10
238.1632037137093
 20
935.6871724263167
 30
0.0
  0
VERTEX
  5
96E
  8
IMPORT_-_TVSTAND_BACK
 10
238.6405304328398
 20
935.7302030914334
 30
0.0
  0
VERTEX
  5
96F
  8
IMPORT_-_TVSTAND_BACK
 10
239.1094820631371
 20
935.7848401500388
 30
0.0
  0
VERTEX
  5
970
  8
IMPORT_-_TVSTAND_BACK
 10
239.5694495786019
 20
935.8507761611238
 30
0.0
  0
VERTEX
  5
971
  8
IMPORT_-_TVSTAND_BACK
 10
240.019823953235
 20
935.927703683679
 30
0.0
  0
VERTEX
  5
972
  8
IMPORT_-_TVSTAND_BACK
 10
240.4599961610371
 20
936.0153152766954
 30
0.0
  0
VERTEX
  5
973
  8
IMPORT_-_TVSTAND_BACK
 10
240.8893571760088
 20
936.1133034991635
 30
0.0
  0
VERTEX
  5
974
  8
IMPORT_-_TVSTAND_BACK
 10
241.307297972151
 20
936.2213609100743
 30
0.0
  0
VERTEX
  5
975
  8
IMPORT_-_TVSTAND_BACK
 10
241.7132095234643
 20
936.3391800684182
 30
0.0
  0
VERTEX
  5
976
  8
IMPORT_-_TVSTAND_BACK
 10
242.1064828039495
 20
936.4664535331862
 30
0.0
  0
VERTEX
  5
977
  8
IMPORT_-_TVSTAND_BACK
 10
242.4865087876072
 20
936.6028738633688
 30
0.0
  0
VERTEX
  5
978
  8
IMPORT_-_TVSTAND_BACK
 10
242.8526784484383
 20
936.7481336179573
 30
0.0
  0
VERTEX
  5
979
  8
IMPORT_-_TVSTAND_BACK
 10
243.2043827604433
 20
936.9019253559418
 30
0.0
  0
VERTEX
  5
97A
  8
IMPORT_-_TVSTAND_BACK
 10
243.5410126976231
 20
937.0639416363135
 30
0.0
  0
VERTEX
  5
97B
  8
IMPORT_-_TVSTAND_BACK
 10
243.8619592339783
 20
937.2338750180629
 30
0.0
  0
VERTEX
  5
97C
  8
IMPORT_-_TVSTAND_BACK
 10
244.1666133435097
 20
937.4114180601808
 30
0.0
  0
VERTEX
  5
97D
  8
IMPORT_-_TVSTAND_BACK
 10
244.454366000218
 20
937.5962633216581
 30
0.0
  0
VERTEX
  5
97E
  8
IMPORT_-_TVSTAND_BACK
 10
244.7246081781039
 20
937.7881033614852
 30
0.0
  0
VERTEX
  5
97F
  8
IMPORT_-_TVSTAND_BACK
 10
244.9767308511682
 20
937.9866307386532
 30
0.0
  0
VERTEX
  5
980
  8
IMPORT_-_TVSTAND_BACK
 10
245.2101249934114
 20
938.1915380121527
 30
0.0
  0
VERTEX
  5
981
  8
IMPORT_-_TVSTAND_BACK
 10
245.4241815788345
 20
938.4025177409745
 30
0.0
  0
VERTEX
  5
982
  8
IMPORT_-_TVSTAND_BACK
 10
245.618291581438
 20
938.6192624841093
 30
0.0
  0
VERTEX
  5
983
  8
IMPORT_-_TVSTAND_BACK
 10
245.7918459752227
 20
938.8414648005478
 30
0.0
  0
VERTEX
  5
984
  8
IMPORT_-_TVSTAND_BACK
 10
245.9442357341894
 20
939.0688172492809
 30
0.0
  0
VERTEX
  5
985
  8
IMPORT_-_TVSTAND_BACK
 10
246.0748518323387
 20
939.3010123892991
 30
0.0
  0
VERTEX
  5
986
  8
IMPORT_-_TVSTAND_BACK
 10
246.1830852436713
 20
939.5377427795935
 30
0.0
  0
VERTEX
  5
987
  8
IMPORT_-_TVSTAND_BACK
 10
246.2683269421881
 20
939.7787009791546
 30
0.0
  0
VERTEX
  5
988
  8
IMPORT_-_TVSTAND_BACK
 10
246.3299679018896
 20
940.0235795469731
 30
0.0
  0
VERTEX
  5
989
  8
IMPORT_-_TVSTAND_BACK
 10
246.3673990967767
 20
940.2720710420399
 30
0.0
  0
VERTEX
  5
98A
  8
IMPORT_-_TVSTAND_BACK
 10
246.38001150085
 20
940.5238680233457
 30
0.0
  0
VERTEX
  5
98B
  8
IMPORT_-_TVSTAND_BACK
 10
246.38001150085
 20
1080.737718380639
 30
0.0
  0
VERTEX
  5
98C
  8
IMPORT_-_TVSTAND_BACK
 10
246.3673990967767
 20
1080.989515361945
 30
0.0
  0
VERTEX
  5
98D
  8
IMPORT_-_TVSTAND_BACK
 10
246.3299679018896
 20
1081.238006857011
 30
0.0
  0
VERTEX
  5
98E
  8
IMPORT_-_TVSTAND_BACK
 10
246.2683269421881
 20
1081.48288542483
 30
0.0
  0
VERTEX
  5
98F
  8
IMPORT_-_TVSTAND_BACK
 10
246.1830852436713
 20
1081.723843624391
 30
0.0
  0
VERTEX
  5
990
  8
IMPORT_-_TVSTAND_BACK
 10
246.0748518323387
 20
1081.960574014685
 30
0.0
  0
VERTEX
  5
991
  8
IMPORT_-_TVSTAND_BACK
 10
245.9442357341894
 20
1082.192769154703
 30
0.0
  0
VERTEX
  5
992
  8
IMPORT_-_TVSTAND_BACK
 10
245.7918459752227
 20
1082.420121603437
 30
0.0
  0
VERTEX
  5
993
  8
IMPORT_-_TVSTAND_BACK
 10
245.618291581438
 20
1082.642323919875
 30
0.0
  0
VERTEX
  5
994
  8
IMPORT_-_TVSTAND_BACK
 10
245.4241815788344
 20
1082.85906866301
 30
0.0
  0
VERTEX
  5
995
  8
IMPORT_-_TVSTAND_BACK
 10
245.2101249934114
 20
1083.070048391832
 30
0.0
  0
VERTEX
  5
996
  8
IMPORT_-_TVSTAND_BACK
 10
244.9767308511681
 20
1083.274955665331
 30
0.0
  0
VERTEX
  5
997
  8
IMPORT_-_TVSTAND_BACK
 10
244.7246081781039
 20
1083.473483042499
 30
0.0
  0
VERTEX
  5
998
  8
IMPORT_-_TVSTAND_BACK
 10
244.454366000218
 20
1083.665323082326
 30
0.0
  0
VERTEX
  5
999
  8
IMPORT_-_TVSTAND_BACK
 10
244.1666133435097
 20
1083.850168343804
 30
0.0
  0
VERTEX
  5
99A
  8
IMPORT_-_TVSTAND_BACK
 10
243.8619592339782
 20
1084.027711385922
 30
0.0
  0
VERTEX
  5
99B
  8
IMPORT_-_TVSTAND_BACK
 10
243.541012697623
 20
1084.197644767671
 30
0.0
  0
VERTEX
  5
99C
  8
IMPORT_-_TVSTAND_BACK
 10
243.2043827604433
 20
1084.359661048042
 30
0.0
  0
VERTEX
  5
99D
  8
IMPORT_-_TVSTAND_BACK
 10
242.8526784484382
 20
1084.513452786027
 30
0.0
  0
VERTEX
  5
99E
  8
IMPORT_-_TVSTAND_BACK
 10
242.4865087876072
 20
1084.658712540615
 30
0.0
  0
VERTEX
  5
99F
  8
IMPORT_-_TVSTAND_BACK
 10
242.1064828039494
 20
1084.795132870798
 30
0.0
  0
VERTEX
  5
9A0
  8
IMPORT_-_TVSTAND_BACK
 10
241.7132095234642
 20
1084.922406335566
 30
0.0
  0
VERTEX
  5
9A1
  8
IMPORT_-_TVSTAND_BACK
 10
241.3072979721509
 20
1085.04022549391
 30
0.0
  0
VERTEX
  5
9A2
  8
IMPORT_-_TVSTAND_BACK
 10
240.8893571760087
 20
1085.148282904821
 30
0.0
  0
VERTEX
  5
9A3
  8
IMPORT_-_TVSTAND_BACK
 10
240.459996161037
 20
1085.246271127289
 30
0.0
  0
VERTEX
  5
9A4
  8
IMPORT_-_TVSTAND_BACK
 10
240.0198239532349
 20
1085.333882720305
 30
0.0
  0
VERTEX
  5
9A5
  8
IMPORT_-_TVSTAND_BACK
 10
239.5694495786018
 20
1085.410810242861
 30
0.0
  0
VERTEX
  5
9A6
  8
IMPORT_-_TVSTAND_BACK
 10
239.109482063137
 20
1085.476746253946
 30
0.0
  0
VERTEX
  5
9A7
  8
IMPORT_-_TVSTAND_BACK
 10
238.6405304328397
 20
1085.531383312551
 30
0.0
  0
VERTEX
  5
9A8
  8
IMPORT_-_TVSTAND_BACK
 10
238.1632037137093
 20
1085.574413977668
 30
0.0
  0
VERTEX
  5
9A9
  8
IMPORT_-_TVSTAND_BACK
 10
237.6781109317449
 20
1085.605530808286
 30
0.0
  0
VERTEX
  5
9AA
  8
IMPORT_-_TVSTAND_BACK
 10
237.185861112946
 20
1085.624426363398
 30
0.0
  0
VERTEX
  5
9AB
  8
IMPORT_-_TVSTAND_BACK
 10
236.6870632833117
 20
1085.630793201992
 30
0.0
  0
VERTEX
  5
9AC
  8
IMPORT_-_TVSTAND_BACK
 10
216.0729597183884
 20
1085.630793201992
 30
0.0
  0
VERTEX
  5
9AD
  8
IMPORT_-_TVSTAND_BACK
 10
215.5741618887541
 20
1085.624426363398
 30
0.0
  0
VERTEX
  5
9AE
  8
IMPORT_-_TVSTAND_BACK
 10
215.0819120699551
 20
1085.605530808286
 30
0.0
  0
VERTEX
  5
9AF
  8
IMPORT_-_TVSTAND_BACK
 10
214.5968192879908
 20
1085.574413977668
 30
0.0
  0
VERTEX
  5
9B0
  8
IMPORT_-_TVSTAND_BACK
 10
214.1194925688603
 20
1085.531383312551
 30
0.0
  0
VERTEX
  5
9B1
  8
IMPORT_-_TVSTAND_BACK
 10
213.650540938563
 20
1085.476746253946
 30
0.0
  0
VERTEX
  5
9B2
  8
IMPORT_-_TVSTAND_BACK
 10
213.1905734230982
 20
1085.410810242861
 30
0.0
  0
VERTEX
  5
9B3
  8
IMPORT_-_TVSTAND_BACK
 10
212.7401990484651
 20
1085.333882720305
 30
0.0
  0
VERTEX
  5
9B4
  8
IMPORT_-_TVSTAND_BACK
 10
212.3000268406631
 20
1085.246271127289
 30
0.0
  0
VERTEX
  5
9B5
  8
IMPORT_-_TVSTAND_BACK
 10
211.8706658256913
 20
1085.148282904821
 30
0.0
  0
VERTEX
  5
9B6
  8
IMPORT_-_TVSTAND_BACK
 10
211.4527250295491
 20
1085.04022549391
 30
0.0
  0
VERTEX
  5
9B7
  8
IMPORT_-_TVSTAND_BACK
 10
211.0468134782358
 20
1084.922406335566
 30
0.0
  0
VERTEX
  5
9B8
  8
IMPORT_-_TVSTAND_BACK
 10
210.6535401977506
 20
1084.795132870798
 30
0.0
  0
VERTEX
  5
9B9
  8
IMPORT_-_TVSTAND_BACK
 10
210.2735142140929
 20
1084.658712540615
 30
0.0
  0
VERTEX
  5
9BA
  8
IMPORT_-_TVSTAND_BACK
 10
209.9073445532619
 20
1084.513452786027
 30
0.0
  0
VERTEX
  5
9BB
  8
IMPORT_-_TVSTAND_BACK
 10
209.5556402412568
 20
1084.359661048042
 30
0.0
  0
VERTEX
  5
9BC
  8
IMPORT_-_TVSTAND_BACK
 10
209.219010304077
 20
1084.197644767671
 30
0.0
  0
VERTEX
  5
9BD
  8
IMPORT_-_TVSTAND_BACK
 10
208.8980637677218
 20
1084.027711385922
 30
0.0
  0
VERTEX
  5
9BE
  8
IMPORT_-_TVSTAND_BACK
 10
208.5934096581904
 20
1083.850168343804
 30
0.0
  0
VERTEX
  5
9BF
  8
IMPORT_-_TVSTAND_BACK
 10
208.3056570014821
 20
1083.665323082326
 30
0.0
  0
VERTEX
  5
9C0
  8
IMPORT_-_TVSTAND_BACK
 10
208.0354148235962
 20
1083.473483042499
 30
0.0
  0
VERTEX
  5
9C1
  8
IMPORT_-_TVSTAND_BACK
 10
207.7832921505319
 20
1083.274955665331
 30
0.0
  0
VERTEX
  5
9C2
  8
IMPORT_-_TVSTAND_BACK
 10
207.5498980082886
 20
1083.070048391832
 30
0.0
  0
VERTEX
  5
9C3
  8
IMPORT_-_TVSTAND_BACK
 10
207.3358414228656
 20
1082.85906866301
 30
0.0
  0
VERTEX
  5
9C4
  8
IMPORT_-_TVSTAND_BACK
 10
207.141731420262
 20
1082.642323919875
 30
0.0
  0
VERTEX
  5
9C5
  8
IMPORT_-_TVSTAND_BACK
 10
206.9681770264773
 20
1082.420121603437
 30
0.0
  0
VERTEX
  5
9C6
  8
IMPORT_-_TVSTAND_BACK
 10
206.8157872675106
 20
1082.192769154703
 30
0.0
  0
VERTEX
  5
9C7
  8
IMPORT_-_TVSTAND_BACK
 10
206.6851711693613
 20
1081.960574014685
 30
0.0
  0
VERTEX
  5
9C8
  8
IMPORT_-_TVSTAND_BACK
 10
206.5769377580287
 20
1081.723843624391
 30
0.0
  0
VERTEX
  5
9C9
  8
IMPORT_-_TVSTAND_BACK
 10
206.4916960595119
 20
1081.48288542483
 30
0.0
  0
VERTEX
  5
9CA
  8
IMPORT_-_TVSTAND_BACK
 10
206.4300550998104
 20
1081.238006857011
 30
0.0
  0
VERTEX
  5
9CB
  8
IMPORT_-_TVSTAND_BACK
 10
206.3926239049233
 20
1080.989515361945
 30
0.0
  0
VERTEX
  5
9CC
  8
IMPORT_-_TVSTAND_BACK
 10
206.38001150085
 20
1080.737718380639
 30
0.0
  0
SEQEND
  5
9CD
  8
IMPORT_-_TVSTAND_BACK
  0
ENDSEC
  0
EOF
