  0
SECTION
  2
HEADER
  9
$ACADVER
  1
AC1009
  9
$DWGCODEPAGE
  3
ansi_1252
  9
$INSBASE
 10
0.0
 20
0.0
 30
0.0
  9
$EXTMIN
 10
-814.5364778690673
 20
56.25522184936619
 30
0.0
  9
$EXTMAX
 10
2400.306197906039
 20
1426.598244865994
 30
0.0
  9
$LIMMIN
 10
0.0
 20
0.0
  9
$LIMMAX
 10
12.0
 20
9.0
  9
$ORTHOMODE
 70
     0
  9
$REGENMODE
 70
     1
  9
$FILLMODE
 70
     1
  9
$QTEXTMODE
 70
     0
  9
$MIRRTEXT
 70
     1
  9
$DRAGMODE
 70
     2
  9
$LTSCALE
 40
1.0
  9
$OSMODE
 70
    37
  9
$ATTMODE
 70
     1
  9
$TEXTSIZE
 40
0.2
  9
$TRACEWID
 40
0.05
  9
$TEXTSTYLE
  7
STANDARD
  9
$CLAYER
  8
0
  9
$CELTYPE
  6
BYLAYER
  9
$CECOLOR
 62
   256
  9
$DIMSCALE
 40
1.0
  9
$DIMASZ
 40
0.18
  9
$DIMEXO
 40
0.0625
  9
$DIMDLI
 40
0.38
  9
$DIMRND
 40
0.0
  9
$DIMDLE
 40
0.0
  9
$DIMEXE
 40
0.18
  9
$DIMTP
 40
0.0
  9
$DIMTM
 40
0.0
  9
$DIMTXT
 40
0.18
  9
$DIMCEN
 40
0.09
  9
$DIMTSZ
 40
0.0
  9
$DIMTOL
 70
     0
  9
$DIMLIM
 70
     0
  9
$DIMTIH
 70
     1
  9
$DIMTOH
 70
     1
  9
$DIMSE1
 70
     0
  9
$DIMSE2
 70
     0
  9
$DIMTAD
 70
     0
  9
$DIMZIN
 70
     0
  9
$DIMBLK
  1

  9
$DIMASO
 70
     1
  9
$DIMSHO
 70
     1
  9
$DIMPOST
  1

  9
$DIMAPOST
  1

  9
$DIMALT
 70
     0
  9
$DIMALTD
 70
     2
  9
$DIMALTF
 40
25.4
  9
$DIMLFAC
 40
1.0
  9
$DIMTOFL
 70
     0
  9
$DIMTVP
 40
0.0
  9
$DIMTIX
 70
     0
  9
$DIMSOXD
 70
     0
  9
$DIMSAH
 70
     0
  9
$DIMBLK1
  1

  9
$DIMBLK2
  1

  9
$DIMSTYLE
  2
STANDARD
  9
$DIMCLRD
 70
     0
  9
$DIMCLRE
 70
     0
  9
$DIMCLRT
 70
     0
  9
$DIMTFAC
 40
1.0
  9
$DIMGAP
 40
0.09
  9
$LUNITS
 70
     2
  9
$LUPREC
 70
     4
  9
$SKETCHINC
 40
0.1
  9
$FILLETRAD
 40
0.5
  9
$AUNITS
 70
     0
  9
$AUPREC
 70
     0
  9
$MENU
  1
.
  9
$ELEVATION
 40
0.0
  9
$PELEVATION
 40
0.0
  9
$THICKNESS
 40
0.0
  9
$LIMCHECK
 70
     0
  9
$CHAMFERA
 40
0.5
  9
$CHAMFERB
 40
0.5
  9
$SKPOLY
 70
     0
  9
$TDCREATE
 40
2454910.5
  9
$TDUPDATE
 40
2456821.396595857
  9
$TDINDWG
 40
0.0000000116
  9
$TDUSRTIMER
 40
0.0000000116
  9
$USRTIMER
 70
     1
  9
$ANGBASE
 50
0.0
  9
$ANGDIR
 70
     0
  9
$PDMODE
 70
     0
  9
$PDSIZE
 40
0.0
  9
$PLINEWID
 40
0.0
  9
$COORDS
 70
     1
  9
$SPLFRAME
 70
     0
  9
$SPLINETYPE
 70
     6
  9
$SPLINESEGS
 70
     8
  9
$ATTDIA
 70
     0
  9
$ATTREQ
 70
     1
  9
$HANDLING
 70
     1
  9
$HANDSEED
  5
BE5
  9
$SURFTAB1
 70
     6
  9
$SURFTAB2
 70
     6
  9
$SURFTYPE
 70
     6
  9
$SURFU
 70
     6
  9
$SURFV
 70
     6
  9
$UCSNAME
  2

  9
$UCSORG
 10
0.0
 20
0.0
 30
0.0
  9
$UCSXDIR
 10
1.0
 20
0.0
 30
0.0
  9
$UCSYDIR
 10
0.0
 20
1.0
 30
0.0
  9
$PUCSNAME
  2

  9
$PUCSORG
 10
0.0
 20
0.0
 30
0.0
  9
$PUCSXDIR
 10
1.0
 20
0.0
 30
0.0
  9
$PUCSYDIR
 10
0.0
 20
1.0
 30
0.0
  9
$USERI1
 70
     0
  9
$USERI2
 70
     0
  9
$USERI3
 70
     0
  9
$USERI4
 70
     0
  9
$USERI5
 70
     0
  9
$USERR1
 40
0.0
  9
$USERR2
 40
0.0
  9
$USERR3
 40
0.0
  9
$USERR4
 40
0.0
  9
$USERR5
 40
0.0
  9
$WORLDVIEW
 70
     1
  9
$SHADEDGE
 70
     3
  9
$SHADEDIF
 70
    70
  9
$TILEMODE
 70
     1
  9
$MAXACTVP
 70
    64
  9
$PLIMCHECK
 70
     0
  9
$PEXTMIN
 10
1.000000000000000E+20
 20
1.000000000000000E+20
 30
1.000000000000000E+20
  9
$PEXTMAX
 10
-1.000000000000000E+20
 20
-1.000000000000000E+20
 30
-1.000000000000000E+20
  9
$PLIMMIN
 10
0.0
 20
0.0
  9
$PLIMMAX
 10
12.0
 20
9.0
  9
$UNITMODE
 70
     0
  9
$VISRETAIN
 70
     1
  9
$PLINEGEN
 70
     0
  9
$PSLTSCALE
 70
     1
  0
ENDSEC
  0
SECTION
  2
TABLES
  0
TABLE
  2
VPORT
 70
     1
  0
VPORT
  2
*ACTIVE
 70
     0
 10
0.0
 20
0.0
 11
1.0
 21
1.0
 12
10.42990654205607
 22
4.5
 13
0.0
 23
0.0
 14
0.5
 24
0.5
 15
0.5
 25
0.5
 16
0.0
 26
0.0
 36
1.0
 17
0.0
 27
0.0
 37
0.0
 40
9.0
 41
1.972972972850329
 42
50.0
 43
0.0
 44
0.0
 50
0.0
 51
0.0
 71
     0
 72
   100
 73
     1
 74
     3
 75
     0
 76
     0
 77
     0
 78
     0
  0
ENDTAB
  0
TABLE
  2
LTYPE
 70
     2
  0
LTYPE
  2
CONTINUOUS
 70
     0
  3
Solid line
 72
    65
 73
     0
 40
0.0
  0
LTYPE
  2
CONTINUOUS2
 70
     0
  3
Solid Line
 72
    65
 73
     0
 40
0.0
  0
ENDTAB
  0
TABLE
  2
LAYER
 70
     5
  0
LAYER
  2
0
 70
     0
 62
     7
  6
CONTINUOUS
  0
LAYER
  2
IMPORT_-_FRONTPANEL
 70
     0
 62
    18
  6
CONTINUOUS
  0
LAYER
  2
IMPORT_-_BACKPANEL
 70
     0
 62
    18
  6
CONTINUOUS
  0
LAYER
  2
IMPORT_-_SIDEPANEL
 70
     0
 62
    18
  6
CONTINUOUS
  0
LAYER
  2
IMPORT_-_TOP
 70
     0
 62
    18
  6
CONTINUOUS
  0
ENDTAB
  0
TABLE
  2
STYLE
 70
     1
  0
STYLE
  2
STANDARD
 70
     0
 40
0.0
 41
1.0
 50
0.0
 71
     0
 42
0.2
  3
txt
  4

  0
ENDTAB
  0
TABLE
  2
VIEW
 70
     0
  0
ENDTAB
  0
TABLE
  2
UCS
 70
     0
  0
ENDTAB
  0
TABLE
  2
APPID
 70
     1
  0
APPID
  2
ACAD
 70
     0
  0
ENDTAB
  0
TABLE
  2
DIMSTYLE
 70
     1
  0
DIMSTYLE
  2
STANDARD
 70
     0
  3

  4

  5

  6

  7

 40
1.0
 41
0.18
 42
0.0625
 43
0.38
 44
0.18
 45
0.0
 46
0.0
 47
0.0
 48
0.0
140
0.18
141
0.09
142
0.0
143
25.4
144
1.0
145
0.0
146
1.0
147
0.09
 71
     0
 72
     0
 73
     1
 74
     1
 75
     0
 76
     0
 77
     0
 78
     0
170
     0
171
     2
172
     0
173
     0
174
     0
175
     0
176
     0
177
     0
178
     0
  0
ENDTAB
  0
ENDSEC
  0
SECTION
  2
BLOCKS
  0
BLOCK
  8
0
  2
$MODEL_SPACE
 70
     0
 10
0.0
 20
0.0
 30
0.0
  3
$MODEL_SPACE
  1

  0
ENDBLK
  5
21
  8
0
  0
BLOCK
 67
     1
  8
0
  2
$PAPER_SPACE
 70
     0
 10
0.0
 20
0.0
 30
0.0
  3
$PAPER_SPACE
  1

  0
ENDBLK
  5
1D
 67
     1
  8
0
  0
ENDSEC
  0
SECTION
  2
ENTITIES
  0
POLYLINE
  5
41
  8
IMPORT_-_FRONTPANEL
 66
     1
 10
0.0
 20
0.0
 30
0.0
  0
VERTEX
  5
174
  8
IMPORT_-_FRONTPANEL
 10
900.4502536916234
 20
564.1332243167338
 30
0.0
  0
VERTEX
  5
175
  8
IMPORT_-_FRONTPANEL
 10
900.3091425805121
 20
565.2973909834005
 30
0.0
  0
VERTEX
  5
176
  8
IMPORT_-_FRONTPANEL
 10
899.9916425805122
 20
566.4262798722895
 30
0.0
  0
VERTEX
  5
177
  8
IMPORT_-_FRONTPANEL
 10
899.4271981360678
 20
567.4846132056227
 30
0.0
  0
VERTEX
  5
178
  8
IMPORT_-_FRONTPANEL
 10
898.6863648027345
 20
568.401835427845
 30
0.0
  0
VERTEX
  5
179
  8
IMPORT_-_FRONTPANEL
 10
897.7691425805122
 20
569.1426687611784
 30
0.0
  0
VERTEX
  5
17A
  8
IMPORT_-_FRONTPANEL
 10
896.7460870249568
 20
569.6718354278449
 30
0.0
  0
VERTEX
  5
17B
  8
IMPORT_-_FRONTPANEL
 10
895.6171981360678
 20
570.0246132056228
 30
0.0
  0
VERTEX
  5
17C
  8
IMPORT_-_FRONTPANEL
 10
894.4177536916234
 20
570.1304465389561
 30
0.0
  0
SEQEND
  5
17D
  8
IMPORT_-_FRONTPANEL
  0
POLYLINE
  5
42
  8
IMPORT_-_FRONTPANEL
 66
     1
 10
0.0
 20
0.0
 30
0.0
  0
VERTEX
  5
17E
  8
IMPORT_-_FRONTPANEL
 10
736.4438648027344
 20
570.1304465389561
 30
0.0
  0
VERTEX
  5
17F
  8
IMPORT_-_FRONTPANEL
 10
735.2796981360677
 20
570.0246132056228
 30
0.0
  0
VERTEX
  5
180
  8
IMPORT_-_FRONTPANEL
 10
734.1508092471788
 20
569.6718354278449
 30
0.0
  0
VERTEX
  5
181
  8
IMPORT_-_FRONTPANEL
 10
733.0924759138455
 20
569.1426687611784
 30
0.0
  0
VERTEX
  5
182
  8
IMPORT_-_FRONTPANEL
 10
732.1752536916233
 20
568.401835427845
 30
0.0
  0
VERTEX
  5
183
  8
IMPORT_-_FRONTPANEL
 10
731.43442035829
 20
567.4846132056227
 30
0.0
  0
VERTEX
  5
184
  8
IMPORT_-_FRONTPANEL
 10
730.9052536916233
 20
566.4262798722895
 30
0.0
  0
VERTEX
  5
185
  8
IMPORT_-_FRONTPANEL
 10
730.5524759138455
 20
565.2973909834005
 30
0.0
  0
VERTEX
  5
186
  8
IMPORT_-_FRONTPANEL
 10
730.4466425805122
 20
564.1332243167338
 30
0.0
  0
SEQEND
  5
187
  8
IMPORT_-_FRONTPANEL
  0
POLYLINE
  5
43
  8
IMPORT_-_FRONTPANEL
 66
     1
 10
0.0
 20
0.0
 30
0.0
  0
VERTEX
  5
188
  8
IMPORT_-_FRONTPANEL
 10
730.4466425805122
 20
564.1332243167338
 30
0.0
  0
VERTEX
  5
189
  8
IMPORT_-_FRONTPANEL
 10
730.4466425805122
 20
409.4754465389561
 30
0.0
  0
SEQEND
  5
18A
  8
IMPORT_-_FRONTPANEL
  0
POLYLINE
  5
44
  8
IMPORT_-_FRONTPANEL
 66
     1
 10
0.0
 20
0.0
 30
0.0
  0
VERTEX
  5
18B
  8
IMPORT_-_FRONTPANEL
 10
730.4466425805122
 20
409.4754465389561
 30
0.0
  0
VERTEX
  5
18C
  8
IMPORT_-_FRONTPANEL
 10
730.5524759138455
 20
408.3112798722894
 30
0.0
  0
VERTEX
  5
18D
  8
IMPORT_-_FRONTPANEL
 10
730.9052536916233
 20
407.1823909834005
 30
0.0
  0
VERTEX
  5
18E
  8
IMPORT_-_FRONTPANEL
 10
731.4344203582899
 20
406.1593354278451
 30
0.0
  0
VERTEX
  5
18F
  8
IMPORT_-_FRONTPANEL
 10
732.1752536916233
 20
405.2421132056228
 30
0.0
  0
VERTEX
  5
190
  8
IMPORT_-_FRONTPANEL
 10
733.0924759138454
 20
404.5012798722895
 30
0.0
  0
VERTEX
  5
191
  8
IMPORT_-_FRONTPANEL
 10
734.1508092471788
 20
403.936835427845
 30
0.0
  0
VERTEX
  5
192
  8
IMPORT_-_FRONTPANEL
 10
735.2796981360677
 20
403.5840576500673
 30
0.0
  0
VERTEX
  5
193
  8
IMPORT_-_FRONTPANEL
 10
736.4438648027344
 20
403.4782243167339
 30
0.0
  0
SEQEND
  5
194
  8
IMPORT_-_FRONTPANEL
  0
POLYLINE
  5
45
  8
IMPORT_-_FRONTPANEL
 66
     1
 10
0.0
 20
0.0
 30
0.0
  0
VERTEX
  5
195
  8
IMPORT_-_FRONTPANEL
 10
736.4438648027344
 20
403.4782243167339
 30
0.0
  0
VERTEX
  5
196
  8
IMPORT_-_FRONTPANEL
 10
894.4177536916233
 20
403.4782243167339
 30
0.0
  0
SEQEND
  5
197
  8
IMPORT_-_FRONTPANEL
  0
POLYLINE
  5
46
  8
IMPORT_-_FRONTPANEL
 66
     1
 10
0.0
 20
0.0
 30
0.0
  0
VERTEX
  5
198
  8
IMPORT_-_FRONTPANEL
 10
894.4177536916233
 20
403.4782243167339
 30
0.0
  0
VERTEX
  5
199
  8
IMPORT_-_FRONTPANEL
 10
895.6171981360677
 20
403.5840576500672
 30
0.0
  0
VERTEX
  5
19A
  8
IMPORT_-_FRONTPANEL
 10
896.7460870249566
 20
403.936835427845
 30
0.0
  0
VERTEX
  5
19B
  8
IMPORT_-_FRONTPANEL
 10
897.7691425805122
 20
404.5012798722895
 30
0.0
  0
VERTEX
  5
19C
  8
IMPORT_-_FRONTPANEL
 10
898.6863648027344
 20
405.2421132056228
 30
0.0
  0
VERTEX
  5
19D
  8
IMPORT_-_FRONTPANEL
 10
899.4271981360678
 20
406.159335427845
 30
0.0
  0
VERTEX
  5
19E
  8
IMPORT_-_FRONTPANEL
 10
899.9916425805122
 20
407.1823909834005
 30
0.0
  0
VERTEX
  5
19F
  8
IMPORT_-_FRONTPANEL
 10
900.3091425805121
 20
408.3112798722894
 30
0.0
  0
VERTEX
  5
1A0
  8
IMPORT_-_FRONTPANEL
 10
900.4502536916233
 20
409.4754465389561
 30
0.0
  0
SEQEND
  5
1A1
  8
IMPORT_-_FRONTPANEL
  0
POLYLINE
  5
47
  8
IMPORT_-_FRONTPANEL
 66
     1
 10
0.0
 20
0.0
 30
0.0
  0
VERTEX
  5
1A2
  8
IMPORT_-_FRONTPANEL
 10
900.4502536916233
 20
230.8287798722895
 30
0.0
  0
VERTEX
  5
1A3
  8
IMPORT_-_FRONTPANEL
 10
900.3091425805121
 20
231.9929465389562
 30
0.0
  0
VERTEX
  5
1A4
  8
IMPORT_-_FRONTPANEL
 10
899.9916425805122
 20
233.121835427845
 30
0.0
  0
VERTEX
  5
1A5
  8
IMPORT_-_FRONTPANEL
 10
899.4271981360678
 20
234.1448909834006
 30
0.0
  0
VERTEX
  5
1A6
  8
IMPORT_-_FRONTPANEL
 10
898.6863648027344
 20
235.0621132056228
 30
0.0
  0
VERTEX
  5
1A7
  8
IMPORT_-_FRONTPANEL
 10
897.7691425805122
 20
235.8029465389561
 30
0.0
  0
VERTEX
  5
1A8
  8
IMPORT_-_FRONTPANEL
 10
896.7460870249566
 20
236.3673909834006
 30
0.0
  0
VERTEX
  5
1A9
  8
IMPORT_-_FRONTPANEL
 10
895.6171981360677
 20
236.6848909834006
 30
0.0
  0
VERTEX
  5
1AA
  8
IMPORT_-_FRONTPANEL
 10
894.4177536916233
 20
236.8260020945118
 30
0.0
  0
SEQEND
  5
1AB
  8
IMPORT_-_FRONTPANEL
  0
POLYLINE
  5
48
  8
IMPORT_-_FRONTPANEL
 66
     1
 10
0.0
 20
0.0
 30
0.0
  0
VERTEX
  5
1AC
  8
IMPORT_-_FRONTPANEL
 10
894.4177536916233
 20
236.8260020945118
 30
0.0
  0
VERTEX
  5
1AD
  8
IMPORT_-_FRONTPANEL
 10
736.4438648027344
 20
236.8260020945118
 30
0.0
  0
SEQEND
  5
1AE
  8
IMPORT_-_FRONTPANEL
  0
POLYLINE
  5
49
  8
IMPORT_-_FRONTPANEL
 66
     1
 10
0.0
 20
0.0
 30
0.0
  0
VERTEX
  5
1AF
  8
IMPORT_-_FRONTPANEL
 10
736.4438648027344
 20
236.8260020945118
 30
0.0
  0
VERTEX
  5
1B0
  8
IMPORT_-_FRONTPANEL
 10
735.2796981360677
 20
236.6848909834006
 30
0.0
  0
VERTEX
  5
1B1
  8
IMPORT_-_FRONTPANEL
 10
734.1508092471788
 20
236.3673909834006
 30
0.0
  0
VERTEX
  5
1B2
  8
IMPORT_-_FRONTPANEL
 10
733.0924759138454
 20
235.8029465389561
 30
0.0
  0
VERTEX
  5
1B3
  8
IMPORT_-_FRONTPANEL
 10
732.1752536916233
 20
235.0621132056228
 30
0.0
  0
VERTEX
  5
1B4
  8
IMPORT_-_FRONTPANEL
 10
731.4344203582899
 20
234.1448909834006
 30
0.0
  0
VERTEX
  5
1B5
  8
IMPORT_-_FRONTPANEL
 10
730.9052536916233
 20
233.121835427845
 30
0.0
  0
VERTEX
  5
1B6
  8
IMPORT_-_FRONTPANEL
 10
730.5524759138455
 20
231.9929465389562
 30
0.0
  0
VERTEX
  5
1B7
  8
IMPORT_-_FRONTPANEL
 10
730.4466425805122
 20
230.8287798722895
 30
0.0
  0
SEQEND
  5
1B8
  8
IMPORT_-_FRONTPANEL
  0
POLYLINE
  5
4A
  8
IMPORT_-_FRONTPANEL
 66
     1
 10
0.0
 20
0.0
 30
0.0
  0
VERTEX
  5
1B9
  8
IMPORT_-_FRONTPANEL
 10
730.4466425805122
 20
230.8287798722895
 30
0.0
  0
VERTEX
  5
1BA
  8
IMPORT_-_FRONTPANEL
 10
730.4466425805122
 20
76.13572431673396
 30
0.0
  0
SEQEND
  5
1BB
  8
IMPORT_-_FRONTPANEL
  0
POLYLINE
  5
4B
  8
IMPORT_-_FRONTPANEL
 66
     1
 10
0.0
 20
0.0
 30
0.0
  0
VERTEX
  5
1BC
  8
IMPORT_-_FRONTPANEL
 10
730.4466425805122
 20
76.13572431673396
 30
0.0
  0
VERTEX
  5
1BD
  8
IMPORT_-_FRONTPANEL
 10
730.5524759138455
 20
74.97155765006727
 30
0.0
  0
VERTEX
  5
1BE
  8
IMPORT_-_FRONTPANEL
 10
730.9052536916233
 20
73.8426687611784
 30
0.0
  0
VERTEX
  5
1BF
  8
IMPORT_-_FRONTPANEL
 10
731.4344203582899
 20
72.81961320562283
 30
0.0
  0
VERTEX
  5
1C0
  8
IMPORT_-_FRONTPANEL
 10
732.1752536916233
 20
71.90239098340061
 30
0.0
  0
VERTEX
  5
1C1
  8
IMPORT_-_FRONTPANEL
 10
733.0924759138454
 20
71.16155765006727
 30
0.0
  0
VERTEX
  5
1C2
  8
IMPORT_-_FRONTPANEL
 10
734.1508092471788
 20
70.5971132056228
 30
0.0
  0
VERTEX
  5
1C3
  8
IMPORT_-_FRONTPANEL
 10
735.2796981360677
 20
70.24433542784504
 30
0.0
  0
VERTEX
  5
1C4
  8
IMPORT_-_FRONTPANEL
 10
736.4438648027344
 20
70.13850209451175
 30
0.0
  0
SEQEND
  5
1C5
  8
IMPORT_-_FRONTPANEL
  0
POLYLINE
  5
4C
  8
IMPORT_-_FRONTPANEL
 66
     1
 10
0.0
 20
0.0
 30
0.0
  0
VERTEX
  5
1C6
  8
IMPORT_-_FRONTPANEL
 10
554.4458092471789
 20
70.13850209451175
 30
0.0
  0
VERTEX
  5
1C7
  8
IMPORT_-_FRONTPANEL
 10
555.6099759138456
 20
70.24433542784504
 30
0.0
  0
VERTEX
  5
1C8
  8
IMPORT_-_FRONTPANEL
 10
556.7388648027345
 20
70.59711320562286
 30
0.0
  0
VERTEX
  5
1C9
  8
IMPORT_-_FRONTPANEL
 10
557.7619203582899
 20
71.16155765006727
 30
0.0
  0
VERTEX
  5
1CA
  8
IMPORT_-_FRONTPANEL
 10
558.6791425805122
 20
71.90239098340061
 30
0.0
  0
VERTEX
  5
1CB
  8
IMPORT_-_FRONTPANEL
 10
559.4199759138455
 20
72.81961320562283
 30
0.0
  0
VERTEX
  5
1CC
  8
IMPORT_-_FRONTPANEL
 10
559.98442035829
 20
73.8426687611784
 30
0.0
  0
VERTEX
  5
1CD
  8
IMPORT_-_FRONTPANEL
 10
560.30192035829
 20
74.97155765006727
 30
0.0
  0
VERTEX
  5
1CE
  8
IMPORT_-_FRONTPANEL
 10
560.4430314694011
 20
76.13572431673396
 30
0.0
  0
SEQEND
  5
1CF
  8
IMPORT_-_FRONTPANEL
  0
POLYLINE
  5
4D
  8
IMPORT_-_FRONTPANEL
 66
     1
 10
0.0
 20
0.0
 30
0.0
  0
VERTEX
  5
1D0
  8
IMPORT_-_FRONTPANEL
 10
560.4430314694011
 20
76.13572431673396
 30
0.0
  0
VERTEX
  5
1D1
  8
IMPORT_-_FRONTPANEL
 10
560.4430314694011
 20
230.8287798722895
 30
0.0
  0
SEQEND
  5
1D2
  8
IMPORT_-_FRONTPANEL
  0
POLYLINE
  5
4E
  8
IMPORT_-_FRONTPANEL
 66
     1
 10
0.0
 20
0.0
 30
0.0
  0
VERTEX
  5
1D3
  8
IMPORT_-_FRONTPANEL
 10
560.4430314694011
 20
230.8287798722895
 30
0.0
  0
VERTEX
  5
1D4
  8
IMPORT_-_FRONTPANEL
 10
560.30192035829
 20
231.9929465389562
 30
0.0
  0
VERTEX
  5
1D5
  8
IMPORT_-_FRONTPANEL
 10
559.98442035829
 20
233.121835427845
 30
0.0
  0
VERTEX
  5
1D6
  8
IMPORT_-_FRONTPANEL
 10
559.4199759138455
 20
234.1448909834006
 30
0.0
  0
VERTEX
  5
1D7
  8
IMPORT_-_FRONTPANEL
 10
558.6791425805122
 20
235.0621132056228
 30
0.0
  0
VERTEX
  5
1D8
  8
IMPORT_-_FRONTPANEL
 10
557.7619203582899
 20
235.8029465389561
 30
0.0
  0
VERTEX
  5
1D9
  8
IMPORT_-_FRONTPANEL
 10
556.7388648027345
 20
236.3673909834006
 30
0.0
  0
VERTEX
  5
1DA
  8
IMPORT_-_FRONTPANEL
 10
555.6099759138456
 20
236.6848909834006
 30
0.0
  0
VERTEX
  5
1DB
  8
IMPORT_-_FRONTPANEL
 10
554.4458092471789
 20
236.8260020945118
 30
0.0
  0
SEQEND
  5
1DC
  8
IMPORT_-_FRONTPANEL
  0
POLYLINE
  5
4F
  8
IMPORT_-_FRONTPANEL
 66
     1
 10
0.0
 20
0.0
 30
0.0
  0
VERTEX
  5
1DD
  8
IMPORT_-_FRONTPANEL
 10
554.4458092471789
 20
236.8260020945118
 30
0.0
  0
VERTEX
  5
1DE
  8
IMPORT_-_FRONTPANEL
 10
396.4366425805122
 20
236.8260020945118
 30
0.0
  0
SEQEND
  5
1DF
  8
IMPORT_-_FRONTPANEL
  0
POLYLINE
  5
50
  8
IMPORT_-_FRONTPANEL
 66
     1
 10
0.0
 20
0.0
 30
0.0
  0
VERTEX
  5
1E0
  8
IMPORT_-_FRONTPANEL
 10
396.4366425805122
 20
236.8260020945118
 30
0.0
  0
VERTEX
  5
1E1
  8
IMPORT_-_FRONTPANEL
 10
395.2724759138455
 20
236.6848909834006
 30
0.0
  0
VERTEX
  5
1E2
  8
IMPORT_-_FRONTPANEL
 10
394.1435870249567
 20
236.3673909834006
 30
0.0
  0
VERTEX
  5
1E3
  8
IMPORT_-_FRONTPANEL
 10
393.0852536916233
 20
235.8029465389561
 30
0.0
  0
VERTEX
  5
1E4
  8
IMPORT_-_FRONTPANEL
 10
392.2033092471788
 20
235.0621132056228
 30
0.0
  0
VERTEX
  5
1E5
  8
IMPORT_-_FRONTPANEL
 10
391.4271981360678
 20
234.1448909834006
 30
0.0
  0
VERTEX
  5
1E6
  8
IMPORT_-_FRONTPANEL
 10
390.8980314694012
 20
233.1218354278451
 30
0.0
  0
VERTEX
  5
1E7
  8
IMPORT_-_FRONTPANEL
 10
390.5452536916234
 20
231.9929465389562
 30
0.0
  0
VERTEX
  5
1E8
  8
IMPORT_-_FRONTPANEL
 10
390.43942035829
 20
230.8287798722895
 30
0.0
  0
SEQEND
  5
1E9
  8
IMPORT_-_FRONTPANEL
  0
POLYLINE
  5
51
  8
IMPORT_-_FRONTPANEL
 66
     1
 10
0.0
 20
0.0
 30
0.0
  0
VERTEX
  5
1EA
  8
IMPORT_-_FRONTPANEL
 10
390.43942035829
 20
230.8287798722895
 30
0.0
  0
VERTEX
  5
1EB
  8
IMPORT_-_FRONTPANEL
 10
390.43942035829
 20
76.13572431673396
 30
0.0
  0
SEQEND
  5
1EC
  8
IMPORT_-_FRONTPANEL
  0
POLYLINE
  5
52
  8
IMPORT_-_FRONTPANEL
 66
     1
 10
0.0
 20
0.0
 30
0.0
  0
VERTEX
  5
1ED
  8
IMPORT_-_FRONTPANEL
 10
390.43942035829
 20
76.13572431673396
 30
0.0
  0
VERTEX
  5
1EE
  8
IMPORT_-_FRONTPANEL
 10
390.5452536916234
 20
74.97155765006733
 30
0.0
  0
VERTEX
  5
1EF
  8
IMPORT_-_FRONTPANEL
 10
390.8980314694012
 20
73.8426687611784
 30
0.0
  0
VERTEX
  5
1F0
  8
IMPORT_-_FRONTPANEL
 10
391.4271981360678
 20
72.81961320562289
 30
0.0
  0
VERTEX
  5
1F1
  8
IMPORT_-_FRONTPANEL
 10
392.2033092471788
 20
71.90239098340061
 30
0.0
  0
VERTEX
  5
1F2
  8
IMPORT_-_FRONTPANEL
 10
393.0852536916233
 20
71.16155765006727
 30
0.0
  0
VERTEX
  5
1F3
  8
IMPORT_-_FRONTPANEL
 10
394.1435870249567
 20
70.59711320562286
 30
0.0
  0
VERTEX
  5
1F4
  8
IMPORT_-_FRONTPANEL
 10
395.2724759138455
 20
70.24433542784504
 30
0.0
  0
VERTEX
  5
1F5
  8
IMPORT_-_FRONTPANEL
 10
396.4366425805122
 20
70.13850209451175
 30
0.0
  0
SEQEND
  5
1F6
  8
IMPORT_-_FRONTPANEL
  0
POLYLINE
  5
53
  8
IMPORT_-_FRONTPANEL
 66
     1
 10
0.0
 20
0.0
 30
0.0
  0
VERTEX
  5
1F7
  8
IMPORT_-_FRONTPANEL
 10
220.4358092471789
 20
76.13572431673396
 30
0.0
  0
VERTEX
  5
1F8
  8
IMPORT_-_FRONTPANEL
 10
220.4358092471789
 20
230.8287798722895
 30
0.0
  0
SEQEND
  5
1F9
  8
IMPORT_-_FRONTPANEL
  0
POLYLINE
  5
54
  8
IMPORT_-_FRONTPANEL
 66
     1
 10
0.0
 20
0.0
 30
0.0
  0
VERTEX
  5
1FA
  8
IMPORT_-_FRONTPANEL
 10
50.43219813606765
 20
409.4754465389561
 30
0.0
  0
VERTEX
  5
1FB
  8
IMPORT_-_FRONTPANEL
 10
50.53803146940118
 20
408.3112798722894
 30
0.0
  0
VERTEX
  5
1FC
  8
IMPORT_-_FRONTPANEL
 10
50.89080924717882
 20
407.1823909834005
 30
0.0
  0
VERTEX
  5
1FD
  8
IMPORT_-_FRONTPANEL
 10
51.45525369162328
 20
406.1593354278451
 30
0.0
  0
VERTEX
  5
1FE
  8
IMPORT_-_FRONTPANEL
 10
52.19608702495657
 20
405.2421132056228
 30
0.0
  0
VERTEX
  5
1FF
  8
IMPORT_-_FRONTPANEL
 10
53.1133092471789
 20
404.5012798722895
 30
0.0
  0
VERTEX
  5
200
  8
IMPORT_-_FRONTPANEL
 10
54.13636480273431
 20
403.936835427845
 30
0.0
  0
VERTEX
  5
201
  8
IMPORT_-_FRONTPANEL
 10
55.26525369162346
 20
403.5840576500673
 30
0.0
  0
VERTEX
  5
202
  8
IMPORT_-_FRONTPANEL
 10
56.42942035828992
 20
403.4782243167339
 30
0.0
  0
SEQEND
  5
203
  8
IMPORT_-_FRONTPANEL
  0
POLYLINE
  5
55
  8
IMPORT_-_FRONTPANEL
 66
     1
 10
0.0
 20
0.0
 30
0.0
  0
VERTEX
  5
204
  8
IMPORT_-_FRONTPANEL
 10
56.42942035828992
 20
403.4782243167339
 30
0.0
  0
VERTEX
  5
205
  8
IMPORT_-_FRONTPANEL
 10
214.4385870249566
 20
403.4782243167339
 30
0.0
  0
SEQEND
  5
206
  8
IMPORT_-_FRONTPANEL
  0
POLYLINE
  5
56
  8
IMPORT_-_FRONTPANEL
 66
     1
 10
0.0
 20
0.0
 30
0.0
  0
VERTEX
  5
207
  8
IMPORT_-_FRONTPANEL
 10
214.4385870249566
 20
403.4782243167339
 30
0.0
  0
VERTEX
  5
208
  8
IMPORT_-_FRONTPANEL
 10
215.6027536916233
 20
403.5840576500673
 30
0.0
  0
VERTEX
  5
209
  8
IMPORT_-_FRONTPANEL
 10
216.7316425805122
 20
403.936835427845
 30
0.0
  0
VERTEX
  5
20A
  8
IMPORT_-_FRONTPANEL
 10
217.7546981360678
 20
404.5012798722895
 30
0.0
  0
VERTEX
  5
20B
  8
IMPORT_-_FRONTPANEL
 10
218.67192035829
 20
405.2421132056228
 30
0.0
  0
VERTEX
  5
20C
  8
IMPORT_-_FRONTPANEL
 10
219.4127536916233
 20
406.1593354278451
 30
0.0
  0
VERTEX
  5
20D
  8
IMPORT_-_FRONTPANEL
 10
219.9771981360678
 20
407.1823909834005
 30
0.0
  0
VERTEX
  5
20E
  8
IMPORT_-_FRONTPANEL
 10
220.3299759138456
 20
408.3112798722894
 30
0.0
  0
VERTEX
  5
20F
  8
IMPORT_-_FRONTPANEL
 10
220.4358092471789
 20
409.4754465389561
 30
0.0
  0
SEQEND
  5
210
  8
IMPORT_-_FRONTPANEL
  0
POLYLINE
  5
57
  8
IMPORT_-_FRONTPANEL
 66
     1
 10
0.0
 20
0.0
 30
0.0
  0
VERTEX
  5
211
  8
IMPORT_-_FRONTPANEL
 10
220.4358092471789
 20
409.4754465389561
 30
0.0
  0
VERTEX
  5
212
  8
IMPORT_-_FRONTPANEL
 10
220.4358092471789
 20
564.133224316734
 30
0.0
  0
SEQEND
  5
213
  8
IMPORT_-_FRONTPANEL
  0
POLYLINE
  5
58
  8
IMPORT_-_FRONTPANEL
 66
     1
 10
0.0
 20
0.0
 30
0.0
  0
VERTEX
  5
214
  8
IMPORT_-_FRONTPANEL
 10
396.4366425805122
 20
570.1304465389561
 30
0.0
  0
VERTEX
  5
215
  8
IMPORT_-_FRONTPANEL
 10
395.2724759138455
 20
570.0246132056228
 30
0.0
  0
VERTEX
  5
216
  8
IMPORT_-_FRONTPANEL
 10
394.1435870249567
 20
569.6718354278449
 30
0.0
  0
VERTEX
  5
217
  8
IMPORT_-_FRONTPANEL
 10
393.0852536916233
 20
569.1426687611784
 30
0.0
  0
VERTEX
  5
218
  8
IMPORT_-_FRONTPANEL
 10
392.2033092471788
 20
568.401835427845
 30
0.0
  0
VERTEX
  5
219
  8
IMPORT_-_FRONTPANEL
 10
391.4271981360678
 20
567.4846132056227
 30
0.0
  0
VERTEX
  5
21A
  8
IMPORT_-_FRONTPANEL
 10
390.8980314694012
 20
566.4262798722895
 30
0.0
  0
VERTEX
  5
21B
  8
IMPORT_-_FRONTPANEL
 10
390.5452536916234
 20
565.2973909834005
 30
0.0
  0
VERTEX
  5
21C
  8
IMPORT_-_FRONTPANEL
 10
390.43942035829
 20
564.1332243167338
 30
0.0
  0
SEQEND
  5
21D
  8
IMPORT_-_FRONTPANEL
  0
POLYLINE
  5
59
  8
IMPORT_-_FRONTPANEL
 66
     1
 10
0.0
 20
0.0
 30
0.0
  0
VERTEX
  5
21E
  8
IMPORT_-_FRONTPANEL
 10
390.43942035829
 20
564.1332243167338
 30
0.0
  0
VERTEX
  5
21F
  8
IMPORT_-_FRONTPANEL
 10
390.43942035829
 20
409.4754465389561
 30
0.0
  0
SEQEND
  5
220
  8
IMPORT_-_FRONTPANEL
  0
POLYLINE
  5
5A
  8
IMPORT_-_FRONTPANEL
 66
     1
 10
0.0
 20
0.0
 30
0.0
  0
VERTEX
  5
221
  8
IMPORT_-_FRONTPANEL
 10
390.43942035829
 20
409.4754465389561
 30
0.0
  0
VERTEX
  5
222
  8
IMPORT_-_FRONTPANEL
 10
390.5452536916234
 20
408.3112798722894
 30
0.0
  0
VERTEX
  5
223
  8
IMPORT_-_FRONTPANEL
 10
390.8980314694012
 20
407.1823909834005
 30
0.0
  0
VERTEX
  5
224
  8
IMPORT_-_FRONTPANEL
 10
391.4271981360678
 20
406.1593354278451
 30
0.0
  0
VERTEX
  5
225
  8
IMPORT_-_FRONTPANEL
 10
392.2033092471788
 20
405.2421132056228
 30
0.0
  0
VERTEX
  5
226
  8
IMPORT_-_FRONTPANEL
 10
393.0852536916233
 20
404.5012798722895
 30
0.0
  0
VERTEX
  5
227
  8
IMPORT_-_FRONTPANEL
 10
394.1435870249567
 20
403.936835427845
 30
0.0
  0
VERTEX
  5
228
  8
IMPORT_-_FRONTPANEL
 10
395.2724759138455
 20
403.5840576500673
 30
0.0
  0
VERTEX
  5
229
  8
IMPORT_-_FRONTPANEL
 10
396.4366425805122
 20
403.4782243167339
 30
0.0
  0
SEQEND
  5
22A
  8
IMPORT_-_FRONTPANEL
  0
POLYLINE
  5
5B
  8
IMPORT_-_FRONTPANEL
 66
     1
 10
0.0
 20
0.0
 30
0.0
  0
VERTEX
  5
22B
  8
IMPORT_-_FRONTPANEL
 10
396.4366425805122
 20
403.4782243167339
 30
0.0
  0
VERTEX
  5
22C
  8
IMPORT_-_FRONTPANEL
 10
554.4458092471789
 20
403.4782243167339
 30
0.0
  0
SEQEND
  5
22D
  8
IMPORT_-_FRONTPANEL
  0
POLYLINE
  5
5C
  8
IMPORT_-_FRONTPANEL
 66
     1
 10
0.0
 20
0.0
 30
0.0
  0
VERTEX
  5
22E
  8
IMPORT_-_FRONTPANEL
 10
554.4458092471789
 20
403.4782243167339
 30
0.0
  0
VERTEX
  5
22F
  8
IMPORT_-_FRONTPANEL
 10
555.6099759138456
 20
403.5840576500673
 30
0.0
  0
VERTEX
  5
230
  8
IMPORT_-_FRONTPANEL
 10
556.7388648027345
 20
403.936835427845
 30
0.0
  0
VERTEX
  5
231
  8
IMPORT_-_FRONTPANEL
 10
557.7619203582899
 20
404.5012798722895
 30
0.0
  0
VERTEX
  5
232
  8
IMPORT_-_FRONTPANEL
 10
558.6791425805122
 20
405.2421132056228
 30
0.0
  0
VERTEX
  5
233
  8
IMPORT_-_FRONTPANEL
 10
559.4199759138455
 20
406.1593354278451
 30
0.0
  0
VERTEX
  5
234
  8
IMPORT_-_FRONTPANEL
 10
559.98442035829
 20
407.1823909834005
 30
0.0
  0
VERTEX
  5
235
  8
IMPORT_-_FRONTPANEL
 10
560.30192035829
 20
408.3112798722894
 30
0.0
  0
VERTEX
  5
236
  8
IMPORT_-_FRONTPANEL
 10
560.4430314694011
 20
409.4754465389561
 30
0.0
  0
SEQEND
  5
237
  8
IMPORT_-_FRONTPANEL
  0
POLYLINE
  5
5D
  8
IMPORT_-_FRONTPANEL
 66
     1
 10
0.0
 20
0.0
 30
0.0
  0
VERTEX
  5
238
  8
IMPORT_-_FRONTPANEL
 10
560.4430314694011
 20
409.4754465389561
 30
0.0
  0
VERTEX
  5
239
  8
IMPORT_-_FRONTPANEL
 10
560.4430314694011
 20
564.1332243167338
 30
0.0
  0
SEQEND
  5
23A
  8
IMPORT_-_FRONTPANEL
  0
POLYLINE
  5
5E
  8
IMPORT_-_FRONTPANEL
 66
     1
 10
0.0
 20
0.0
 30
0.0
  0
VERTEX
  5
23B
  8
IMPORT_-_FRONTPANEL
 10
560.4430314694011
 20
564.1332243167338
 30
0.0
  0
VERTEX
  5
23C
  8
IMPORT_-_FRONTPANEL
 10
560.30192035829
 20
565.2973909834005
 30
0.0
  0
VERTEX
  5
23D
  8
IMPORT_-_FRONTPANEL
 10
559.98442035829
 20
566.4262798722895
 30
0.0
  0
VERTEX
  5
23E
  8
IMPORT_-_FRONTPANEL
 10
559.4199759138455
 20
567.4846132056227
 30
0.0
  0
VERTEX
  5
23F
  8
IMPORT_-_FRONTPANEL
 10
558.6791425805122
 20
568.401835427845
 30
0.0
  0
VERTEX
  5
240
  8
IMPORT_-_FRONTPANEL
 10
557.7619203582899
 20
569.1426687611784
 30
0.0
  0
VERTEX
  5
241
  8
IMPORT_-_FRONTPANEL
 10
556.7388648027345
 20
569.6718354278449
 30
0.0
  0
VERTEX
  5
242
  8
IMPORT_-_FRONTPANEL
 10
555.6099759138456
 20
570.0246132056228
 30
0.0
  0
VERTEX
  5
243
  8
IMPORT_-_FRONTPANEL
 10
554.4458092471789
 20
570.1304465389561
 30
0.0
  0
SEQEND
  5
244
  8
IMPORT_-_FRONTPANEL
  0
POLYLINE
  5
5F
  8
IMPORT_-_FRONTPANEL
 66
     1
 10
0.0
 20
0.0
 30
0.0
  0
VERTEX
  5
245
  8
IMPORT_-_FRONTPANEL
 10
894.4177536916233
 20
70.1385020945117
 30
0.0
  0
VERTEX
  5
246
  8
IMPORT_-_FRONTPANEL
 10
895.6171981360677
 20
70.24433542784504
 30
0.0
  0
VERTEX
  5
247
  8
IMPORT_-_FRONTPANEL
 10
896.7460870249566
 20
70.5971132056228
 30
0.0
  0
VERTEX
  5
248
  8
IMPORT_-_FRONTPANEL
 10
897.7691425805122
 20
71.16155765006727
 30
0.0
  0
VERTEX
  5
249
  8
IMPORT_-_FRONTPANEL
 10
898.6863648027344
 20
71.90239098340061
 30
0.0
  0
VERTEX
  5
24A
  8
IMPORT_-_FRONTPANEL
 10
899.4271981360678
 20
72.81961320562283
 30
0.0
  0
VERTEX
  5
24B
  8
IMPORT_-_FRONTPANEL
 10
899.9916425805122
 20
73.8426687611784
 30
0.0
  0
VERTEX
  5
24C
  8
IMPORT_-_FRONTPANEL
 10
900.3091425805121
 20
74.97155765006727
 30
0.0
  0
VERTEX
  5
24D
  8
IMPORT_-_FRONTPANEL
 10
900.4502536916233
 20
76.1357243167339
 30
0.0
  0
SEQEND
  5
24E
  8
IMPORT_-_FRONTPANEL
  0
POLYLINE
  5
60
  8
IMPORT_-_FRONTPANEL
 66
     1
 10
0.0
 20
0.0
 30
0.0
 70
     1
  0
VERTEX
  5
24F
  8
IMPORT_-_FRONTPANEL
 10
390.4397608834463
 20
64.14127987228954
 30
0.0
  0
VERTEX
  5
250
  8
IMPORT_-_FRONTPANEL
 10
390.4397608834463
 20
76.13572431673396
 30
0.0
  0
VERTEX
  5
251
  8
IMPORT_-_FRONTPANEL
 10
390.4397608834463
 20
230.8287798722895
 30
0.0
  0
VERTEX
  5
252
  8
IMPORT_-_FRONTPANEL
 10
390.5455942167798
 20
231.9929465389562
 30
0.0
  0
VERTEX
  5
253
  8
IMPORT_-_FRONTPANEL
 10
390.8983719945575
 20
233.1218354278451
 30
0.0
  0
VERTEX
  5
254
  8
IMPORT_-_FRONTPANEL
 10
391.4628164390019
 20
234.1448909834006
 30
0.0
  0
VERTEX
  5
255
  8
IMPORT_-_FRONTPANEL
 10
392.2036497723352
 20
235.0621132056228
 30
0.0
  0
VERTEX
  5
256
  8
IMPORT_-_FRONTPANEL
 10
393.1208719945575
 20
235.8029465389561
 30
0.0
  0
VERTEX
  5
257
  8
IMPORT_-_FRONTPANEL
 10
394.1439275501129
 20
236.3673909834006
 30
0.0
  0
VERTEX
  5
258
  8
IMPORT_-_FRONTPANEL
 10
395.2728164390021
 20
236.6848909834006
 30
0.0
  0
VERTEX
  5
259
  8
IMPORT_-_FRONTPANEL
 10
396.4369831056686
 20
236.8260020945118
 30
0.0
  0
VERTEX
  5
25A
  8
IMPORT_-_FRONTPANEL
 10
554.4461497723353
 20
236.8260020945118
 30
0.0
  0
VERTEX
  5
25B
  8
IMPORT_-_FRONTPANEL
 10
555.610316439002
 20
236.6848909834006
 30
0.0
  0
VERTEX
  5
25C
  8
IMPORT_-_FRONTPANEL
 10
556.7392053278909
 20
236.3673909834006
 30
0.0
  0
VERTEX
  5
25D
  8
IMPORT_-_FRONTPANEL
 10
557.7622608834464
 20
235.8029465389561
 30
0.0
  0
VERTEX
  5
25E
  8
IMPORT_-_FRONTPANEL
 10
558.6794831056686
 20
235.0621132056228
 30
0.0
  0
VERTEX
  5
25F
  8
IMPORT_-_FRONTPANEL
 10
559.4203164390019
 20
234.1448909834006
 30
0.0
  0
VERTEX
  5
260
  8
IMPORT_-_FRONTPANEL
 10
559.9847608834465
 20
233.121835427845
 30
0.0
  0
VERTEX
  5
261
  8
IMPORT_-_FRONTPANEL
 10
560.3375386612242
 20
231.9929465389562
 30
0.0
  0
VERTEX
  5
262
  8
IMPORT_-_FRONTPANEL
 10
560.4433719945575
 20
230.8287798722895
 30
0.0
  0
VERTEX
  5
263
  8
IMPORT_-_FRONTPANEL
 10
560.4433719945575
 20
76.13572431673396
 30
0.0
  0
VERTEX
  5
264
  8
IMPORT_-_FRONTPANEL
 10
560.4433719945575
 20
64.14127987228949
 30
0.0
  0
SEQEND
  5
265
  8
IMPORT_-_FRONTPANEL
  0
POLYLINE
  5
61
  8
IMPORT_-_FRONTPANEL
 66
     1
 10
0.0
 20
0.0
 30
0.0
 70
     1
  0
VERTEX
  5
266
  8
IMPORT_-_FRONTPANEL
 10
390.4396803298345
 20
576.150049612319
 30
0.0
  0
VERTEX
  5
267
  8
IMPORT_-_FRONTPANEL
 10
390.4396803298345
 20
564.1556051678745
 30
0.0
  0
VERTEX
  5
268
  8
IMPORT_-_FRONTPANEL
 10
390.4396803298345
 20
409.4625496123191
 30
0.0
  0
VERTEX
  5
269
  8
IMPORT_-_FRONTPANEL
 10
390.545513663168
 20
408.2983829456524
 30
0.0
  0
VERTEX
  5
26A
  8
IMPORT_-_FRONTPANEL
 10
390.8982914409456
 20
407.1694940567635
 30
0.0
  0
VERTEX
  5
26B
  8
IMPORT_-_FRONTPANEL
 10
391.4627358853901
 20
406.1464385012079
 30
0.0
  0
VERTEX
  5
26C
  8
IMPORT_-_FRONTPANEL
 10
392.2035692187234
 20
405.2292162789857
 30
0.0
  0
VERTEX
  5
26D
  8
IMPORT_-_FRONTPANEL
 10
393.1207914409457
 20
404.4883829456525
 30
0.0
  0
VERTEX
  5
26E
  8
IMPORT_-_FRONTPANEL
 10
394.1438469965011
 20
403.923938501208
 30
0.0
  0
VERTEX
  5
26F
  8
IMPORT_-_FRONTPANEL
 10
395.2727358853903
 20
403.6064385012079
 30
0.0
  0
VERTEX
  5
270
  8
IMPORT_-_FRONTPANEL
 10
396.4369025520567
 20
403.4653273900968
 30
0.0
  0
VERTEX
  5
271
  8
IMPORT_-_FRONTPANEL
 10
554.4460692187234
 20
403.4653273900968
 30
0.0
  0
VERTEX
  5
272
  8
IMPORT_-_FRONTPANEL
 10
555.6102358853901
 20
403.6064385012079
 30
0.0
  0
VERTEX
  5
273
  8
IMPORT_-_FRONTPANEL
 10
556.739124774279
 20
403.923938501208
 30
0.0
  0
VERTEX
  5
274
  8
IMPORT_-_FRONTPANEL
 10
557.7621803298346
 20
404.4883829456525
 30
0.0
  0
VERTEX
  5
275
  8
IMPORT_-_FRONTPANEL
 10
558.6794025520568
 20
405.2292162789857
 30
0.0
  0
VERTEX
  5
276
  8
IMPORT_-_FRONTPANEL
 10
559.4202358853901
 20
406.1464385012079
 30
0.0
  0
VERTEX
  5
277
  8
IMPORT_-_FRONTPANEL
 10
559.9846803298346
 20
407.1694940567635
 30
0.0
  0
VERTEX
  5
278
  8
IMPORT_-_FRONTPANEL
 10
560.3374581076124
 20
408.2983829456524
 30
0.0
  0
VERTEX
  5
279
  8
IMPORT_-_FRONTPANEL
 10
560.4432914409457
 20
409.4625496123191
 30
0.0
  0
VERTEX
  5
27A
  8
IMPORT_-_FRONTPANEL
 10
560.4432914409457
 20
564.1556051678745
 30
0.0
  0
VERTEX
  5
27B
  8
IMPORT_-_FRONTPANEL
 10
560.4432914409457
 20
576.150049612319
 30
0.0
  0
SEQEND
  5
27C
  8
IMPORT_-_FRONTPANEL
  0
POLYLINE
  5
62
  8
IMPORT_-_FRONTPANEL
 66
     1
 10
0.0
 20
0.0
 30
0.0
 70
     1
  0
VERTEX
  5
27D
  8
IMPORT_-_FRONTPANEL
 10
566.4402536916233
 20
236.8260020945118
 30
0.0
  0
VERTEX
  5
27E
  8
IMPORT_-_FRONTPANEL
 10
724.4494203582899
 20
236.8260020945118
 30
0.0
  0
VERTEX
  5
27F
  8
IMPORT_-_FRONTPANEL
 10
725.6135870249566
 20
236.931835427845
 30
0.0
  0
VERTEX
  5
280
  8
IMPORT_-_FRONTPANEL
 10
726.7424759138455
 20
237.2846132056228
 30
0.0
  0
VERTEX
  5
281
  8
IMPORT_-_FRONTPANEL
 10
727.7655314694011
 20
237.8137798722895
 30
0.0
  0
VERTEX
  5
282
  8
IMPORT_-_FRONTPANEL
 10
728.6827536916232
 20
238.5546132056228
 30
0.0
  0
VERTEX
  5
283
  8
IMPORT_-_FRONTPANEL
 10
729.4235870249566
 20
239.4718354278451
 30
0.0
  0
VERTEX
  5
284
  8
IMPORT_-_FRONTPANEL
 10
729.988031469401
 20
240.5301687611784
 30
0.0
  0
VERTEX
  5
285
  8
IMPORT_-_FRONTPANEL
 10
730.3055314694011
 20
241.6590576500672
 30
0.0
  0
VERTEX
  5
286
  8
IMPORT_-_FRONTPANEL
 10
730.4466425805122
 20
242.8232243167339
 30
0.0
  0
VERTEX
  5
287
  8
IMPORT_-_FRONTPANEL
 10
730.4466425805122
 20
397.4810020945116
 30
0.0
  0
VERTEX
  5
288
  8
IMPORT_-_FRONTPANEL
 10
730.3055314694011
 20
398.6451687611784
 30
0.0
  0
VERTEX
  5
289
  8
IMPORT_-_FRONTPANEL
 10
729.988031469401
 20
399.7740576500672
 30
0.0
  0
VERTEX
  5
28A
  8
IMPORT_-_FRONTPANEL
 10
729.4235870249566
 20
400.8323909834006
 30
0.0
  0
VERTEX
  5
28B
  8
IMPORT_-_FRONTPANEL
 10
728.6827536916232
 20
401.714335427845
 30
0.0
  0
VERTEX
  5
28C
  8
IMPORT_-_FRONTPANEL
 10
727.7655314694011
 20
402.4551687611785
 30
0.0
  0
VERTEX
  5
28D
  8
IMPORT_-_FRONTPANEL
 10
726.7424759138455
 20
403.0196132056228
 30
0.0
  0
VERTEX
  5
28E
  8
IMPORT_-_FRONTPANEL
 10
725.6135870249566
 20
403.3723909834006
 30
0.0
  0
VERTEX
  5
28F
  8
IMPORT_-_FRONTPANEL
 10
724.4494203582899
 20
403.4782243167339
 30
0.0
  0
VERTEX
  5
290
  8
IMPORT_-_FRONTPANEL
 10
566.4402536916233
 20
403.4782243167339
 30
0.0
  0
VERTEX
  5
291
  8
IMPORT_-_FRONTPANEL
 10
565.2760870249566
 20
403.3723909834006
 30
0.0
  0
VERTEX
  5
292
  8
IMPORT_-_FRONTPANEL
 10
564.1471981360678
 20
403.0196132056228
 30
0.0
  0
VERTEX
  5
293
  8
IMPORT_-_FRONTPANEL
 10
563.0888648027344
 20
402.4551687611785
 30
0.0
  0
VERTEX
  5
294
  8
IMPORT_-_FRONTPANEL
 10
562.20692035829
 20
401.714335427845
 30
0.0
  0
VERTEX
  5
295
  8
IMPORT_-_FRONTPANEL
 10
561.4308092471789
 20
400.8323909834006
 30
0.0
  0
VERTEX
  5
296
  8
IMPORT_-_FRONTPANEL
 10
560.9016425805122
 20
399.7740576500672
 30
0.0
  0
VERTEX
  5
297
  8
IMPORT_-_FRONTPANEL
 10
560.5488648027344
 20
398.6451687611784
 30
0.0
  0
VERTEX
  5
298
  8
IMPORT_-_FRONTPANEL
 10
560.4430314694011
 20
397.4810020945116
 30
0.0
  0
VERTEX
  5
299
  8
IMPORT_-_FRONTPANEL
 10
560.4430314694011
 20
242.8232243167339
 30
0.0
  0
VERTEX
  5
29A
  8
IMPORT_-_FRONTPANEL
 10
560.5488648027344
 20
241.6590576500672
 30
0.0
  0
VERTEX
  5
29B
  8
IMPORT_-_FRONTPANEL
 10
560.9016425805122
 20
240.5301687611784
 30
0.0
  0
VERTEX
  5
29C
  8
IMPORT_-_FRONTPANEL
 10
561.4308092471789
 20
239.4718354278451
 30
0.0
  0
VERTEX
  5
29D
  8
IMPORT_-_FRONTPANEL
 10
562.20692035829
 20
238.5546132056228
 30
0.0
  0
VERTEX
  5
29E
  8
IMPORT_-_FRONTPANEL
 10
563.0888648027344
 20
237.8137798722895
 30
0.0
  0
VERTEX
  5
29F
  8
IMPORT_-_FRONTPANEL
 10
564.1471981360678
 20
237.2846132056228
 30
0.0
  0
VERTEX
  5
2A0
  8
IMPORT_-_FRONTPANEL
 10
565.2760870249566
 20
236.931835427845
 30
0.0
  0
SEQEND
  5
2A1
  8
IMPORT_-_FRONTPANEL
  0
POLYLINE
  5
63
  8
IMPORT_-_FRONTPANEL
 66
     1
 10
0.0
 20
0.0
 30
0.0
 70
     1
  0
VERTEX
  5
2A2
  8
IMPORT_-_FRONTPANEL
 10
220.4358092471789
 20
242.823224316734
 30
0.0
  0
VERTEX
  5
2A3
  8
IMPORT_-_FRONTPANEL
 10
220.5416425805123
 20
241.6590576500672
 30
0.0
  0
VERTEX
  5
2A4
  8
IMPORT_-_FRONTPANEL
 10
220.8944203582901
 20
240.5301687611784
 30
0.0
  0
VERTEX
  5
2A5
  8
IMPORT_-_FRONTPANEL
 10
221.4588648027344
 20
239.4718354278451
 30
0.0
  0
VERTEX
  5
2A6
  8
IMPORT_-_FRONTPANEL
 10
222.1996981360677
 20
238.5546132056228
 30
0.0
  0
VERTEX
  5
2A7
  8
IMPORT_-_FRONTPANEL
 10
223.1169203582899
 20
237.8137798722895
 30
0.0
  0
VERTEX
  5
2A8
  8
IMPORT_-_FRONTPANEL
 10
224.1399759138455
 20
237.2846132056228
 30
0.0
  0
VERTEX
  5
2A9
  8
IMPORT_-_FRONTPANEL
 10
225.2688648027345
 20
236.931835427845
 30
0.0
  0
VERTEX
  5
2AA
  8
IMPORT_-_FRONTPANEL
 10
226.433031469401
 20
236.8260020945118
 30
0.0
  0
VERTEX
  5
2AB
  8
IMPORT_-_FRONTPANEL
 10
384.4421981360678
 20
236.8260020945118
 30
0.0
  0
VERTEX
  5
2AC
  8
IMPORT_-_FRONTPANEL
 10
385.6063648027344
 20
236.931835427845
 30
0.0
  0
VERTEX
  5
2AD
  8
IMPORT_-_FRONTPANEL
 10
386.7352536916234
 20
237.2846132056228
 30
0.0
  0
VERTEX
  5
2AE
  8
IMPORT_-_FRONTPANEL
 10
387.7583092471789
 20
237.8137798722895
 30
0.0
  0
VERTEX
  5
2AF
  8
IMPORT_-_FRONTPANEL
 10
388.6755314694011
 20
238.5546132056228
 30
0.0
  0
VERTEX
  5
2B0
  8
IMPORT_-_FRONTPANEL
 10
389.4163648027344
 20
239.4718354278451
 30
0.0
  0
VERTEX
  5
2B1
  8
IMPORT_-_FRONTPANEL
 10
389.9808092471789
 20
240.5301687611784
 30
0.0
  0
VERTEX
  5
2B2
  8
IMPORT_-_FRONTPANEL
 10
390.3335870249566
 20
241.6590576500672
 30
0.0
  0
VERTEX
  5
2B3
  8
IMPORT_-_FRONTPANEL
 10
390.43942035829
 20
242.823224316734
 30
0.0
  0
VERTEX
  5
2B4
  8
IMPORT_-_FRONTPANEL
 10
390.43942035829
 20
397.4810020945116
 30
0.0
  0
VERTEX
  5
2B5
  8
IMPORT_-_FRONTPANEL
 10
390.3335870249566
 20
398.6451687611784
 30
0.0
  0
VERTEX
  5
2B6
  8
IMPORT_-_FRONTPANEL
 10
389.9808092471789
 20
399.7740576500672
 30
0.0
  0
VERTEX
  5
2B7
  8
IMPORT_-_FRONTPANEL
 10
389.4163648027344
 20
400.8323909834006
 30
0.0
  0
VERTEX
  5
2B8
  8
IMPORT_-_FRONTPANEL
 10
388.6755314694011
 20
401.714335427845
 30
0.0
  0
VERTEX
  5
2B9
  8
IMPORT_-_FRONTPANEL
 10
387.7583092471789
 20
402.4551687611785
 30
0.0
  0
VERTEX
  5
2BA
  8
IMPORT_-_FRONTPANEL
 10
386.7352536916234
 20
403.0196132056228
 30
0.0
  0
VERTEX
  5
2BB
  8
IMPORT_-_FRONTPANEL
 10
385.6063648027344
 20
403.3723909834006
 30
0.0
  0
VERTEX
  5
2BC
  8
IMPORT_-_FRONTPANEL
 10
384.4421981360678
 20
403.4782243167339
 30
0.0
  0
VERTEX
  5
2BD
  8
IMPORT_-_FRONTPANEL
 10
226.433031469401
 20
403.4782243167339
 30
0.0
  0
VERTEX
  5
2BE
  8
IMPORT_-_FRONTPANEL
 10
225.2688648027345
 20
403.3723909834006
 30
0.0
  0
VERTEX
  5
2BF
  8
IMPORT_-_FRONTPANEL
 10
224.1399759138455
 20
403.0196132056228
 30
0.0
  0
VERTEX
  5
2C0
  8
IMPORT_-_FRONTPANEL
 10
223.1169203582899
 20
402.4551687611785
 30
0.0
  0
VERTEX
  5
2C1
  8
IMPORT_-_FRONTPANEL
 10
222.1996981360677
 20
401.714335427845
 30
0.0
  0
VERTEX
  5
2C2
  8
IMPORT_-_FRONTPANEL
 10
221.4588648027344
 20
400.8323909834006
 30
0.0
  0
VERTEX
  5
2C3
  8
IMPORT_-_FRONTPANEL
 10
220.8944203582901
 20
399.7740576500672
 30
0.0
  0
VERTEX
  5
2C4
  8
IMPORT_-_FRONTPANEL
 10
220.5416425805123
 20
398.6451687611784
 30
0.0
  0
VERTEX
  5
2C5
  8
IMPORT_-_FRONTPANEL
 10
220.4358092471789
 20
397.4810020945116
 30
0.0
  0
SEQEND
  5
2C6
  8
IMPORT_-_FRONTPANEL
  0
POLYLINE
  5
64
  8
IMPORT_-_FRONTPANEL
 66
     1
 10
0.0
 20
0.0
 30
0.0
 70
     1
  0
VERTEX
  5
2C7
  8
IMPORT_-_FRONTPANEL
 10
41.77284430365557
 20
64.14127987228954
 30
0.0
  0
VERTEX
  5
2C8
  8
IMPORT_-_FRONTPANEL
 10
41.77284430365557
 20
76.13572431673396
 30
0.0
  0
VERTEX
  5
2C9
  8
IMPORT_-_FRONTPANEL
 10
41.77284430365557
 20
230.8287798722896
 30
0.0
  0
VERTEX
  5
2CA
  8
IMPORT_-_FRONTPANEL
 10
41.88406839471827
 20
231.9929465389562
 30
0.0
  0
VERTEX
  5
2CB
  8
IMPORT_-_FRONTPANEL
 10
42.2548153649268
 20
233.1218354278451
 30
0.0
  0
VERTEX
  5
2CC
  8
IMPORT_-_FRONTPANEL
 10
42.84801051726049
 20
234.1448909834006
 30
0.0
  0
VERTEX
  5
2CD
  8
IMPORT_-_FRONTPANEL
 10
43.62657915469845
 20
235.0621132056229
 30
0.0
  0
VERTEX
  5
2CE
  8
IMPORT_-_FRONTPANEL
 10
44.5905212772409
 20
235.8029465389562
 30
0.0
  0
VERTEX
  5
2CF
  8
IMPORT_-_FRONTPANEL
 10
45.66568749084581
 20
236.3673909834007
 30
0.0
  0
VERTEX
  5
2D0
  8
IMPORT_-_FRONTPANEL
 10
46.85207779551342
 20
236.6848909834006
 30
0.0
  0
VERTEX
  5
2D1
  8
IMPORT_-_FRONTPANEL
 10
48.07554279720171
 20
236.8260020945118
 30
0.0
  0
VERTEX
  5
2D2
  8
IMPORT_-_FRONTPANEL
 10
214.1331107536325
 20
236.8260020945118
 30
0.0
  0
VERTEX
  5
2D3
  8
IMPORT_-_FRONTPANEL
 10
215.356575755321
 20
236.6848909834006
 30
0.0
  0
VERTEX
  5
2D4
  8
IMPORT_-_FRONTPANEL
 10
216.5429660599887
 20
236.3673909834006
 30
0.0
  0
VERTEX
  5
2D5
  8
IMPORT_-_FRONTPANEL
 10
217.6181322735933
 20
235.8029465389561
 30
0.0
  0
VERTEX
  5
2D6
  8
IMPORT_-_FRONTPANEL
 10
218.5820743961358
 20
235.0621132056228
 30
0.0
  0
VERTEX
  5
2D7
  8
IMPORT_-_FRONTPANEL
 10
219.3606430335738
 20
234.1448909834006
 30
0.0
  0
VERTEX
  5
2D8
  8
IMPORT_-_FRONTPANEL
 10
219.9538381859077
 20
233.1218354278451
 30
0.0
  0
VERTEX
  5
2D9
  8
IMPORT_-_FRONTPANEL
 10
220.3245851561162
 20
231.9929465389562
 30
0.0
  0
VERTEX
  5
2DA
  8
IMPORT_-_FRONTPANEL
 10
220.4358092471789
 20
230.8287798722895
 30
0.0
  0
VERTEX
  5
2DB
  8
IMPORT_-_FRONTPANEL
 10
220.4358092471789
 20
76.13572431673396
 30
0.0
  0
VERTEX
  5
2DC
  8
IMPORT_-_FRONTPANEL
 10
220.4358092471789
 20
64.14127987228954
 30
0.0
  0
SEQEND
  5
2DD
  8
IMPORT_-_FRONTPANEL
  0
POLYLINE
  5
65
  8
IMPORT_-_FRONTPANEL
 66
     1
 10
0.0
 20
0.0
 30
0.0
 70
     1
  0
VERTEX
  5
2DE
  8
IMPORT_-_FRONTPANEL
 10
730.4542575145667
 20
576.150049612319
 30
0.0
  0
VERTEX
  5
2DF
  8
IMPORT_-_FRONTPANEL
 10
730.4542575145667
 20
564.1556051678745
 30
0.0
  0
VERTEX
  5
2E0
  8
IMPORT_-_FRONTPANEL
 10
730.4542575145667
 20
409.4625496123191
 30
0.0
  0
VERTEX
  5
2E1
  8
IMPORT_-_FRONTPANEL
 10
730.5639626822624
 20
408.2983829456524
 30
0.0
  0
VERTEX
  5
2E2
  8
IMPORT_-_FRONTPANEL
 10
730.9296465745808
 20
407.1694940567635
 30
0.0
  0
VERTEX
  5
2E3
  8
IMPORT_-_FRONTPANEL
 10
731.5147408022904
 20
406.1464385012079
 30
0.0
  0
VERTEX
  5
2E4
  8
IMPORT_-_FRONTPANEL
 10
732.2826769761591
 20
405.2292162789857
 30
0.0
  0
VERTEX
  5
2E5
  8
IMPORT_-_FRONTPANEL
 10
733.2334550961873
 20
404.4883829456525
 30
0.0
  0
VERTEX
  5
2E6
  8
IMPORT_-_FRONTPANEL
 10
734.2939383839108
 20
403.923938501208
 30
0.0
  0
VERTEX
  5
2E7
  8
IMPORT_-_FRONTPANEL
 10
735.4641268393302
 20
403.6064385012079
 30
0.0
  0
VERTEX
  5
2E8
  8
IMPORT_-_FRONTPANEL
 10
736.6708836839811
 20
403.4653273900968
 30
0.0
  0
VERTEX
  5
2E9
  8
IMPORT_-_FRONTPANEL
 10
900.4606990534351
 20
403.4653273900967
 30
0.0
  0
VERTEX
  5
2EA
  8
IMPORT_-_FRONTPANEL
 10
901.667455898086
 20
403.6064385012079
 30
0.0
  0
VERTEX
  5
2EB
  8
IMPORT_-_FRONTPANEL
 10
902.8376443535053
 20
403.9239385012079
 30
0.0
  0
VERTEX
  5
2EC
  8
IMPORT_-_FRONTPANEL
 10
903.8981276412289
 20
404.4883829456523
 30
0.0
  0
VERTEX
  5
2ED
  8
IMPORT_-_FRONTPANEL
 10
904.848905761257
 20
405.2292162789856
 30
0.0
  0
VERTEX
  5
2EE
  8
IMPORT_-_FRONTPANEL
 10
905.6168419351259
 20
406.1464385012079
 30
0.0
  0
VERTEX
  5
2EF
  8
IMPORT_-_FRONTPANEL
 10
906.2019361628355
 20
407.1694940567634
 30
0.0
  0
VERTEX
  5
2F0
  8
IMPORT_-_FRONTPANEL
 10
906.5676200551541
 20
408.2983829456523
 30
0.0
  0
VERTEX
  5
2F1
  8
IMPORT_-_FRONTPANEL
 10
906.6773252228495
 20
409.462549612319
 30
0.0
  0
VERTEX
  5
2F2
  8
IMPORT_-_FRONTPANEL
 10
906.6773252228495
 20
564.1556051678745
 30
0.0
  0
VERTEX
  5
2F3
  8
IMPORT_-_FRONTPANEL
 10
906.6773252228495
 20
576.150049612319
 30
0.0
  0
SEQEND
  5
2F4
  8
IMPORT_-_FRONTPANEL
  0
POLYLINE
  5
66
  8
IMPORT_-_FRONTPANEL
 66
     1
 10
0.0
 20
0.0
 30
0.0
 70
     1
  0
VERTEX
  5
2F5
  8
IMPORT_-_FRONTPANEL
 10
900.4502536916233
 20
70.1385020945117
 30
0.0
  0
VERTEX
  5
2F6
  8
IMPORT_-_FRONTPANEL
 10
900.4502536916233
 20
76.1357243167339
 30
0.0
  0
VERTEX
  5
2F7
  8
IMPORT_-_FRONTPANEL
 10
900.4502536916233
 20
230.8287798722895
 30
0.0
  0
VERTEX
  5
2F8
  8
IMPORT_-_FRONTPANEL
 10
900.4502536916233
 20
232.5833614073924
 30
0.0
 42
-1.0
  0
VERTEX
  5
2F9
  8
IMPORT_-_FRONTPANEL
 10
904.6928943787425
 20
236.8260020945118
 30
0.0
  0
VERTEX
  5
2FA
  8
IMPORT_-_FRONTPANEL
 10
912.4446981360677
 20
236.8260020945118
 30
0.0
  0
VERTEX
  5
2FB
  8
IMPORT_-_FRONTPANEL
 10
912.4446981360677
 20
403.4782243167339
 30
0.0
  0
VERTEX
  5
2FC
  8
IMPORT_-_FRONTPANEL
 10
904.6928943787425
 20
403.4782243167339
 30
0.0
 42
-1.0
  0
VERTEX
  5
2FD
  8
IMPORT_-_FRONTPANEL
 10
900.4502536916233
 20
407.7208650038532
 30
0.0
  0
VERTEX
  5
2FE
  8
IMPORT_-_FRONTPANEL
 10
900.4502536916233
 20
409.4754465389561
 30
0.0
  0
VERTEX
  5
2FF
  8
IMPORT_-_FRONTPANEL
 10
900.4502536916234
 20
564.1332243167338
 30
0.0
  0
VERTEX
  5
300
  8
IMPORT_-_FRONTPANEL
 10
900.4502536916234
 20
570.1304465389561
 30
0.0
  0
VERTEX
  5
301
  8
IMPORT_-_FRONTPANEL
 10
894.4177536916234
 20
570.1304465389561
 30
0.0
  0
VERTEX
  5
302
  8
IMPORT_-_FRONTPANEL
 10
736.4438648027344
 20
570.1304465389561
 30
0.0
  0
VERTEX
  5
303
  8
IMPORT_-_FRONTPANEL
 10
734.6892832676315
 20
570.1304465389561
 30
0.0
 42
-1.0
  0
VERTEX
  5
304
  8
IMPORT_-_FRONTPANEL
 10
730.4466425805122
 20
574.3730872260754
 30
0.0
  0
VERTEX
  5
305
  8
IMPORT_-_FRONTPANEL
 10
730.4466425805122
 20
582.1601687611783
 30
0.0
  0
VERTEX
  5
306
  8
IMPORT_-_FRONTPANEL
 10
560.4430314694011
 20
582.1601687611783
 30
0.0
  0
VERTEX
  5
307
  8
IMPORT_-_FRONTPANEL
 10
560.4430314694011
 20
574.3730872260754
 30
0.0
 42
-1.0
  0
VERTEX
  5
308
  8
IMPORT_-_FRONTPANEL
 10
556.2003907822818
 20
570.1304465389561
 30
0.0
  0
VERTEX
  5
309
  8
IMPORT_-_FRONTPANEL
 10
554.4458092471789
 20
570.1304465389561
 30
0.0
  0
VERTEX
  5
30A
  8
IMPORT_-_FRONTPANEL
 10
396.4366425805122
 20
570.1304465389561
 30
0.0
  0
VERTEX
  5
30B
  8
IMPORT_-_FRONTPANEL
 10
394.6820610454093
 20
570.1304465389561
 30
0.0
 42
-1.0
  0
VERTEX
  5
30C
  8
IMPORT_-_FRONTPANEL
 10
390.43942035829
 20
574.3730872260754
 30
0.0
  0
VERTEX
  5
30D
  8
IMPORT_-_FRONTPANEL
 10
390.43942035829
 20
582.1601687611783
 30
0.0
  0
VERTEX
  5
30E
  8
IMPORT_-_FRONTPANEL
 10
220.4358092471789
 20
582.1601687611784
 30
0.0
  0
VERTEX
  5
30F
  8
IMPORT_-_FRONTPANEL
 10
220.4358092471789
 20
574.3730872260755
 30
0.0
 42
-1.0
  0
VERTEX
  5
310
  8
IMPORT_-_FRONTPANEL
 10
216.1931685600596
 20
570.1304465389562
 30
0.0
  0
VERTEX
  5
311
  8
IMPORT_-_FRONTPANEL
 10
214.4385870249566
 20
570.1304465389562
 30
0.0
  0
VERTEX
  5
312
  8
IMPORT_-_FRONTPANEL
 10
56.42942035828992
 20
570.1304465389562
 30
0.0
  0
VERTEX
  5
313
  8
IMPORT_-_FRONTPANEL
 10
50.43219813606765
 20
570.1304465389562
 30
0.0
  0
VERTEX
  5
314
  8
IMPORT_-_FRONTPANEL
 10
50.43219813606765
 20
564.133224316734
 30
0.0
  0
VERTEX
  5
315
  8
IMPORT_-_FRONTPANEL
 10
50.43219813606765
 20
409.4754465389561
 30
0.0
  0
VERTEX
  5
316
  8
IMPORT_-_FRONTPANEL
 10
50.43219813606765
 20
407.7208650038532
 30
0.0
 42
-1.0
  0
VERTEX
  5
317
  8
IMPORT_-_FRONTPANEL
 10
46.18955744894834
 20
403.4782243167339
 30
0.0
  0
VERTEX
  5
318
  8
IMPORT_-_FRONTPANEL
 10
38.43775369162336
 20
403.4782243167339
 30
0.0
  0
VERTEX
  5
319
  8
IMPORT_-_FRONTPANEL
 10
38.43775369162336
 20
236.8260020945118
 30
0.0
  0
VERTEX
  5
31A
  8
IMPORT_-_FRONTPANEL
 10
46.18955744894834
 20
236.8260020945118
 30
0.0
 42
-1.0
  0
VERTEX
  5
31B
  8
IMPORT_-_FRONTPANEL
 10
50.43219813606765
 20
232.5833614073925
 30
0.0
  0
VERTEX
  5
31C
  8
IMPORT_-_FRONTPANEL
 10
50.43219813606765
 20
230.8287798722896
 30
0.0
  0
VERTEX
  5
31D
  8
IMPORT_-_FRONTPANEL
 10
50.43219813606765
 20
76.13572431673396
 30
0.0
  0
VERTEX
  5
31E
  8
IMPORT_-_FRONTPANEL
 10
50.43219813606765
 20
70.13850209451175
 30
0.0
  0
VERTEX
  5
31F
  8
IMPORT_-_FRONTPANEL
 10
56.42942035828992
 20
70.13850209451175
 30
0.0
  0
VERTEX
  5
320
  8
IMPORT_-_FRONTPANEL
 10
214.4385870249566
 20
70.13850209451175
 30
0.0
  0
VERTEX
  5
321
  8
IMPORT_-_FRONTPANEL
 10
216.1931685600596
 20
70.13850209451175
 30
0.0
 42
-1.0
  0
VERTEX
  5
322
  8
IMPORT_-_FRONTPANEL
 10
220.4358092471789
 20
65.89586140739249
 30
0.0
  0
VERTEX
  5
323
  8
IMPORT_-_FRONTPANEL
 10
220.4358092471789
 20
58.14405765006734
 30
0.0
  0
VERTEX
  5
324
  8
IMPORT_-_FRONTPANEL
 10
390.43942035829
 20
58.14405765006728
 30
0.0
  0
VERTEX
  5
325
  8
IMPORT_-_FRONTPANEL
 10
390.43942035829
 20
65.89586140739243
 30
0.0
 42
-1.0
  0
VERTEX
  5
326
  8
IMPORT_-_FRONTPANEL
 10
394.6820610454093
 20
70.13850209451175
 30
0.0
  0
VERTEX
  5
327
  8
IMPORT_-_FRONTPANEL
 10
396.4366425805122
 20
70.13850209451175
 30
0.0
  0
VERTEX
  5
328
  8
IMPORT_-_FRONTPANEL
 10
554.4458092471789
 20
70.13850209451175
 30
0.0
  0
VERTEX
  5
329
  8
IMPORT_-_FRONTPANEL
 10
556.2003907822818
 20
70.13850209451175
 30
0.0
 42
-1.0
  0
VERTEX
  5
32A
  8
IMPORT_-_FRONTPANEL
 10
560.4430314694011
 20
65.89586140739243
 30
0.0
  0
VERTEX
  5
32B
  8
IMPORT_-_FRONTPANEL
 10
560.4430314694011
 20
58.14405765006728
 30
0.0
  0
VERTEX
  5
32C
  8
IMPORT_-_FRONTPANEL
 10
730.4466425805122
 20
58.14405765006728
 30
0.0
  0
VERTEX
  5
32D
  8
IMPORT_-_FRONTPANEL
 10
730.4466425805122
 20
65.89586140739243
 30
0.0
 42
-1.0
  0
VERTEX
  5
32E
  8
IMPORT_-_FRONTPANEL
 10
734.6892832676315
 20
70.13850209451175
 30
0.0
  0
VERTEX
  5
32F
  8
IMPORT_-_FRONTPANEL
 10
736.4438648027344
 20
70.13850209451175
 30
0.0
  0
VERTEX
  5
330
  8
IMPORT_-_FRONTPANEL
 10
894.4177536916233
 20
70.1385020945117
 30
0.0
  0
SEQEND
  5
331
  8
IMPORT_-_FRONTPANEL
  0
POLYLINE
  5
67
  8
IMPORT_-_FRONTPANEL
 66
     1
 10
0.0
 20
0.0
 30
0.0
 70
     1
  0
VERTEX
  5
332
  8
IMPORT_-_FRONTPANEL
 10
730.4469086302613
 20
64.06704046793061
 30
0.0
  0
VERTEX
  5
333
  8
IMPORT_-_FRONTPANEL
 10
730.4469086302613
 20
76.06148491237502
 30
0.0
  0
VERTEX
  5
334
  8
IMPORT_-_FRONTPANEL
 10
730.4469086302613
 20
230.7545404679306
 30
0.0
  0
VERTEX
  5
335
  8
IMPORT_-_FRONTPANEL
 10
730.5572361467914
 20
231.9187071345973
 30
0.0
  0
VERTEX
  5
336
  8
IMPORT_-_FRONTPANEL
 10
730.9249945352242
 20
233.0475960234861
 30
0.0
  0
VERTEX
  5
337
  8
IMPORT_-_FRONTPANEL
 10
731.5134079567172
 20
234.0706515790417
 30
0.0
  0
VERTEX
  5
338
  8
IMPORT_-_FRONTPANEL
 10
732.2857005724265
 20
234.987873801264
 30
0.0
  0
VERTEX
  5
339
  8
IMPORT_-_FRONTPANEL
 10
733.2418723823525
 20
235.7287071345972
 30
0.0
  0
VERTEX
  5
33A
  8
IMPORT_-_FRONTPANEL
 10
734.3083717088082
 20
236.2931515790417
 30
0.0
  0
VERTEX
  5
33B
  8
IMPORT_-_FRONTPANEL
 10
735.4851985517942
 20
236.6106515790417
 30
0.0
  0
VERTEX
  5
33C
  8
IMPORT_-_FRONTPANEL
 10
736.698801233623
 20
236.7517626901529
 30
0.0
  0
VERTEX
  5
33D
  8
IMPORT_-_FRONTPANEL
 10
901.4177834127815
 20
236.7517626901529
 30
0.0
  0
VERTEX
  5
33E
  8
IMPORT_-_FRONTPANEL
 10
902.6313860946105
 20
236.6106515790417
 30
0.0
  0
VERTEX
  5
33F
  8
IMPORT_-_FRONTPANEL
 10
903.8082129375963
 20
236.2931515790417
 30
0.0
  0
VERTEX
  5
340
  8
IMPORT_-_FRONTPANEL
 10
904.874712264052
 20
235.7287071345972
 30
0.0
  0
VERTEX
  5
341
  8
IMPORT_-_FRONTPANEL
 10
905.830884073978
 20
234.987873801264
 30
0.0
  0
VERTEX
  5
342
  8
IMPORT_-_FRONTPANEL
 10
906.6031766896873
 20
234.0706515790417
 30
0.0
  0
VERTEX
  5
343
  8
IMPORT_-_FRONTPANEL
 10
907.1915901111804
 20
233.0475960234861
 30
0.0
  0
VERTEX
  5
344
  8
IMPORT_-_FRONTPANEL
 10
907.5593484996134
 20
231.9187071345973
 30
0.0
  0
VERTEX
  5
345
  8
IMPORT_-_FRONTPANEL
 10
907.6696760161433
 20
230.7545404679306
 30
0.0
  0
VERTEX
  5
346
  8
IMPORT_-_FRONTPANEL
 10
907.6696760161433
 20
76.06148491237502
 30
0.0
  0
VERTEX
  5
347
  8
IMPORT_-_FRONTPANEL
 10
907.6696760161433
 20
64.06704046793061
 30
0.0
  0
SEQEND
  5
348
  8
IMPORT_-_FRONTPANEL
  0
POLYLINE
  5
68
  8
IMPORT_-_FRONTPANEL
 66
     1
 10
0.0
 20
0.0
 30
0.0
 70
     1
  0
VERTEX
  5
349
  8
IMPORT_-_FRONTPANEL
 10
859.4221981360677
 20
251.1487798722894
 30
0.0
  0
VERTEX
  5
34A
  8
IMPORT_-_FRONTPANEL
 10
860.5863648027344
 20
251.2546132056228
 30
0.0
  0
VERTEX
  5
34B
  8
IMPORT_-_FRONTPANEL
 10
861.7152536916233
 20
251.6073909834006
 30
0.0
  0
VERTEX
  5
34C
  8
IMPORT_-_FRONTPANEL
 10
862.7735870249567
 20
252.1718354278451
 30
0.0
  0
VERTEX
  5
34D
  8
IMPORT_-_FRONTPANEL
 10
863.6908092471788
 20
252.9126687611783
 30
0.0
  0
VERTEX
  5
34E
  8
IMPORT_-_FRONTPANEL
 10
864.4316425805122
 20
253.8298909834006
 30
0.0
  0
VERTEX
  5
34F
  8
IMPORT_-_FRONTPANEL
 10
864.9608092471788
 20
254.8529465389562
 30
0.0
  0
VERTEX
  5
350
  8
IMPORT_-_FRONTPANEL
 10
865.3135870249566
 20
255.981835427845
 30
0.0
  0
VERTEX
  5
351
  8
IMPORT_-_FRONTPANEL
 10
865.4194203582899
 20
257.1460020945117
 30
0.0
  0
VERTEX
  5
352
  8
IMPORT_-_FRONTPANEL
 10
865.4194203582899
 20
383.1582243167339
 30
0.0
  0
VERTEX
  5
353
  8
IMPORT_-_FRONTPANEL
 10
865.3135870249566
 20
384.3223909834005
 30
0.0
  0
VERTEX
  5
354
  8
IMPORT_-_FRONTPANEL
 10
864.9608092471788
 20
385.4512798722894
 30
0.0
  0
VERTEX
  5
355
  8
IMPORT_-_FRONTPANEL
 10
864.4316425805122
 20
386.4743354278449
 30
0.0
  0
VERTEX
  5
356
  8
IMPORT_-_FRONTPANEL
 10
863.6908092471788
 20
387.3915576500673
 30
0.0
  0
VERTEX
  5
357
  8
IMPORT_-_FRONTPANEL
 10
862.7735870249567
 20
388.1323909834006
 30
0.0
  0
VERTEX
  5
358
  8
IMPORT_-_FRONTPANEL
 10
861.7152536916233
 20
388.696835427845
 30
0.0
  0
VERTEX
  5
359
  8
IMPORT_-_FRONTPANEL
 10
860.5863648027344
 20
389.0496132056228
 30
0.0
  0
VERTEX
  5
35A
  8
IMPORT_-_FRONTPANEL
 10
859.4221981360677
 20
389.1554465389561
 30
0.0
  0
VERTEX
  5
35B
  8
IMPORT_-_FRONTPANEL
 10
783.4338648027344
 20
389.1554465389561
 30
0.0
  0
VERTEX
  5
35C
  8
IMPORT_-_FRONTPANEL
 10
782.2696981360677
 20
389.0496132056228
 30
0.0
  0
VERTEX
  5
35D
  8
IMPORT_-_FRONTPANEL
 10
781.1408092471788
 20
388.696835427845
 30
0.0
  0
VERTEX
  5
35E
  8
IMPORT_-_FRONTPANEL
 10
780.0824759138454
 20
388.1323909834006
 30
0.0
  0
VERTEX
  5
35F
  8
IMPORT_-_FRONTPANEL
 10
779.2005314694011
 20
387.3915576500673
 30
0.0
  0
VERTEX
  5
360
  8
IMPORT_-_FRONTPANEL
 10
778.4596981360678
 20
386.4743354278449
 30
0.0
  0
VERTEX
  5
361
  8
IMPORT_-_FRONTPANEL
 10
777.8952536916233
 20
385.4512798722894
 30
0.0
  0
VERTEX
  5
362
  8
IMPORT_-_FRONTPANEL
 10
777.5424759138455
 20
384.3223909834005
 30
0.0
  0
VERTEX
  5
363
  8
IMPORT_-_FRONTPANEL
 10
777.4366425805122
 20
383.1582243167339
 30
0.0
  0
VERTEX
  5
364
  8
IMPORT_-_FRONTPANEL
 10
777.4366425805122
 20
257.1460020945117
 30
0.0
  0
VERTEX
  5
365
  8
IMPORT_-_FRONTPANEL
 10
777.5424759138455
 20
255.981835427845
 30
0.0
  0
VERTEX
  5
366
  8
IMPORT_-_FRONTPANEL
 10
777.8952536916233
 20
254.8529465389562
 30
0.0
  0
VERTEX
  5
367
  8
IMPORT_-_FRONTPANEL
 10
778.4596981360678
 20
253.8298909834006
 30
0.0
  0
VERTEX
  5
368
  8
IMPORT_-_FRONTPANEL
 10
779.2005314694011
 20
252.9126687611783
 30
0.0
  0
VERTEX
  5
369
  8
IMPORT_-_FRONTPANEL
 10
780.0824759138454
 20
252.1718354278451
 30
0.0
  0
VERTEX
  5
36A
  8
IMPORT_-_FRONTPANEL
 10
781.1408092471788
 20
251.6073909834006
 30
0.0
  0
VERTEX
  5
36B
  8
IMPORT_-_FRONTPANEL
 10
782.2696981360677
 20
251.2546132056228
 30
0.0
  0
VERTEX
  5
36C
  8
IMPORT_-_FRONTPANEL
 10
783.4338648027344
 20
251.1487798722894
 30
0.0
  0
SEQEND
  5
36D
  8
IMPORT_-_FRONTPANEL
  0
POLYLINE
  5
69
  8
IMPORT_-_FRONTPANEL
 66
     1
 10
0.0
 20
0.0
 30
0.0
 70
     1
  0
VERTEX
  5
36E
  8
IMPORT_-_FRONTPANEL
 10
871.7498604910379
 20
244.6516132056228
 30
0.0
  0
VERTEX
  5
36F
  8
IMPORT_-_FRONTPANEL
 10
871.7498604910379
 20
395.6526132056229
 30
0.0
  0
VERTEX
  5
370
  8
IMPORT_-_FRONTPANEL
 10
771.1062024477641
 20
395.6526132056229
 30
0.0
  0
VERTEX
  5
371
  8
IMPORT_-_FRONTPANEL
 10
771.1062024477641
 20
244.6516132056228
 30
0.0
  0
SEQEND
  5
372
  8
IMPORT_-_FRONTPANEL
  0
POLYLINE
  5
6A
  8
IMPORT_-_FRONTPANEL
 66
     1
 10
0.0
 20
0.0
 30
0.0
 70
     1
  0
VERTEX
  5
373
  8
IMPORT_-_FRONTPANEL
 10
861.6647412490304
 20
253.8471176806844
 30
0.0
  0
VERTEX
  5
374
  8
IMPORT_-_FRONTPANEL
 10
862.2686156329603
 20
254.3348623753969
 30
0.0
  0
VERTEX
  5
375
  8
IMPORT_-_FRONTPANEL
 10
862.7483593374513
 20
254.9288307714336
 30
0.0
  0
VERTEX
  5
376
  8
IMPORT_-_FRONTPANEL
 10
863.1040188884324
 20
255.6164392366635
 30
0.0
  0
VERTEX
  5
377
  8
IMPORT_-_FRONTPANEL
 10
863.3410870007671
 20
256.3750571961345
 30
0.0
  0
VERTEX
  5
378
  8
IMPORT_-_FRONTPANEL
 10
863.4194203582899
 20
257.2367241288862
 30
0.0
  0
VERTEX
  5
379
  8
IMPORT_-_FRONTPANEL
 10
863.4194203582899
 20
383.0675022823594
 30
0.0
  0
VERTEX
  5
37A
  8
IMPORT_-_FRONTPANEL
 10
863.3410870007671
 20
383.929169215111
 30
0.0
  0
VERTEX
  5
37B
  8
IMPORT_-_FRONTPANEL
 10
863.1040188884324
 20
384.6877871745821
 30
0.0
  0
VERTEX
  5
37C
  8
IMPORT_-_FRONTPANEL
 10
862.7483593374513
 20
385.375395639812
 30
0.0
  0
VERTEX
  5
37D
  8
IMPORT_-_FRONTPANEL
 10
862.2686156329603
 20
385.9693640358486
 30
0.0
  0
VERTEX
  5
37E
  8
IMPORT_-_FRONTPANEL
 10
861.6647412490304
 20
386.4571087305611
 30
0.0
  0
VERTEX
  5
37F
  8
IMPORT_-_FRONTPANEL
 10
860.9396242279856
 20
386.8438378084518
 30
0.0
  0
VERTEX
  5
380
  8
IMPORT_-_FRONTPANEL
 10
860.1931430344449
 20
387.0771131814332
 30
0.0
  0
VERTEX
  5
381
  8
IMPORT_-_FRONTPANEL
 10
859.3314761016932
 20
387.1554465389561
 30
0.0
  0
VERTEX
  5
382
  8
IMPORT_-_FRONTPANEL
 10
783.5245868371089
 20
387.1554465389561
 30
0.0
  0
VERTEX
  5
383
  8
IMPORT_-_FRONTPANEL
 10
782.6629199043573
 20
387.0771131814332
 30
0.0
  0
VERTEX
  5
384
  8
IMPORT_-_FRONTPANEL
 10
781.9164387108165
 20
386.8438378084518
 30
0.0
  0
VERTEX
  5
385
  8
IMPORT_-_FRONTPANEL
 10
781.2084729837487
 20
386.4662560873489
 30
0.0
  0
VERTEX
  5
386
  8
IMPORT_-_FRONTPANEL
 10
780.6349428017093
 20
385.9844907344358
 30
0.0
  0
VERTEX
  5
387
  8
IMPORT_-_FRONTPANEL
 10
780.1259779064753
 20
385.3543437212891
 30
0.0
  0
VERTEX
  5
388
  8
IMPORT_-_FRONTPANEL
 10
779.7439730107413
 20
384.6619598477711
 30
0.0
  0
VERTEX
  5
389
  8
IMPORT_-_FRONTPANEL
 10
779.514975938035
 20
383.929169215111
 30
0.0
  0
VERTEX
  5
38A
  8
IMPORT_-_FRONTPANEL
 10
779.4366425805122
 20
383.0675022823594
 30
0.0
  0
VERTEX
  5
38B
  8
IMPORT_-_FRONTPANEL
 10
779.4366425805122
 20
257.2367241288862
 30
0.0
  0
VERTEX
  5
38C
  8
IMPORT_-_FRONTPANEL
 10
779.514975938035
 20
256.3750571961345
 30
0.0
  0
VERTEX
  5
38D
  8
IMPORT_-_FRONTPANEL
 10
779.7439730107412
 20
255.6422665634745
 30
0.0
  0
VERTEX
  5
38E
  8
IMPORT_-_FRONTPANEL
 10
780.1259779064753
 20
254.9498826899566
 30
0.0
  0
VERTEX
  5
38F
  8
IMPORT_-_FRONTPANEL
 10
780.6349428017093
 20
254.3197356768097
 30
0.0
  0
VERTEX
  5
390
  8
IMPORT_-_FRONTPANEL
 10
781.2084729837487
 20
253.8379703238967
 30
0.0
  0
VERTEX
  5
391
  8
IMPORT_-_FRONTPANEL
 10
781.9164387108165
 20
253.4603886027938
 30
0.0
  0
VERTEX
  5
392
  8
IMPORT_-_FRONTPANEL
 10
782.6629199043573
 20
253.2271132298124
 30
0.0
  0
VERTEX
  5
393
  8
IMPORT_-_FRONTPANEL
 10
783.5245868371089
 20
253.1487798722894
 30
0.0
  0
VERTEX
  5
394
  8
IMPORT_-_FRONTPANEL
 10
859.3314761016932
 20
253.1487798722894
 30
0.0
  0
VERTEX
  5
395
  8
IMPORT_-_FRONTPANEL
 10
860.1931430344448
 20
253.2271132298124
 30
0.0
  0
VERTEX
  5
396
  8
IMPORT_-_FRONTPANEL
 10
860.9396242279856
 20
253.4603886027938
 30
0.0
  0
SEQEND
  5
397
  8
IMPORT_-_FRONTPANEL
  0
POLYLINE
  5
6B
  8
IMPORT_-_FRONTPANEL
 66
     1
 10
0.0
 20
0.0
 30
0.0
 70
     1
  0
VERTEX
  5
398
  8
IMPORT_-_FRONTPANEL
 10
43.49835507153921
 20
576.1500496123191
 30
0.0
  0
VERTEX
  5
399
  8
IMPORT_-_FRONTPANEL
 10
43.49835507153921
 20
564.1556051678746
 30
0.0
  0
VERTEX
  5
39A
  8
IMPORT_-_FRONTPANEL
 10
43.49835507153921
 20
409.4625496123191
 30
0.0
  0
VERTEX
  5
39B
  8
IMPORT_-_FRONTPANEL
 10
43.60850497038291
 20
408.2983829456524
 30
0.0
  0
VERTEX
  5
39C
  8
IMPORT_-_FRONTPANEL
 10
43.97567129986123
 20
407.1694940567635
 30
0.0
  0
VERTEX
  5
39D
  8
IMPORT_-_FRONTPANEL
 10
44.56313742702673
 20
406.1464385012079
 30
0.0
  0
VERTEX
  5
39E
  8
IMPORT_-_FRONTPANEL
 10
45.33418671893128
 20
405.2292162789857
 30
0.0
  0
VERTEX
  5
39F
  8
IMPORT_-_FRONTPANEL
 10
46.28881917557533
 20
404.4883829456525
 30
0.0
  0
VERTEX
  5
3A0
  8
IMPORT_-_FRONTPANEL
 10
47.3536015310624
 20
403.923938501208
 30
0.0
  0
VERTEX
  5
3A1
  8
IMPORT_-_FRONTPANEL
 10
48.52853378539362
 20
403.6064385012079
 30
0.0
  0
VERTEX
  5
3A2
  8
IMPORT_-_FRONTPANEL
 10
49.74018267267184
 20
403.4653273900968
 30
0.0
  0
VERTEX
  5
3A3
  8
IMPORT_-_FRONTPANEL
 10
214.1939816460463
 20
403.4653273900968
 30
0.0
  0
VERTEX
  5
3A4
  8
IMPORT_-_FRONTPANEL
 10
215.4056305333249
 20
403.6064385012079
 30
0.0
  0
VERTEX
  5
3A5
  8
IMPORT_-_FRONTPANEL
 10
216.5805627876557
 20
403.923938501208
 30
0.0
  0
VERTEX
  5
3A6
  8
IMPORT_-_FRONTPANEL
 10
217.645345143143
 20
404.4883829456525
 30
0.0
  0
VERTEX
  5
3A7
  8
IMPORT_-_FRONTPANEL
 10
218.5999775997868
 20
405.2292162789857
 30
0.0
  0
VERTEX
  5
3A8
  8
IMPORT_-_FRONTPANEL
 10
219.3710268916914
 20
406.1464385012079
 30
0.0
  0
VERTEX
  5
3A9
  8
IMPORT_-_FRONTPANEL
 10
219.9584930188571
 20
407.1694940567635
 30
0.0
  0
VERTEX
  5
3AA
  8
IMPORT_-_FRONTPANEL
 10
220.3256593483354
 20
408.2983829456524
 30
0.0
  0
VERTEX
  5
3AB
  8
IMPORT_-_FRONTPANEL
 10
220.4358092471789
 20
409.4625496123191
 30
0.0
  0
VERTEX
  5
3AC
  8
IMPORT_-_FRONTPANEL
 10
220.4358092471789
 20
564.1556051678746
 30
0.0
  0
VERTEX
  5
3AD
  8
IMPORT_-_FRONTPANEL
 10
220.4358092471789
 20
576.1500496123191
 30
0.0
  0
SEQEND
  5
3AE
  8
IMPORT_-_FRONTPANEL
  0
POLYLINE
  5
6D
  8
IMPORT_-_BACKPANEL
 66
     1
 10
0.0
 20
0.0
 30
0.0
  0
VERTEX
  5
3AF
  8
IMPORT_-_BACKPANEL
 10
900.8408780760622
 20
1163.161249999999
 30
0.0
  0
VERTEX
  5
3B0
  8
IMPORT_-_BACKPANEL
 10
900.6997669649509
 20
1164.325416666665
 30
0.0
  0
VERTEX
  5
3B1
  8
IMPORT_-_BACKPANEL
 10
900.382266964951
 20
1165.454305555554
 30
0.0
  0
VERTEX
  5
3B2
  8
IMPORT_-_BACKPANEL
 10
899.8178225205065
 20
1166.512638888887
 30
0.0
  0
VERTEX
  5
3B3
  8
IMPORT_-_BACKPANEL
 10
899.0769891871732
 20
1167.42986111111
 30
0.0
  0
VERTEX
  5
3B4
  8
IMPORT_-_BACKPANEL
 10
898.1597669649509
 20
1168.170694444443
 30
0.0
  0
VERTEX
  5
3B5
  8
IMPORT_-_BACKPANEL
 10
897.1367114093955
 20
1168.69986111111
 30
0.0
  0
VERTEX
  5
3B6
  8
IMPORT_-_BACKPANEL
 10
896.0078225205066
 20
1169.052638888887
 30
0.0
  0
VERTEX
  5
3B7
  8
IMPORT_-_BACKPANEL
 10
894.8083780760621
 20
1169.158472222221
 30
0.0
  0
SEQEND
  5
3B8
  8
IMPORT_-_BACKPANEL
  0
POLYLINE
  5
6E
  8
IMPORT_-_BACKPANEL
 66
     1
 10
0.0
 20
0.0
 30
0.0
  0
VERTEX
  5
3B9
  8
IMPORT_-_BACKPANEL
 10
736.8344891871732
 20
1169.158472222221
 30
0.0
  0
VERTEX
  5
3BA
  8
IMPORT_-_BACKPANEL
 10
735.6703225205065
 20
1169.052638888887
 30
0.0
  0
VERTEX
  5
3BB
  8
IMPORT_-_BACKPANEL
 10
734.5414336316176
 20
1168.69986111111
 30
0.0
  0
VERTEX
  5
3BC
  8
IMPORT_-_BACKPANEL
 10
733.4831002982842
 20
1168.170694444443
 30
0.0
  0
VERTEX
  5
3BD
  8
IMPORT_-_BACKPANEL
 10
732.5658780760621
 20
1167.42986111111
 30
0.0
  0
VERTEX
  5
3BE
  8
IMPORT_-_BACKPANEL
 10
731.8250447427288
 20
1166.512638888887
 30
0.0
  0
VERTEX
  5
3BF
  8
IMPORT_-_BACKPANEL
 10
731.2958780760621
 20
1165.454305555554
 30
0.0
  0
VERTEX
  5
3C0
  8
IMPORT_-_BACKPANEL
 10
730.9431002982842
 20
1164.325416666665
 30
0.0
  0
VERTEX
  5
3C1
  8
IMPORT_-_BACKPANEL
 10
730.8372669649509
 20
1163.161249999999
 30
0.0
  0
SEQEND
  5
3C2
  8
IMPORT_-_BACKPANEL
  0
POLYLINE
  5
6F
  8
IMPORT_-_BACKPANEL
 66
     1
 10
0.0
 20
0.0
 30
0.0
  0
VERTEX
  5
3C3
  8
IMPORT_-_BACKPANEL
 10
730.8372669649509
 20
1163.161249999999
 30
0.0
  0
VERTEX
  5
3C4
  8
IMPORT_-_BACKPANEL
 10
730.8372669649509
 20
1008.50347222222
 30
0.0
  0
SEQEND
  5
3C5
  8
IMPORT_-_BACKPANEL
  0
POLYLINE
  5
70
  8
IMPORT_-_BACKPANEL
 66
     1
 10
0.0
 20
0.0
 30
0.0
  0
VERTEX
  5
3C6
  8
IMPORT_-_BACKPANEL
 10
730.8372669649509
 20
1008.50347222222
 30
0.0
  0
VERTEX
  5
3C7
  8
IMPORT_-_BACKPANEL
 10
730.9431002982842
 20
1007.339305555553
 30
0.0
  0
VERTEX
  5
3C8
  8
IMPORT_-_BACKPANEL
 10
731.2958780760621
 20
1006.210416666664
 30
0.0
  0
VERTEX
  5
3C9
  8
IMPORT_-_BACKPANEL
 10
731.8250447427288
 20
1005.187361111109
 30
0.0
  0
VERTEX
  5
3CA
  8
IMPORT_-_BACKPANEL
 10
732.5658780760621
 20
1004.270138888887
 30
0.0
  0
VERTEX
  5
3CB
  8
IMPORT_-_BACKPANEL
 10
733.4831002982842
 20
1003.529305555553
 30
0.0
  0
VERTEX
  5
3CC
  8
IMPORT_-_BACKPANEL
 10
734.5414336316176
 20
1002.964861111109
 30
0.0
  0
VERTEX
  5
3CD
  8
IMPORT_-_BACKPANEL
 10
735.6703225205065
 20
1002.612083333331
 30
0.0
  0
VERTEX
  5
3CE
  8
IMPORT_-_BACKPANEL
 10
736.8344891871732
 20
1002.506249999998
 30
0.0
  0
SEQEND
  5
3CF
  8
IMPORT_-_BACKPANEL
  0
POLYLINE
  5
71
  8
IMPORT_-_BACKPANEL
 66
     1
 10
0.0
 20
0.0
 30
0.0
  0
VERTEX
  5
3D0
  8
IMPORT_-_BACKPANEL
 10
736.8344891871732
 20
1002.506249999998
 30
0.0
  0
VERTEX
  5
3D1
  8
IMPORT_-_BACKPANEL
 10
894.8083780760621
 20
1002.506249999998
 30
0.0
  0
SEQEND
  5
3D2
  8
IMPORT_-_BACKPANEL
  0
POLYLINE
  5
72
  8
IMPORT_-_BACKPANEL
 66
     1
 10
0.0
 20
0.0
 30
0.0
  0
VERTEX
  5
3D3
  8
IMPORT_-_BACKPANEL
 10
894.8083780760621
 20
1002.506249999998
 30
0.0
  0
VERTEX
  5
3D4
  8
IMPORT_-_BACKPANEL
 10
896.0078225205066
 20
1002.612083333331
 30
0.0
  0
VERTEX
  5
3D5
  8
IMPORT_-_BACKPANEL
 10
897.1367114093955
 20
1002.964861111109
 30
0.0
  0
VERTEX
  5
3D6
  8
IMPORT_-_BACKPANEL
 10
898.1597669649509
 20
1003.529305555553
 30
0.0
  0
VERTEX
  5
3D7
  8
IMPORT_-_BACKPANEL
 10
899.0769891871732
 20
1004.270138888887
 30
0.0
  0
VERTEX
  5
3D8
  8
IMPORT_-_BACKPANEL
 10
899.8178225205065
 20
1005.187361111109
 30
0.0
  0
VERTEX
  5
3D9
  8
IMPORT_-_BACKPANEL
 10
900.382266964951
 20
1006.210416666664
 30
0.0
  0
VERTEX
  5
3DA
  8
IMPORT_-_BACKPANEL
 10
900.6997669649509
 20
1007.339305555553
 30
0.0
  0
VERTEX
  5
3DB
  8
IMPORT_-_BACKPANEL
 10
900.8408780760622
 20
1008.50347222222
 30
0.0
  0
SEQEND
  5
3DC
  8
IMPORT_-_BACKPANEL
  0
POLYLINE
  5
73
  8
IMPORT_-_BACKPANEL
 66
     1
 10
0.0
 20
0.0
 30
0.0
  0
VERTEX
  5
3DD
  8
IMPORT_-_BACKPANEL
 10
900.8408780760622
 20
829.8568055555543
 30
0.0
  0
VERTEX
  5
3DE
  8
IMPORT_-_BACKPANEL
 10
900.6997669649509
 20
831.020972222221
 30
0.0
  0
VERTEX
  5
3DF
  8
IMPORT_-_BACKPANEL
 10
900.382266964951
 20
832.1498611111099
 30
0.0
  0
VERTEX
  5
3E0
  8
IMPORT_-_BACKPANEL
 10
899.8178225205065
 20
833.1729166666654
 30
0.0
  0
VERTEX
  5
3E1
  8
IMPORT_-_BACKPANEL
 10
899.0769891871732
 20
834.0901388888876
 30
0.0
  0
VERTEX
  5
3E2
  8
IMPORT_-_BACKPANEL
 10
898.1597669649509
 20
834.8309722222209
 30
0.0
  0
VERTEX
  5
3E3
  8
IMPORT_-_BACKPANEL
 10
897.1367114093955
 20
835.3954166666654
 30
0.0
  0
VERTEX
  5
3E4
  8
IMPORT_-_BACKPANEL
 10
896.0078225205066
 20
835.7129166666654
 30
0.0
  0
VERTEX
  5
3E5
  8
IMPORT_-_BACKPANEL
 10
894.8083780760621
 20
835.8540277777765
 30
0.0
  0
SEQEND
  5
3E6
  8
IMPORT_-_BACKPANEL
  0
POLYLINE
  5
74
  8
IMPORT_-_BACKPANEL
 66
     1
 10
0.0
 20
0.0
 30
0.0
  0
VERTEX
  5
3E7
  8
IMPORT_-_BACKPANEL
 10
894.8083780760621
 20
835.8540277777765
 30
0.0
  0
VERTEX
  5
3E8
  8
IMPORT_-_BACKPANEL
 10
736.8344891871732
 20
835.8540277777765
 30
0.0
  0
SEQEND
  5
3E9
  8
IMPORT_-_BACKPANEL
  0
POLYLINE
  5
75
  8
IMPORT_-_BACKPANEL
 66
     1
 10
0.0
 20
0.0
 30
0.0
  0
VERTEX
  5
3EA
  8
IMPORT_-_BACKPANEL
 10
736.8344891871732
 20
835.8540277777765
 30
0.0
  0
VERTEX
  5
3EB
  8
IMPORT_-_BACKPANEL
 10
735.6703225205065
 20
835.7129166666654
 30
0.0
  0
VERTEX
  5
3EC
  8
IMPORT_-_BACKPANEL
 10
734.5414336316176
 20
835.3954166666654
 30
0.0
  0
VERTEX
  5
3ED
  8
IMPORT_-_BACKPANEL
 10
733.4831002982842
 20
834.8309722222209
 30
0.0
  0
VERTEX
  5
3EE
  8
IMPORT_-_BACKPANEL
 10
732.5658780760621
 20
834.0901388888876
 30
0.0
  0
VERTEX
  5
3EF
  8
IMPORT_-_BACKPANEL
 10
731.8250447427288
 20
833.1729166666654
 30
0.0
  0
VERTEX
  5
3F0
  8
IMPORT_-_BACKPANEL
 10
731.2958780760621
 20
832.1498611111099
 30
0.0
  0
VERTEX
  5
3F1
  8
IMPORT_-_BACKPANEL
 10
730.9431002982842
 20
831.020972222221
 30
0.0
  0
VERTEX
  5
3F2
  8
IMPORT_-_BACKPANEL
 10
730.8372669649509
 20
829.8568055555543
 30
0.0
  0
SEQEND
  5
3F3
  8
IMPORT_-_BACKPANEL
  0
POLYLINE
  5
76
  8
IMPORT_-_BACKPANEL
 66
     1
 10
0.0
 20
0.0
 30
0.0
  0
VERTEX
  5
3F4
  8
IMPORT_-_BACKPANEL
 10
730.8372669649509
 20
829.8568055555543
 30
0.0
  0
VERTEX
  5
3F5
  8
IMPORT_-_BACKPANEL
 10
730.8372669649509
 20
675.1637499999996
 30
0.0
  0
SEQEND
  5
3F6
  8
IMPORT_-_BACKPANEL
  0
POLYLINE
  5
77
  8
IMPORT_-_BACKPANEL
 66
     1
 10
0.0
 20
0.0
 30
0.0
  0
VERTEX
  5
3F7
  8
IMPORT_-_BACKPANEL
 10
730.8372669649509
 20
675.1637499999996
 30
0.0
  0
VERTEX
  5
3F8
  8
IMPORT_-_BACKPANEL
 10
730.9431002982842
 20
673.9995833333329
 30
0.0
  0
VERTEX
  5
3F9
  8
IMPORT_-_BACKPANEL
 10
731.2958780760621
 20
672.870694444444
 30
0.0
  0
VERTEX
  5
3FA
  8
IMPORT_-_BACKPANEL
 10
731.8250447427288
 20
671.8476388888885
 30
0.0
  0
VERTEX
  5
3FB
  8
IMPORT_-_BACKPANEL
 10
732.5658780760621
 20
670.9304166666662
 30
0.0
  0
VERTEX
  5
3FC
  8
IMPORT_-_BACKPANEL
 10
733.4831002982842
 20
670.1895833333328
 30
0.0
  0
VERTEX
  5
3FD
  8
IMPORT_-_BACKPANEL
 10
734.5414336316176
 20
669.6251388888885
 30
0.0
  0
VERTEX
  5
3FE
  8
IMPORT_-_BACKPANEL
 10
735.6703225205065
 20
669.2723611111106
 30
0.0
  0
VERTEX
  5
3FF
  8
IMPORT_-_BACKPANEL
 10
736.8344891871732
 20
669.1665277777773
 30
0.0
  0
SEQEND
  5
400
  8
IMPORT_-_BACKPANEL
  0
POLYLINE
  5
78
  8
IMPORT_-_BACKPANEL
 66
     1
 10
0.0
 20
0.0
 30
0.0
  0
VERTEX
  5
401
  8
IMPORT_-_BACKPANEL
 10
554.8364336316176
 20
669.1665277777773
 30
0.0
  0
VERTEX
  5
402
  8
IMPORT_-_BACKPANEL
 10
556.0006002982843
 20
669.2723611111106
 30
0.0
  0
VERTEX
  5
403
  8
IMPORT_-_BACKPANEL
 10
557.1294891871732
 20
669.6251388888885
 30
0.0
  0
VERTEX
  5
404
  8
IMPORT_-_BACKPANEL
 10
558.1525447427287
 20
670.1895833333328
 30
0.0
  0
VERTEX
  5
405
  8
IMPORT_-_BACKPANEL
 10
559.069766964951
 20
670.9304166666662
 30
0.0
  0
VERTEX
  5
406
  8
IMPORT_-_BACKPANEL
 10
559.8106002982843
 20
671.8476388888885
 30
0.0
  0
VERTEX
  5
407
  8
IMPORT_-_BACKPANEL
 10
560.3750447427287
 20
672.870694444444
 30
0.0
  0
VERTEX
  5
408
  8
IMPORT_-_BACKPANEL
 10
560.6925447427287
 20
673.9995833333329
 30
0.0
  0
VERTEX
  5
409
  8
IMPORT_-_BACKPANEL
 10
560.8336558538399
 20
675.1637499999996
 30
0.0
  0
SEQEND
  5
40A
  8
IMPORT_-_BACKPANEL
  0
POLYLINE
  5
79
  8
IMPORT_-_BACKPANEL
 66
     1
 10
0.0
 20
0.0
 30
0.0
  0
VERTEX
  5
40B
  8
IMPORT_-_BACKPANEL
 10
560.8336558538399
 20
675.1637499999996
 30
0.0
  0
VERTEX
  5
40C
  8
IMPORT_-_BACKPANEL
 10
560.8336558538399
 20
829.8568055555543
 30
0.0
  0
SEQEND
  5
40D
  8
IMPORT_-_BACKPANEL
  0
POLYLINE
  5
7A
  8
IMPORT_-_BACKPANEL
 66
     1
 10
0.0
 20
0.0
 30
0.0
  0
VERTEX
  5
40E
  8
IMPORT_-_BACKPANEL
 10
560.8336558538399
 20
829.8568055555543
 30
0.0
  0
VERTEX
  5
40F
  8
IMPORT_-_BACKPANEL
 10
560.6925447427287
 20
831.020972222221
 30
0.0
  0
VERTEX
  5
410
  8
IMPORT_-_BACKPANEL
 10
560.3750447427287
 20
832.1498611111099
 30
0.0
  0
VERTEX
  5
411
  8
IMPORT_-_BACKPANEL
 10
559.8106002982843
 20
833.1729166666654
 30
0.0
  0
VERTEX
  5
412
  8
IMPORT_-_BACKPANEL
 10
559.069766964951
 20
834.0901388888876
 30
0.0
  0
VERTEX
  5
413
  8
IMPORT_-_BACKPANEL
 10
558.1525447427287
 20
834.8309722222209
 30
0.0
  0
VERTEX
  5
414
  8
IMPORT_-_BACKPANEL
 10
557.1294891871732
 20
835.3954166666654
 30
0.0
  0
VERTEX
  5
415
  8
IMPORT_-_BACKPANEL
 10
556.0006002982843
 20
835.7129166666654
 30
0.0
  0
VERTEX
  5
416
  8
IMPORT_-_BACKPANEL
 10
554.8364336316176
 20
835.8540277777765
 30
0.0
  0
SEQEND
  5
417
  8
IMPORT_-_BACKPANEL
  0
POLYLINE
  5
7B
  8
IMPORT_-_BACKPANEL
 66
     1
 10
0.0
 20
0.0
 30
0.0
  0
VERTEX
  5
418
  8
IMPORT_-_BACKPANEL
 10
554.8364336316176
 20
835.8540277777765
 30
0.0
  0
VERTEX
  5
419
  8
IMPORT_-_BACKPANEL
 10
396.8272669649509
 20
835.8540277777765
 30
0.0
  0
SEQEND
  5
41A
  8
IMPORT_-_BACKPANEL
  0
POLYLINE
  5
7C
  8
IMPORT_-_BACKPANEL
 66
     1
 10
0.0
 20
0.0
 30
0.0
  0
VERTEX
  5
41B
  8
IMPORT_-_BACKPANEL
 10
396.8272669649509
 20
835.8540277777765
 30
0.0
  0
VERTEX
  5
41C
  8
IMPORT_-_BACKPANEL
 10
395.6631002982842
 20
835.7129166666654
 30
0.0
  0
VERTEX
  5
41D
  8
IMPORT_-_BACKPANEL
 10
394.5342114093954
 20
835.3954166666654
 30
0.0
  0
VERTEX
  5
41E
  8
IMPORT_-_BACKPANEL
 10
393.475878076062
 20
834.8309722222209
 30
0.0
  0
VERTEX
  5
41F
  8
IMPORT_-_BACKPANEL
 10
392.5939336316176
 20
834.0901388888876
 30
0.0
  0
VERTEX
  5
420
  8
IMPORT_-_BACKPANEL
 10
391.8178225205065
 20
833.1729166666654
 30
0.0
  0
VERTEX
  5
421
  8
IMPORT_-_BACKPANEL
 10
391.2886558538399
 20
832.1498611111099
 30
0.0
  0
VERTEX
  5
422
  8
IMPORT_-_BACKPANEL
 10
390.9358780760622
 20
831.020972222221
 30
0.0
  0
VERTEX
  5
423
  8
IMPORT_-_BACKPANEL
 10
390.8300447427288
 20
829.8568055555543
 30
0.0
  0
SEQEND
  5
424
  8
IMPORT_-_BACKPANEL
  0
POLYLINE
  5
7D
  8
IMPORT_-_BACKPANEL
 66
     1
 10
0.0
 20
0.0
 30
0.0
  0
VERTEX
  5
425
  8
IMPORT_-_BACKPANEL
 10
390.8300447427288
 20
829.8568055555543
 30
0.0
  0
VERTEX
  5
426
  8
IMPORT_-_BACKPANEL
 10
390.8300447427288
 20
675.1637499999996
 30
0.0
  0
SEQEND
  5
427
  8
IMPORT_-_BACKPANEL
  0
POLYLINE
  5
7E
  8
IMPORT_-_BACKPANEL
 66
     1
 10
0.0
 20
0.0
 30
0.0
  0
VERTEX
  5
428
  8
IMPORT_-_BACKPANEL
 10
390.8300447427288
 20
675.1637499999996
 30
0.0
  0
VERTEX
  5
429
  8
IMPORT_-_BACKPANEL
 10
390.9358780760622
 20
673.9995833333329
 30
0.0
  0
VERTEX
  5
42A
  8
IMPORT_-_BACKPANEL
 10
391.2886558538399
 20
672.870694444444
 30
0.0
  0
VERTEX
  5
42B
  8
IMPORT_-_BACKPANEL
 10
391.8178225205065
 20
671.8476388888885
 30
0.0
  0
VERTEX
  5
42C
  8
IMPORT_-_BACKPANEL
 10
392.5939336316176
 20
670.9304166666662
 30
0.0
  0
VERTEX
  5
42D
  8
IMPORT_-_BACKPANEL
 10
393.475878076062
 20
670.1895833333328
 30
0.0
  0
VERTEX
  5
42E
  8
IMPORT_-_BACKPANEL
 10
394.5342114093954
 20
669.6251388888885
 30
0.0
  0
VERTEX
  5
42F
  8
IMPORT_-_BACKPANEL
 10
395.6631002982842
 20
669.2723611111106
 30
0.0
  0
VERTEX
  5
430
  8
IMPORT_-_BACKPANEL
 10
396.8272669649509
 20
669.1665277777773
 30
0.0
  0
SEQEND
  5
431
  8
IMPORT_-_BACKPANEL
  0
POLYLINE
  5
7F
  8
IMPORT_-_BACKPANEL
 66
     1
 10
0.0
 20
0.0
 30
0.0
  0
VERTEX
  5
432
  8
IMPORT_-_BACKPANEL
 10
220.8264336316176
 20
675.1637499999997
 30
0.0
  0
VERTEX
  5
433
  8
IMPORT_-_BACKPANEL
 10
220.8264336316176
 20
829.8568055555544
 30
0.0
  0
SEQEND
  5
434
  8
IMPORT_-_BACKPANEL
  0
POLYLINE
  5
80
  8
IMPORT_-_BACKPANEL
 66
     1
 10
0.0
 20
0.0
 30
0.0
  0
VERTEX
  5
435
  8
IMPORT_-_BACKPANEL
 10
50.82282252050641
 20
1008.50347222222
 30
0.0
  0
VERTEX
  5
436
  8
IMPORT_-_BACKPANEL
 10
50.92865585383993
 20
1007.339305555553
 30
0.0
  0
VERTEX
  5
437
  8
IMPORT_-_BACKPANEL
 10
51.28143363161757
 20
1006.210416666665
 30
0.0
  0
VERTEX
  5
438
  8
IMPORT_-_BACKPANEL
 10
51.84587807606204
 20
1005.187361111109
 30
0.0
  0
VERTEX
  5
439
  8
IMPORT_-_BACKPANEL
 10
52.58671140939532
 20
1004.270138888887
 30
0.0
  0
VERTEX
  5
43A
  8
IMPORT_-_BACKPANEL
 10
53.50393363161766
 20
1003.529305555553
 30
0.0
  0
VERTEX
  5
43B
  8
IMPORT_-_BACKPANEL
 10
54.52698918717306
 20
1002.964861111109
 30
0.0
  0
VERTEX
  5
43C
  8
IMPORT_-_BACKPANEL
 10
55.65587807606221
 20
1002.612083333331
 30
0.0
  0
VERTEX
  5
43D
  8
IMPORT_-_BACKPANEL
 10
56.82004474272867
 20
1002.506249999998
 30
0.0
  0
SEQEND
  5
43E
  8
IMPORT_-_BACKPANEL
  0
POLYLINE
  5
81
  8
IMPORT_-_BACKPANEL
 66
     1
 10
0.0
 20
0.0
 30
0.0
  0
VERTEX
  5
43F
  8
IMPORT_-_BACKPANEL
 10
56.82004474272867
 20
1002.506249999998
 30
0.0
  0
VERTEX
  5
440
  8
IMPORT_-_BACKPANEL
 10
214.8292114093955
 20
1002.506249999998
 30
0.0
  0
SEQEND
  5
441
  8
IMPORT_-_BACKPANEL
  0
POLYLINE
  5
82
  8
IMPORT_-_BACKPANEL
 66
     1
 10
0.0
 20
0.0
 30
0.0
  0
VERTEX
  5
442
  8
IMPORT_-_BACKPANEL
 10
214.8292114093955
 20
1002.506249999998
 30
0.0
  0
VERTEX
  5
443
  8
IMPORT_-_BACKPANEL
 10
215.9933780760622
 20
1002.612083333331
 30
0.0
  0
VERTEX
  5
444
  8
IMPORT_-_BACKPANEL
 10
217.1222669649511
 20
1002.964861111109
 30
0.0
  0
VERTEX
  5
445
  8
IMPORT_-_BACKPANEL
 10
218.1453225205066
 20
1003.529305555553
 30
0.0
  0
VERTEX
  5
446
  8
IMPORT_-_BACKPANEL
 10
219.0625447427288
 20
1004.270138888887
 30
0.0
  0
VERTEX
  5
447
  8
IMPORT_-_BACKPANEL
 10
219.8033780760621
 20
1005.187361111109
 30
0.0
  0
VERTEX
  5
448
  8
IMPORT_-_BACKPANEL
 10
220.3678225205067
 20
1006.210416666665
 30
0.0
  0
VERTEX
  5
449
  8
IMPORT_-_BACKPANEL
 10
220.7206002982845
 20
1007.339305555553
 30
0.0
  0
VERTEX
  5
44A
  8
IMPORT_-_BACKPANEL
 10
220.8264336316178
 20
1008.50347222222
 30
0.0
  0
SEQEND
  5
44B
  8
IMPORT_-_BACKPANEL
  0
POLYLINE
  5
83
  8
IMPORT_-_BACKPANEL
 66
     1
 10
0.0
 20
0.0
 30
0.0
  0
VERTEX
  5
44C
  8
IMPORT_-_BACKPANEL
 10
220.8264336316178
 20
1008.50347222222
 30
0.0
  0
VERTEX
  5
44D
  8
IMPORT_-_BACKPANEL
 10
220.8264336316178
 20
1163.161249999999
 30
0.0
  0
SEQEND
  5
44E
  8
IMPORT_-_BACKPANEL
  0
POLYLINE
  5
84
  8
IMPORT_-_BACKPANEL
 66
     1
 10
0.0
 20
0.0
 30
0.0
  0
VERTEX
  5
44F
  8
IMPORT_-_BACKPANEL
 10
396.827266964951
 20
1169.158472222221
 30
0.0
  0
VERTEX
  5
450
  8
IMPORT_-_BACKPANEL
 10
395.6631002982843
 20
1169.052638888887
 30
0.0
  0
VERTEX
  5
451
  8
IMPORT_-_BACKPANEL
 10
394.5342114093955
 20
1168.69986111111
 30
0.0
  0
VERTEX
  5
452
  8
IMPORT_-_BACKPANEL
 10
393.4758780760621
 20
1168.170694444443
 30
0.0
  0
VERTEX
  5
453
  8
IMPORT_-_BACKPANEL
 10
392.5939336316177
 20
1167.42986111111
 30
0.0
  0
VERTEX
  5
454
  8
IMPORT_-_BACKPANEL
 10
391.8178225205066
 20
1166.512638888887
 30
0.0
  0
VERTEX
  5
455
  8
IMPORT_-_BACKPANEL
 10
391.2886558538401
 20
1165.454305555554
 30
0.0
  0
VERTEX
  5
456
  8
IMPORT_-_BACKPANEL
 10
390.9358780760623
 20
1164.325416666665
 30
0.0
  0
VERTEX
  5
457
  8
IMPORT_-_BACKPANEL
 10
390.8300447427289
 20
1163.161249999999
 30
0.0
  0
SEQEND
  5
458
  8
IMPORT_-_BACKPANEL
  0
POLYLINE
  5
85
  8
IMPORT_-_BACKPANEL
 66
     1
 10
0.0
 20
0.0
 30
0.0
  0
VERTEX
  5
459
  8
IMPORT_-_BACKPANEL
 10
390.8300447427289
 20
1163.161249999999
 30
0.0
  0
VERTEX
  5
45A
  8
IMPORT_-_BACKPANEL
 10
390.8300447427289
 20
1008.50347222222
 30
0.0
  0
SEQEND
  5
45B
  8
IMPORT_-_BACKPANEL
  0
POLYLINE
  5
86
  8
IMPORT_-_BACKPANEL
 66
     1
 10
0.0
 20
0.0
 30
0.0
  0
VERTEX
  5
45C
  8
IMPORT_-_BACKPANEL
 10
390.8300447427289
 20
1008.50347222222
 30
0.0
  0
VERTEX
  5
45D
  8
IMPORT_-_BACKPANEL
 10
390.9358780760623
 20
1007.339305555553
 30
0.0
  0
VERTEX
  5
45E
  8
IMPORT_-_BACKPANEL
 10
391.2886558538401
 20
1006.210416666664
 30
0.0
  0
VERTEX
  5
45F
  8
IMPORT_-_BACKPANEL
 10
391.8178225205066
 20
1005.187361111109
 30
0.0
  0
VERTEX
  5
460
  8
IMPORT_-_BACKPANEL
 10
392.5939336316177
 20
1004.270138888887
 30
0.0
  0
VERTEX
  5
461
  8
IMPORT_-_BACKPANEL
 10
393.4758780760621
 20
1003.529305555553
 30
0.0
  0
VERTEX
  5
462
  8
IMPORT_-_BACKPANEL
 10
394.5342114093955
 20
1002.964861111109
 30
0.0
  0
VERTEX
  5
463
  8
IMPORT_-_BACKPANEL
 10
395.6631002982843
 20
1002.612083333331
 30
0.0
  0
VERTEX
  5
464
  8
IMPORT_-_BACKPANEL
 10
396.827266964951
 20
1002.506249999998
 30
0.0
  0
SEQEND
  5
465
  8
IMPORT_-_BACKPANEL
  0
POLYLINE
  5
87
  8
IMPORT_-_BACKPANEL
 66
     1
 10
0.0
 20
0.0
 30
0.0
  0
VERTEX
  5
466
  8
IMPORT_-_BACKPANEL
 10
396.827266964951
 20
1002.506249999998
 30
0.0
  0
VERTEX
  5
467
  8
IMPORT_-_BACKPANEL
 10
554.8364336316178
 20
1002.506249999998
 30
0.0
  0
SEQEND
  5
468
  8
IMPORT_-_BACKPANEL
  0
POLYLINE
  5
88
  8
IMPORT_-_BACKPANEL
 66
     1
 10
0.0
 20
0.0
 30
0.0
  0
VERTEX
  5
469
  8
IMPORT_-_BACKPANEL
 10
554.8364336316178
 20
1002.506249999998
 30
0.0
  0
VERTEX
  5
46A
  8
IMPORT_-_BACKPANEL
 10
556.0006002982844
 20
1002.612083333331
 30
0.0
  0
VERTEX
  5
46B
  8
IMPORT_-_BACKPANEL
 10
557.1294891871734
 20
1002.964861111109
 30
0.0
  0
VERTEX
  5
46C
  8
IMPORT_-_BACKPANEL
 10
558.1525447427288
 20
1003.529305555553
 30
0.0
  0
VERTEX
  5
46D
  8
IMPORT_-_BACKPANEL
 10
559.0697669649511
 20
1004.270138888887
 30
0.0
  0
VERTEX
  5
46E
  8
IMPORT_-_BACKPANEL
 10
559.8106002982844
 20
1005.187361111109
 30
0.0
  0
VERTEX
  5
46F
  8
IMPORT_-_BACKPANEL
 10
560.3750447427288
 20
1006.210416666664
 30
0.0
  0
VERTEX
  5
470
  8
IMPORT_-_BACKPANEL
 10
560.6925447427288
 20
1007.339305555553
 30
0.0
  0
VERTEX
  5
471
  8
IMPORT_-_BACKPANEL
 10
560.83365585384
 20
1008.50347222222
 30
0.0
  0
SEQEND
  5
472
  8
IMPORT_-_BACKPANEL
  0
POLYLINE
  5
89
  8
IMPORT_-_BACKPANEL
 66
     1
 10
0.0
 20
0.0
 30
0.0
  0
VERTEX
  5
473
  8
IMPORT_-_BACKPANEL
 10
560.83365585384
 20
1008.50347222222
 30
0.0
  0
VERTEX
  5
474
  8
IMPORT_-_BACKPANEL
 10
560.83365585384
 20
1163.161249999999
 30
0.0
  0
SEQEND
  5
475
  8
IMPORT_-_BACKPANEL
  0
POLYLINE
  5
8A
  8
IMPORT_-_BACKPANEL
 66
     1
 10
0.0
 20
0.0
 30
0.0
  0
VERTEX
  5
476
  8
IMPORT_-_BACKPANEL
 10
560.83365585384
 20
1163.161249999999
 30
0.0
  0
VERTEX
  5
477
  8
IMPORT_-_BACKPANEL
 10
560.6925447427288
 20
1164.325416666665
 30
0.0
  0
VERTEX
  5
478
  8
IMPORT_-_BACKPANEL
 10
560.3750447427288
 20
1165.454305555554
 30
0.0
  0
VERTEX
  5
479
  8
IMPORT_-_BACKPANEL
 10
559.8106002982844
 20
1166.512638888887
 30
0.0
  0
VERTEX
  5
47A
  8
IMPORT_-_BACKPANEL
 10
559.0697669649511
 20
1167.42986111111
 30
0.0
  0
VERTEX
  5
47B
  8
IMPORT_-_BACKPANEL
 10
558.1525447427288
 20
1168.170694444443
 30
0.0
  0
VERTEX
  5
47C
  8
IMPORT_-_BACKPANEL
 10
557.1294891871734
 20
1168.69986111111
 30
0.0
  0
VERTEX
  5
47D
  8
IMPORT_-_BACKPANEL
 10
556.0006002982844
 20
1169.052638888887
 30
0.0
  0
VERTEX
  5
47E
  8
IMPORT_-_BACKPANEL
 10
554.8364336316178
 20
1169.158472222221
 30
0.0
  0
SEQEND
  5
47F
  8
IMPORT_-_BACKPANEL
  0
POLYLINE
  5
8B
  8
IMPORT_-_BACKPANEL
 66
     1
 10
0.0
 20
0.0
 30
0.0
  0
VERTEX
  5
480
  8
IMPORT_-_BACKPANEL
 10
894.8083780760621
 20
669.1665277777773
 30
0.0
  0
VERTEX
  5
481
  8
IMPORT_-_BACKPANEL
 10
896.0078225205066
 20
669.2723611111106
 30
0.0
  0
VERTEX
  5
482
  8
IMPORT_-_BACKPANEL
 10
897.1367114093955
 20
669.6251388888885
 30
0.0
  0
VERTEX
  5
483
  8
IMPORT_-_BACKPANEL
 10
898.1597669649509
 20
670.1895833333328
 30
0.0
  0
VERTEX
  5
484
  8
IMPORT_-_BACKPANEL
 10
899.0769891871732
 20
670.9304166666662
 30
0.0
  0
VERTEX
  5
485
  8
IMPORT_-_BACKPANEL
 10
899.8178225205065
 20
671.8476388888885
 30
0.0
  0
VERTEX
  5
486
  8
IMPORT_-_BACKPANEL
 10
900.382266964951
 20
672.870694444444
 30
0.0
  0
VERTEX
  5
487
  8
IMPORT_-_BACKPANEL
 10
900.6997669649509
 20
673.9995833333329
 30
0.0
  0
VERTEX
  5
488
  8
IMPORT_-_BACKPANEL
 10
900.8408780760622
 20
675.1637499999996
 30
0.0
  0
SEQEND
  5
489
  8
IMPORT_-_BACKPANEL
  0
POLYLINE
  5
8C
  8
IMPORT_-_BACKPANEL
 66
     1
 10
0.0
 20
0.0
 30
0.0
 70
     1
  0
VERTEX
  5
48A
  8
IMPORT_-_BACKPANEL
 10
390.830385267885
 20
663.1693055555552
 30
0.0
  0
VERTEX
  5
48B
  8
IMPORT_-_BACKPANEL
 10
390.830385267885
 20
675.1637499999996
 30
0.0
  0
VERTEX
  5
48C
  8
IMPORT_-_BACKPANEL
 10
390.830385267885
 20
829.8568055555543
 30
0.0
  0
VERTEX
  5
48D
  8
IMPORT_-_BACKPANEL
 10
390.9362186012186
 20
831.020972222221
 30
0.0
  0
VERTEX
  5
48E
  8
IMPORT_-_BACKPANEL
 10
391.2889963789962
 20
832.1498611111099
 30
0.0
  0
VERTEX
  5
48F
  8
IMPORT_-_BACKPANEL
 10
391.8534408234407
 20
833.1729166666654
 30
0.0
  0
VERTEX
  5
490
  8
IMPORT_-_BACKPANEL
 10
392.594274156774
 20
834.0901388888876
 30
0.0
  0
VERTEX
  5
491
  8
IMPORT_-_BACKPANEL
 10
393.5114963789963
 20
834.8309722222209
 30
0.0
  0
VERTEX
  5
492
  8
IMPORT_-_BACKPANEL
 10
394.5345519345517
 20
835.3954166666654
 30
0.0
  0
VERTEX
  5
493
  8
IMPORT_-_BACKPANEL
 10
395.6634408234409
 20
835.7129166666654
 30
0.0
  0
VERTEX
  5
494
  8
IMPORT_-_BACKPANEL
 10
396.8276074901073
 20
835.8540277777765
 30
0.0
  0
VERTEX
  5
495
  8
IMPORT_-_BACKPANEL
 10
554.836774156774
 20
835.8540277777765
 30
0.0
  0
VERTEX
  5
496
  8
IMPORT_-_BACKPANEL
 10
556.0009408234407
 20
835.7129166666654
 30
0.0
  0
VERTEX
  5
497
  8
IMPORT_-_BACKPANEL
 10
557.1298297123296
 20
835.3954166666654
 30
0.0
  0
VERTEX
  5
498
  8
IMPORT_-_BACKPANEL
 10
558.1528852678852
 20
834.8309722222209
 30
0.0
  0
VERTEX
  5
499
  8
IMPORT_-_BACKPANEL
 10
559.0701074901074
 20
834.0901388888876
 30
0.0
  0
VERTEX
  5
49A
  8
IMPORT_-_BACKPANEL
 10
559.8109408234407
 20
833.1729166666654
 30
0.0
  0
VERTEX
  5
49B
  8
IMPORT_-_BACKPANEL
 10
560.3753852678852
 20
832.1498611111099
 30
0.0
  0
VERTEX
  5
49C
  8
IMPORT_-_BACKPANEL
 10
560.728163045663
 20
831.020972222221
 30
0.0
  0
VERTEX
  5
49D
  8
IMPORT_-_BACKPANEL
 10
560.8339963789963
 20
829.8568055555543
 30
0.0
  0
VERTEX
  5
49E
  8
IMPORT_-_BACKPANEL
 10
560.8339963789963
 20
675.1637499999996
 30
0.0
  0
VERTEX
  5
49F
  8
IMPORT_-_BACKPANEL
 10
560.8339963789963
 20
663.1693055555552
 30
0.0
  0
SEQEND
  5
4A0
  8
IMPORT_-_BACKPANEL
  0
POLYLINE
  5
8D
  8
IMPORT_-_BACKPANEL
 66
     1
 10
0.0
 20
0.0
 30
0.0
 70
     1
  0
VERTEX
  5
4A1
  8
IMPORT_-_BACKPANEL
 10
390.8303047142733
 20
1175.178075295584
 30
0.0
  0
VERTEX
  5
4A2
  8
IMPORT_-_BACKPANEL
 10
390.8303047142733
 20
1163.183630851139
 30
0.0
  0
VERTEX
  5
4A3
  8
IMPORT_-_BACKPANEL
 10
390.8303047142733
 20
1008.490575295583
 30
0.0
  0
VERTEX
  5
4A4
  8
IMPORT_-_BACKPANEL
 10
390.9361380476068
 20
1007.326408628916
 30
0.0
  0
VERTEX
  5
4A5
  8
IMPORT_-_BACKPANEL
 10
391.2889158253845
 20
1006.197519740027
 30
0.0
  0
VERTEX
  5
4A6
  8
IMPORT_-_BACKPANEL
 10
391.853360269829
 20
1005.174464184472
 30
0.0
  0
VERTEX
  5
4A7
  8
IMPORT_-_BACKPANEL
 10
392.5941936031622
 20
1004.25724196225
 30
0.0
  0
VERTEX
  5
4A8
  8
IMPORT_-_BACKPANEL
 10
393.5114158253846
 20
1003.516408628916
 30
0.0
  0
VERTEX
  5
4A9
  8
IMPORT_-_BACKPANEL
 10
394.53447138094
 20
1002.951964184472
 30
0.0
  0
VERTEX
  5
4AA
  8
IMPORT_-_BACKPANEL
 10
395.6633602698291
 20
1002.634464184472
 30
0.0
  0
VERTEX
  5
4AB
  8
IMPORT_-_BACKPANEL
 10
396.8275269364956
 20
1002.493353073361
 30
0.0
  0
VERTEX
  5
4AC
  8
IMPORT_-_BACKPANEL
 10
554.8366936031623
 20
1002.493353073361
 30
0.0
  0
VERTEX
  5
4AD
  8
IMPORT_-_BACKPANEL
 10
556.000860269829
 20
1002.634464184472
 30
0.0
  0
VERTEX
  5
4AE
  8
IMPORT_-_BACKPANEL
 10
557.1297491587179
 20
1002.951964184472
 30
0.0
  0
VERTEX
  5
4AF
  8
IMPORT_-_BACKPANEL
 10
558.1528047142734
 20
1003.516408628916
 30
0.0
  0
VERTEX
  5
4B0
  8
IMPORT_-_BACKPANEL
 10
559.0700269364957
 20
1004.25724196225
 30
0.0
  0
VERTEX
  5
4B1
  8
IMPORT_-_BACKPANEL
 10
559.8108602698289
 20
1005.174464184472
 30
0.0
  0
VERTEX
  5
4B2
  8
IMPORT_-_BACKPANEL
 10
560.3753047142735
 20
1006.197519740027
 30
0.0
  0
VERTEX
  5
4B3
  8
IMPORT_-_BACKPANEL
 10
560.7280824920513
 20
1007.326408628916
 30
0.0
  0
VERTEX
  5
4B4
  8
IMPORT_-_BACKPANEL
 10
560.8339158253846
 20
1008.490575295583
 30
0.0
  0
VERTEX
  5
4B5
  8
IMPORT_-_BACKPANEL
 10
560.8339158253846
 20
1163.183630851139
 30
0.0
  0
VERTEX
  5
4B6
  8
IMPORT_-_BACKPANEL
 10
560.8339158253846
 20
1175.178075295584
 30
0.0
  0
SEQEND
  5
4B7
  8
IMPORT_-_BACKPANEL
  0
POLYLINE
  5
8E
  8
IMPORT_-_BACKPANEL
 66
     1
 10
0.0
 20
0.0
 30
0.0
 70
     1
  0
VERTEX
  5
4B8
  8
IMPORT_-_BACKPANEL
 10
566.830878076062
 20
835.8540277777765
 30
0.0
  0
VERTEX
  5
4B9
  8
IMPORT_-_BACKPANEL
 10
724.8400447427289
 20
835.8540277777765
 30
0.0
  0
VERTEX
  5
4BA
  8
IMPORT_-_BACKPANEL
 10
726.0042114093953
 20
835.9598611111098
 30
0.0
  0
VERTEX
  5
4BB
  8
IMPORT_-_BACKPANEL
 10
727.1331002982843
 20
836.3126388888876
 30
0.0
  0
VERTEX
  5
4BC
  8
IMPORT_-_BACKPANEL
 10
728.1561558538399
 20
836.8418055555543
 30
0.0
  0
VERTEX
  5
4BD
  8
IMPORT_-_BACKPANEL
 10
729.073378076062
 20
837.5826388888876
 30
0.0
  0
VERTEX
  5
4BE
  8
IMPORT_-_BACKPANEL
 10
729.8142114093955
 20
838.4998611111098
 30
0.0
  0
VERTEX
  5
4BF
  8
IMPORT_-_BACKPANEL
 10
730.37865585384
 20
839.5581944444432
 30
0.0
  0
VERTEX
  5
4C0
  8
IMPORT_-_BACKPANEL
 10
730.6961558538399
 20
840.687083333332
 30
0.0
  0
VERTEX
  5
4C1
  8
IMPORT_-_BACKPANEL
 10
730.8372669649509
 20
841.8512499999987
 30
0.0
  0
VERTEX
  5
4C2
  8
IMPORT_-_BACKPANEL
 10
730.8372669649509
 20
996.5090277777755
 30
0.0
  0
VERTEX
  5
4C3
  8
IMPORT_-_BACKPANEL
 10
730.6961558538399
 20
997.6731944444423
 30
0.0
  0
VERTEX
  5
4C4
  8
IMPORT_-_BACKPANEL
 10
730.37865585384
 20
998.8020833333311
 30
0.0
  0
VERTEX
  5
4C5
  8
IMPORT_-_BACKPANEL
 10
729.8142114093955
 20
999.8604166666644
 30
0.0
  0
VERTEX
  5
4C6
  8
IMPORT_-_BACKPANEL
 10
729.073378076062
 20
1000.742361111109
 30
0.0
  0
VERTEX
  5
4C7
  8
IMPORT_-_BACKPANEL
 10
728.1561558538399
 20
1001.483194444442
 30
0.0
  0
VERTEX
  5
4C8
  8
IMPORT_-_BACKPANEL
 10
727.1331002982843
 20
1002.047638888887
 30
0.0
  0
VERTEX
  5
4C9
  8
IMPORT_-_BACKPANEL
 10
726.0042114093953
 20
1002.400416666664
 30
0.0
  0
VERTEX
  5
4CA
  8
IMPORT_-_BACKPANEL
 10
724.8400447427289
 20
1002.506249999998
 30
0.0
  0
VERTEX
  5
4CB
  8
IMPORT_-_BACKPANEL
 10
566.8308780760622
 20
1002.506249999998
 30
0.0
  0
VERTEX
  5
4CC
  8
IMPORT_-_BACKPANEL
 10
565.6667114093955
 20
1002.400416666664
 30
0.0
  0
VERTEX
  5
4CD
  8
IMPORT_-_BACKPANEL
 10
564.5378225205067
 20
1002.047638888887
 30
0.0
  0
VERTEX
  5
4CE
  8
IMPORT_-_BACKPANEL
 10
563.4794891871733
 20
1001.483194444442
 30
0.0
  0
VERTEX
  5
4CF
  8
IMPORT_-_BACKPANEL
 10
562.5975447427288
 20
1000.742361111109
 30
0.0
  0
VERTEX
  5
4D0
  8
IMPORT_-_BACKPANEL
 10
561.8214336316178
 20
999.8604166666644
 30
0.0
  0
VERTEX
  5
4D1
  8
IMPORT_-_BACKPANEL
 10
561.2922669649511
 20
998.8020833333311
 30
0.0
  0
VERTEX
  5
4D2
  8
IMPORT_-_BACKPANEL
 10
560.9394891871733
 20
997.6731944444423
 30
0.0
  0
VERTEX
  5
4D3
  8
IMPORT_-_BACKPANEL
 10
560.83365585384
 20
996.5090277777755
 30
0.0
  0
VERTEX
  5
4D4
  8
IMPORT_-_BACKPANEL
 10
560.8336558538399
 20
841.8512499999987
 30
0.0
  0
VERTEX
  5
4D5
  8
IMPORT_-_BACKPANEL
 10
560.9394891871732
 20
840.687083333332
 30
0.0
  0
VERTEX
  5
4D6
  8
IMPORT_-_BACKPANEL
 10
561.292266964951
 20
839.5581944444432
 30
0.0
  0
VERTEX
  5
4D7
  8
IMPORT_-_BACKPANEL
 10
561.8214336316177
 20
838.4998611111098
 30
0.0
  0
VERTEX
  5
4D8
  8
IMPORT_-_BACKPANEL
 10
562.5975447427287
 20
837.5826388888876
 30
0.0
  0
VERTEX
  5
4D9
  8
IMPORT_-_BACKPANEL
 10
563.4794891871732
 20
836.8418055555543
 30
0.0
  0
VERTEX
  5
4DA
  8
IMPORT_-_BACKPANEL
 10
564.5378225205066
 20
836.3126388888876
 30
0.0
  0
VERTEX
  5
4DB
  8
IMPORT_-_BACKPANEL
 10
565.6667114093954
 20
835.9598611111098
 30
0.0
  0
SEQEND
  5
4DC
  8
IMPORT_-_BACKPANEL
  0
POLYLINE
  5
8F
  8
IMPORT_-_BACKPANEL
 66
     1
 10
0.0
 20
0.0
 30
0.0
 70
     1
  0
VERTEX
  5
4DD
  8
IMPORT_-_BACKPANEL
 10
220.8264336316176
 20
841.8512499999988
 30
0.0
  0
VERTEX
  5
4DE
  8
IMPORT_-_BACKPANEL
 10
220.9322669649511
 20
840.6870833333321
 30
0.0
  0
VERTEX
  5
4DF
  8
IMPORT_-_BACKPANEL
 10
221.2850447427288
 20
839.5581944444433
 30
0.0
  0
VERTEX
  5
4E0
  8
IMPORT_-_BACKPANEL
 10
221.8494891871732
 20
838.4998611111099
 30
0.0
  0
VERTEX
  5
4E1
  8
IMPORT_-_BACKPANEL
 10
222.5903225205064
 20
837.5826388888877
 30
0.0
  0
VERTEX
  5
4E2
  8
IMPORT_-_BACKPANEL
 10
223.5075447427287
 20
836.8418055555544
 30
0.0
  0
VERTEX
  5
4E3
  8
IMPORT_-_BACKPANEL
 10
224.5306002982843
 20
836.3126388888877
 30
0.0
  0
VERTEX
  5
4E4
  8
IMPORT_-_BACKPANEL
 10
225.6594891871732
 20
835.95986111111
 30
0.0
  0
VERTEX
  5
4E5
  8
IMPORT_-_BACKPANEL
 10
226.8236558538398
 20
835.8540277777767
 30
0.0
  0
VERTEX
  5
4E6
  8
IMPORT_-_BACKPANEL
 10
384.8328225205065
 20
835.8540277777765
 30
0.0
  0
VERTEX
  5
4E7
  8
IMPORT_-_BACKPANEL
 10
385.9969891871732
 20
835.9598611111098
 30
0.0
  0
VERTEX
  5
4E8
  8
IMPORT_-_BACKPANEL
 10
387.1258780760621
 20
836.3126388888876
 30
0.0
  0
VERTEX
  5
4E9
  8
IMPORT_-_BACKPANEL
 10
388.1489336316176
 20
836.8418055555543
 30
0.0
  0
VERTEX
  5
4EA
  8
IMPORT_-_BACKPANEL
 10
389.0661558538399
 20
837.5826388888876
 30
0.0
  0
VERTEX
  5
4EB
  8
IMPORT_-_BACKPANEL
 10
389.8069891871731
 20
838.4998611111098
 30
0.0
  0
VERTEX
  5
4EC
  8
IMPORT_-_BACKPANEL
 10
390.3714336316176
 20
839.5581944444432
 30
0.0
  0
VERTEX
  5
4ED
  8
IMPORT_-_BACKPANEL
 10
390.7242114093954
 20
840.687083333332
 30
0.0
  0
VERTEX
  5
4EE
  8
IMPORT_-_BACKPANEL
 10
390.8300447427288
 20
841.8512499999987
 30
0.0
  0
VERTEX
  5
4EF
  8
IMPORT_-_BACKPANEL
 10
390.8300447427289
 20
996.5090277777755
 30
0.0
  0
VERTEX
  5
4F0
  8
IMPORT_-_BACKPANEL
 10
390.7242114093955
 20
997.6731944444423
 30
0.0
  0
VERTEX
  5
4F1
  8
IMPORT_-_BACKPANEL
 10
390.3714336316177
 20
998.8020833333311
 30
0.0
  0
VERTEX
  5
4F2
  8
IMPORT_-_BACKPANEL
 10
389.8069891871733
 20
999.8604166666644
 30
0.0
  0
VERTEX
  5
4F3
  8
IMPORT_-_BACKPANEL
 10
389.06615585384
 20
1000.742361111109
 30
0.0
  0
VERTEX
  5
4F4
  8
IMPORT_-_BACKPANEL
 10
388.1489336316178
 20
1001.483194444442
 30
0.0
  0
VERTEX
  5
4F5
  8
IMPORT_-_BACKPANEL
 10
387.1258780760622
 20
1002.047638888887
 30
0.0
  0
VERTEX
  5
4F6
  8
IMPORT_-_BACKPANEL
 10
385.9969891871733
 20
1002.400416666664
 30
0.0
  0
VERTEX
  5
4F7
  8
IMPORT_-_BACKPANEL
 10
384.8328225205066
 20
1002.506249999998
 30
0.0
  0
VERTEX
  5
4F8
  8
IMPORT_-_BACKPANEL
 10
226.8236558538399
 20
1002.506249999998
 30
0.0
  0
VERTEX
  5
4F9
  8
IMPORT_-_BACKPANEL
 10
225.6594891871733
 20
1002.400416666664
 30
0.0
  0
VERTEX
  5
4FA
  8
IMPORT_-_BACKPANEL
 10
224.5306002982844
 20
1002.047638888887
 30
0.0
  0
VERTEX
  5
4FB
  8
IMPORT_-_BACKPANEL
 10
223.5075447427288
 20
1001.483194444442
 30
0.0
  0
VERTEX
  5
4FC
  8
IMPORT_-_BACKPANEL
 10
222.5903225205066
 20
1000.742361111109
 30
0.0
  0
VERTEX
  5
4FD
  8
IMPORT_-_BACKPANEL
 10
221.8494891871733
 20
999.8604166666645
 30
0.0
  0
VERTEX
  5
4FE
  8
IMPORT_-_BACKPANEL
 10
221.2850447427289
 20
998.8020833333312
 30
0.0
  0
VERTEX
  5
4FF
  8
IMPORT_-_BACKPANEL
 10
220.9322669649512
 20
997.6731944444424
 30
0.0
  0
VERTEX
  5
500
  8
IMPORT_-_BACKPANEL
 10
220.8264336316178
 20
996.5090277777756
 30
0.0
  0
SEQEND
  5
501
  8
IMPORT_-_BACKPANEL
  0
POLYLINE
  5
90
  8
IMPORT_-_BACKPANEL
 66
     1
 10
0.0
 20
0.0
 30
0.0
 70
     1
  0
VERTEX
  5
502
  8
IMPORT_-_BACKPANEL
 10
42.16346868809433
 20
663.1693055555553
 30
0.0
  0
VERTEX
  5
503
  8
IMPORT_-_BACKPANEL
 10
42.16346868809433
 20
675.1637499999997
 30
0.0
  0
VERTEX
  5
504
  8
IMPORT_-_BACKPANEL
 10
42.16346868809433
 20
829.8568055555544
 30
0.0
  0
VERTEX
  5
505
  8
IMPORT_-_BACKPANEL
 10
42.27469277915702
 20
831.0209722222211
 30
0.0
  0
VERTEX
  5
506
  8
IMPORT_-_BACKPANEL
 10
42.64543974936555
 20
832.14986111111
 30
0.0
  0
VERTEX
  5
507
  8
IMPORT_-_BACKPANEL
 10
43.23863490169924
 20
833.1729166666655
 30
0.0
  0
VERTEX
  5
508
  8
IMPORT_-_BACKPANEL
 10
44.0172035391372
 20
834.0901388888877
 30
0.0
  0
VERTEX
  5
509
  8
IMPORT_-_BACKPANEL
 10
44.98114566167965
 20
834.830972222221
 30
0.0
  0
VERTEX
  5
50A
  8
IMPORT_-_BACKPANEL
 10
46.05631187528456
 20
835.3954166666655
 30
0.0
  0
VERTEX
  5
50B
  8
IMPORT_-_BACKPANEL
 10
47.24270217995218
 20
835.7129166666655
 30
0.0
  0
VERTEX
  5
50C
  8
IMPORT_-_BACKPANEL
 10
48.46616718164046
 20
835.8540277777767
 30
0.0
  0
VERTEX
  5
50D
  8
IMPORT_-_BACKPANEL
 10
214.5237351380713
 20
835.8540277777767
 30
0.0
  0
VERTEX
  5
50E
  8
IMPORT_-_BACKPANEL
 10
215.7472001397598
 20
835.7129166666655
 30
0.0
  0
VERTEX
  5
50F
  8
IMPORT_-_BACKPANEL
 10
216.9335904444274
 20
835.3954166666655
 30
0.0
  0
VERTEX
  5
510
  8
IMPORT_-_BACKPANEL
 10
218.0087566580321
 20
834.830972222221
 30
0.0
  0
VERTEX
  5
511
  8
IMPORT_-_BACKPANEL
 10
218.9726987805745
 20
834.0901388888877
 30
0.0
  0
VERTEX
  5
512
  8
IMPORT_-_BACKPANEL
 10
219.7512674180125
 20
833.1729166666655
 30
0.0
  0
VERTEX
  5
513
  8
IMPORT_-_BACKPANEL
 10
220.3444625703464
 20
832.14986111111
 30
0.0
  0
VERTEX
  5
514
  8
IMPORT_-_BACKPANEL
 10
220.715209540555
 20
831.0209722222211
 30
0.0
  0
VERTEX
  5
515
  8
IMPORT_-_BACKPANEL
 10
220.8264336316176
 20
829.8568055555544
 30
0.0
  0
VERTEX
  5
516
  8
IMPORT_-_BACKPANEL
 10
220.8264336316176
 20
675.1637499999997
 30
0.0
  0
VERTEX
  5
517
  8
IMPORT_-_BACKPANEL
 10
220.8264336316176
 20
663.1693055555553
 30
0.0
  0
SEQEND
  5
518
  8
IMPORT_-_BACKPANEL
  0
POLYLINE
  5
91
  8
IMPORT_-_BACKPANEL
 66
     1
 10
0.0
 20
0.0
 30
0.0
 70
     1
  0
VERTEX
  5
519
  8
IMPORT_-_BACKPANEL
 10
730.8448818990055
 20
1175.178075295584
 30
0.0
  0
VERTEX
  5
51A
  8
IMPORT_-_BACKPANEL
 10
730.8448818990055
 20
1163.183630851139
 30
0.0
  0
VERTEX
  5
51B
  8
IMPORT_-_BACKPANEL
 10
730.8448818990055
 20
1008.490575295583
 30
0.0
  0
VERTEX
  5
51C
  8
IMPORT_-_BACKPANEL
 10
730.9545870667012
 20
1007.326408628916
 30
0.0
  0
VERTEX
  5
51D
  8
IMPORT_-_BACKPANEL
 10
731.3202709590196
 20
1006.197519740027
 30
0.0
  0
VERTEX
  5
51E
  8
IMPORT_-_BACKPANEL
 10
731.9053651867291
 20
1005.174464184472
 30
0.0
  0
VERTEX
  5
51F
  8
IMPORT_-_BACKPANEL
 10
732.6733013605979
 20
1004.25724196225
 30
0.0
  0
VERTEX
  5
520
  8
IMPORT_-_BACKPANEL
 10
733.6240794806263
 20
1003.516408628916
 30
0.0
  0
VERTEX
  5
521
  8
IMPORT_-_BACKPANEL
 10
734.6845627683497
 20
1002.951964184472
 30
0.0
  0
VERTEX
  5
522
  8
IMPORT_-_BACKPANEL
 10
735.854751223769
 20
1002.634464184472
 30
0.0
  0
VERTEX
  5
523
  8
IMPORT_-_BACKPANEL
 10
737.0615080684199
 20
1002.493353073361
 30
0.0
  0
VERTEX
  5
524
  8
IMPORT_-_BACKPANEL
 10
900.8513234378738
 20
1002.493353073361
 30
0.0
  0
VERTEX
  5
525
  8
IMPORT_-_BACKPANEL
 10
902.0580802825248
 20
1002.634464184472
 30
0.0
  0
VERTEX
  5
526
  8
IMPORT_-_BACKPANEL
 10
903.2282687379441
 20
1002.951964184472
 30
0.0
  0
VERTEX
  5
527
  8
IMPORT_-_BACKPANEL
 10
904.2887520256677
 20
1003.516408628916
 30
0.0
  0
VERTEX
  5
528
  8
IMPORT_-_BACKPANEL
 10
905.2395301456959
 20
1004.25724196225
 30
0.0
  0
VERTEX
  5
529
  8
IMPORT_-_BACKPANEL
 10
906.0074663195646
 20
1005.174464184472
 30
0.0
  0
VERTEX
  5
52A
  8
IMPORT_-_BACKPANEL
 10
906.5925605472744
 20
1006.197519740027
 30
0.0
  0
VERTEX
  5
52B
  8
IMPORT_-_BACKPANEL
 10
906.9582444395928
 20
1007.326408628916
 30
0.0
  0
VERTEX
  5
52C
  8
IMPORT_-_BACKPANEL
 10
907.0679496072883
 20
1008.490575295583
 30
0.0
  0
VERTEX
  5
52D
  8
IMPORT_-_BACKPANEL
 10
907.0679496072883
 20
1163.183630851139
 30
0.0
  0
VERTEX
  5
52E
  8
IMPORT_-_BACKPANEL
 10
907.0679496072883
 20
1175.178075295584
 30
0.0
  0
SEQEND
  5
52F
  8
IMPORT_-_BACKPANEL
  0
POLYLINE
  5
92
  8
IMPORT_-_BACKPANEL
 66
     1
 10
0.0
 20
0.0
 30
0.0
 70
     1
  0
VERTEX
  5
530
  8
IMPORT_-_BACKPANEL
 10
900.8408780760622
 20
669.1665277777773
 30
0.0
  0
VERTEX
  5
531
  8
IMPORT_-_BACKPANEL
 10
900.8408780760622
 20
675.1637499999996
 30
0.0
  0
VERTEX
  5
532
  8
IMPORT_-_BACKPANEL
 10
900.8408780760622
 20
829.8568055555543
 30
0.0
  0
VERTEX
  5
533
  8
IMPORT_-_BACKPANEL
 10
900.8408780760622
 20
831.6113870906572
 30
0.0
 42
-1.0
  0
VERTEX
  5
534
  8
IMPORT_-_BACKPANEL
 10
905.0835187631815
 20
835.8540277777765
 30
0.0
  0
VERTEX
  5
535
  8
IMPORT_-_BACKPANEL
 10
912.8353225205065
 20
835.8540277777765
 30
0.0
  0
VERTEX
  5
536
  8
IMPORT_-_BACKPANEL
 10
912.8353225205065
 20
1002.506249999998
 30
0.0
  0
VERTEX
  5
537
  8
IMPORT_-_BACKPANEL
 10
905.0835187631815
 20
1002.506249999998
 30
0.0
 42
-1.0
  0
VERTEX
  5
538
  8
IMPORT_-_BACKPANEL
 10
900.8408780760622
 20
1006.748890687117
 30
0.0
  0
VERTEX
  5
539
  8
IMPORT_-_BACKPANEL
 10
900.8408780760622
 20
1008.50347222222
 30
0.0
  0
VERTEX
  5
53A
  8
IMPORT_-_BACKPANEL
 10
900.8408780760622
 20
1163.161249999999
 30
0.0
  0
VERTEX
  5
53B
  8
IMPORT_-_BACKPANEL
 10
900.8408780760622
 20
1169.158472222221
 30
0.0
  0
VERTEX
  5
53C
  8
IMPORT_-_BACKPANEL
 10
894.8083780760621
 20
1169.158472222221
 30
0.0
  0
VERTEX
  5
53D
  8
IMPORT_-_BACKPANEL
 10
736.8344891871732
 20
1169.158472222221
 30
0.0
  0
VERTEX
  5
53E
  8
IMPORT_-_BACKPANEL
 10
735.0799076520702
 20
1169.158472222221
 30
0.0
 42
-1.0
  0
VERTEX
  5
53F
  8
IMPORT_-_BACKPANEL
 10
730.8372669649509
 20
1173.40111290934
 30
0.0
  0
VERTEX
  5
540
  8
IMPORT_-_BACKPANEL
 10
730.8372669649509
 20
1181.188194444443
 30
0.0
  0
VERTEX
  5
541
  8
IMPORT_-_BACKPANEL
 10
560.83365585384
 20
1181.188194444443
 30
0.0
  0
VERTEX
  5
542
  8
IMPORT_-_BACKPANEL
 10
560.83365585384
 20
1173.40111290934
 30
0.0
 42
-1.0
  0
VERTEX
  5
543
  8
IMPORT_-_BACKPANEL
 10
556.5910151667207
 20
1169.158472222221
 30
0.0
  0
VERTEX
  5
544
  8
IMPORT_-_BACKPANEL
 10
554.8364336316178
 20
1169.158472222221
 30
0.0
  0
VERTEX
  5
545
  8
IMPORT_-_BACKPANEL
 10
396.827266964951
 20
1169.158472222221
 30
0.0
  0
VERTEX
  5
546
  8
IMPORT_-_BACKPANEL
 10
395.0726854298482
 20
1169.158472222221
 30
0.0
 42
-1.0
  0
VERTEX
  5
547
  8
IMPORT_-_BACKPANEL
 10
390.8300447427289
 20
1173.40111290934
 30
0.0
  0
VERTEX
  5
548
  8
IMPORT_-_BACKPANEL
 10
390.8300447427289
 20
1181.188194444443
 30
0.0
  0
VERTEX
  5
549
  8
IMPORT_-_BACKPANEL
 10
220.8264336316178
 20
1181.188194444443
 30
0.0
  0
VERTEX
  5
54A
  8
IMPORT_-_BACKPANEL
 10
220.8264336316178
 20
1173.40111290934
 30
0.0
 42
-1.0
  0
VERTEX
  5
54B
  8
IMPORT_-_BACKPANEL
 10
216.5837929444984
 20
1169.158472222221
 30
0.0
  0
VERTEX
  5
54C
  8
IMPORT_-_BACKPANEL
 10
214.8292114093955
 20
1169.158472222221
 30
0.0
  0
VERTEX
  5
54D
  8
IMPORT_-_BACKPANEL
 10
56.82004474272867
 20
1169.158472222221
 30
0.0
  0
VERTEX
  5
54E
  8
IMPORT_-_BACKPANEL
 10
50.82282252050641
 20
1169.158472222221
 30
0.0
  0
VERTEX
  5
54F
  8
IMPORT_-_BACKPANEL
 10
50.82282252050641
 20
1163.161249999999
 30
0.0
  0
VERTEX
  5
550
  8
IMPORT_-_BACKPANEL
 10
50.82282252050641
 20
1008.50347222222
 30
0.0
  0
VERTEX
  5
551
  8
IMPORT_-_BACKPANEL
 10
50.82282252050641
 20
1006.748890687117
 30
0.0
 42
-1.0
  0
VERTEX
  5
552
  8
IMPORT_-_BACKPANEL
 10
46.58018183338709
 20
1002.506249999998
 30
0.0
  0
VERTEX
  5
553
  8
IMPORT_-_BACKPANEL
 10
38.82837807606211
 20
1002.506249999998
 30
0.0
  0
VERTEX
  5
554
  8
IMPORT_-_BACKPANEL
 10
38.82837807606211
 20
835.8540277777767
 30
0.0
  0
VERTEX
  5
555
  8
IMPORT_-_BACKPANEL
 10
46.58018183338709
 20
835.8540277777767
 30
0.0
 42
-1.0
  0
VERTEX
  5
556
  8
IMPORT_-_BACKPANEL
 10
50.82282252050641
 20
831.6113870906573
 30
0.0
  0
VERTEX
  5
557
  8
IMPORT_-_BACKPANEL
 10
50.82282252050641
 20
829.8568055555544
 30
0.0
  0
VERTEX
  5
558
  8
IMPORT_-_BACKPANEL
 10
50.82282252050641
 20
675.1637499999997
 30
0.0
  0
VERTEX
  5
559
  8
IMPORT_-_BACKPANEL
 10
50.82282252050641
 20
669.1665277777774
 30
0.0
  0
VERTEX
  5
55A
  8
IMPORT_-_BACKPANEL
 10
56.82004474272867
 20
669.1665277777774
 30
0.0
  0
VERTEX
  5
55B
  8
IMPORT_-_BACKPANEL
 10
214.8292114093954
 20
669.1665277777774
 30
0.0
  0
VERTEX
  5
55C
  8
IMPORT_-_BACKPANEL
 10
216.5837929444983
 20
669.1665277777774
 30
0.0
 42
-1.0
  0
VERTEX
  5
55D
  8
IMPORT_-_BACKPANEL
 10
220.8264336316176
 20
664.9238870906582
 30
0.0
  0
VERTEX
  5
55E
  8
IMPORT_-_BACKPANEL
 10
220.8264336316176
 20
657.172083333333
 30
0.0
  0
VERTEX
  5
55F
  8
IMPORT_-_BACKPANEL
 10
390.8300447427288
 20
657.1720833333329
 30
0.0
  0
VERTEX
  5
560
  8
IMPORT_-_BACKPANEL
 10
390.8300447427288
 20
664.9238870906581
 30
0.0
 42
-1.0
  0
VERTEX
  5
561
  8
IMPORT_-_BACKPANEL
 10
395.0726854298481
 20
669.1665277777773
 30
0.0
  0
VERTEX
  5
562
  8
IMPORT_-_BACKPANEL
 10
396.8272669649509
 20
669.1665277777773
 30
0.0
  0
VERTEX
  5
563
  8
IMPORT_-_BACKPANEL
 10
554.8364336316176
 20
669.1665277777773
 30
0.0
  0
VERTEX
  5
564
  8
IMPORT_-_BACKPANEL
 10
556.5910151667206
 20
669.1665277777773
 30
0.0
 42
-1.0
  0
VERTEX
  5
565
  8
IMPORT_-_BACKPANEL
 10
560.8336558538399
 20
664.9238870906581
 30
0.0
  0
VERTEX
  5
566
  8
IMPORT_-_BACKPANEL
 10
560.8336558538399
 20
657.1720833333329
 30
0.0
  0
VERTEX
  5
567
  8
IMPORT_-_BACKPANEL
 10
730.8372669649509
 20
657.1720833333329
 30
0.0
  0
VERTEX
  5
568
  8
IMPORT_-_BACKPANEL
 10
730.8372669649509
 20
664.9238870906581
 30
0.0
 42
-1.0
  0
VERTEX
  5
569
  8
IMPORT_-_BACKPANEL
 10
735.0799076520702
 20
669.1665277777773
 30
0.0
  0
VERTEX
  5
56A
  8
IMPORT_-_BACKPANEL
 10
736.8344891871732
 20
669.1665277777773
 30
0.0
  0
VERTEX
  5
56B
  8
IMPORT_-_BACKPANEL
 10
894.8083780760621
 20
669.1665277777773
 30
0.0
  0
SEQEND
  5
56C
  8
IMPORT_-_BACKPANEL
  0
POLYLINE
  5
93
  8
IMPORT_-_BACKPANEL
 66
     1
 10
0.0
 20
0.0
 30
0.0
 70
     1
  0
VERTEX
  5
56D
  8
IMPORT_-_BACKPANEL
 10
730.8375330147
 20
663.0950661511963
 30
0.0
  0
VERTEX
  5
56E
  8
IMPORT_-_BACKPANEL
 10
730.8375330147
 20
675.0895105956407
 30
0.0
  0
VERTEX
  5
56F
  8
IMPORT_-_BACKPANEL
 10
730.8375330147
 20
829.7825661511954
 30
0.0
  0
VERTEX
  5
570
  8
IMPORT_-_BACKPANEL
 10
730.9478605312302
 20
830.9467328178621
 30
0.0
  0
VERTEX
  5
571
  8
IMPORT_-_BACKPANEL
 10
731.3156189196629
 20
832.075621706751
 30
0.0
  0
VERTEX
  5
572
  8
IMPORT_-_BACKPANEL
 10
731.9040323411559
 20
833.0986772623065
 30
0.0
  0
VERTEX
  5
573
  8
IMPORT_-_BACKPANEL
 10
732.6763249568653
 20
834.0158994845287
 30
0.0
  0
VERTEX
  5
574
  8
IMPORT_-_BACKPANEL
 10
733.6324967667913
 20
834.756732817862
 30
0.0
  0
VERTEX
  5
575
  8
IMPORT_-_BACKPANEL
 10
734.6989960932469
 20
835.3211772623065
 30
0.0
  0
VERTEX
  5
576
  8
IMPORT_-_BACKPANEL
 10
735.8758229362329
 20
835.6386772623065
 30
0.0
  0
VERTEX
  5
577
  8
IMPORT_-_BACKPANEL
 10
737.0894256180618
 20
835.7797883734177
 30
0.0
  0
VERTEX
  5
578
  8
IMPORT_-_BACKPANEL
 10
901.8084077972203
 20
835.7797883734177
 30
0.0
  0
VERTEX
  5
579
  8
IMPORT_-_BACKPANEL
 10
903.0220104790494
 20
835.6386772623065
 30
0.0
  0
VERTEX
  5
57A
  8
IMPORT_-_BACKPANEL
 10
904.1988373220352
 20
835.3211772623065
 30
0.0
  0
VERTEX
  5
57B
  8
IMPORT_-_BACKPANEL
 10
905.265336648491
 20
834.756732817862
 30
0.0
  0
VERTEX
  5
57C
  8
IMPORT_-_BACKPANEL
 10
906.2215084584168
 20
834.0158994845287
 30
0.0
  0
VERTEX
  5
57D
  8
IMPORT_-_BACKPANEL
 10
906.9938010741262
 20
833.0986772623065
 30
0.0
  0
VERTEX
  5
57E
  8
IMPORT_-_BACKPANEL
 10
907.5822144956192
 20
832.075621706751
 30
0.0
  0
VERTEX
  5
57F
  8
IMPORT_-_BACKPANEL
 10
907.9499728840522
 20
830.9467328178621
 30
0.0
  0
VERTEX
  5
580
  8
IMPORT_-_BACKPANEL
 10
908.060300400582
 20
829.7825661511954
 30
0.0
  0
VERTEX
  5
581
  8
IMPORT_-_BACKPANEL
 10
908.060300400582
 20
675.0895105956407
 30
0.0
  0
VERTEX
  5
582
  8
IMPORT_-_BACKPANEL
 10
908.060300400582
 20
663.0950661511963
 30
0.0
  0
SEQEND
  5
583
  8
IMPORT_-_BACKPANEL
  0
POLYLINE
  5
94
  8
IMPORT_-_BACKPANEL
 66
     1
 10
0.0
 20
0.0
 30
0.0
 70
     1
  0
VERTEX
  5
584
  8
IMPORT_-_BACKPANEL
 10
43.88897945597796
 20
1175.178075295584
 30
0.0
  0
VERTEX
  5
585
  8
IMPORT_-_BACKPANEL
 10
43.88897945597796
 20
1163.183630851139
 30
0.0
  0
VERTEX
  5
586
  8
IMPORT_-_BACKPANEL
 10
43.88897945597796
 20
1008.490575295583
 30
0.0
  0
VERTEX
  5
587
  8
IMPORT_-_BACKPANEL
 10
43.99912935482166
 20
1007.326408628916
 30
0.0
  0
VERTEX
  5
588
  8
IMPORT_-_BACKPANEL
 10
44.36629568429998
 20
1006.197519740027
 30
0.0
  0
VERTEX
  5
589
  8
IMPORT_-_BACKPANEL
 10
44.95376181146548
 20
1005.174464184472
 30
0.0
  0
VERTEX
  5
58A
  8
IMPORT_-_BACKPANEL
 10
45.72481110337003
 20
1004.25724196225
 30
0.0
  0
VERTEX
  5
58B
  8
IMPORT_-_BACKPANEL
 10
46.67944356001408
 20
1003.516408628916
 30
0.0
  0
VERTEX
  5
58C
  8
IMPORT_-_BACKPANEL
 10
47.74422591550115
 20
1002.951964184472
 30
0.0
  0
VERTEX
  5
58D
  8
IMPORT_-_BACKPANEL
 10
48.91915816983237
 20
1002.634464184472
 30
0.0
  0
VERTEX
  5
58E
  8
IMPORT_-_BACKPANEL
 10
50.13080705711059
 20
1002.493353073361
 30
0.0
  0
VERTEX
  5
58F
  8
IMPORT_-_BACKPANEL
 10
214.5846060304851
 20
1002.493353073361
 30
0.0
  0
VERTEX
  5
590
  8
IMPORT_-_BACKPANEL
 10
215.7962549177638
 20
1002.634464184472
 30
0.0
  0
VERTEX
  5
591
  8
IMPORT_-_BACKPANEL
 10
216.9711871720946
 20
1002.951964184472
 30
0.0
  0
VERTEX
  5
592
  8
IMPORT_-_BACKPANEL
 10
218.0359695275819
 20
1003.516408628916
 30
0.0
  0
VERTEX
  5
593
  8
IMPORT_-_BACKPANEL
 10
218.9906019842257
 20
1004.25724196225
 30
0.0
  0
VERTEX
  5
594
  8
IMPORT_-_BACKPANEL
 10
219.7616512761302
 20
1005.174464184472
 30
0.0
  0
VERTEX
  5
595
  8
IMPORT_-_BACKPANEL
 10
220.349117403296
 20
1006.197519740027
 30
0.0
  0
VERTEX
  5
596
  8
IMPORT_-_BACKPANEL
 10
220.7162837327743
 20
1007.326408628916
 30
0.0
  0
VERTEX
  5
597
  8
IMPORT_-_BACKPANEL
 10
220.8264336316178
 20
1008.490575295583
 30
0.0
  0
VERTEX
  5
598
  8
IMPORT_-_BACKPANEL
 10
220.8264336316178
 20
1163.183630851139
 30
0.0
  0
VERTEX
  5
599
  8
IMPORT_-_BACKPANEL
 10
220.8264336316178
 20
1175.178075295584
 30
0.0
  0
SEQEND
  5
59A
  8
IMPORT_-_BACKPANEL
  0
POLYLINE
  5
95
  8
IMPORT_-_BACKPANEL
 66
     1
 10
0.0
 20
0.0
 30
0.0
 70
     1
  0
VERTEX
  5
59B
  8
IMPORT_-_BACKPANEL
 10
816.844489187175
 20
687.1655447339754
 30
0.0
  0
VERTEX
  5
59C
  8
IMPORT_-_BACKPANEL
 10
894.8436558538415
 20
687.1655447339754
 30
0.0
  0
VERTEX
  5
59D
  8
IMPORT_-_BACKPANEL
 10
894.8436558538415
 20
785.1672114006421
 30
0.0
  0
VERTEX
  5
59E
  8
IMPORT_-_BACKPANEL
 10
816.844489187175
 20
785.1672114006421
 30
0.0
  0
SEQEND
  5
59F
  8
IMPORT_-_BACKPANEL
  0
POLYLINE
  5
96
  8
IMPORT_-_BACKPANEL
 66
     1
 10
0.0
 20
0.0
 30
0.0
 70
     1
  0
VERTEX
  5
5A0
  8
IMPORT_-_BACKPANEL
 10
822.841711409397
 20
693.1627669561976
 30
0.0
  0
VERTEX
  5
5A1
  8
IMPORT_-_BACKPANEL
 10
888.8464336316192
 20
693.1627669561976
 30
0.0
  0
VERTEX
  5
5A2
  8
IMPORT_-_BACKPANEL
 10
888.8464336316192
 20
779.1699891784199
 30
0.0
  0
VERTEX
  5
5A3
  8
IMPORT_-_BACKPANEL
 10
822.841711409397
 20
779.1699891784199
 30
0.0
  0
SEQEND
  5
5A4
  8
IMPORT_-_BACKPANEL
  0
POLYLINE
  5
97
  8
IMPORT_-_BACKPANEL
 66
     1
 10
0.0
 20
0.0
 30
0.0
 70
     1
  0
VERTEX
  5
5A5
  8
IMPORT_-_BACKPANEL
 10
886.835600298286
 20
850.5016558450866
 30
0.0
  0
VERTEX
  5
5A6
  8
IMPORT_-_BACKPANEL
 10
886.835600298286
 20
988.5083225117532
 30
0.0
  0
VERTEX
  5
5A7
  8
IMPORT_-_BACKPANEL
 10
748.8289336316193
 20
988.5083225117532
 30
0.0
  0
VERTEX
  5
5A8
  8
IMPORT_-_BACKPANEL
 10
748.8289336316193
 20
850.5016558450866
 30
0.0
  0
SEQEND
  5
5A9
  8
IMPORT_-_BACKPANEL
  0
POLYLINE
  5
98
  8
IMPORT_-_BACKPANEL
 66
     1
 10
0.0
 20
0.0
 30
0.0
 70
     1
  0
VERTEX
  5
5AA
  8
IMPORT_-_BACKPANEL
 10
742.8289336316193
 20
850.5016558450866
 30
0.0
 42
0.4142135623730952
  0
VERTEX
  5
5AB
  8
IMPORT_-_BACKPANEL
 10
748.8289336316193
 20
844.5016558450866
 30
0.0
  0
VERTEX
  5
5AC
  8
IMPORT_-_BACKPANEL
 10
886.835600298286
 20
844.5016558450866
 30
0.0
 42
0.4142135623730952
  0
VERTEX
  5
5AD
  8
IMPORT_-_BACKPANEL
 10
892.835600298286
 20
850.5016558450866
 30
0.0
  0
VERTEX
  5
5AE
  8
IMPORT_-_BACKPANEL
 10
892.835600298286
 20
988.5083225117532
 30
0.0
 42
0.4142135623730952
  0
VERTEX
  5
5AF
  8
IMPORT_-_BACKPANEL
 10
886.835600298286
 20
994.5083225117532
 30
0.0
  0
VERTEX
  5
5B0
  8
IMPORT_-_BACKPANEL
 10
748.8289336316193
 20
994.5083225117532
 30
0.0
 42
0.4142135623730952
  0
VERTEX
  5
5B1
  8
IMPORT_-_BACKPANEL
 10
742.8289336316193
 20
988.5083225117532
 30
0.0
  0
SEQEND
  5
5B2
  8
IMPORT_-_BACKPANEL
  0
POLYLINE
  5
99
  8
IMPORT_-_BACKPANEL
 66
     1
 10
0.0
 20
0.0
 30
0.0
  0
VERTEX
  5
5B3
  8
IMPORT_-_BACKPANEL
 10
-641.8870334246228
 20
679.5971355726884
 30
0.0
  0
VERTEX
  5
5B4
  8
IMPORT_-_BACKPANEL
 10
-640.7228667579561
 20
679.7029689060217
 30
0.0
  0
VERTEX
  5
5B5
  8
IMPORT_-_BACKPANEL
 10
-639.5939778690672
 20
680.0557466837994
 30
0.0
  0
VERTEX
  5
5B6
  8
IMPORT_-_BACKPANEL
 10
-638.5709223135118
 20
680.5849133504661
 30
0.0
  0
VERTEX
  5
5B7
  8
IMPORT_-_BACKPANEL
 10
-637.6537000912895
 20
681.3257466837994
 30
0.0
  0
VERTEX
  5
5B8
  8
IMPORT_-_BACKPANEL
 10
-636.9128667579562
 20
682.2429689060217
 30
0.0
  0
VERTEX
  5
5B9
  8
IMPORT_-_BACKPANEL
 10
-636.3484223135117
 20
683.3013022393551
 30
0.0
  0
VERTEX
  5
5BA
  8
IMPORT_-_BACKPANEL
 10
-635.9956445357338
 20
684.430191128244
 30
0.0
  0
VERTEX
  5
5BB
  8
IMPORT_-_BACKPANEL
 10
-635.8898112024006
 20
685.5943577949107
 30
0.0
  0
SEQEND
  5
5BC
  8
IMPORT_-_BACKPANEL
  0
POLYLINE
  5
9A
  8
IMPORT_-_BACKPANEL
 66
     1
 10
0.0
 20
0.0
 30
0.0
  0
VERTEX
  5
5BD
  8
IMPORT_-_BACKPANEL
 10
-635.8898112024006
 20
685.5943577949107
 30
0.0
  0
VERTEX
  5
5BE
  8
IMPORT_-_BACKPANEL
 10
-635.8898112024006
 20
843.5682466837994
 30
0.0
  0
SEQEND
  5
5BF
  8
IMPORT_-_BACKPANEL
  0
POLYLINE
  5
9B
  8
IMPORT_-_BACKPANEL
 66
     1
 10
0.0
 20
0.0
 30
0.0
  0
VERTEX
  5
5C0
  8
IMPORT_-_BACKPANEL
 10
-635.8898112024006
 20
843.5682466837994
 30
0.0
  0
VERTEX
  5
5C1
  8
IMPORT_-_BACKPANEL
 10
-635.9956445357338
 20
844.7676911282439
 30
0.0
  0
VERTEX
  5
5C2
  8
IMPORT_-_BACKPANEL
 10
-636.3484223135117
 20
845.8965800171328
 30
0.0
  0
VERTEX
  5
5C3
  8
IMPORT_-_BACKPANEL
 10
-636.9128667579562
 20
846.9196355726884
 30
0.0
  0
VERTEX
  5
5C4
  8
IMPORT_-_BACKPANEL
 10
-637.6537000912895
 20
847.8368577949105
 30
0.0
  0
VERTEX
  5
5C5
  8
IMPORT_-_BACKPANEL
 10
-638.5709223135118
 20
848.5776911282438
 30
0.0
  0
VERTEX
  5
5C6
  8
IMPORT_-_BACKPANEL
 10
-639.5939778690672
 20
849.1421355726885
 30
0.0
  0
VERTEX
  5
5C7
  8
IMPORT_-_BACKPANEL
 10
-640.7228667579561
 20
849.4596355726884
 30
0.0
  0
VERTEX
  5
5C8
  8
IMPORT_-_BACKPANEL
 10
-641.8870334246228
 20
849.6007466837995
 30
0.0
  0
SEQEND
  5
5C9
  8
IMPORT_-_BACKPANEL
  0
POLYLINE
  5
9C
  8
IMPORT_-_BACKPANEL
 66
     1
 10
0.0
 20
0.0
 30
0.0
  0
VERTEX
  5
5CA
  8
IMPORT_-_BACKPANEL
 10
-641.8870334246228
 20
849.6007466837995
 30
0.0
  0
VERTEX
  5
5CB
  8
IMPORT_-_BACKPANEL
 10
-796.5800889801783
 20
849.6007466837995
 30
0.0
  0
SEQEND
  5
5CC
  8
IMPORT_-_BACKPANEL
  0
POLYLINE
  5
9D
  8
IMPORT_-_BACKPANEL
 66
     1
 10
0.0
 20
0.0
 30
0.0
  0
VERTEX
  5
5CD
  8
IMPORT_-_BACKPANEL
 10
-796.5800889801783
 20
849.6007466837995
 30
0.0
  0
VERTEX
  5
5CE
  8
IMPORT_-_BACKPANEL
 10
-797.6737000912894
 20
849.4949133504662
 30
0.0
  0
VERTEX
  5
5CF
  8
IMPORT_-_BACKPANEL
 10
-798.7673112024006
 20
849.1774133504663
 30
0.0
  0
VERTEX
  5
5D0
  8
IMPORT_-_BACKPANEL
 10
-799.7903667579562
 20
848.6482466837996
 30
0.0
  0
VERTEX
  5
5D1
  8
IMPORT_-_BACKPANEL
 10
-800.6723112024006
 20
847.9426911282441
 30
0.0
  0
VERTEX
  5
5D2
  8
IMPORT_-_BACKPANEL
 10
-801.4131445357339
 20
847.0960244615773
 30
0.0
  0
VERTEX
  5
5D3
  8
IMPORT_-_BACKPANEL
 10
-802.0128667579561
 20
846.1082466837994
 30
0.0
  0
VERTEX
  5
5D4
  8
IMPORT_-_BACKPANEL
 10
-802.365644535734
 20
845.049913350466
 30
0.0
  0
VERTEX
  5
5D5
  8
IMPORT_-_BACKPANEL
 10
-802.5420334246228
 20
843.9210244615773
 30
0.0
  0
SEQEND
  5
5D6
  8
IMPORT_-_BACKPANEL
  0
POLYLINE
  5
9E
  8
IMPORT_-_BACKPANEL
 66
     1
 10
0.0
 20
0.0
 30
0.0
  0
VERTEX
  5
5D7
  8
IMPORT_-_BACKPANEL
 10
-814.5364778690673
 20
849.6007466837995
 30
0.0
  0
VERTEX
  5
5D8
  8
IMPORT_-_BACKPANEL
 10
-802.5420334246228
 20
849.6007466837995
 30
0.0
  0
SEQEND
  5
5D9
  8
IMPORT_-_BACKPANEL
  0
POLYLINE
  5
9F
  8
IMPORT_-_BACKPANEL
 66
     1
 10
0.0
 20
0.0
 30
0.0
  0
VERTEX
  5
5DA
  8
IMPORT_-_BACKPANEL
 10
-814.5364778690673
 20
1019.569080017133
 30
0.0
  0
VERTEX
  5
5DB
  8
IMPORT_-_BACKPANEL
 10
-814.5364778690673
 20
849.6007466837995
 30
0.0
  0
SEQEND
  5
5DC
  8
IMPORT_-_BACKPANEL
  0
POLYLINE
  5
A0
  8
IMPORT_-_BACKPANEL
 66
     1
 10
0.0
 20
0.0
 30
0.0
  0
VERTEX
  5
5DD
  8
IMPORT_-_BACKPANEL
 10
-802.5420334246228
 20
1019.569080017133
 30
0.0
  0
VERTEX
  5
5DE
  8
IMPORT_-_BACKPANEL
 10
-814.5364778690673
 20
1019.569080017133
 30
0.0
  0
SEQEND
  5
5DF
  8
IMPORT_-_BACKPANEL
  0
POLYLINE
  5
A1
  8
IMPORT_-_BACKPANEL
 66
     1
 10
0.0
 20
0.0
 30
0.0
  0
VERTEX
  5
5E0
  8
IMPORT_-_BACKPANEL
 10
-802.5420334246228
 20
1025.248802239355
 30
0.0
  0
VERTEX
  5
5E1
  8
IMPORT_-_BACKPANEL
 10
-802.5420334246228
 20
1019.569080017133
 30
0.0
  0
SEQEND
  5
5E2
  8
IMPORT_-_BACKPANEL
  0
POLYLINE
  5
A2
  8
IMPORT_-_BACKPANEL
 66
     1
 10
0.0
 20
0.0
 30
0.0
  0
VERTEX
  5
5E3
  8
IMPORT_-_BACKPANEL
 10
-796.5800889801783
 20
1019.569080017133
 30
0.0
  0
VERTEX
  5
5E4
  8
IMPORT_-_BACKPANEL
 10
-797.6737000912894
 20
1019.674913350466
 30
0.0
  0
VERTEX
  5
5E5
  8
IMPORT_-_BACKPANEL
 10
-798.7673112024006
 20
1019.992413350466
 30
0.0
  0
VERTEX
  5
5E6
  8
IMPORT_-_BACKPANEL
 10
-799.7903667579562
 20
1020.521580017133
 30
0.0
  0
VERTEX
  5
5E7
  8
IMPORT_-_BACKPANEL
 10
-800.6723112024006
 20
1021.227135572688
 30
0.0
  0
VERTEX
  5
5E8
  8
IMPORT_-_BACKPANEL
 10
-801.4131445357339
 20
1022.073802239355
 30
0.0
  0
VERTEX
  5
5E9
  8
IMPORT_-_BACKPANEL
 10
-802.0128667579561
 20
1023.061580017133
 30
0.0
  0
VERTEX
  5
5EA
  8
IMPORT_-_BACKPANEL
 10
-802.365644535734
 20
1024.119913350466
 30
0.0
  0
VERTEX
  5
5EB
  8
IMPORT_-_BACKPANEL
 10
-802.5420334246228
 20
1025.248802239355
 30
0.0
  0
SEQEND
  5
5EC
  8
IMPORT_-_BACKPANEL
  0
POLYLINE
  5
A3
  8
IMPORT_-_BACKPANEL
 66
     1
 10
0.0
 20
0.0
 30
0.0
  0
VERTEX
  5
5ED
  8
IMPORT_-_BACKPANEL
 10
-796.5800889801783
 20
1019.569080017133
 30
0.0
  0
VERTEX
  5
5EE
  8
IMPORT_-_BACKPANEL
 10
-641.8870334246228
 20
1019.569080017133
 30
0.0
  0
SEQEND
  5
5EF
  8
IMPORT_-_BACKPANEL
  0
POLYLINE
  5
A4
  8
IMPORT_-_BACKPANEL
 66
     1
 10
0.0
 20
0.0
 30
0.0
  0
VERTEX
  5
5F0
  8
IMPORT_-_BACKPANEL
 10
-641.8870334246228
 20
1019.569080017133
 30
0.0
  0
VERTEX
  5
5F1
  8
IMPORT_-_BACKPANEL
 10
-640.7228667579561
 20
1019.710191128244
 30
0.0
  0
VERTEX
  5
5F2
  8
IMPORT_-_BACKPANEL
 10
-639.5939778690672
 20
1020.027691128244
 30
0.0
  0
VERTEX
  5
5F3
  8
IMPORT_-_BACKPANEL
 10
-638.5709223135118
 20
1020.592135572688
 30
0.0
  0
VERTEX
  5
5F4
  8
IMPORT_-_BACKPANEL
 10
-637.6537000912895
 20
1021.332968906022
 30
0.0
  0
VERTEX
  5
5F5
  8
IMPORT_-_BACKPANEL
 10
-636.9128667579562
 20
1022.250191128244
 30
0.0
  0
VERTEX
  5
5F6
  8
IMPORT_-_BACKPANEL
 10
-636.3484223135117
 20
1023.273246683799
 30
0.0
  0
VERTEX
  5
5F7
  8
IMPORT_-_BACKPANEL
 10
-635.9956445357338
 20
1024.402135572688
 30
0.0
  0
VERTEX
  5
5F8
  8
IMPORT_-_BACKPANEL
 10
-635.8898112024006
 20
1025.601580017133
 30
0.0
  0
SEQEND
  5
5F9
  8
IMPORT_-_BACKPANEL
  0
POLYLINE
  5
A5
  8
IMPORT_-_BACKPANEL
 66
     1
 10
0.0
 20
0.0
 30
0.0
  0
VERTEX
  5
5FA
  8
IMPORT_-_BACKPANEL
 10
-635.8898112024006
 20
1025.601580017133
 30
0.0
  0
VERTEX
  5
5FB
  8
IMPORT_-_BACKPANEL
 10
-635.8898112024006
 20
1183.575468906022
 30
0.0
  0
SEQEND
  5
5FC
  8
IMPORT_-_BACKPANEL
  0
POLYLINE
  5
A6
  8
IMPORT_-_BACKPANEL
 66
     1
 10
0.0
 20
0.0
 30
0.0
  0
VERTEX
  5
5FD
  8
IMPORT_-_BACKPANEL
 10
-635.8898112024006
 20
1183.575468906022
 30
0.0
  0
VERTEX
  5
5FE
  8
IMPORT_-_BACKPANEL
 10
-635.9956445357338
 20
1184.739635572688
 30
0.0
  0
VERTEX
  5
5FF
  8
IMPORT_-_BACKPANEL
 10
-636.3484223135117
 20
1185.868524461577
 30
0.0
  0
VERTEX
  5
600
  8
IMPORT_-_BACKPANEL
 10
-636.9128667579562
 20
1186.926857794911
 30
0.0
  0
VERTEX
  5
601
  8
IMPORT_-_BACKPANEL
 10
-637.6537000912895
 20
1187.844080017133
 30
0.0
  0
VERTEX
  5
602
  8
IMPORT_-_BACKPANEL
 10
-638.5709223135118
 20
1188.584913350466
 30
0.0
  0
VERTEX
  5
603
  8
IMPORT_-_BACKPANEL
 10
-639.5939778690672
 20
1189.114080017133
 30
0.0
  0
VERTEX
  5
604
  8
IMPORT_-_BACKPANEL
 10
-640.7228667579561
 20
1189.466857794911
 30
0.0
  0
VERTEX
  5
605
  8
IMPORT_-_BACKPANEL
 10
-641.8870334246228
 20
1189.572691128244
 30
0.0
  0
SEQEND
  5
606
  8
IMPORT_-_BACKPANEL
  0
POLYLINE
  5
A7
  8
IMPORT_-_BACKPANEL
 66
     1
 10
0.0
 20
0.0
 30
0.0
  0
VERTEX
  5
607
  8
IMPORT_-_BACKPANEL
 10
-635.8898112024006
 20
1189.572691128244
 30
0.0
  0
VERTEX
  5
608
  8
IMPORT_-_BACKPANEL
 10
-641.8870334246228
 20
1189.572691128244
 30
0.0
  0
SEQEND
  5
609
  8
IMPORT_-_BACKPANEL
  0
POLYLINE
  5
A8
  8
IMPORT_-_BACKPANEL
 66
     1
 10
0.0
 20
0.0
 30
0.0
  0
VERTEX
  5
60A
  8
IMPORT_-_BACKPANEL
 10
-635.8898112024006
 20
1201.602413350466
 30
0.0
  0
VERTEX
  5
60B
  8
IMPORT_-_BACKPANEL
 10
-635.8898112024006
 20
1189.572691128244
 30
0.0
  0
SEQEND
  5
60C
  8
IMPORT_-_BACKPANEL
  0
POLYLINE
  5
A9
  8
IMPORT_-_BACKPANEL
 66
     1
 10
0.0
 20
0.0
 30
0.0
  0
VERTEX
  5
60D
  8
IMPORT_-_BACKPANEL
 10
-469.2375889801783
 20
1201.602413350466
 30
0.0
  0
VERTEX
  5
60E
  8
IMPORT_-_BACKPANEL
 10
-635.8898112024006
 20
1201.602413350466
 30
0.0
  0
SEQEND
  5
60F
  8
IMPORT_-_BACKPANEL
  0
POLYLINE
  5
AA
  8
IMPORT_-_BACKPANEL
 66
     1
 10
0.0
 20
0.0
 30
0.0
  0
VERTEX
  5
610
  8
IMPORT_-_BACKPANEL
 10
-469.2375889801783
 20
1189.572691128244
 30
0.0
  0
VERTEX
  5
611
  8
IMPORT_-_BACKPANEL
 10
-469.2375889801783
 20
1201.602413350466
 30
0.0
  0
SEQEND
  5
612
  8
IMPORT_-_BACKPANEL
  0
POLYLINE
  5
AB
  8
IMPORT_-_BACKPANEL
 66
     1
 10
0.0
 20
0.0
 30
0.0
  0
VERTEX
  5
613
  8
IMPORT_-_BACKPANEL
 10
-463.2403667579561
 20
1189.572691128244
 30
0.0
  0
VERTEX
  5
614
  8
IMPORT_-_BACKPANEL
 10
-469.2375889801783
 20
1189.572691128244
 30
0.0
  0
SEQEND
  5
615
  8
IMPORT_-_BACKPANEL
  0
POLYLINE
  5
AC
  8
IMPORT_-_BACKPANEL
 66
     1
 10
0.0
 20
0.0
 30
0.0
  0
VERTEX
  5
616
  8
IMPORT_-_BACKPANEL
 10
-463.2403667579561
 20
1189.572691128244
 30
0.0
  0
VERTEX
  5
617
  8
IMPORT_-_BACKPANEL
 10
-464.4045334246227
 20
1189.466857794911
 30
0.0
  0
VERTEX
  5
618
  8
IMPORT_-_BACKPANEL
 10
-465.5334223135117
 20
1189.114080017133
 30
0.0
  0
VERTEX
  5
619
  8
IMPORT_-_BACKPANEL
 10
-466.5564778690673
 20
1188.584913350466
 30
0.0
  0
VERTEX
  5
61A
  8
IMPORT_-_BACKPANEL
 10
-467.4737000912894
 20
1187.844080017133
 30
0.0
  0
VERTEX
  5
61B
  8
IMPORT_-_BACKPANEL
 10
-468.2145334246229
 20
1186.926857794911
 30
0.0
  0
VERTEX
  5
61C
  8
IMPORT_-_BACKPANEL
 10
-468.7789778690671
 20
1185.868524461577
 30
0.0
  0
VERTEX
  5
61D
  8
IMPORT_-_BACKPANEL
 10
-469.0964778690673
 20
1184.739635572688
 30
0.0
  0
VERTEX
  5
61E
  8
IMPORT_-_BACKPANEL
 10
-469.2375889801783
 20
1183.575468906022
 30
0.0
  0
SEQEND
  5
61F
  8
IMPORT_-_BACKPANEL
  0
POLYLINE
  5
AD
  8
IMPORT_-_BACKPANEL
 66
     1
 10
0.0
 20
0.0
 30
0.0
  0
VERTEX
  5
620
  8
IMPORT_-_BACKPANEL
 10
-469.2375889801783
 20
1183.575468906022
 30
0.0
  0
VERTEX
  5
621
  8
IMPORT_-_BACKPANEL
 10
-469.2375889801783
 20
1025.601580017133
 30
0.0
  0
SEQEND
  5
622
  8
IMPORT_-_BACKPANEL
  0
POLYLINE
  5
AE
  8
IMPORT_-_BACKPANEL
 66
     1
 10
0.0
 20
0.0
 30
0.0
  0
VERTEX
  5
623
  8
IMPORT_-_BACKPANEL
 10
-469.2375889801783
 20
1025.601580017133
 30
0.0
  0
VERTEX
  5
624
  8
IMPORT_-_BACKPANEL
 10
-469.0964778690673
 20
1024.402135572688
 30
0.0
  0
VERTEX
  5
625
  8
IMPORT_-_BACKPANEL
 10
-468.7789778690671
 20
1023.273246683799
 30
0.0
  0
VERTEX
  5
626
  8
IMPORT_-_BACKPANEL
 10
-468.2145334246229
 20
1022.250191128244
 30
0.0
  0
VERTEX
  5
627
  8
IMPORT_-_BACKPANEL
 10
-467.4737000912894
 20
1021.332968906022
 30
0.0
  0
VERTEX
  5
628
  8
IMPORT_-_BACKPANEL
 10
-466.5564778690673
 20
1020.592135572688
 30
0.0
  0
VERTEX
  5
629
  8
IMPORT_-_BACKPANEL
 10
-465.5334223135117
 20
1020.027691128244
 30
0.0
  0
VERTEX
  5
62A
  8
IMPORT_-_BACKPANEL
 10
-464.4045334246227
 20
1019.710191128244
 30
0.0
  0
VERTEX
  5
62B
  8
IMPORT_-_BACKPANEL
 10
-463.2403667579561
 20
1019.569080017133
 30
0.0
  0
SEQEND
  5
62C
  8
IMPORT_-_BACKPANEL
  0
POLYLINE
  5
AF
  8
IMPORT_-_BACKPANEL
 66
     1
 10
0.0
 20
0.0
 30
0.0
  0
VERTEX
  5
62D
  8
IMPORT_-_BACKPANEL
 10
-463.2403667579561
 20
1019.569080017133
 30
0.0
  0
VERTEX
  5
62E
  8
IMPORT_-_BACKPANEL
 10
-308.5473112024004
 20
1019.569080017133
 30
0.0
  0
SEQEND
  5
62F
  8
IMPORT_-_BACKPANEL
  0
POLYLINE
  5
B0
  8
IMPORT_-_BACKPANEL
 66
     1
 10
0.0
 20
0.0
 30
0.0
  0
VERTEX
  5
630
  8
IMPORT_-_BACKPANEL
 10
-308.5473112024004
 20
1019.569080017133
 30
0.0
  0
VERTEX
  5
631
  8
IMPORT_-_BACKPANEL
 10
-307.3831445357339
 20
1019.710191128244
 30
0.0
  0
VERTEX
  5
632
  8
IMPORT_-_BACKPANEL
 10
-306.254255646845
 20
1020.027691128244
 30
0.0
  0
VERTEX
  5
633
  8
IMPORT_-_BACKPANEL
 10
-305.2312000912891
 20
1020.592135572688
 30
0.0
  0
VERTEX
  5
634
  8
IMPORT_-_BACKPANEL
 10
-304.3139778690668
 20
1021.332968906022
 30
0.0
  0
VERTEX
  5
635
  8
IMPORT_-_BACKPANEL
 10
-303.5731445357335
 20
1022.250191128244
 30
0.0
  0
VERTEX
  5
636
  8
IMPORT_-_BACKPANEL
 10
-303.0087000912893
 20
1023.273246683799
 30
0.0
  0
VERTEX
  5
637
  8
IMPORT_-_BACKPANEL
 10
-302.6912000912891
 20
1024.402135572688
 30
0.0
  0
VERTEX
  5
638
  8
IMPORT_-_BACKPANEL
 10
-302.5500889801781
 20
1025.601580017133
 30
0.0
  0
SEQEND
  5
639
  8
IMPORT_-_BACKPANEL
  0
POLYLINE
  5
B1
  8
IMPORT_-_BACKPANEL
 66
     1
 10
0.0
 20
0.0
 30
0.0
  0
VERTEX
  5
63A
  8
IMPORT_-_BACKPANEL
 10
-302.5500889801781
 20
1025.601580017133
 30
0.0
  0
VERTEX
  5
63B
  8
IMPORT_-_BACKPANEL
 10
-302.5500889801781
 20
1183.575468906022
 30
0.0
  0
SEQEND
  5
63C
  8
IMPORT_-_BACKPANEL
  0
POLYLINE
  5
B2
  8
IMPORT_-_BACKPANEL
 66
     1
 10
0.0
 20
0.0
 30
0.0
  0
VERTEX
  5
63D
  8
IMPORT_-_BACKPANEL
 10
-302.5500889801781
 20
1183.575468906022
 30
0.0
  0
VERTEX
  5
63E
  8
IMPORT_-_BACKPANEL
 10
-302.6912000912891
 20
1184.739635572688
 30
0.0
  0
VERTEX
  5
63F
  8
IMPORT_-_BACKPANEL
 10
-303.0087000912893
 20
1185.868524461577
 30
0.0
  0
VERTEX
  5
640
  8
IMPORT_-_BACKPANEL
 10
-303.5731445357335
 20
1186.926857794911
 30
0.0
  0
VERTEX
  5
641
  8
IMPORT_-_BACKPANEL
 10
-304.3139778690668
 20
1187.844080017133
 30
0.0
  0
VERTEX
  5
642
  8
IMPORT_-_BACKPANEL
 10
-305.2312000912891
 20
1188.584913350466
 30
0.0
  0
VERTEX
  5
643
  8
IMPORT_-_BACKPANEL
 10
-306.254255646845
 20
1189.114080017133
 30
0.0
  0
VERTEX
  5
644
  8
IMPORT_-_BACKPANEL
 10
-307.3831445357339
 20
1189.466857794911
 30
0.0
  0
VERTEX
  5
645
  8
IMPORT_-_BACKPANEL
 10
-308.5473112024004
 20
1189.572691128244
 30
0.0
  0
SEQEND
  5
646
  8
IMPORT_-_BACKPANEL
  0
POLYLINE
  5
B3
  8
IMPORT_-_BACKPANEL
 66
     1
 10
0.0
 20
0.0
 30
0.0
  0
VERTEX
  5
647
  8
IMPORT_-_BACKPANEL
 10
-302.5500889801781
 20
1189.572691128244
 30
0.0
  0
VERTEX
  5
648
  8
IMPORT_-_BACKPANEL
 10
-308.5473112024004
 20
1189.572691128244
 30
0.0
  0
SEQEND
  5
649
  8
IMPORT_-_BACKPANEL
  0
POLYLINE
  5
B4
  8
IMPORT_-_BACKPANEL
 66
     1
 10
0.0
 20
0.0
 30
0.0
  0
VERTEX
  5
64A
  8
IMPORT_-_BACKPANEL
 10
-302.5500889801781
 20
1189.572691128244
 30
0.0
  0
VERTEX
  5
64B
  8
IMPORT_-_BACKPANEL
 10
-302.5500889801781
 20
1019.569080017133
 30
0.0
  0
SEQEND
  5
64C
  8
IMPORT_-_BACKPANEL
  0
POLYLINE
  5
B5
  8
IMPORT_-_BACKPANEL
 66
     1
 10
0.0
 20
0.0
 30
0.0
  0
VERTEX
  5
64D
  8
IMPORT_-_BACKPANEL
 10
-302.5500889801781
 20
1019.569080017133
 30
0.0
  0
VERTEX
  5
64E
  8
IMPORT_-_BACKPANEL
 10
-290.5556445357336
 20
1019.569080017133
 30
0.0
  0
SEQEND
  5
64F
  8
IMPORT_-_BACKPANEL
  0
POLYLINE
  5
B6
  8
IMPORT_-_BACKPANEL
 66
     1
 10
0.0
 20
0.0
 30
0.0
  0
VERTEX
  5
650
  8
IMPORT_-_BACKPANEL
 10
-290.5556445357336
 20
1019.569080017133
 30
0.0
  0
VERTEX
  5
651
  8
IMPORT_-_BACKPANEL
 10
-290.5556445357336
 20
849.6007466837995
 30
0.0
  0
SEQEND
  5
652
  8
IMPORT_-_BACKPANEL
  0
POLYLINE
  5
B7
  8
IMPORT_-_BACKPANEL
 66
     1
 10
0.0
 20
0.0
 30
0.0
  0
VERTEX
  5
653
  8
IMPORT_-_BACKPANEL
 10
-290.5556445357336
 20
849.6007466837995
 30
0.0
  0
VERTEX
  5
654
  8
IMPORT_-_BACKPANEL
 10
-302.5500889801781
 20
849.6007466837995
 30
0.0
  0
SEQEND
  5
655
  8
IMPORT_-_BACKPANEL
  0
POLYLINE
  5
B8
  8
IMPORT_-_BACKPANEL
 66
     1
 10
0.0
 20
0.0
 30
0.0
  0
VERTEX
  5
656
  8
IMPORT_-_BACKPANEL
 10
-302.5500889801781
 20
849.6007466837995
 30
0.0
  0
VERTEX
  5
657
  8
IMPORT_-_BACKPANEL
 10
-302.5500889801781
 20
679.5971355726884
 30
0.0
  0
SEQEND
  5
658
  8
IMPORT_-_BACKPANEL
  0
POLYLINE
  5
B9
  8
IMPORT_-_BACKPANEL
 66
     1
 10
0.0
 20
0.0
 30
0.0
  0
VERTEX
  5
659
  8
IMPORT_-_BACKPANEL
 10
-302.5500889801781
 20
679.5971355726884
 30
0.0
  0
VERTEX
  5
65A
  8
IMPORT_-_BACKPANEL
 10
-290.5556445357336
 20
679.5971355726884
 30
0.0
  0
SEQEND
  5
65B
  8
IMPORT_-_BACKPANEL
  0
POLYLINE
  5
BA
  8
IMPORT_-_BACKPANEL
 66
     1
 10
0.0
 20
0.0
 30
0.0
  0
VERTEX
  5
65C
  8
IMPORT_-_BACKPANEL
 10
-290.5556445357336
 20
679.5971355726884
 30
0.0
  0
VERTEX
  5
65D
  8
IMPORT_-_BACKPANEL
 10
-290.5556445357336
 20
509.5935244615773
 30
0.0
  0
SEQEND
  5
65E
  8
IMPORT_-_BACKPANEL
  0
POLYLINE
  5
BB
  8
IMPORT_-_BACKPANEL
 66
     1
 10
0.0
 20
0.0
 30
0.0
  0
VERTEX
  5
65F
  8
IMPORT_-_BACKPANEL
 10
-290.5556445357336
 20
509.5935244615773
 30
0.0
  0
VERTEX
  5
660
  8
IMPORT_-_BACKPANEL
 10
-302.5500889801781
 20
509.5935244615773
 30
0.0
  0
SEQEND
  5
661
  8
IMPORT_-_BACKPANEL
  0
POLYLINE
  5
BC
  8
IMPORT_-_BACKPANEL
 66
     1
 10
0.0
 20
0.0
 30
0.0
  0
VERTEX
  5
662
  8
IMPORT_-_BACKPANEL
 10
-302.5500889801781
 20
509.5935244615773
 30
0.0
  0
VERTEX
  5
663
  8
IMPORT_-_BACKPANEL
 10
-302.5500889801781
 20
339.5899133504662
 30
0.0
  0
SEQEND
  5
664
  8
IMPORT_-_BACKPANEL
  0
POLYLINE
  5
BD
  8
IMPORT_-_BACKPANEL
 66
     1
 10
0.0
 20
0.0
 30
0.0
  0
VERTEX
  5
665
  8
IMPORT_-_BACKPANEL
 10
-308.5473112024004
 20
339.5899133504662
 30
0.0
  0
VERTEX
  5
666
  8
IMPORT_-_BACKPANEL
 10
-307.3831445357339
 20
339.6957466837996
 30
0.0
  0
VERTEX
  5
667
  8
IMPORT_-_BACKPANEL
 10
-306.254255646845
 20
340.0485244615774
 30
0.0
  0
VERTEX
  5
668
  8
IMPORT_-_BACKPANEL
 10
-305.2312000912891
 20
340.6129689060218
 30
0.0
  0
VERTEX
  5
669
  8
IMPORT_-_BACKPANEL
 10
-304.3139778690668
 20
341.3538022393551
 30
0.0
  0
VERTEX
  5
66A
  8
IMPORT_-_BACKPANEL
 10
-303.5731445357335
 20
342.2357466837996
 30
0.0
  0
VERTEX
  5
66B
  8
IMPORT_-_BACKPANEL
 10
-303.0087000912893
 20
343.2940800171329
 30
0.0
  0
VERTEX
  5
66C
  8
IMPORT_-_BACKPANEL
 10
-302.6912000912891
 20
344.4229689060218
 30
0.0
  0
VERTEX
  5
66D
  8
IMPORT_-_BACKPANEL
 10
-302.5500889801781
 20
345.5871355726885
 30
0.0
  0
SEQEND
  5
66E
  8
IMPORT_-_BACKPANEL
  0
POLYLINE
  5
BE
  8
IMPORT_-_BACKPANEL
 66
     1
 10
0.0
 20
0.0
 30
0.0
  0
VERTEX
  5
66F
  8
IMPORT_-_BACKPANEL
 10
-302.5500889801781
 20
345.5871355726885
 30
0.0
  0
VERTEX
  5
670
  8
IMPORT_-_BACKPANEL
 10
-302.5500889801781
 20
503.5963022393551
 30
0.0
  0
SEQEND
  5
671
  8
IMPORT_-_BACKPANEL
  0
POLYLINE
  5
BF
  8
IMPORT_-_BACKPANEL
 66
     1
 10
0.0
 20
0.0
 30
0.0
  0
VERTEX
  5
672
  8
IMPORT_-_BACKPANEL
 10
-302.5500889801781
 20
503.5963022393551
 30
0.0
  0
VERTEX
  5
673
  8
IMPORT_-_BACKPANEL
 10
-302.6912000912891
 20
504.7604689060217
 30
0.0
  0
VERTEX
  5
674
  8
IMPORT_-_BACKPANEL
 10
-303.0087000912893
 20
505.8893577949107
 30
0.0
  0
VERTEX
  5
675
  8
IMPORT_-_BACKPANEL
 10
-303.5731445357335
 20
506.9124133504662
 30
0.0
  0
VERTEX
  5
676
  8
IMPORT_-_BACKPANEL
 10
-304.3139778690668
 20
507.8296355726885
 30
0.0
  0
VERTEX
  5
677
  8
IMPORT_-_BACKPANEL
 10
-305.2312000912891
 20
508.5704689060218
 30
0.0
  0
VERTEX
  5
678
  8
IMPORT_-_BACKPANEL
 10
-306.254255646845
 20
509.1349133504662
 30
0.0
  0
VERTEX
  5
679
  8
IMPORT_-_BACKPANEL
 10
-307.3831445357339
 20
509.4524133504663
 30
0.0
  0
VERTEX
  5
67A
  8
IMPORT_-_BACKPANEL
 10
-308.5473112024004
 20
509.5935244615773
 30
0.0
  0
SEQEND
  5
67B
  8
IMPORT_-_BACKPANEL
  0
POLYLINE
  5
C0
  8
IMPORT_-_BACKPANEL
 66
     1
 10
0.0
 20
0.0
 30
0.0
  0
VERTEX
  5
67C
  8
IMPORT_-_BACKPANEL
 10
-308.5473112024004
 20
509.5935244615773
 30
0.0
  0
VERTEX
  5
67D
  8
IMPORT_-_BACKPANEL
 10
-463.2403667579561
 20
509.5935244615773
 30
0.0
  0
SEQEND
  5
67E
  8
IMPORT_-_BACKPANEL
  0
POLYLINE
  5
C1
  8
IMPORT_-_BACKPANEL
 66
     1
 10
0.0
 20
0.0
 30
0.0
  0
VERTEX
  5
67F
  8
IMPORT_-_BACKPANEL
 10
-463.2403667579561
 20
509.5935244615773
 30
0.0
  0
VERTEX
  5
680
  8
IMPORT_-_BACKPANEL
 10
-464.4045334246227
 20
509.4524133504663
 30
0.0
  0
VERTEX
  5
681
  8
IMPORT_-_BACKPANEL
 10
-465.5334223135117
 20
509.1349133504662
 30
0.0
  0
VERTEX
  5
682
  8
IMPORT_-_BACKPANEL
 10
-466.5564778690673
 20
508.5704689060218
 30
0.0
  0
VERTEX
  5
683
  8
IMPORT_-_BACKPANEL
 10
-467.4737000912894
 20
507.8296355726885
 30
0.0
  0
VERTEX
  5
684
  8
IMPORT_-_BACKPANEL
 10
-468.2145334246229
 20
506.9124133504662
 30
0.0
  0
VERTEX
  5
685
  8
IMPORT_-_BACKPANEL
 10
-468.7789778690671
 20
505.8893577949107
 30
0.0
  0
VERTEX
  5
686
  8
IMPORT_-_BACKPANEL
 10
-469.0964778690673
 20
504.7604689060217
 30
0.0
  0
VERTEX
  5
687
  8
IMPORT_-_BACKPANEL
 10
-469.2375889801783
 20
503.5963022393551
 30
0.0
  0
SEQEND
  5
688
  8
IMPORT_-_BACKPANEL
  0
POLYLINE
  5
C2
  8
IMPORT_-_BACKPANEL
 66
     1
 10
0.0
 20
0.0
 30
0.0
  0
VERTEX
  5
689
  8
IMPORT_-_BACKPANEL
 10
-469.2375889801783
 20
503.5963022393551
 30
0.0
  0
VERTEX
  5
68A
  8
IMPORT_-_BACKPANEL
 10
-469.2375889801783
 20
345.5871355726885
 30
0.0
  0
SEQEND
  5
68B
  8
IMPORT_-_BACKPANEL
  0
POLYLINE
  5
C3
  8
IMPORT_-_BACKPANEL
 66
     1
 10
0.0
 20
0.0
 30
0.0
  0
VERTEX
  5
68C
  8
IMPORT_-_BACKPANEL
 10
-469.2375889801783
 20
345.5871355726885
 30
0.0
  0
VERTEX
  5
68D
  8
IMPORT_-_BACKPANEL
 10
-469.0964778690673
 20
344.4229689060218
 30
0.0
  0
VERTEX
  5
68E
  8
IMPORT_-_BACKPANEL
 10
-468.7789778690671
 20
343.2940800171329
 30
0.0
  0
VERTEX
  5
68F
  8
IMPORT_-_BACKPANEL
 10
-468.2145334246229
 20
342.2357466837996
 30
0.0
  0
VERTEX
  5
690
  8
IMPORT_-_BACKPANEL
 10
-467.4737000912894
 20
341.3538022393551
 30
0.0
  0
VERTEX
  5
691
  8
IMPORT_-_BACKPANEL
 10
-466.5564778690673
 20
340.6129689060218
 30
0.0
  0
VERTEX
  5
692
  8
IMPORT_-_BACKPANEL
 10
-465.5334223135117
 20
340.0485244615774
 30
0.0
  0
VERTEX
  5
693
  8
IMPORT_-_BACKPANEL
 10
-464.4045334246227
 20
339.6957466837996
 30
0.0
  0
VERTEX
  5
694
  8
IMPORT_-_BACKPANEL
 10
-463.2403667579561
 20
339.5899133504662
 30
0.0
  0
SEQEND
  5
695
  8
IMPORT_-_BACKPANEL
  0
POLYLINE
  5
C4
  8
IMPORT_-_BACKPANEL
 66
     1
 10
0.0
 20
0.0
 30
0.0
  0
VERTEX
  5
696
  8
IMPORT_-_BACKPANEL
 10
-469.2375889801783
 20
339.5899133504662
 30
0.0
  0
VERTEX
  5
697
  8
IMPORT_-_BACKPANEL
 10
-469.2375889801783
 20
327.5954689060218
 30
0.0
  0
SEQEND
  5
698
  8
IMPORT_-_BACKPANEL
  0
POLYLINE
  5
C5
  8
IMPORT_-_BACKPANEL
 66
     1
 10
0.0
 20
0.0
 30
0.0
  0
VERTEX
  5
699
  8
IMPORT_-_BACKPANEL
 10
-469.2375889801783
 20
327.5954689060218
 30
0.0
  0
VERTEX
  5
69A
  8
IMPORT_-_BACKPANEL
 10
-635.8898112024006
 20
327.5954689060218
 30
0.0
  0
SEQEND
  5
69B
  8
IMPORT_-_BACKPANEL
  0
POLYLINE
  5
C6
  8
IMPORT_-_BACKPANEL
 66
     1
 10
0.0
 20
0.0
 30
0.0
  0
VERTEX
  5
69C
  8
IMPORT_-_BACKPANEL
 10
-635.8898112024006
 20
327.5954689060218
 30
0.0
  0
VERTEX
  5
69D
  8
IMPORT_-_BACKPANEL
 10
-635.8898112024006
 20
339.5899133504662
 30
0.0
  0
SEQEND
  5
69E
  8
IMPORT_-_BACKPANEL
  0
POLYLINE
  5
C7
  8
IMPORT_-_BACKPANEL
 66
     1
 10
0.0
 20
0.0
 30
0.0
  0
VERTEX
  5
69F
  8
IMPORT_-_BACKPANEL
 10
-635.8898112024006
 20
339.5899133504662
 30
0.0
  0
VERTEX
  5
6A0
  8
IMPORT_-_BACKPANEL
 10
-641.8870334246228
 20
339.5899133504662
 30
0.0
  0
SEQEND
  5
6A1
  8
IMPORT_-_BACKPANEL
  0
POLYLINE
  5
C8
  8
IMPORT_-_BACKPANEL
 66
     1
 10
0.0
 20
0.0
 30
0.0
  0
VERTEX
  5
6A2
  8
IMPORT_-_BACKPANEL
 10
-641.8870334246228
 20
339.5899133504662
 30
0.0
  0
VERTEX
  5
6A3
  8
IMPORT_-_BACKPANEL
 10
-640.7228667579561
 20
339.6957466837996
 30
0.0
  0
VERTEX
  5
6A4
  8
IMPORT_-_BACKPANEL
 10
-639.5939778690672
 20
340.0485244615774
 30
0.0
  0
VERTEX
  5
6A5
  8
IMPORT_-_BACKPANEL
 10
-638.5709223135118
 20
340.6129689060218
 30
0.0
  0
VERTEX
  5
6A6
  8
IMPORT_-_BACKPANEL
 10
-637.6537000912895
 20
341.3538022393551
 30
0.0
  0
VERTEX
  5
6A7
  8
IMPORT_-_BACKPANEL
 10
-636.9128667579562
 20
342.2357466837996
 30
0.0
  0
VERTEX
  5
6A8
  8
IMPORT_-_BACKPANEL
 10
-636.3484223135117
 20
343.2940800171329
 30
0.0
  0
VERTEX
  5
6A9
  8
IMPORT_-_BACKPANEL
 10
-635.9956445357338
 20
344.4229689060218
 30
0.0
  0
VERTEX
  5
6AA
  8
IMPORT_-_BACKPANEL
 10
-635.8898112024006
 20
345.5871355726885
 30
0.0
  0
SEQEND
  5
6AB
  8
IMPORT_-_BACKPANEL
  0
POLYLINE
  5
C9
  8
IMPORT_-_BACKPANEL
 66
     1
 10
0.0
 20
0.0
 30
0.0
  0
VERTEX
  5
6AC
  8
IMPORT_-_BACKPANEL
 10
-635.8898112024006
 20
345.5871355726885
 30
0.0
  0
VERTEX
  5
6AD
  8
IMPORT_-_BACKPANEL
 10
-635.8898112024006
 20
503.5963022393551
 30
0.0
  0
SEQEND
  5
6AE
  8
IMPORT_-_BACKPANEL
  0
POLYLINE
  5
CA
  8
IMPORT_-_BACKPANEL
 66
     1
 10
0.0
 20
0.0
 30
0.0
  0
VERTEX
  5
6AF
  8
IMPORT_-_BACKPANEL
 10
-802.5420334246228
 20
509.5935244615773
 30
0.0
  0
VERTEX
  5
6B0
  8
IMPORT_-_BACKPANEL
 10
-802.5420334246228
 20
503.9490800171329
 30
0.0
  0
SEQEND
  5
6B1
  8
IMPORT_-_BACKPANEL
  0
POLYLINE
  5
CB
  8
IMPORT_-_BACKPANEL
 66
     1
 10
0.0
 20
0.0
 30
0.0
  0
VERTEX
  5
6B2
  8
IMPORT_-_BACKPANEL
 10
-814.5364778690673
 20
509.5935244615773
 30
0.0
  0
VERTEX
  5
6B3
  8
IMPORT_-_BACKPANEL
 10
-802.5420334246228
 20
509.5935244615773
 30
0.0
  0
SEQEND
  5
6B4
  8
IMPORT_-_BACKPANEL
  0
POLYLINE
  5
CC
  8
IMPORT_-_BACKPANEL
 66
     1
 10
0.0
 20
0.0
 30
0.0
  0
VERTEX
  5
6B5
  8
IMPORT_-_BACKPANEL
 10
-814.5364778690673
 20
679.5971355726884
 30
0.0
  0
VERTEX
  5
6B6
  8
IMPORT_-_BACKPANEL
 10
-814.5364778690673
 20
509.5935244615773
 30
0.0
  0
SEQEND
  5
6B7
  8
IMPORT_-_BACKPANEL
  0
POLYLINE
  5
CD
  8
IMPORT_-_BACKPANEL
 66
     1
 10
0.0
 20
0.0
 30
0.0
  0
VERTEX
  5
6B8
  8
IMPORT_-_BACKPANEL
 10
-802.5420334246228
 20
679.5971355726884
 30
0.0
  0
VERTEX
  5
6B9
  8
IMPORT_-_BACKPANEL
 10
-814.5364778690673
 20
679.5971355726884
 30
0.0
  0
SEQEND
  5
6BA
  8
IMPORT_-_BACKPANEL
  0
POLYLINE
  5
CE
  8
IMPORT_-_BACKPANEL
 66
     1
 10
0.0
 20
0.0
 30
0.0
  0
VERTEX
  5
6BB
  8
IMPORT_-_BACKPANEL
 10
-802.5420334246228
 20
685.2415800171328
 30
0.0
  0
VERTEX
  5
6BC
  8
IMPORT_-_BACKPANEL
 10
-802.365644535734
 20
684.1126911282439
 30
0.0
  0
VERTEX
  5
6BD
  8
IMPORT_-_BACKPANEL
 10
-802.0128667579561
 20
683.0543577949105
 30
0.0
  0
VERTEX
  5
6BE
  8
IMPORT_-_BACKPANEL
 10
-801.4131445357339
 20
682.0665800171329
 30
0.0
  0
VERTEX
  5
6BF
  8
IMPORT_-_BACKPANEL
 10
-800.6723112024006
 20
681.2199133504661
 30
0.0
  0
VERTEX
  5
6C0
  8
IMPORT_-_BACKPANEL
 10
-799.7903667579562
 20
680.5143577949106
 30
0.0
  0
VERTEX
  5
6C1
  8
IMPORT_-_BACKPANEL
 10
-798.7673112024006
 20
680.0204689060218
 30
0.0
  0
VERTEX
  5
6C2
  8
IMPORT_-_BACKPANEL
 10
-797.6737000912894
 20
679.7029689060217
 30
0.0
  0
VERTEX
  5
6C3
  8
IMPORT_-_BACKPANEL
 10
-796.5800889801783
 20
679.5971355726884
 30
0.0
  0
SEQEND
  5
6C4
  8
IMPORT_-_BACKPANEL
  0
POLYLINE
  5
CF
  8
IMPORT_-_BACKPANEL
 66
     1
 10
0.0
 20
0.0
 30
0.0
  0
VERTEX
  5
6C5
  8
IMPORT_-_BACKPANEL
 10
-796.5800889801783
 20
679.5971355726884
 30
0.0
  0
VERTEX
  5
6C6
  8
IMPORT_-_BACKPANEL
 10
-641.8870334246228
 20
679.5971355726884
 30
0.0
  0
SEQEND
  5
6C7
  8
IMPORT_-_BACKPANEL
  0
POLYLINE
  5
D0
  8
IMPORT_-_BACKPANEL
 66
     1
 10
0.0
 20
0.0
 30
0.0
  0
VERTEX
  5
6C8
  8
IMPORT_-_BACKPANEL
 10
-635.8898112024006
 20
855.5979689060217
 30
0.0
  0
VERTEX
  5
6C9
  8
IMPORT_-_BACKPANEL
 10
-635.7839778690673
 20
854.3985244615773
 30
0.0
  0
VERTEX
  5
6CA
  8
IMPORT_-_BACKPANEL
 10
-635.4312000912894
 20
853.3049133504661
 30
0.0
  0
VERTEX
  5
6CB
  8
IMPORT_-_BACKPANEL
 10
-634.8667556468449
 20
852.2465800171327
 30
0.0
  0
VERTEX
  5
6CC
  8
IMPORT_-_BACKPANEL
 10
-634.1259223135116
 20
851.3293577949106
 30
0.0
  0
VERTEX
  5
6CD
  8
IMPORT_-_BACKPANEL
 10
-633.2439778690673
 20
850.5885244615773
 30
0.0
  0
VERTEX
  5
6CE
  8
IMPORT_-_BACKPANEL
 10
-632.1856445357339
 20
850.0593577949106
 30
0.0
  0
VERTEX
  5
6CF
  8
IMPORT_-_BACKPANEL
 10
-631.056755646845
 20
849.7065800171328
 30
0.0
  0
VERTEX
  5
6D0
  8
IMPORT_-_BACKPANEL
 10
-629.8925889801783
 20
849.6007466837995
 30
0.0
  0
SEQEND
  5
6D1
  8
IMPORT_-_BACKPANEL
  0
POLYLINE
  5
D1
  8
IMPORT_-_BACKPANEL
 66
     1
 10
0.0
 20
0.0
 30
0.0
  0
VERTEX
  5
6D2
  8
IMPORT_-_BACKPANEL
 10
-629.8925889801783
 20
849.6007466837995
 30
0.0
  0
VERTEX
  5
6D3
  8
IMPORT_-_BACKPANEL
 10
-475.2348112024006
 20
849.6007466837995
 30
0.0
  0
SEQEND
  5
6D4
  8
IMPORT_-_BACKPANEL
  0
POLYLINE
  5
D2
  8
IMPORT_-_BACKPANEL
 66
     1
 10
0.0
 20
0.0
 30
0.0
  0
VERTEX
  5
6D5
  8
IMPORT_-_BACKPANEL
 10
-475.2348112024006
 20
849.6007466837995
 30
0.0
  0
VERTEX
  5
6D6
  8
IMPORT_-_BACKPANEL
 10
-474.0353667579561
 20
849.7065800171328
 30
0.0
  0
VERTEX
  5
6D7
  8
IMPORT_-_BACKPANEL
 10
-472.941755646845
 20
850.0593577949106
 30
0.0
  0
VERTEX
  5
6D8
  8
IMPORT_-_BACKPANEL
 10
-471.8834223135118
 20
850.5885244615773
 30
0.0
  0
VERTEX
  5
6D9
  8
IMPORT_-_BACKPANEL
 10
-470.9662000912895
 20
851.3293577949106
 30
0.0
  0
VERTEX
  5
6DA
  8
IMPORT_-_BACKPANEL
 10
-470.2253667579562
 20
852.2465800171327
 30
0.0
  0
VERTEX
  5
6DB
  8
IMPORT_-_BACKPANEL
 10
-469.6962000912895
 20
853.3049133504661
 30
0.0
  0
VERTEX
  5
6DC
  8
IMPORT_-_BACKPANEL
 10
-469.3434223135116
 20
854.3985244615773
 30
0.0
  0
VERTEX
  5
6DD
  8
IMPORT_-_BACKPANEL
 10
-469.2375889801783
 20
855.5979689060217
 30
0.0
  0
SEQEND
  5
6DE
  8
IMPORT_-_BACKPANEL
  0
POLYLINE
  5
D3
  8
IMPORT_-_BACKPANEL
 66
     1
 10
0.0
 20
0.0
 30
0.0
  0
VERTEX
  5
6DF
  8
IMPORT_-_BACKPANEL
 10
-469.2375889801783
 20
855.5979689060217
 30
0.0
  0
VERTEX
  5
6E0
  8
IMPORT_-_BACKPANEL
 10
-469.2375889801783
 20
1013.571857794911
 30
0.0
  0
SEQEND
  5
6E1
  8
IMPORT_-_BACKPANEL
  0
POLYLINE
  5
D4
  8
IMPORT_-_BACKPANEL
 66
     1
 10
0.0
 20
0.0
 30
0.0
  0
VERTEX
  5
6E2
  8
IMPORT_-_BACKPANEL
 10
-469.2375889801783
 20
1013.571857794911
 30
0.0
  0
VERTEX
  5
6E3
  8
IMPORT_-_BACKPANEL
 10
-469.3434223135116
 20
1014.771302239355
 30
0.0
  0
VERTEX
  5
6E4
  8
IMPORT_-_BACKPANEL
 10
-469.6962000912895
 20
1015.864913350466
 30
0.0
  0
VERTEX
  5
6E5
  8
IMPORT_-_BACKPANEL
 10
-470.2253667579562
 20
1016.923246683799
 30
0.0
  0
VERTEX
  5
6E6
  8
IMPORT_-_BACKPANEL
 10
-470.9662000912895
 20
1017.840468906022
 30
0.0
  0
VERTEX
  5
6E7
  8
IMPORT_-_BACKPANEL
 10
-471.8834223135118
 20
1018.581302239355
 30
0.0
  0
VERTEX
  5
6E8
  8
IMPORT_-_BACKPANEL
 10
-472.941755646845
 20
1019.145746683799
 30
0.0
  0
VERTEX
  5
6E9
  8
IMPORT_-_BACKPANEL
 10
-474.0353667579561
 20
1019.463246683799
 30
0.0
  0
VERTEX
  5
6EA
  8
IMPORT_-_BACKPANEL
 10
-475.2348112024006
 20
1019.569080017133
 30
0.0
  0
SEQEND
  5
6EB
  8
IMPORT_-_BACKPANEL
  0
POLYLINE
  5
D5
  8
IMPORT_-_BACKPANEL
 66
     1
 10
0.0
 20
0.0
 30
0.0
  0
VERTEX
  5
6EC
  8
IMPORT_-_BACKPANEL
 10
-475.2348112024006
 20
1019.569080017133
 30
0.0
  0
VERTEX
  5
6ED
  8
IMPORT_-_BACKPANEL
 10
-629.8925889801783
 20
1019.569080017133
 30
0.0
  0
SEQEND
  5
6EE
  8
IMPORT_-_BACKPANEL
  0
POLYLINE
  5
D6
  8
IMPORT_-_BACKPANEL
 66
     1
 10
0.0
 20
0.0
 30
0.0
  0
VERTEX
  5
6EF
  8
IMPORT_-_BACKPANEL
 10
-629.8925889801783
 20
1019.569080017133
 30
0.0
  0
VERTEX
  5
6F0
  8
IMPORT_-_BACKPANEL
 10
-631.056755646845
 20
1019.463246683799
 30
0.0
  0
VERTEX
  5
6F1
  8
IMPORT_-_BACKPANEL
 10
-632.1856445357339
 20
1019.145746683799
 30
0.0
  0
VERTEX
  5
6F2
  8
IMPORT_-_BACKPANEL
 10
-633.2439778690673
 20
1018.581302239355
 30
0.0
  0
VERTEX
  5
6F3
  8
IMPORT_-_BACKPANEL
 10
-634.1259223135116
 20
1017.840468906022
 30
0.0
  0
VERTEX
  5
6F4
  8
IMPORT_-_BACKPANEL
 10
-634.8667556468449
 20
1016.923246683799
 30
0.0
  0
VERTEX
  5
6F5
  8
IMPORT_-_BACKPANEL
 10
-635.4312000912894
 20
1015.864913350466
 30
0.0
  0
VERTEX
  5
6F6
  8
IMPORT_-_BACKPANEL
 10
-635.7839778690673
 20
1014.771302239355
 30
0.0
  0
VERTEX
  5
6F7
  8
IMPORT_-_BACKPANEL
 10
-635.8898112024006
 20
1013.571857794911
 30
0.0
  0
SEQEND
  5
6F8
  8
IMPORT_-_BACKPANEL
  0
POLYLINE
  5
D7
  8
IMPORT_-_BACKPANEL
 66
     1
 10
0.0
 20
0.0
 30
0.0
  0
VERTEX
  5
6F9
  8
IMPORT_-_BACKPANEL
 10
-635.8898112024006
 20
1013.571857794911
 30
0.0
  0
VERTEX
  5
6FA
  8
IMPORT_-_BACKPANEL
 10
-635.8898112024006
 20
855.5979689060217
 30
0.0
  0
SEQEND
  5
6FB
  8
IMPORT_-_BACKPANEL
  0
POLYLINE
  5
D8
  8
IMPORT_-_BACKPANEL
 66
     1
 10
0.0
 20
0.0
 30
0.0
  0
VERTEX
  5
6FC
  8
IMPORT_-_BACKPANEL
 10
-469.2375889801783
 20
673.5999133504662
 30
0.0
  0
VERTEX
  5
6FD
  8
IMPORT_-_BACKPANEL
 10
-469.3434223135116
 20
674.7640800171329
 30
0.0
  0
VERTEX
  5
6FE
  8
IMPORT_-_BACKPANEL
 10
-469.6962000912895
 20
675.8929689060218
 30
0.0
  0
VERTEX
  5
6FF
  8
IMPORT_-_BACKPANEL
 10
-470.2253667579562
 20
676.9160244615772
 30
0.0
  0
VERTEX
  5
700
  8
IMPORT_-_BACKPANEL
 10
-470.9662000912895
 20
677.8332466837995
 30
0.0
  0
VERTEX
  5
701
  8
IMPORT_-_BACKPANEL
 10
-471.8834223135118
 20
678.5740800171328
 30
0.0
  0
VERTEX
  5
702
  8
IMPORT_-_BACKPANEL
 10
-472.941755646845
 20
679.1385244615773
 30
0.0
  0
VERTEX
  5
703
  8
IMPORT_-_BACKPANEL
 10
-474.0353667579561
 20
679.4560244615772
 30
0.0
  0
VERTEX
  5
704
  8
IMPORT_-_BACKPANEL
 10
-475.2348112024006
 20
679.5971355726884
 30
0.0
  0
SEQEND
  5
705
  8
IMPORT_-_BACKPANEL
  0
POLYLINE
  5
D9
  8
IMPORT_-_BACKPANEL
 66
     1
 10
0.0
 20
0.0
 30
0.0
  0
VERTEX
  5
706
  8
IMPORT_-_BACKPANEL
 10
-475.2348112024006
 20
679.5971355726884
 30
0.0
  0
VERTEX
  5
707
  8
IMPORT_-_BACKPANEL
 10
-629.8925889801783
 20
679.5971355726884
 30
0.0
  0
SEQEND
  5
708
  8
IMPORT_-_BACKPANEL
  0
POLYLINE
  5
DA
  8
IMPORT_-_BACKPANEL
 66
     1
 10
0.0
 20
0.0
 30
0.0
  0
VERTEX
  5
709
  8
IMPORT_-_BACKPANEL
 10
-629.8925889801783
 20
679.5971355726884
 30
0.0
  0
VERTEX
  5
70A
  8
IMPORT_-_BACKPANEL
 10
-631.056755646845
 20
679.4560244615772
 30
0.0
  0
VERTEX
  5
70B
  8
IMPORT_-_BACKPANEL
 10
-632.1856445357339
 20
679.1385244615773
 30
0.0
  0
VERTEX
  5
70C
  8
IMPORT_-_BACKPANEL
 10
-633.2439778690673
 20
678.5740800171328
 30
0.0
  0
VERTEX
  5
70D
  8
IMPORT_-_BACKPANEL
 10
-634.1259223135116
 20
677.8332466837995
 30
0.0
  0
VERTEX
  5
70E
  8
IMPORT_-_BACKPANEL
 10
-634.8667556468449
 20
676.9160244615772
 30
0.0
  0
VERTEX
  5
70F
  8
IMPORT_-_BACKPANEL
 10
-635.4312000912894
 20
675.8929689060218
 30
0.0
  0
VERTEX
  5
710
  8
IMPORT_-_BACKPANEL
 10
-635.7839778690673
 20
674.7640800171329
 30
0.0
  0
VERTEX
  5
711
  8
IMPORT_-_BACKPANEL
 10
-635.8898112024006
 20
673.5999133504662
 30
0.0
  0
SEQEND
  5
712
  8
IMPORT_-_BACKPANEL
  0
POLYLINE
  5
DB
  8
IMPORT_-_BACKPANEL
 66
     1
 10
0.0
 20
0.0
 30
0.0
  0
VERTEX
  5
713
  8
IMPORT_-_BACKPANEL
 10
-635.8898112024006
 20
673.5999133504662
 30
0.0
  0
VERTEX
  5
714
  8
IMPORT_-_BACKPANEL
 10
-635.8898112024006
 20
515.5907466837996
 30
0.0
  0
SEQEND
  5
715
  8
IMPORT_-_BACKPANEL
  0
POLYLINE
  5
DC
  8
IMPORT_-_BACKPANEL
 66
     1
 10
0.0
 20
0.0
 30
0.0
  0
VERTEX
  5
716
  8
IMPORT_-_BACKPANEL
 10
-635.8898112024006
 20
515.5907466837996
 30
0.0
  0
VERTEX
  5
717
  8
IMPORT_-_BACKPANEL
 10
-635.7839778690673
 20
514.4265800171329
 30
0.0
  0
VERTEX
  5
718
  8
IMPORT_-_BACKPANEL
 10
-635.4312000912894
 20
513.297691128244
 30
0.0
  0
VERTEX
  5
719
  8
IMPORT_-_BACKPANEL
 10
-634.8667556468449
 20
512.2393577949106
 30
0.0
  0
VERTEX
  5
71A
  8
IMPORT_-_BACKPANEL
 10
-634.1259223135116
 20
511.3574133504662
 30
0.0
  0
VERTEX
  5
71B
  8
IMPORT_-_BACKPANEL
 10
-633.2439778690673
 20
510.5813022393551
 30
0.0
  0
VERTEX
  5
71C
  8
IMPORT_-_BACKPANEL
 10
-632.1856445357339
 20
510.0521355726885
 30
0.0
  0
VERTEX
  5
71D
  8
IMPORT_-_BACKPANEL
 10
-631.056755646845
 20
509.6993577949107
 30
0.0
  0
VERTEX
  5
71E
  8
IMPORT_-_BACKPANEL
 10
-629.8925889801783
 20
509.5935244615773
 30
0.0
  0
SEQEND
  5
71F
  8
IMPORT_-_BACKPANEL
  0
POLYLINE
  5
DD
  8
IMPORT_-_BACKPANEL
 66
     1
 10
0.0
 20
0.0
 30
0.0
  0
VERTEX
  5
720
  8
IMPORT_-_BACKPANEL
 10
-629.8925889801783
 20
509.5935244615773
 30
0.0
  0
VERTEX
  5
721
  8
IMPORT_-_BACKPANEL
 10
-475.2348112024006
 20
509.5935244615773
 30
0.0
  0
SEQEND
  5
722
  8
IMPORT_-_BACKPANEL
  0
POLYLINE
  5
DE
  8
IMPORT_-_BACKPANEL
 66
     1
 10
0.0
 20
0.0
 30
0.0
  0
VERTEX
  5
723
  8
IMPORT_-_BACKPANEL
 10
-475.2348112024006
 20
509.5935244615773
 30
0.0
  0
VERTEX
  5
724
  8
IMPORT_-_BACKPANEL
 10
-474.0353667579561
 20
509.6993577949107
 30
0.0
  0
VERTEX
  5
725
  8
IMPORT_-_BACKPANEL
 10
-472.941755646845
 20
510.0521355726885
 30
0.0
  0
VERTEX
  5
726
  8
IMPORT_-_BACKPANEL
 10
-471.8834223135118
 20
510.5813022393551
 30
0.0
  0
VERTEX
  5
727
  8
IMPORT_-_BACKPANEL
 10
-470.9662000912895
 20
511.3574133504662
 30
0.0
  0
VERTEX
  5
728
  8
IMPORT_-_BACKPANEL
 10
-470.2253667579562
 20
512.2393577949106
 30
0.0
  0
VERTEX
  5
729
  8
IMPORT_-_BACKPANEL
 10
-469.6962000912895
 20
513.297691128244
 30
0.0
  0
VERTEX
  5
72A
  8
IMPORT_-_BACKPANEL
 10
-469.3434223135116
 20
514.4265800171329
 30
0.0
  0
VERTEX
  5
72B
  8
IMPORT_-_BACKPANEL
 10
-469.2375889801783
 20
515.5907466837996
 30
0.0
  0
SEQEND
  5
72C
  8
IMPORT_-_BACKPANEL
  0
POLYLINE
  5
DF
  8
IMPORT_-_BACKPANEL
 66
     1
 10
0.0
 20
0.0
 30
0.0
  0
VERTEX
  5
72D
  8
IMPORT_-_BACKPANEL
 10
-469.2375889801783
 20
515.5907466837996
 30
0.0
  0
VERTEX
  5
72E
  8
IMPORT_-_BACKPANEL
 10
-469.2375889801783
 20
673.5999133504662
 30
0.0
  0
SEQEND
  5
72F
  8
IMPORT_-_BACKPANEL
  0
POLYLINE
  5
E0
  8
IMPORT_-_BACKPANEL
 66
     1
 10
0.0
 20
0.0
 30
0.0
  0
VERTEX
  5
730
  8
IMPORT_-_BACKPANEL
 10
-302.5500889801781
 20
843.5682466837994
 30
0.0
  0
VERTEX
  5
731
  8
IMPORT_-_BACKPANEL
 10
-302.6912000912891
 20
844.7676911282439
 30
0.0
  0
VERTEX
  5
732
  8
IMPORT_-_BACKPANEL
 10
-303.0087000912893
 20
845.8965800171328
 30
0.0
  0
VERTEX
  5
733
  8
IMPORT_-_BACKPANEL
 10
-303.5731445357335
 20
846.9196355726884
 30
0.0
  0
VERTEX
  5
734
  8
IMPORT_-_BACKPANEL
 10
-304.3139778690668
 20
847.8368577949105
 30
0.0
  0
VERTEX
  5
735
  8
IMPORT_-_BACKPANEL
 10
-305.2312000912891
 20
848.5776911282438
 30
0.0
  0
VERTEX
  5
736
  8
IMPORT_-_BACKPANEL
 10
-306.254255646845
 20
849.1421355726885
 30
0.0
  0
VERTEX
  5
737
  8
IMPORT_-_BACKPANEL
 10
-307.3831445357339
 20
849.4596355726884
 30
0.0
  0
VERTEX
  5
738
  8
IMPORT_-_BACKPANEL
 10
-308.5473112024004
 20
849.6007466837995
 30
0.0
  0
SEQEND
  5
739
  8
IMPORT_-_BACKPANEL
  0
POLYLINE
  5
E1
  8
IMPORT_-_BACKPANEL
 66
     1
 10
0.0
 20
0.0
 30
0.0
  0
VERTEX
  5
73A
  8
IMPORT_-_BACKPANEL
 10
-308.5473112024004
 20
849.6007466837995
 30
0.0
  0
VERTEX
  5
73B
  8
IMPORT_-_BACKPANEL
 10
-463.2403667579561
 20
849.6007466837995
 30
0.0
  0
SEQEND
  5
73C
  8
IMPORT_-_BACKPANEL
  0
POLYLINE
  5
E2
  8
IMPORT_-_BACKPANEL
 66
     1
 10
0.0
 20
0.0
 30
0.0
  0
VERTEX
  5
73D
  8
IMPORT_-_BACKPANEL
 10
-463.2403667579561
 20
849.6007466837995
 30
0.0
  0
VERTEX
  5
73E
  8
IMPORT_-_BACKPANEL
 10
-464.4045334246227
 20
849.4596355726884
 30
0.0
  0
VERTEX
  5
73F
  8
IMPORT_-_BACKPANEL
 10
-465.5334223135117
 20
849.1421355726885
 30
0.0
  0
VERTEX
  5
740
  8
IMPORT_-_BACKPANEL
 10
-466.5564778690673
 20
848.5776911282438
 30
0.0
  0
VERTEX
  5
741
  8
IMPORT_-_BACKPANEL
 10
-467.4737000912894
 20
847.8368577949105
 30
0.0
  0
VERTEX
  5
742
  8
IMPORT_-_BACKPANEL
 10
-468.2145334246229
 20
846.9196355726884
 30
0.0
  0
VERTEX
  5
743
  8
IMPORT_-_BACKPANEL
 10
-468.7789778690671
 20
845.8965800171328
 30
0.0
  0
VERTEX
  5
744
  8
IMPORT_-_BACKPANEL
 10
-469.0964778690673
 20
844.7676911282439
 30
0.0
  0
VERTEX
  5
745
  8
IMPORT_-_BACKPANEL
 10
-469.2375889801783
 20
843.5682466837994
 30
0.0
  0
SEQEND
  5
746
  8
IMPORT_-_BACKPANEL
  0
POLYLINE
  5
E3
  8
IMPORT_-_BACKPANEL
 66
     1
 10
0.0
 20
0.0
 30
0.0
  0
VERTEX
  5
747
  8
IMPORT_-_BACKPANEL
 10
-469.2375889801783
 20
843.5682466837994
 30
0.0
  0
VERTEX
  5
748
  8
IMPORT_-_BACKPANEL
 10
-469.2375889801783
 20
685.5943577949107
 30
0.0
  0
SEQEND
  5
749
  8
IMPORT_-_BACKPANEL
  0
POLYLINE
  5
E4
  8
IMPORT_-_BACKPANEL
 66
     1
 10
0.0
 20
0.0
 30
0.0
  0
VERTEX
  5
74A
  8
IMPORT_-_BACKPANEL
 10
-469.2375889801783
 20
685.5943577949107
 30
0.0
  0
VERTEX
  5
74B
  8
IMPORT_-_BACKPANEL
 10
-469.0964778690673
 20
684.430191128244
 30
0.0
  0
VERTEX
  5
74C
  8
IMPORT_-_BACKPANEL
 10
-468.7789778690671
 20
683.3013022393551
 30
0.0
  0
VERTEX
  5
74D
  8
IMPORT_-_BACKPANEL
 10
-468.2145334246229
 20
682.2429689060217
 30
0.0
  0
VERTEX
  5
74E
  8
IMPORT_-_BACKPANEL
 10
-467.4737000912894
 20
681.3257466837994
 30
0.0
  0
VERTEX
  5
74F
  8
IMPORT_-_BACKPANEL
 10
-466.5564778690673
 20
680.5849133504661
 30
0.0
  0
VERTEX
  5
750
  8
IMPORT_-_BACKPANEL
 10
-465.5334223135117
 20
680.0557466837994
 30
0.0
  0
VERTEX
  5
751
  8
IMPORT_-_BACKPANEL
 10
-464.4045334246227
 20
679.7029689060217
 30
0.0
  0
VERTEX
  5
752
  8
IMPORT_-_BACKPANEL
 10
-463.2403667579561
 20
679.5971355726884
 30
0.0
  0
SEQEND
  5
753
  8
IMPORT_-_BACKPANEL
  0
POLYLINE
  5
E5
  8
IMPORT_-_BACKPANEL
 66
     1
 10
0.0
 20
0.0
 30
0.0
  0
VERTEX
  5
754
  8
IMPORT_-_BACKPANEL
 10
-463.2403667579561
 20
679.5971355726884
 30
0.0
  0
VERTEX
  5
755
  8
IMPORT_-_BACKPANEL
 10
-308.5473112024004
 20
679.5971355726884
 30
0.0
  0
SEQEND
  5
756
  8
IMPORT_-_BACKPANEL
  0
POLYLINE
  5
E6
  8
IMPORT_-_BACKPANEL
 66
     1
 10
0.0
 20
0.0
 30
0.0
  0
VERTEX
  5
757
  8
IMPORT_-_BACKPANEL
 10
-308.5473112024004
 20
679.5971355726884
 30
0.0
  0
VERTEX
  5
758
  8
IMPORT_-_BACKPANEL
 10
-307.3831445357339
 20
679.7029689060217
 30
0.0
  0
VERTEX
  5
759
  8
IMPORT_-_BACKPANEL
 10
-306.254255646845
 20
680.0557466837994
 30
0.0
  0
VERTEX
  5
75A
  8
IMPORT_-_BACKPANEL
 10
-305.2312000912891
 20
680.5849133504661
 30
0.0
  0
VERTEX
  5
75B
  8
IMPORT_-_BACKPANEL
 10
-304.3139778690668
 20
681.3257466837994
 30
0.0
  0
VERTEX
  5
75C
  8
IMPORT_-_BACKPANEL
 10
-303.5731445357335
 20
682.2429689060217
 30
0.0
  0
VERTEX
  5
75D
  8
IMPORT_-_BACKPANEL
 10
-303.0087000912893
 20
683.3013022393551
 30
0.0
  0
VERTEX
  5
75E
  8
IMPORT_-_BACKPANEL
 10
-302.6912000912891
 20
684.430191128244
 30
0.0
  0
VERTEX
  5
75F
  8
IMPORT_-_BACKPANEL
 10
-302.5500889801781
 20
685.5943577949107
 30
0.0
  0
SEQEND
  5
760
  8
IMPORT_-_BACKPANEL
  0
POLYLINE
  5
E7
  8
IMPORT_-_BACKPANEL
 66
     1
 10
0.0
 20
0.0
 30
0.0
  0
VERTEX
  5
761
  8
IMPORT_-_BACKPANEL
 10
-302.5500889801781
 20
685.5943577949107
 30
0.0
  0
VERTEX
  5
762
  8
IMPORT_-_BACKPANEL
 10
-302.5500889801781
 20
843.5682466837994
 30
0.0
  0
SEQEND
  5
763
  8
IMPORT_-_BACKPANEL
  0
POLYLINE
  5
E8
  8
IMPORT_-_BACKPANEL
 66
     1
 10
0.0
 20
0.0
 30
0.0
  0
VERTEX
  5
764
  8
IMPORT_-_BACKPANEL
 10
-477.2103667579563
 20
491.6018577949106
 30
0.0
  0
VERTEX
  5
765
  8
IMPORT_-_BACKPANEL
 10
-477.3162000912894
 20
492.7660244615773
 30
0.0
  0
VERTEX
  5
766
  8
IMPORT_-_BACKPANEL
 10
-477.6689778690672
 20
493.8949133504662
 30
0.0
  0
VERTEX
  5
767
  8
IMPORT_-_BACKPANEL
 10
-478.2334223135117
 20
494.9179689060218
 30
0.0
  0
VERTEX
  5
768
  8
IMPORT_-_BACKPANEL
 10
-478.974255646845
 20
495.835191128244
 30
0.0
  0
VERTEX
  5
769
  8
IMPORT_-_BACKPANEL
 10
-479.8914778690673
 20
496.5760244615774
 30
0.0
  0
VERTEX
  5
76A
  8
IMPORT_-_BACKPANEL
 10
-480.9145334246227
 20
497.1404689060218
 30
0.0
  0
VERTEX
  5
76B
  8
IMPORT_-_BACKPANEL
 10
-482.0434223135117
 20
497.4579689060218
 30
0.0
  0
VERTEX
  5
76C
  8
IMPORT_-_BACKPANEL
 10
-483.2075889801783
 20
497.5990800171329
 30
0.0
  0
SEQEND
  5
76D
  8
IMPORT_-_BACKPANEL
  0
POLYLINE
  5
E9
  8
IMPORT_-_BACKPANEL
 66
     1
 10
0.0
 20
0.0
 30
0.0
  0
VERTEX
  5
76E
  8
IMPORT_-_BACKPANEL
 10
-483.2075889801783
 20
497.5990800171329
 30
0.0
  0
VERTEX
  5
76F
  8
IMPORT_-_BACKPANEL
 10
-621.214255646845
 20
497.5990800171329
 30
0.0
  0
SEQEND
  5
770
  8
IMPORT_-_BACKPANEL
  0
POLYLINE
  5
EA
  8
IMPORT_-_BACKPANEL
 66
     1
 10
0.0
 20
0.0
 30
0.0
  0
VERTEX
  5
771
  8
IMPORT_-_BACKPANEL
 10
-621.214255646845
 20
497.5990800171329
 30
0.0
  0
VERTEX
  5
772
  8
IMPORT_-_BACKPANEL
 10
-622.3784223135117
 20
497.4579689060218
 30
0.0
  0
VERTEX
  5
773
  8
IMPORT_-_BACKPANEL
 10
-623.5073112024006
 20
497.1404689060218
 30
0.0
  0
VERTEX
  5
774
  8
IMPORT_-_BACKPANEL
 10
-624.565644535734
 20
496.5760244615774
 30
0.0
  0
VERTEX
  5
775
  8
IMPORT_-_BACKPANEL
 10
-625.4475889801784
 20
495.835191128244
 30
0.0
  0
VERTEX
  5
776
  8
IMPORT_-_BACKPANEL
 10
-626.1884223135116
 20
494.9179689060218
 30
0.0
  0
VERTEX
  5
777
  8
IMPORT_-_BACKPANEL
 10
-626.7528667579561
 20
493.8949133504662
 30
0.0
  0
VERTEX
  5
778
  8
IMPORT_-_BACKPANEL
 10
-627.105644535734
 20
492.7660244615773
 30
0.0
  0
VERTEX
  5
779
  8
IMPORT_-_BACKPANEL
 10
-627.2114778690673
 20
491.6018577949106
 30
0.0
  0
SEQEND
  5
77A
  8
IMPORT_-_BACKPANEL
  0
POLYLINE
  5
EB
  8
IMPORT_-_BACKPANEL
 66
     1
 10
0.0
 20
0.0
 30
0.0
  0
VERTEX
  5
77B
  8
IMPORT_-_BACKPANEL
 10
-627.2114778690673
 20
491.6018577949106
 30
0.0
  0
VERTEX
  5
77C
  8
IMPORT_-_BACKPANEL
 10
-627.2114778690673
 20
353.595191128244
 30
0.0
  0
SEQEND
  5
77D
  8
IMPORT_-_BACKPANEL
  0
POLYLINE
  5
EC
  8
IMPORT_-_BACKPANEL
 66
     1
 10
0.0
 20
0.0
 30
0.0
  0
VERTEX
  5
77E
  8
IMPORT_-_BACKPANEL
 10
-627.2114778690673
 20
353.595191128244
 30
0.0
  0
VERTEX
  5
77F
  8
IMPORT_-_BACKPANEL
 10
-627.105644535734
 20
352.4310244615774
 30
0.0
  0
VERTEX
  5
780
  8
IMPORT_-_BACKPANEL
 10
-626.7528667579561
 20
351.3021355726885
 30
0.0
  0
VERTEX
  5
781
  8
IMPORT_-_BACKPANEL
 10
-626.1884223135116
 20
350.2438022393551
 30
0.0
  0
VERTEX
  5
782
  8
IMPORT_-_BACKPANEL
 10
-625.4475889801784
 20
349.3265800171329
 30
0.0
  0
VERTEX
  5
783
  8
IMPORT_-_BACKPANEL
 10
-624.565644535734
 20
348.5857466837996
 30
0.0
  0
VERTEX
  5
784
  8
IMPORT_-_BACKPANEL
 10
-623.5073112024006
 20
348.0565800171329
 30
0.0
  0
VERTEX
  5
785
  8
IMPORT_-_BACKPANEL
 10
-622.3784223135117
 20
347.7038022393551
 30
0.0
  0
VERTEX
  5
786
  8
IMPORT_-_BACKPANEL
 10
-621.214255646845
 20
347.5979689060218
 30
0.0
  0
SEQEND
  5
787
  8
IMPORT_-_BACKPANEL
  0
POLYLINE
  5
ED
  8
IMPORT_-_BACKPANEL
 66
     1
 10
0.0
 20
0.0
 30
0.0
  0
VERTEX
  5
788
  8
IMPORT_-_BACKPANEL
 10
-621.214255646845
 20
347.5979689060218
 30
0.0
  0
VERTEX
  5
789
  8
IMPORT_-_BACKPANEL
 10
-483.2075889801783
 20
347.5979689060218
 30
0.0
  0
SEQEND
  5
78A
  8
IMPORT_-_BACKPANEL
  0
POLYLINE
  5
EE
  8
IMPORT_-_BACKPANEL
 66
     1
 10
0.0
 20
0.0
 30
0.0
  0
VERTEX
  5
78B
  8
IMPORT_-_BACKPANEL
 10
-483.2075889801783
 20
347.5979689060218
 30
0.0
  0
VERTEX
  5
78C
  8
IMPORT_-_BACKPANEL
 10
-482.0434223135117
 20
347.7038022393551
 30
0.0
  0
VERTEX
  5
78D
  8
IMPORT_-_BACKPANEL
 10
-480.9145334246227
 20
348.0565800171329
 30
0.0
  0
VERTEX
  5
78E
  8
IMPORT_-_BACKPANEL
 10
-479.8914778690673
 20
348.5857466837996
 30
0.0
  0
VERTEX
  5
78F
  8
IMPORT_-_BACKPANEL
 10
-478.974255646845
 20
349.3265800171329
 30
0.0
  0
VERTEX
  5
790
  8
IMPORT_-_BACKPANEL
 10
-478.2334223135117
 20
350.2438022393551
 30
0.0
  0
VERTEX
  5
791
  8
IMPORT_-_BACKPANEL
 10
-477.6689778690672
 20
351.3021355726885
 30
0.0
  0
VERTEX
  5
792
  8
IMPORT_-_BACKPANEL
 10
-477.3162000912894
 20
352.4310244615774
 30
0.0
  0
VERTEX
  5
793
  8
IMPORT_-_BACKPANEL
 10
-477.2103667579563
 20
353.595191128244
 30
0.0
  0
SEQEND
  5
794
  8
IMPORT_-_BACKPANEL
  0
POLYLINE
  5
EF
  8
IMPORT_-_BACKPANEL
 66
     1
 10
0.0
 20
0.0
 30
0.0
  0
VERTEX
  5
795
  8
IMPORT_-_BACKPANEL
 10
-477.2103667579563
 20
353.595191128244
 30
0.0
  0
VERTEX
  5
796
  8
IMPORT_-_BACKPANEL
 10
-477.2103667579563
 20
491.6018577949106
 30
0.0
  0
SEQEND
  5
797
  8
IMPORT_-_BACKPANEL
  0
POLYLINE
  5
F0
  8
IMPORT_-_BACKPANEL
 66
     1
 10
0.0
 20
0.0
 30
0.0
  0
VERTEX
  5
798
  8
IMPORT_-_BACKPANEL
 10
-302.5500889801781
 20
339.5899133504662
 30
0.0
  0
VERTEX
  5
799
  8
IMPORT_-_BACKPANEL
 10
-308.5473112024004
 20
339.5899133504662
 30
0.0
  0
SEQEND
  5
79A
  8
IMPORT_-_BACKPANEL
  0
POLYLINE
  5
F1
  8
IMPORT_-_BACKPANEL
 66
     1
 10
0.0
 20
0.0
 30
0.0
  0
VERTEX
  5
79B
  8
IMPORT_-_BACKPANEL
 10
-463.2403667579561
 20
339.5899133504662
 30
0.0
  0
VERTEX
  5
79C
  8
IMPORT_-_BACKPANEL
 10
-469.2375889801783
 20
339.5899133504662
 30
0.0
  0
SEQEND
  5
79D
  8
IMPORT_-_BACKPANEL
  0
POLYLINE
  5
F2
  8
IMPORT_-_BACKPANEL
 66
     1
 10
0.0
 20
0.0
 30
0.0
  0
VERTEX
  5
79E
  8
IMPORT_-_BACKPANEL
 10
-635.8898112024006
 20
503.5963022393551
 30
0.0
  0
VERTEX
  5
79F
  8
IMPORT_-_BACKPANEL
 10
-635.9956445357338
 20
504.7604689060217
 30
0.0
  0
VERTEX
  5
7A0
  8
IMPORT_-_BACKPANEL
 10
-636.3484223135117
 20
505.8893577949107
 30
0.0
  0
VERTEX
  5
7A1
  8
IMPORT_-_BACKPANEL
 10
-636.9128667579562
 20
506.9124133504662
 30
0.0
  0
VERTEX
  5
7A2
  8
IMPORT_-_BACKPANEL
 10
-637.6537000912895
 20
507.8296355726885
 30
0.0
  0
VERTEX
  5
7A3
  8
IMPORT_-_BACKPANEL
 10
-638.5709223135118
 20
508.5704689060218
 30
0.0
  0
VERTEX
  5
7A4
  8
IMPORT_-_BACKPANEL
 10
-639.5939778690672
 20
509.1349133504662
 30
0.0
  0
VERTEX
  5
7A5
  8
IMPORT_-_BACKPANEL
 10
-640.7228667579561
 20
509.4524133504663
 30
0.0
  0
VERTEX
  5
7A6
  8
IMPORT_-_BACKPANEL
 10
-641.8870334246228
 20
509.5935244615773
 30
0.0
  0
SEQEND
  5
7A7
  8
IMPORT_-_BACKPANEL
  0
POLYLINE
  5
F3
  8
IMPORT_-_BACKPANEL
 66
     1
 10
0.0
 20
0.0
 30
0.0
  0
VERTEX
  5
7A8
  8
IMPORT_-_BACKPANEL
 10
-641.8870334246228
 20
509.5935244615773
 30
0.0
  0
VERTEX
  5
7A9
  8
IMPORT_-_BACKPANEL
 10
-796.5800889801783
 20
509.5935244615773
 30
0.0
  0
SEQEND
  5
7AA
  8
IMPORT_-_BACKPANEL
  0
POLYLINE
  5
F4
  8
IMPORT_-_BACKPANEL
 66
     1
 10
0.0
 20
0.0
 30
0.0
  0
VERTEX
  5
7AB
  8
IMPORT_-_BACKPANEL
 10
-796.5800889801783
 20
509.5935244615773
 30
0.0
  0
VERTEX
  5
7AC
  8
IMPORT_-_BACKPANEL
 10
-797.6737000912894
 20
509.487691128244
 30
0.0
  0
VERTEX
  5
7AD
  8
IMPORT_-_BACKPANEL
 10
-798.7673112024006
 20
509.170191128244
 30
0.0
  0
VERTEX
  5
7AE
  8
IMPORT_-_BACKPANEL
 10
-799.7903667579562
 20
508.6410244615773
 30
0.0
  0
VERTEX
  5
7AF
  8
IMPORT_-_BACKPANEL
 10
-800.6723112024006
 20
507.9354689060218
 30
0.0
  0
VERTEX
  5
7B0
  8
IMPORT_-_BACKPANEL
 10
-801.4131445357339
 20
507.0888022393551
 30
0.0
  0
VERTEX
  5
7B1
  8
IMPORT_-_BACKPANEL
 10
-802.0128667579561
 20
506.1363022393551
 30
0.0
  0
VERTEX
  5
7B2
  8
IMPORT_-_BACKPANEL
 10
-802.365644535734
 20
505.042691128244
 30
0.0
  0
VERTEX
  5
7B3
  8
IMPORT_-_BACKPANEL
 10
-802.5420334246228
 20
503.9490800171329
 30
0.0
  0
SEQEND
  5
7B4
  8
IMPORT_-_BACKPANEL
  0
POLYLINE
  5
F5
  8
IMPORT_-_BACKPANEL
 66
     1
 10
0.0
 20
0.0
 30
0.0
  0
VERTEX
  5
7B5
  8
IMPORT_-_BACKPANEL
 10
-802.5420334246228
 20
685.2415800171328
 30
0.0
  0
VERTEX
  5
7B6
  8
IMPORT_-_BACKPANEL
 10
-802.5420334246228
 20
679.5971355726884
 30
0.0
  0
SEQEND
  5
7B7
  8
IMPORT_-_BACKPANEL
  0
POLYLINE
  5
F6
  8
IMPORT_-_BACKPANEL
 66
     1
 10
0.0
 20
0.0
 30
0.0
  0
VERTEX
  5
7B8
  8
IMPORT_-_BACKPANEL
 10
-802.5420334246228
 20
849.6007466837995
 30
0.0
  0
VERTEX
  5
7B9
  8
IMPORT_-_BACKPANEL
 10
-802.5420334246228
 20
843.9210244615773
 30
0.0
  0
SEQEND
  5
7BA
  8
IMPORT_-_BACKPANEL
  0
POLYLINE
  5
F7
  8
IMPORT_-_BACKPANEL
 66
     1
 10
0.0
 20
0.0
 30
0.0
  0
VERTEX
  5
7BB
  8
IMPORT_-_BACKPANEL
 10
-802.5420334246228
 20
345.2343577949107
 30
0.0
  0
VERTEX
  5
7BC
  8
IMPORT_-_BACKPANEL
 10
-802.5420334246228
 20
339.5899133504662
 30
0.0
  0
SEQEND
  5
7BD
  8
IMPORT_-_BACKPANEL
  0
POLYLINE
  5
F8
  8
IMPORT_-_BACKPANEL
 66
     1
 10
0.0
 20
0.0
 30
0.0
  0
VERTEX
  5
7BE
  8
IMPORT_-_BACKPANEL
 10
-802.5420334246228
 20
345.2343577949107
 30
0.0
  0
VERTEX
  5
7BF
  8
IMPORT_-_BACKPANEL
 10
-802.365644535734
 20
344.1054689060218
 30
0.0
  0
VERTEX
  5
7C0
  8
IMPORT_-_BACKPANEL
 10
-802.0128667579561
 20
343.0471355726885
 30
0.0
  0
VERTEX
  5
7C1
  8
IMPORT_-_BACKPANEL
 10
-801.4131445357339
 20
342.0593577949107
 30
0.0
  0
VERTEX
  5
7C2
  8
IMPORT_-_BACKPANEL
 10
-800.6723112024006
 20
341.212691128244
 30
0.0
  0
VERTEX
  5
7C3
  8
IMPORT_-_BACKPANEL
 10
-799.7903667579562
 20
340.5424133504662
 30
0.0
  0
VERTEX
  5
7C4
  8
IMPORT_-_BACKPANEL
 10
-798.7673112024006
 20
340.0132466837996
 30
0.0
  0
VERTEX
  5
7C5
  8
IMPORT_-_BACKPANEL
 10
-797.6737000912894
 20
339.6957466837996
 30
0.0
  0
VERTEX
  5
7C6
  8
IMPORT_-_BACKPANEL
 10
-796.5800889801783
 20
339.5899133504662
 30
0.0
  0
SEQEND
  5
7C7
  8
IMPORT_-_BACKPANEL
  0
POLYLINE
  5
F9
  8
IMPORT_-_BACKPANEL
 66
     1
 10
0.0
 20
0.0
 30
0.0
  0
VERTEX
  5
7C8
  8
IMPORT_-_BACKPANEL
 10
-796.5800889801783
 20
339.5899133504662
 30
0.0
  0
VERTEX
  5
7C9
  8
IMPORT_-_BACKPANEL
 10
-802.5420334246228
 20
339.5899133504662
 30
0.0
  0
SEQEND
  5
7CA
  8
IMPORT_-_BACKPANEL
  0
POLYLINE
  5
FA
  8
IMPORT_-_BACKPANEL
 66
     1
 10
0.0
 20
0.0
 30
0.0
  0
VERTEX
  5
7CB
  8
IMPORT_-_BACKPANEL
 10
-796.5800889801783
 20
1189.572691128244
 30
0.0
  0
VERTEX
  5
7CC
  8
IMPORT_-_BACKPANEL
 10
-797.6737000912894
 20
1189.466857794911
 30
0.0
  0
VERTEX
  5
7CD
  8
IMPORT_-_BACKPANEL
 10
-798.7673112024006
 20
1189.14935779491
 30
0.0
  0
VERTEX
  5
7CE
  8
IMPORT_-_BACKPANEL
 10
-799.7903667579562
 20
1188.655468906022
 30
0.0
  0
VERTEX
  5
7CF
  8
IMPORT_-_BACKPANEL
 10
-800.6723112024006
 20
1187.949913350466
 30
0.0
  0
VERTEX
  5
7D0
  8
IMPORT_-_BACKPANEL
 10
-801.4131445357339
 20
1187.1032466838
 30
0.0
  0
VERTEX
  5
7D1
  8
IMPORT_-_BACKPANEL
 10
-802.0128667579561
 20
1186.115468906022
 30
0.0
  0
VERTEX
  5
7D2
  8
IMPORT_-_BACKPANEL
 10
-802.365644535734
 20
1185.057135572688
 30
0.0
  0
VERTEX
  5
7D3
  8
IMPORT_-_BACKPANEL
 10
-802.5420334246228
 20
1183.928246683799
 30
0.0
  0
SEQEND
  5
7D4
  8
IMPORT_-_BACKPANEL
  0
POLYLINE
  5
FB
  8
IMPORT_-_BACKPANEL
 66
     1
 10
0.0
 20
0.0
 30
0.0
  0
VERTEX
  5
7D5
  8
IMPORT_-_BACKPANEL
 10
-802.5420334246228
 20
1189.572691128244
 30
0.0
  0
VERTEX
  5
7D6
  8
IMPORT_-_BACKPANEL
 10
-802.5420334246228
 20
1183.928246683799
 30
0.0
  0
SEQEND
  5
7D7
  8
IMPORT_-_BACKPANEL
  0
POLYLINE
  5
FC
  8
IMPORT_-_BACKPANEL
 66
     1
 10
0.0
 20
0.0
 30
0.0
  0
VERTEX
  5
7D8
  8
IMPORT_-_BACKPANEL
 10
-796.5800889801783
 20
1189.572691128244
 30
0.0
  0
VERTEX
  5
7D9
  8
IMPORT_-_BACKPANEL
 10
-802.5420334246228
 20
1189.572691128244
 30
0.0
  0
SEQEND
  5
7DA
  8
IMPORT_-_BACKPANEL
  0
POLYLINE
  5
FD
  8
IMPORT_-_BACKPANEL
 66
     1
 10
0.0
 20
0.0
 30
0.0
  0
VERTEX
  5
7DB
  8
IMPORT_-_BACKPANEL
 10
-784.5503667579562
 20
345.5871355726885
 30
0.0
  0
VERTEX
  5
7DC
  8
IMPORT_-_BACKPANEL
 10
-686.5487000912894
 20
345.5871355726885
 30
0.0
  0
SEQEND
  5
7DD
  8
IMPORT_-_BACKPANEL
  0
POLYLINE
  5
FE
  8
IMPORT_-_BACKPANEL
 66
     1
 10
0.0
 20
0.0
 30
0.0
  0
VERTEX
  5
7DE
  8
IMPORT_-_BACKPANEL
 10
-686.5487000912894
 20
345.5871355726885
 30
0.0
  0
VERTEX
  5
7DF
  8
IMPORT_-_BACKPANEL
 10
-686.5487000912894
 20
423.5863022393551
 30
0.0
  0
SEQEND
  5
7E0
  8
IMPORT_-_BACKPANEL
  0
POLYLINE
  5
FF
  8
IMPORT_-_BACKPANEL
 66
     1
 10
0.0
 20
0.0
 30
0.0
  0
VERTEX
  5
7E1
  8
IMPORT_-_BACKPANEL
 10
-686.5487000912894
 20
423.5863022393551
 30
0.0
  0
VERTEX
  5
7E2
  8
IMPORT_-_BACKPANEL
 10
-784.5503667579562
 20
423.5863022393551
 30
0.0
  0
SEQEND
  5
7E3
  8
IMPORT_-_BACKPANEL
  0
POLYLINE
  5
100
  8
IMPORT_-_BACKPANEL
 66
     1
 10
0.0
 20
0.0
 30
0.0
  0
VERTEX
  5
7E4
  8
IMPORT_-_BACKPANEL
 10
-784.5503667579562
 20
423.5863022393551
 30
0.0
  0
VERTEX
  5
7E5
  8
IMPORT_-_BACKPANEL
 10
-784.5503667579562
 20
345.5871355726885
 30
0.0
  0
SEQEND
  5
7E6
  8
IMPORT_-_BACKPANEL
  0
POLYLINE
  5
101
  8
IMPORT_-_BACKPANEL
 66
     1
 10
0.0
 20
0.0
 30
0.0
  0
VERTEX
  5
7E7
  8
IMPORT_-_BACKPANEL
 10
-802.5420334246228
 20
503.9490800171329
 30
0.0
  0
VERTEX
  5
7E8
  8
IMPORT_-_BACKPANEL
 10
-802.5420334246228
 20
345.2343577949107
 30
0.0
  0
SEQEND
  5
7E9
  8
IMPORT_-_BACKPANEL
  0
POLYLINE
  5
102
  8
IMPORT_-_BACKPANEL
 66
     1
 10
0.0
 20
0.0
 30
0.0
  0
VERTEX
  5
7EA
  8
IMPORT_-_BACKPANEL
 10
-796.5800889801783
 20
339.5899133504662
 30
0.0
  0
VERTEX
  5
7EB
  8
IMPORT_-_BACKPANEL
 10
-641.8870334246228
 20
339.5899133504662
 30
0.0
  0
SEQEND
  5
7EC
  8
IMPORT_-_BACKPANEL
  0
POLYLINE
  5
103
  8
IMPORT_-_BACKPANEL
 66
     1
 10
0.0
 20
0.0
 30
0.0
  0
VERTEX
  5
7ED
  8
IMPORT_-_BACKPANEL
 10
-463.2403667579561
 20
339.5899133504662
 30
0.0
  0
VERTEX
  5
7EE
  8
IMPORT_-_BACKPANEL
 10
-308.5473112024004
 20
339.5899133504662
 30
0.0
  0
SEQEND
  5
7EF
  8
IMPORT_-_BACKPANEL
  0
POLYLINE
  5
104
  8
IMPORT_-_BACKPANEL
 66
     1
 10
0.0
 20
0.0
 30
0.0
  0
VERTEX
  5
7F0
  8
IMPORT_-_BACKPANEL
 10
-802.5420334246228
 20
685.2415800171328
 30
0.0
  0
VERTEX
  5
7F1
  8
IMPORT_-_BACKPANEL
 10
-802.5420334246228
 20
843.9210244615773
 30
0.0
  0
SEQEND
  5
7F2
  8
IMPORT_-_BACKPANEL
  0
POLYLINE
  5
105
  8
IMPORT_-_BACKPANEL
 66
     1
 10
0.0
 20
0.0
 30
0.0
  0
VERTEX
  5
7F3
  8
IMPORT_-_BACKPANEL
 10
-621.214255646845
 20
491.6018577949106
 30
0.0
  0
VERTEX
  5
7F4
  8
IMPORT_-_BACKPANEL
 10
-621.214255646845
 20
353.595191128244
 30
0.0
  0
SEQEND
  5
7F5
  8
IMPORT_-_BACKPANEL
  0
POLYLINE
  5
106
  8
IMPORT_-_BACKPANEL
 66
     1
 10
0.0
 20
0.0
 30
0.0
  0
VERTEX
  5
7F6
  8
IMPORT_-_BACKPANEL
 10
-621.214255646845
 20
353.595191128244
 30
0.0
  0
VERTEX
  5
7F7
  8
IMPORT_-_BACKPANEL
 10
-483.2075889801783
 20
353.595191128244
 30
0.0
  0
SEQEND
  5
7F8
  8
IMPORT_-_BACKPANEL
  0
POLYLINE
  5
107
  8
IMPORT_-_BACKPANEL
 66
     1
 10
0.0
 20
0.0
 30
0.0
  0
VERTEX
  5
7F9
  8
IMPORT_-_BACKPANEL
 10
-483.2075889801783
 20
353.595191128244
 30
0.0
  0
VERTEX
  5
7FA
  8
IMPORT_-_BACKPANEL
 10
-483.2075889801783
 20
491.6018577949106
 30
0.0
  0
SEQEND
  5
7FB
  8
IMPORT_-_BACKPANEL
  0
POLYLINE
  5
108
  8
IMPORT_-_BACKPANEL
 66
     1
 10
0.0
 20
0.0
 30
0.0
  0
VERTEX
  5
7FC
  8
IMPORT_-_BACKPANEL
 10
-483.2075889801783
 20
491.6018577949106
 30
0.0
  0
VERTEX
  5
7FD
  8
IMPORT_-_BACKPANEL
 10
-621.214255646845
 20
491.6018577949106
 30
0.0
  0
SEQEND
  5
7FE
  8
IMPORT_-_BACKPANEL
  0
POLYLINE
  5
109
  8
IMPORT_-_BACKPANEL
 66
     1
 10
0.0
 20
0.0
 30
0.0
  0
VERTEX
  5
7FF
  8
IMPORT_-_BACKPANEL
 10
-308.5473112024004
 20
1189.572691128244
 30
0.0
  0
VERTEX
  5
800
  8
IMPORT_-_BACKPANEL
 10
-463.2403667579561
 20
1189.572691128244
 30
0.0
  0
SEQEND
  5
801
  8
IMPORT_-_BACKPANEL
  0
POLYLINE
  5
10A
  8
IMPORT_-_BACKPANEL
 66
     1
 10
0.0
 20
0.0
 30
0.0
  0
VERTEX
  5
802
  8
IMPORT_-_BACKPANEL
 10
-802.5420334246228
 20
1183.928246683799
 30
0.0
  0
VERTEX
  5
803
  8
IMPORT_-_BACKPANEL
 10
-802.5420334246228
 20
1025.248802239355
 30
0.0
  0
SEQEND
  5
804
  8
IMPORT_-_BACKPANEL
  0
POLYLINE
  5
10B
  8
IMPORT_-_BACKPANEL
 66
     1
 10
0.0
 20
0.0
 30
0.0
  0
VERTEX
  5
805
  8
IMPORT_-_BACKPANEL
 10
-641.8870334246228
 20
1189.572691128244
 30
0.0
  0
VERTEX
  5
806
  8
IMPORT_-_BACKPANEL
 10
-796.5800889801783
 20
1189.572691128244
 30
0.0
  0
SEQEND
  5
807
  8
IMPORT_-_BACKPANEL
  0
POLYLINE
  5
10C
  8
IMPORT_-_BACKPANEL
 66
     1
 10
0.0
 20
0.0
 30
0.0
  0
VERTEX
  5
808
  8
IMPORT_-_BACKPANEL
 10
-778.553144535734
 20
351.5843577949107
 30
0.0
  0
VERTEX
  5
809
  8
IMPORT_-_BACKPANEL
 10
-778.553144535734
 20
417.5890800171329
 30
0.0
  0
SEQEND
  5
80A
  8
IMPORT_-_BACKPANEL
  0
POLYLINE
  5
10D
  8
IMPORT_-_BACKPANEL
 66
     1
 10
0.0
 20
0.0
 30
0.0
  0
VERTEX
  5
80B
  8
IMPORT_-_BACKPANEL
 10
-692.5459223135117
 20
417.5890800171329
 30
0.0
  0
VERTEX
  5
80C
  8
IMPORT_-_BACKPANEL
 10
-778.553144535734
 20
417.5890800171329
 30
0.0
  0
SEQEND
  5
80D
  8
IMPORT_-_BACKPANEL
  0
POLYLINE
  5
10E
  8
IMPORT_-_BACKPANEL
 66
     1
 10
0.0
 20
0.0
 30
0.0
  0
VERTEX
  5
80E
  8
IMPORT_-_BACKPANEL
 10
-692.5459223135117
 20
351.5843577949107
 30
0.0
  0
VERTEX
  5
80F
  8
IMPORT_-_BACKPANEL
 10
-778.553144535734
 20
351.5843577949107
 30
0.0
  0
SEQEND
  5
810
  8
IMPORT_-_BACKPANEL
  0
POLYLINE
  5
10F
  8
IMPORT_-_BACKPANEL
 66
     1
 10
0.0
 20
0.0
 30
0.0
  0
VERTEX
  5
811
  8
IMPORT_-_BACKPANEL
 10
-692.5459223135117
 20
351.5843577949107
 30
0.0
  0
VERTEX
  5
812
  8
IMPORT_-_BACKPANEL
 10
-692.5459223135117
 20
417.5890800171329
 30
0.0
  0
SEQEND
  5
813
  8
IMPORT_-_BACKPANEL
  0
POLYLINE
  5
111
  8
IMPORT_-_SIDEPANEL
 66
     1
 10
0.0
 20
0.0
 30
0.0
  0
VERTEX
  5
814
  8
IMPORT_-_SIDEPANEL
 10
1637.53685639391
 20
235.1391190062329
 30
0.0
  0
VERTEX
  5
815
  8
IMPORT_-_SIDEPANEL
 10
1479.527689727243
 20
235.1391190062329
 30
0.0
  0
SEQEND
  5
816
  8
IMPORT_-_SIDEPANEL
  0
POLYLINE
  5
112
  8
IMPORT_-_SIDEPANEL
 66
     1
 10
0.0
 20
0.0
 30
0.0
  0
VERTEX
  5
817
  8
IMPORT_-_SIDEPANEL
 10
1479.527689727243
 20
235.1391190062329
 30
0.0
  0
VERTEX
  5
818
  8
IMPORT_-_SIDEPANEL
 10
1478.363523060577
 20
235.0332856728996
 30
0.0
  0
VERTEX
  5
819
  8
IMPORT_-_SIDEPANEL
 10
1477.234634171688
 20
234.680507895122
 30
0.0
  0
VERTEX
  5
81A
  8
IMPORT_-_SIDEPANEL
 10
1476.211578616132
 20
234.1513412284553
 30
0.0
  0
VERTEX
  5
81B
  8
IMPORT_-_SIDEPANEL
 10
1475.29435639391
 20
233.4105078951218
 30
0.0
  0
VERTEX
  5
81C
  8
IMPORT_-_SIDEPANEL
 10
1474.553523060577
 20
232.4932856728997
 30
0.0
  0
VERTEX
  5
81D
  8
IMPORT_-_SIDEPANEL
 10
1473.989078616132
 20
231.4349523395663
 30
0.0
  0
VERTEX
  5
81E
  8
IMPORT_-_SIDEPANEL
 10
1473.636300838355
 20
230.3413412284553
 30
0.0
  0
VERTEX
  5
81F
  8
IMPORT_-_SIDEPANEL
 10
1473.530467505021
 20
229.1418967840107
 30
0.0
  0
SEQEND
  5
820
  8
IMPORT_-_SIDEPANEL
  0
POLYLINE
  5
113
  8
IMPORT_-_SIDEPANEL
 66
     1
 10
0.0
 20
0.0
 30
0.0
  0
VERTEX
  5
821
  8
IMPORT_-_SIDEPANEL
 10
1139.520467505021
 20
401.8266190062329
 30
0.0
  0
VERTEX
  5
822
  8
IMPORT_-_SIDEPANEL
 10
1297.529634171688
 20
401.8266190062329
 30
0.0
  0
SEQEND
  5
823
  8
IMPORT_-_SIDEPANEL
  0
POLYLINE
  5
114
  8
IMPORT_-_SIDEPANEL
 66
     1
 10
0.0
 20
0.0
 30
0.0
  0
VERTEX
  5
824
  8
IMPORT_-_SIDEPANEL
 10
1297.529634171688
 20
401.8266190062329
 30
0.0
  0
VERTEX
  5
825
  8
IMPORT_-_SIDEPANEL
 10
1298.693800838354
 20
401.9324523395662
 30
0.0
  0
VERTEX
  5
826
  8
IMPORT_-_SIDEPANEL
 10
1299.822689727243
 20
402.2852301173441
 30
0.0
  0
VERTEX
  5
827
  8
IMPORT_-_SIDEPANEL
 10
1300.845745282799
 20
402.8496745617886
 30
0.0
  0
VERTEX
  5
828
  8
IMPORT_-_SIDEPANEL
 10
1301.762967505021
 20
403.5905078951218
 30
0.0
  0
VERTEX
  5
829
  8
IMPORT_-_SIDEPANEL
 10
1302.503800838354
 20
404.5077301173442
 30
0.0
  0
VERTEX
  5
82A
  8
IMPORT_-_SIDEPANEL
 10
1303.068245282799
 20
405.5307856728996
 30
0.0
  0
VERTEX
  5
82B
  8
IMPORT_-_SIDEPANEL
 10
1303.421023060577
 20
406.6596745617885
 30
0.0
  0
VERTEX
  5
82C
  8
IMPORT_-_SIDEPANEL
 10
1303.52685639391
 20
407.8238412284552
 30
0.0
  0
SEQEND
  5
82D
  8
IMPORT_-_SIDEPANEL
  0
POLYLINE
  5
115
  8
IMPORT_-_SIDEPANEL
 66
     1
 10
0.0
 20
0.0
 30
0.0
  0
VERTEX
  5
82E
  8
IMPORT_-_SIDEPANEL
 10
1473.530467505021
 20
407.8238412284552
 30
0.0
  0
VERTEX
  5
82F
  8
IMPORT_-_SIDEPANEL
 10
1473.636300838355
 20
406.6596745617885
 30
0.0
  0
VERTEX
  5
830
  8
IMPORT_-_SIDEPANEL
 10
1473.989078616132
 20
405.5307856728996
 30
0.0
  0
VERTEX
  5
831
  8
IMPORT_-_SIDEPANEL
 10
1474.553523060577
 20
404.5077301173442
 30
0.0
  0
VERTEX
  5
832
  8
IMPORT_-_SIDEPANEL
 10
1475.29435639391
 20
403.5905078951218
 30
0.0
  0
VERTEX
  5
833
  8
IMPORT_-_SIDEPANEL
 10
1476.211578616132
 20
402.8496745617886
 30
0.0
  0
VERTEX
  5
834
  8
IMPORT_-_SIDEPANEL
 10
1477.234634171688
 20
402.2852301173441
 30
0.0
  0
VERTEX
  5
835
  8
IMPORT_-_SIDEPANEL
 10
1478.363523060577
 20
401.9324523395662
 30
0.0
  0
VERTEX
  5
836
  8
IMPORT_-_SIDEPANEL
 10
1479.527689727243
 20
401.8266190062329
 30
0.0
  0
SEQEND
  5
837
  8
IMPORT_-_SIDEPANEL
  0
POLYLINE
  5
116
  8
IMPORT_-_SIDEPANEL
 66
     1
 10
0.0
 20
0.0
 30
0.0
  0
VERTEX
  5
838
  8
IMPORT_-_SIDEPANEL
 10
1479.527689727243
 20
401.8266190062329
 30
0.0
  0
VERTEX
  5
839
  8
IMPORT_-_SIDEPANEL
 10
1637.53685639391
 20
401.8266190062329
 30
0.0
  0
SEQEND
  5
83A
  8
IMPORT_-_SIDEPANEL
  0
POLYLINE
  5
117
  8
IMPORT_-_SIDEPANEL
 66
     1
 10
0.0
 20
0.0
 30
0.0
  0
VERTEX
  5
83B
  8
IMPORT_-_SIDEPANEL
 10
1649.531300838355
 20
401.8266190062329
 30
0.0
  0
VERTEX
  5
83C
  8
IMPORT_-_SIDEPANEL
 10
1813.537689727243
 20
401.8266190062329
 30
0.0
  0
SEQEND
  5
83D
  8
IMPORT_-_SIDEPANEL
  0
POLYLINE
  5
118
  8
IMPORT_-_SIDEPANEL
 66
     1
 10
0.0
 20
0.0
 30
0.0
  0
VERTEX
  5
83E
  8
IMPORT_-_SIDEPANEL
 10
1649.531300838355
 20
401.8266190062329
 30
0.0
  0
VERTEX
  5
83F
  8
IMPORT_-_SIDEPANEL
 10
1648.367134171688
 20
401.7207856728996
 30
0.0
  0
VERTEX
  5
840
  8
IMPORT_-_SIDEPANEL
 10
1647.238245282799
 20
401.368007895122
 30
0.0
  0
VERTEX
  5
841
  8
IMPORT_-_SIDEPANEL
 10
1646.179911949465
 20
400.8035634506775
 30
0.0
  0
VERTEX
  5
842
  8
IMPORT_-_SIDEPANEL
 10
1645.297967505021
 20
400.062730117344
 30
0.0
  0
VERTEX
  5
843
  8
IMPORT_-_SIDEPANEL
 10
1644.557134171688
 20
399.1455078951219
 30
0.0
  0
VERTEX
  5
844
  8
IMPORT_-_SIDEPANEL
 10
1643.992689727243
 20
398.1224523395663
 30
0.0
  0
VERTEX
  5
845
  8
IMPORT_-_SIDEPANEL
 10
1643.639911949465
 20
396.9935634506774
 30
0.0
  0
VERTEX
  5
846
  8
IMPORT_-_SIDEPANEL
 10
1643.534078616132
 20
395.8293967840107
 30
0.0
  0
SEQEND
  5
847
  8
IMPORT_-_SIDEPANEL
  0
POLYLINE
  5
119
  8
IMPORT_-_SIDEPANEL
 66
     1
 10
0.0
 20
0.0
 30
0.0
  0
VERTEX
  5
848
  8
IMPORT_-_SIDEPANEL
 10
1643.534078616132
 20
395.8293967840107
 30
0.0
  0
VERTEX
  5
849
  8
IMPORT_-_SIDEPANEL
 10
1643.534078616132
 20
241.171619006233
 30
0.0
  0
SEQEND
  5
84A
  8
IMPORT_-_SIDEPANEL
  0
POLYLINE
  5
11A
  8
IMPORT_-_SIDEPANEL
 66
     1
 10
0.0
 20
0.0
 30
0.0
  0
VERTEX
  5
84B
  8
IMPORT_-_SIDEPANEL
 10
1643.534078616132
 20
241.171619006233
 30
0.0
  0
VERTEX
  5
84C
  8
IMPORT_-_SIDEPANEL
 10
1643.639911949465
 20
239.9721745617885
 30
0.0
  0
VERTEX
  5
84D
  8
IMPORT_-_SIDEPANEL
 10
1643.992689727243
 20
238.8432856728996
 30
0.0
  0
VERTEX
  5
84E
  8
IMPORT_-_SIDEPANEL
 10
1644.557134171688
 20
237.8202301173442
 30
0.0
  0
VERTEX
  5
84F
  8
IMPORT_-_SIDEPANEL
 10
1645.297967505021
 20
236.9030078951218
 30
0.0
  0
VERTEX
  5
850
  8
IMPORT_-_SIDEPANEL
 10
1646.179911949465
 20
236.1621745617886
 30
0.0
  0
VERTEX
  5
851
  8
IMPORT_-_SIDEPANEL
 10
1647.238245282799
 20
235.5977301173441
 30
0.0
  0
VERTEX
  5
852
  8
IMPORT_-_SIDEPANEL
 10
1648.367134171688
 20
235.2802301173442
 30
0.0
  0
VERTEX
  5
853
  8
IMPORT_-_SIDEPANEL
 10
1649.531300838355
 20
235.1391190062329
 30
0.0
  0
SEQEND
  5
854
  8
IMPORT_-_SIDEPANEL
  0
POLYLINE
  5
11B
  8
IMPORT_-_SIDEPANEL
 66
     1
 10
0.0
 20
0.0
 30
0.0
  0
VERTEX
  5
855
  8
IMPORT_-_SIDEPANEL
 10
1649.531300838355
 20
235.1391190062329
 30
0.0
  0
VERTEX
  5
856
  8
IMPORT_-_SIDEPANEL
 10
1813.537689727243
 20
235.1391190062329
 30
0.0
  0
SEQEND
  5
857
  8
IMPORT_-_SIDEPANEL
  0
POLYLINE
  5
11C
  8
IMPORT_-_SIDEPANEL
 66
     1
 10
0.0
 20
0.0
 30
0.0
  0
VERTEX
  5
858
  8
IMPORT_-_SIDEPANEL
 10
1637.53685639391
 20
401.8266190062329
 30
0.0
  0
VERTEX
  5
859
  8
IMPORT_-_SIDEPANEL
 10
1638.701023060577
 20
401.9324523395662
 30
0.0
  0
VERTEX
  5
85A
  8
IMPORT_-_SIDEPANEL
 10
1639.829911949465
 20
402.2852301173441
 30
0.0
  0
VERTEX
  5
85B
  8
IMPORT_-_SIDEPANEL
 10
1640.852967505021
 20
402.8496745617886
 30
0.0
  0
VERTEX
  5
85C
  8
IMPORT_-_SIDEPANEL
 10
1641.770189727243
 20
403.5905078951218
 30
0.0
  0
VERTEX
  5
85D
  8
IMPORT_-_SIDEPANEL
 10
1642.511023060576
 20
404.5077301173442
 30
0.0
  0
VERTEX
  5
85E
  8
IMPORT_-_SIDEPANEL
 10
1643.075467505021
 20
405.5307856728996
 30
0.0
  0
VERTEX
  5
85F
  8
IMPORT_-_SIDEPANEL
 10
1643.428245282799
 20
406.6596745617885
 30
0.0
  0
VERTEX
  5
860
  8
IMPORT_-_SIDEPANEL
 10
1643.534078616132
 20
407.8238412284552
 30
0.0
  0
SEQEND
  5
861
  8
IMPORT_-_SIDEPANEL
  0
POLYLINE
  5
11D
  8
IMPORT_-_SIDEPANEL
 66
     1
 10
0.0
 20
0.0
 30
0.0
  0
VERTEX
  5
862
  8
IMPORT_-_SIDEPANEL
 10
1643.534078616132
 20
229.1418967840107
 30
0.0
  0
VERTEX
  5
863
  8
IMPORT_-_SIDEPANEL
 10
1643.428245282799
 20
230.3413412284553
 30
0.0
  0
VERTEX
  5
864
  8
IMPORT_-_SIDEPANEL
 10
1643.075467505021
 20
231.4349523395663
 30
0.0
  0
VERTEX
  5
865
  8
IMPORT_-_SIDEPANEL
 10
1642.511023060576
 20
232.4932856728997
 30
0.0
  0
VERTEX
  5
866
  8
IMPORT_-_SIDEPANEL
 10
1641.770189727243
 20
233.4105078951218
 30
0.0
  0
VERTEX
  5
867
  8
IMPORT_-_SIDEPANEL
 10
1640.852967505021
 20
234.1513412284553
 30
0.0
  0
VERTEX
  5
868
  8
IMPORT_-_SIDEPANEL
 10
1639.829911949465
 20
234.680507895122
 30
0.0
  0
VERTEX
  5
869
  8
IMPORT_-_SIDEPANEL
 10
1638.701023060577
 20
235.0332856728996
 30
0.0
  0
VERTEX
  5
86A
  8
IMPORT_-_SIDEPANEL
 10
1637.53685639391
 20
235.1391190062329
 30
0.0
  0
SEQEND
  5
86B
  8
IMPORT_-_SIDEPANEL
  0
POLYLINE
  5
11E
  8
IMPORT_-_SIDEPANEL
 66
     1
 10
0.0
 20
0.0
 30
0.0
  0
VERTEX
  5
86C
  8
IMPORT_-_SIDEPANEL
 10
1133.523245282799
 20
229.1418967840107
 30
0.0
  0
VERTEX
  5
86D
  8
IMPORT_-_SIDEPANEL
 10
1133.523245282799
 20
56.4924523395664
 30
0.0
  0
SEQEND
  5
86E
  8
IMPORT_-_SIDEPANEL
  0
POLYLINE
  5
11F
  8
IMPORT_-_SIDEPANEL
 66
     1
 10
0.0
 20
0.0
 30
0.0
  0
VERTEX
  5
86F
  8
IMPORT_-_SIDEPANEL
 10
1473.530467505021
 20
229.1418967840107
 30
0.0
  0
VERTEX
  5
870
  8
IMPORT_-_SIDEPANEL
 10
1473.530467505021
 20
56.4924523395664
 30
0.0
  0
SEQEND
  5
871
  8
IMPORT_-_SIDEPANEL
  0
POLYLINE
  5
120
  8
IMPORT_-_SIDEPANEL
 66
     1
 10
0.0
 20
0.0
 30
0.0
  0
VERTEX
  5
872
  8
IMPORT_-_SIDEPANEL
 10
1133.523245282799
 20
407.8238412284552
 30
0.0
  0
VERTEX
  5
873
  8
IMPORT_-_SIDEPANEL
 10
1133.629078616132
 20
406.6596745617885
 30
0.0
  0
VERTEX
  5
874
  8
IMPORT_-_SIDEPANEL
 10
1133.98185639391
 20
405.5307856728996
 30
0.0
  0
VERTEX
  5
875
  8
IMPORT_-_SIDEPANEL
 10
1134.546300838354
 20
404.5077301173442
 30
0.0
  0
VERTEX
  5
876
  8
IMPORT_-_SIDEPANEL
 10
1135.287134171688
 20
403.5905078951218
 30
0.0
  0
VERTEX
  5
877
  8
IMPORT_-_SIDEPANEL
 10
1136.20435639391
 20
402.8496745617886
 30
0.0
  0
VERTEX
  5
878
  8
IMPORT_-_SIDEPANEL
 10
1137.227411949465
 20
402.2852301173441
 30
0.0
  0
VERTEX
  5
879
  8
IMPORT_-_SIDEPANEL
 10
1138.356300838354
 20
401.9324523395662
 30
0.0
  0
VERTEX
  5
87A
  8
IMPORT_-_SIDEPANEL
 10
1139.520467505021
 20
401.8266190062329
 30
0.0
  0
SEQEND
  5
87B
  8
IMPORT_-_SIDEPANEL
  0
POLYLINE
  5
121
  8
IMPORT_-_SIDEPANEL
 66
     1
 10
0.0
 20
0.0
 30
0.0
  0
VERTEX
  5
87C
  8
IMPORT_-_SIDEPANEL
 10
1643.534078616132
 20
580.5085634506772
 30
0.0
  0
VERTEX
  5
87D
  8
IMPORT_-_SIDEPANEL
 10
1643.534078616132
 20
407.8238412284552
 30
0.0
  0
SEQEND
  5
87E
  8
IMPORT_-_SIDEPANEL
  0
POLYLINE
  5
122
  8
IMPORT_-_SIDEPANEL
 66
     1
 10
0.0
 20
0.0
 30
0.0
  0
VERTEX
  5
87F
  8
IMPORT_-_SIDEPANEL
 10
1473.530467505021
 20
407.8238412284552
 30
0.0
  0
VERTEX
  5
880
  8
IMPORT_-_SIDEPANEL
 10
1473.530467505021
 20
580.5085634506772
 30
0.0
  0
SEQEND
  5
881
  8
IMPORT_-_SIDEPANEL
  0
POLYLINE
  5
123
  8
IMPORT_-_SIDEPANEL
 66
     1
 10
0.0
 20
0.0
 30
0.0
  0
VERTEX
  5
882
  8
IMPORT_-_SIDEPANEL
 10
1303.52685639391
 20
580.5085634506772
 30
0.0
  0
VERTEX
  5
883
  8
IMPORT_-_SIDEPANEL
 10
1303.52685639391
 20
407.8238412284552
 30
0.0
  0
SEQEND
  5
884
  8
IMPORT_-_SIDEPANEL
  0
POLYLINE
  5
124
  8
IMPORT_-_SIDEPANEL
 66
     1
 10
0.0
 20
0.0
 30
0.0
  0
VERTEX
  5
885
  8
IMPORT_-_SIDEPANEL
 10
1133.523245282799
 20
407.8238412284552
 30
0.0
  0
VERTEX
  5
886
  8
IMPORT_-_SIDEPANEL
 10
1133.523245282799
 20
580.5085634506772
 30
0.0
  0
SEQEND
  5
887
  8
IMPORT_-_SIDEPANEL
  0
POLYLINE
  5
125
  8
IMPORT_-_SIDEPANEL
 66
     1
 10
0.0
 20
0.0
 30
0.0
  0
VERTEX
  5
888
  8
IMPORT_-_SIDEPANEL
 10
1303.52685639391
 20
56.4924523395664
 30
0.0
  0
VERTEX
  5
889
  8
IMPORT_-_SIDEPANEL
 10
1303.52685639391
 20
229.1418967840107
 30
0.0
  0
SEQEND
  5
88A
  8
IMPORT_-_SIDEPANEL
  0
POLYLINE
  5
126
  8
IMPORT_-_SIDEPANEL
 66
     1
 10
0.0
 20
0.0
 30
0.0
  0
VERTEX
  5
88B
  8
IMPORT_-_SIDEPANEL
 10
1643.534078616132
 20
56.4924523395664
 30
0.0
  0
VERTEX
  5
88C
  8
IMPORT_-_SIDEPANEL
 10
1643.534078616132
 20
229.1418967840107
 30
0.0
  0
SEQEND
  5
88D
  8
IMPORT_-_SIDEPANEL
  0
POLYLINE
  5
127
  8
IMPORT_-_SIDEPANEL
 66
     1
 10
0.0
 20
0.0
 30
0.0
 70
     1
  0
VERTEX
  5
88E
  8
IMPORT_-_SIDEPANEL
 10
1473.530467505021
 20
241.171619006233
 30
0.0
  0
VERTEX
  5
88F
  8
IMPORT_-_SIDEPANEL
 10
1473.530467505021
 20
395.8293967840107
 30
0.0
  0
VERTEX
  5
890
  8
IMPORT_-_SIDEPANEL
 10
1473.424634171688
 20
396.9935634506774
 30
0.0
  0
VERTEX
  5
891
  8
IMPORT_-_SIDEPANEL
 10
1473.07185639391
 20
398.1224523395663
 30
0.0
  0
VERTEX
  5
892
  8
IMPORT_-_SIDEPANEL
 10
1472.507411949466
 20
399.1455078951219
 30
0.0
  0
VERTEX
  5
893
  8
IMPORT_-_SIDEPANEL
 10
1471.766578616132
 20
400.062730117344
 30
0.0
  0
VERTEX
  5
894
  8
IMPORT_-_SIDEPANEL
 10
1470.84935639391
 20
400.8035634506775
 30
0.0
  0
VERTEX
  5
895
  8
IMPORT_-_SIDEPANEL
 10
1469.826300838354
 20
401.368007895122
 30
0.0
  0
VERTEX
  5
896
  8
IMPORT_-_SIDEPANEL
 10
1468.697411949466
 20
401.7207856728996
 30
0.0
  0
VERTEX
  5
897
  8
IMPORT_-_SIDEPANEL
 10
1467.533245282799
 20
401.8266190062329
 30
0.0
  0
VERTEX
  5
898
  8
IMPORT_-_SIDEPANEL
 10
1309.524078616132
 20
401.8266190062329
 30
0.0
  0
VERTEX
  5
899
  8
IMPORT_-_SIDEPANEL
 10
1308.359911949466
 20
401.7207856728996
 30
0.0
  0
VERTEX
  5
89A
  8
IMPORT_-_SIDEPANEL
 10
1307.231023060577
 20
401.368007895122
 30
0.0
  0
VERTEX
  5
89B
  8
IMPORT_-_SIDEPANEL
 10
1306.207967505021
 20
400.8035634506775
 30
0.0
  0
VERTEX
  5
89C
  8
IMPORT_-_SIDEPANEL
 10
1305.290745282799
 20
400.062730117344
 30
0.0
  0
VERTEX
  5
89D
  8
IMPORT_-_SIDEPANEL
 10
1304.549911949466
 20
399.1455078951219
 30
0.0
  0
VERTEX
  5
89E
  8
IMPORT_-_SIDEPANEL
 10
1303.985467505021
 20
398.1224523395663
 30
0.0
  0
VERTEX
  5
89F
  8
IMPORT_-_SIDEPANEL
 10
1303.632689727243
 20
396.9935634506774
 30
0.0
  0
VERTEX
  5
8A0
  8
IMPORT_-_SIDEPANEL
 10
1303.52685639391
 20
395.8293967840107
 30
0.0
  0
VERTEX
  5
8A1
  8
IMPORT_-_SIDEPANEL
 10
1303.52685639391
 20
241.171619006233
 30
0.0
  0
VERTEX
  5
8A2
  8
IMPORT_-_SIDEPANEL
 10
1303.632689727243
 20
239.9721745617885
 30
0.0
  0
VERTEX
  5
8A3
  8
IMPORT_-_SIDEPANEL
 10
1303.985467505021
 20
238.8432856728996
 30
0.0
  0
VERTEX
  5
8A4
  8
IMPORT_-_SIDEPANEL
 10
1304.549911949466
 20
237.8202301173442
 30
0.0
  0
VERTEX
  5
8A5
  8
IMPORT_-_SIDEPANEL
 10
1305.290745282799
 20
236.9030078951218
 30
0.0
  0
VERTEX
  5
8A6
  8
IMPORT_-_SIDEPANEL
 10
1306.207967505021
 20
236.1621745617886
 30
0.0
  0
VERTEX
  5
8A7
  8
IMPORT_-_SIDEPANEL
 10
1307.231023060577
 20
235.5977301173441
 30
0.0
  0
VERTEX
  5
8A8
  8
IMPORT_-_SIDEPANEL
 10
1308.359911949466
 20
235.2802301173442
 30
0.0
  0
VERTEX
  5
8A9
  8
IMPORT_-_SIDEPANEL
 10
1309.524078616132
 20
235.1391190062329
 30
0.0
  0
VERTEX
  5
8AA
  8
IMPORT_-_SIDEPANEL
 10
1467.533245282799
 20
235.1391190062329
 30
0.0
  0
VERTEX
  5
8AB
  8
IMPORT_-_SIDEPANEL
 10
1468.697411949466
 20
235.2802301173442
 30
0.0
  0
VERTEX
  5
8AC
  8
IMPORT_-_SIDEPANEL
 10
1469.826300838354
 20
235.5977301173441
 30
0.0
  0
VERTEX
  5
8AD
  8
IMPORT_-_SIDEPANEL
 10
1470.84935639391
 20
236.1621745617886
 30
0.0
  0
VERTEX
  5
8AE
  8
IMPORT_-_SIDEPANEL
 10
1471.766578616132
 20
236.9030078951218
 30
0.0
  0
VERTEX
  5
8AF
  8
IMPORT_-_SIDEPANEL
 10
1472.507411949466
 20
237.8202301173442
 30
0.0
  0
VERTEX
  5
8B0
  8
IMPORT_-_SIDEPANEL
 10
1473.07185639391
 20
238.8432856728996
 30
0.0
  0
VERTEX
  5
8B1
  8
IMPORT_-_SIDEPANEL
 10
1473.424634171688
 20
239.9721745617885
 30
0.0
  0
SEQEND
  5
8B2
  8
IMPORT_-_SIDEPANEL
  0
POLYLINE
  5
128
  8
IMPORT_-_SIDEPANEL
 66
     1
 10
0.0
 20
0.0
 30
0.0
 70
     1
  0
VERTEX
  5
8B3
  8
IMPORT_-_SIDEPANEL
 10
1643.543193941663
 20
241.171619006233
 30
0.0
  0
VERTEX
  5
8B4
  8
IMPORT_-_SIDEPANEL
 10
1643.543193941663
 20
395.8293967840107
 30
0.0
  0
VERTEX
  5
8B5
  8
IMPORT_-_SIDEPANEL
 10
1643.649027274997
 20
396.9935634506774
 30
0.0
  0
VERTEX
  5
8B6
  8
IMPORT_-_SIDEPANEL
 10
1644.001805052774
 20
398.1224523395663
 30
0.0
  0
VERTEX
  5
8B7
  8
IMPORT_-_SIDEPANEL
 10
1644.566249497219
 20
399.1455078951219
 30
0.0
  0
VERTEX
  5
8B8
  8
IMPORT_-_SIDEPANEL
 10
1645.307082830552
 20
400.062730117344
 30
0.0
  0
VERTEX
  5
8B9
  8
IMPORT_-_SIDEPANEL
 10
1646.189027274997
 20
400.8035634506775
 30
0.0
  0
VERTEX
  5
8BA
  8
IMPORT_-_SIDEPANEL
 10
1647.24736060833
 20
401.368007895122
 30
0.0
  0
VERTEX
  5
8BB
  8
IMPORT_-_SIDEPANEL
 10
1648.376249497219
 20
401.7207856728996
 30
0.0
  0
VERTEX
  5
8BC
  8
IMPORT_-_SIDEPANEL
 10
1649.540416163885
 20
401.8266190062329
 30
0.0
  0
VERTEX
  5
8BD
  8
IMPORT_-_SIDEPANEL
 10
1813.546805052774
 20
401.8266190062329
 30
0.0
  0
VERTEX
  5
8BE
  8
IMPORT_-_SIDEPANEL
 10
1825.541249497219
 20
401.8266190062329
 30
0.0
  0
VERTEX
  5
8BF
  8
IMPORT_-_SIDEPANEL
 10
1825.541249497219
 20
235.1391190062329
 30
0.0
  0
VERTEX
  5
8C0
  8
IMPORT_-_SIDEPANEL
 10
1813.546805052774
 20
235.1391190062329
 30
0.0
  0
VERTEX
  5
8C1
  8
IMPORT_-_SIDEPANEL
 10
1649.540416163885
 20
235.1391190062329
 30
0.0
  0
VERTEX
  5
8C2
  8
IMPORT_-_SIDEPANEL
 10
1648.376249497219
 20
235.2802301173442
 30
0.0
  0
VERTEX
  5
8C3
  8
IMPORT_-_SIDEPANEL
 10
1647.24736060833
 20
235.5977301173441
 30
0.0
  0
VERTEX
  5
8C4
  8
IMPORT_-_SIDEPANEL
 10
1646.189027274997
 20
236.1621745617886
 30
0.0
  0
VERTEX
  5
8C5
  8
IMPORT_-_SIDEPANEL
 10
1645.307082830552
 20
236.9030078951218
 30
0.0
  0
VERTEX
  5
8C6
  8
IMPORT_-_SIDEPANEL
 10
1644.566249497219
 20
237.8202301173442
 30
0.0
  0
VERTEX
  5
8C7
  8
IMPORT_-_SIDEPANEL
 10
1644.001805052774
 20
238.8432856728996
 30
0.0
  0
VERTEX
  5
8C8
  8
IMPORT_-_SIDEPANEL
 10
1643.649027274997
 20
239.9721745617885
 30
0.0
  0
SEQEND
  5
8C9
  8
IMPORT_-_SIDEPANEL
  0
POLYLINE
  5
129
  8
IMPORT_-_SIDEPANEL
 66
     1
 10
0.0
 20
0.0
 30
0.0
 70
     1
  0
VERTEX
  5
8CA
  8
IMPORT_-_SIDEPANEL
 10
1643.533501926846
 20
56.4924523395664
 30
0.0
  0
VERTEX
  5
8CB
  8
IMPORT_-_SIDEPANEL
 10
1643.533501926846
 20
229.1418967840107
 30
0.0
  0
VERTEX
  5
8CC
  8
IMPORT_-_SIDEPANEL
 10
1643.427668593513
 20
230.3413412284553
 30
0.0
  0
VERTEX
  5
8CD
  8
IMPORT_-_SIDEPANEL
 10
1643.074890815735
 20
231.4349523395663
 30
0.0
  0
VERTEX
  5
8CE
  8
IMPORT_-_SIDEPANEL
 10
1642.510446371291
 20
232.4932856728997
 30
0.0
  0
VERTEX
  5
8CF
  8
IMPORT_-_SIDEPANEL
 10
1641.769613037957
 20
233.4105078951218
 30
0.0
  0
VERTEX
  5
8D0
  8
IMPORT_-_SIDEPANEL
 10
1640.852390815735
 20
234.1513412284553
 30
0.0
  0
VERTEX
  5
8D1
  8
IMPORT_-_SIDEPANEL
 10
1639.82933526018
 20
234.680507895122
 30
0.0
  0
VERTEX
  5
8D2
  8
IMPORT_-_SIDEPANEL
 10
1638.700446371291
 20
235.0332856728996
 30
0.0
  0
VERTEX
  5
8D3
  8
IMPORT_-_SIDEPANEL
 10
1637.536279704624
 20
235.1391190062329
 30
0.0
  0
VERTEX
  5
8D4
  8
IMPORT_-_SIDEPANEL
 10
1479.527113037957
 20
235.1391190062329
 30
0.0
  0
VERTEX
  5
8D5
  8
IMPORT_-_SIDEPANEL
 10
1478.36294637129
 20
235.0332856728996
 30
0.0
  0
VERTEX
  5
8D6
  8
IMPORT_-_SIDEPANEL
 10
1477.234057482402
 20
234.680507895122
 30
0.0
  0
VERTEX
  5
8D7
  8
IMPORT_-_SIDEPANEL
 10
1476.211001926846
 20
234.1513412284553
 30
0.0
  0
VERTEX
  5
8D8
  8
IMPORT_-_SIDEPANEL
 10
1475.293779704624
 20
233.4105078951218
 30
0.0
  0
VERTEX
  5
8D9
  8
IMPORT_-_SIDEPANEL
 10
1474.552946371291
 20
232.4932856728997
 30
0.0
  0
VERTEX
  5
8DA
  8
IMPORT_-_SIDEPANEL
 10
1473.988501926846
 20
231.4349523395663
 30
0.0
  0
VERTEX
  5
8DB
  8
IMPORT_-_SIDEPANEL
 10
1473.635724149068
 20
230.3413412284553
 30
0.0
  0
VERTEX
  5
8DC
  8
IMPORT_-_SIDEPANEL
 10
1473.529890815735
 20
229.1418967840107
 30
0.0
  0
VERTEX
  5
8DD
  8
IMPORT_-_SIDEPANEL
 10
1473.529890815735
 20
56.4924523395664
 30
0.0
  0
SEQEND
  5
8DE
  8
IMPORT_-_SIDEPANEL
  0
POLYLINE
  5
12A
  8
IMPORT_-_SIDEPANEL
 66
     1
 10
0.0
 20
0.0
 30
0.0
 70
     1
  0
VERTEX
  5
8DF
  8
IMPORT_-_SIDEPANEL
 10
1303.52685639391
 20
56.4924523395664
 30
0.0
  0
VERTEX
  5
8E0
  8
IMPORT_-_SIDEPANEL
 10
1303.52685639391
 20
229.1418967840107
 30
0.0
  0
VERTEX
  5
8E1
  8
IMPORT_-_SIDEPANEL
 10
1303.421023060577
 20
230.3413412284553
 30
0.0
  0
VERTEX
  5
8E2
  8
IMPORT_-_SIDEPANEL
 10
1303.068245282799
 20
231.4349523395663
 30
0.0
  0
VERTEX
  5
8E3
  8
IMPORT_-_SIDEPANEL
 10
1302.503800838354
 20
232.4932856728997
 30
0.0
  0
VERTEX
  5
8E4
  8
IMPORT_-_SIDEPANEL
 10
1301.762967505021
 20
233.4105078951218
 30
0.0
  0
VERTEX
  5
8E5
  8
IMPORT_-_SIDEPANEL
 10
1300.845745282799
 20
234.1513412284553
 30
0.0
  0
VERTEX
  5
8E6
  8
IMPORT_-_SIDEPANEL
 10
1299.822689727243
 20
234.680507895122
 30
0.0
  0
VERTEX
  5
8E7
  8
IMPORT_-_SIDEPANEL
 10
1298.693800838354
 20
235.0332856728996
 30
0.0
  0
VERTEX
  5
8E8
  8
IMPORT_-_SIDEPANEL
 10
1297.529634171688
 20
235.1391190062329
 30
0.0
  0
VERTEX
  5
8E9
  8
IMPORT_-_SIDEPANEL
 10
1139.520467505021
 20
235.1391190062329
 30
0.0
  0
VERTEX
  5
8EA
  8
IMPORT_-_SIDEPANEL
 10
1138.356300838354
 20
235.0332856728996
 30
0.0
  0
VERTEX
  5
8EB
  8
IMPORT_-_SIDEPANEL
 10
1137.227411949465
 20
234.680507895122
 30
0.0
  0
VERTEX
  5
8EC
  8
IMPORT_-_SIDEPANEL
 10
1136.20435639391
 20
234.1513412284553
 30
0.0
  0
VERTEX
  5
8ED
  8
IMPORT_-_SIDEPANEL
 10
1135.287134171688
 20
233.4105078951218
 30
0.0
  0
VERTEX
  5
8EE
  8
IMPORT_-_SIDEPANEL
 10
1134.546300838354
 20
232.4932856728997
 30
0.0
  0
VERTEX
  5
8EF
  8
IMPORT_-_SIDEPANEL
 10
1133.98185639391
 20
231.4349523395663
 30
0.0
  0
VERTEX
  5
8F0
  8
IMPORT_-_SIDEPANEL
 10
1133.629078616132
 20
230.3413412284553
 30
0.0
  0
VERTEX
  5
8F1
  8
IMPORT_-_SIDEPANEL
 10
1133.523245282799
 20
229.1418967840107
 30
0.0
  0
VERTEX
  5
8F2
  8
IMPORT_-_SIDEPANEL
 10
1133.523245282799
 20
56.4924523395664
 30
0.0
  0
SEQEND
  5
8F3
  8
IMPORT_-_SIDEPANEL
  0
POLYLINE
  5
12B
  8
IMPORT_-_SIDEPANEL
 66
     1
 10
0.0
 20
0.0
 30
0.0
 70
     1
  0
VERTEX
  5
8F4
  8
IMPORT_-_SIDEPANEL
 10
1133.523245282799
 20
241.171619006233
 30
0.0
  0
VERTEX
  5
8F5
  8
IMPORT_-_SIDEPANEL
 10
1133.523245282799
 20
395.8293967840107
 30
0.0
  0
VERTEX
  5
8F6
  8
IMPORT_-_SIDEPANEL
 10
1133.417411949466
 20
396.9935634506774
 30
0.0
  0
VERTEX
  5
8F7
  8
IMPORT_-_SIDEPANEL
 10
1133.064634171688
 20
398.1224523395663
 30
0.0
  0
VERTEX
  5
8F8
  8
IMPORT_-_SIDEPANEL
 10
1132.500189727243
 20
399.1455078951219
 30
0.0
  0
VERTEX
  5
8F9
  8
IMPORT_-_SIDEPANEL
 10
1131.75935639391
 20
400.062730117344
 30
0.0
  0
VERTEX
  5
8FA
  8
IMPORT_-_SIDEPANEL
 10
1130.877411949466
 20
400.8035634506775
 30
0.0
  0
VERTEX
  5
8FB
  8
IMPORT_-_SIDEPANEL
 10
1129.819078616132
 20
401.368007895122
 30
0.0
  0
VERTEX
  5
8FC
  8
IMPORT_-_SIDEPANEL
 10
1128.690189727243
 20
401.7207856728996
 30
0.0
  0
VERTEX
  5
8FD
  8
IMPORT_-_SIDEPANEL
 10
1127.526023060577
 20
401.8266190062329
 30
0.0
  0
VERTEX
  5
8FE
  8
IMPORT_-_SIDEPANEL
 10
963.5196341716876
 20
401.8266190062329
 30
0.0
  0
VERTEX
  5
8FF
  8
IMPORT_-_SIDEPANEL
 10
951.5251897272433
 20
401.8266190062329
 30
0.0
  0
VERTEX
  5
900
  8
IMPORT_-_SIDEPANEL
 10
951.5251897272433
 20
235.1391190062329
 30
0.0
  0
VERTEX
  5
901
  8
IMPORT_-_SIDEPANEL
 10
963.5196341716876
 20
235.1391190062329
 30
0.0
  0
VERTEX
  5
902
  8
IMPORT_-_SIDEPANEL
 10
1127.526023060577
 20
235.1391190062329
 30
0.0
  0
VERTEX
  5
903
  8
IMPORT_-_SIDEPANEL
 10
1128.690189727243
 20
235.2802301173442
 30
0.0
  0
VERTEX
  5
904
  8
IMPORT_-_SIDEPANEL
 10
1129.819078616132
 20
235.5977301173441
 30
0.0
  0
VERTEX
  5
905
  8
IMPORT_-_SIDEPANEL
 10
1130.877411949466
 20
236.1621745617886
 30
0.0
  0
VERTEX
  5
906
  8
IMPORT_-_SIDEPANEL
 10
1131.75935639391
 20
236.9030078951218
 30
0.0
  0
VERTEX
  5
907
  8
IMPORT_-_SIDEPANEL
 10
1132.500189727243
 20
237.8202301173442
 30
0.0
  0
VERTEX
  5
908
  8
IMPORT_-_SIDEPANEL
 10
1133.064634171688
 20
238.8432856728996
 30
0.0
  0
VERTEX
  5
909
  8
IMPORT_-_SIDEPANEL
 10
1133.417411949466
 20
239.9721745617885
 30
0.0
  0
SEQEND
  5
90A
  8
IMPORT_-_SIDEPANEL
  0
POLYLINE
  5
12C
  8
IMPORT_-_SIDEPANEL
 66
     1
 10
0.0
 20
0.0
 30
0.0
 70
     1
  0
VERTEX
  5
90B
  8
IMPORT_-_SIDEPANEL
 10
1303.516274750725
 20
580.4747095880832
 30
0.0
  0
VERTEX
  5
90C
  8
IMPORT_-_SIDEPANEL
 10
1303.516274750725
 20
407.8252651436389
 30
0.0
  0
VERTEX
  5
90D
  8
IMPORT_-_SIDEPANEL
 10
1303.410441417391
 20
406.6258206991943
 30
0.0
  0
VERTEX
  5
90E
  8
IMPORT_-_SIDEPANEL
 10
1303.057663639614
 20
405.5322095880833
 30
0.0
  0
VERTEX
  5
90F
  8
IMPORT_-_SIDEPANEL
 10
1302.493219195169
 20
404.4738762547499
 30
0.0
  0
VERTEX
  5
910
  8
IMPORT_-_SIDEPANEL
 10
1301.752385861836
 20
403.5566540325278
 30
0.0
  0
VERTEX
  5
911
  8
IMPORT_-_SIDEPANEL
 10
1300.835163639613
 20
402.8158206991943
 30
0.0
  0
VERTEX
  5
912
  8
IMPORT_-_SIDEPANEL
 10
1299.812108084058
 20
402.2866540325276
 30
0.0
  0
VERTEX
  5
913
  8
IMPORT_-_SIDEPANEL
 10
1298.683219195169
 20
401.93387625475
 30
0.0
  0
VERTEX
  5
914
  8
IMPORT_-_SIDEPANEL
 10
1297.519052528502
 20
401.8280429214167
 30
0.0
  0
VERTEX
  5
915
  8
IMPORT_-_SIDEPANEL
 10
1139.509885861836
 20
401.8280429214167
 30
0.0
  0
VERTEX
  5
916
  8
IMPORT_-_SIDEPANEL
 10
1138.345719195169
 20
401.93387625475
 30
0.0
  0
VERTEX
  5
917
  8
IMPORT_-_SIDEPANEL
 10
1137.21683030628
 20
402.2866540325276
 30
0.0
  0
VERTEX
  5
918
  8
IMPORT_-_SIDEPANEL
 10
1136.193774750725
 20
402.8158206991943
 30
0.0
  0
VERTEX
  5
919
  8
IMPORT_-_SIDEPANEL
 10
1135.276552528502
 20
403.5566540325278
 30
0.0
  0
VERTEX
  5
91A
  8
IMPORT_-_SIDEPANEL
 10
1134.535719195169
 20
404.4738762547499
 30
0.0
  0
VERTEX
  5
91B
  8
IMPORT_-_SIDEPANEL
 10
1133.971274750725
 20
405.5322095880833
 30
0.0
  0
VERTEX
  5
91C
  8
IMPORT_-_SIDEPANEL
 10
1133.618496972947
 20
406.6258206991943
 30
0.0
  0
VERTEX
  5
91D
  8
IMPORT_-_SIDEPANEL
 10
1133.512663639613
 20
407.8252651436389
 30
0.0
  0
VERTEX
  5
91E
  8
IMPORT_-_SIDEPANEL
 10
1133.512663639613
 20
580.4747095880832
 30
0.0
  0
SEQEND
  5
91F
  8
IMPORT_-_SIDEPANEL
  0
POLYLINE
  5
12D
  8
IMPORT_-_SIDEPANEL
 66
     1
 10
0.0
 20
0.0
 30
0.0
 70
     1
  0
VERTEX
  5
920
  8
IMPORT_-_SIDEPANEL
 10
1643.533501926846
 20
580.4747095880832
 30
0.0
  0
VERTEX
  5
921
  8
IMPORT_-_SIDEPANEL
 10
1643.533501926846
 20
407.8252651436389
 30
0.0
  0
VERTEX
  5
922
  8
IMPORT_-_SIDEPANEL
 10
1643.427668593513
 20
406.6258206991943
 30
0.0
  0
VERTEX
  5
923
  8
IMPORT_-_SIDEPANEL
 10
1643.074890815735
 20
405.5322095880833
 30
0.0
  0
VERTEX
  5
924
  8
IMPORT_-_SIDEPANEL
 10
1642.510446371291
 20
404.4738762547499
 30
0.0
  0
VERTEX
  5
925
  8
IMPORT_-_SIDEPANEL
 10
1641.769613037957
 20
403.5566540325278
 30
0.0
  0
VERTEX
  5
926
  8
IMPORT_-_SIDEPANEL
 10
1640.852390815735
 20
402.8158206991943
 30
0.0
  0
VERTEX
  5
927
  8
IMPORT_-_SIDEPANEL
 10
1639.82933526018
 20
402.2866540325276
 30
0.0
  0
VERTEX
  5
928
  8
IMPORT_-_SIDEPANEL
 10
1638.700446371291
 20
401.93387625475
 30
0.0
  0
VERTEX
  5
929
  8
IMPORT_-_SIDEPANEL
 10
1637.536279704624
 20
401.8280429214167
 30
0.0
  0
VERTEX
  5
92A
  8
IMPORT_-_SIDEPANEL
 10
1479.527113037957
 20
401.8280429214167
 30
0.0
  0
VERTEX
  5
92B
  8
IMPORT_-_SIDEPANEL
 10
1478.36294637129
 20
401.93387625475
 30
0.0
  0
VERTEX
  5
92C
  8
IMPORT_-_SIDEPANEL
 10
1477.234057482402
 20
402.2866540325276
 30
0.0
  0
VERTEX
  5
92D
  8
IMPORT_-_SIDEPANEL
 10
1476.211001926846
 20
402.8158206991943
 30
0.0
  0
VERTEX
  5
92E
  8
IMPORT_-_SIDEPANEL
 10
1475.293779704624
 20
403.5566540325278
 30
0.0
  0
VERTEX
  5
92F
  8
IMPORT_-_SIDEPANEL
 10
1474.552946371291
 20
404.4738762547499
 30
0.0
  0
VERTEX
  5
930
  8
IMPORT_-_SIDEPANEL
 10
1473.988501926846
 20
405.5322095880833
 30
0.0
  0
VERTEX
  5
931
  8
IMPORT_-_SIDEPANEL
 10
1473.635724149068
 20
406.6258206991943
 30
0.0
  0
VERTEX
  5
932
  8
IMPORT_-_SIDEPANEL
 10
1473.529890815735
 20
407.8252651436389
 30
0.0
  0
VERTEX
  5
933
  8
IMPORT_-_SIDEPANEL
 10
1473.529890815735
 20
580.4747095880832
 30
0.0
  0
SEQEND
  5
934
  8
IMPORT_-_SIDEPANEL
  0
POLYLINE
  5
12E
  8
IMPORT_-_SIDEPANEL
 66
     1
 10
0.0
 20
0.0
 30
0.0
 70
     1
  0
VERTEX
  5
935
  8
IMPORT_-_SIDEPANEL
 10
1643.534078616132
 20
1170.038764792959
 30
0.0
  0
VERTEX
  5
936
  8
IMPORT_-_SIDEPANEL
 10
1643.534078616132
 20
1162.251683257856
 30
0.0
 42
-1.0
  0
VERTEX
  5
937
  8
IMPORT_-_SIDEPANEL
 10
1639.291437929013
 20
1158.009042570737
 30
0.0
  0
VERTEX
  5
938
  8
IMPORT_-_SIDEPANEL
 10
1477.773108192141
 20
1158.009042570737
 30
0.0
 42
-1.0
  0
VERTEX
  5
939
  8
IMPORT_-_SIDEPANEL
 10
1473.530467505021
 20
1162.251683257856
 30
0.0
  0
VERTEX
  5
93A
  8
IMPORT_-_SIDEPANEL
 10
1473.530467505021
 20
1170.038764792959
 30
0.0
  0
VERTEX
  5
93B
  8
IMPORT_-_SIDEPANEL
 10
1303.52685639391
 20
1170.038764792959
 30
0.0
  0
VERTEX
  5
93C
  8
IMPORT_-_SIDEPANEL
 10
1303.52685639391
 20
1162.251683257856
 30
0.0
 42
-1.0
  0
VERTEX
  5
93D
  8
IMPORT_-_SIDEPANEL
 10
1299.284215706791
 20
1158.009042570737
 30
0.0
  0
VERTEX
  5
93E
  8
IMPORT_-_SIDEPANEL
 10
1137.765885969918
 20
1158.009042570737
 30
0.0
 42
-1.0
  0
VERTEX
  5
93F
  8
IMPORT_-_SIDEPANEL
 10
1133.523245282799
 20
1162.251683257856
 30
0.0
  0
VERTEX
  5
940
  8
IMPORT_-_SIDEPANEL
 10
1133.523245282799
 20
1170.038764792959
 30
0.0
  0
VERTEX
  5
941
  8
IMPORT_-_SIDEPANEL
 10
963.5196341716878
 20
1170.038764792959
 30
0.0
  0
VERTEX
  5
942
  8
IMPORT_-_SIDEPANEL
 10
963.5196341716878
 20
995.5994610356338
 30
0.0
 42
-1.0
  0
VERTEX
  5
943
  8
IMPORT_-_SIDEPANEL
 10
959.2769934845685
 20
991.3568203485147
 30
0.0
  0
VERTEX
  5
944
  8
IMPORT_-_SIDEPANEL
 10
951.5251897272435
 20
991.3568203485147
 30
0.0
  0
VERTEX
  5
945
  8
IMPORT_-_SIDEPANEL
 10
951.5251897272435
 20
824.6693203485147
 30
0.0
  0
VERTEX
  5
946
  8
IMPORT_-_SIDEPANEL
 10
959.2769934845685
 20
824.6693203485147
 30
0.0
 42
-1.0
  0
VERTEX
  5
947
  8
IMPORT_-_SIDEPANEL
 10
963.5196341716878
 20
820.4266796613954
 30
0.0
  0
VERTEX
  5
948
  8
IMPORT_-_SIDEPANEL
 10
963.5196341716876
 20
646.0226536818482
 30
0.0
  0
VERTEX
  5
949
  8
IMPORT_-_SIDEPANEL
 10
1133.523245282799
 20
646.0226536818482
 30
0.0
  0
VERTEX
  5
94A
  8
IMPORT_-_SIDEPANEL
 10
1133.523245282799
 20
653.7744574391731
 30
0.0
 42
-1.0
  0
VERTEX
  5
94B
  8
IMPORT_-_SIDEPANEL
 10
1137.765885969918
 20
658.0170981262925
 30
0.0
  0
VERTEX
  5
94C
  8
IMPORT_-_SIDEPANEL
 10
1299.284215706791
 20
658.0170981262925
 30
0.0
 42
-1.0
  0
VERTEX
  5
94D
  8
IMPORT_-_SIDEPANEL
 10
1303.52685639391
 20
653.7744574391731
 30
0.0
  0
VERTEX
  5
94E
  8
IMPORT_-_SIDEPANEL
 10
1303.52685639391
 20
646.0226536818482
 30
0.0
  0
VERTEX
  5
94F
  8
IMPORT_-_SIDEPANEL
 10
1473.530467505021
 20
646.0226536818482
 30
0.0
  0
VERTEX
  5
950
  8
IMPORT_-_SIDEPANEL
 10
1473.530467505021
 20
653.7744574391731
 30
0.0
 42
-1.0
  0
VERTEX
  5
951
  8
IMPORT_-_SIDEPANEL
 10
1477.773108192141
 20
658.0170981262925
 30
0.0
  0
VERTEX
  5
952
  8
IMPORT_-_SIDEPANEL
 10
1639.291437929013
 20
658.0170981262925
 30
0.0
 42
-1.0
  0
VERTEX
  5
953
  8
IMPORT_-_SIDEPANEL
 10
1643.534078616132
 20
653.7744574391731
 30
0.0
  0
VERTEX
  5
954
  8
IMPORT_-_SIDEPANEL
 10
1643.534078616132
 20
646.0226536818482
 30
0.0
  0
VERTEX
  5
955
  8
IMPORT_-_SIDEPANEL
 10
1813.537689727243
 20
646.0226536818482
 30
0.0
  0
VERTEX
  5
956
  8
IMPORT_-_SIDEPANEL
 10
1813.537689727243
 20
820.4266796613954
 30
0.0
 42
-1.0
  0
VERTEX
  5
957
  8
IMPORT_-_SIDEPANEL
 10
1817.780330414363
 20
824.6693203485147
 30
0.0
  0
VERTEX
  5
958
  8
IMPORT_-_SIDEPANEL
 10
1825.532134171688
 20
824.6693203485147
 30
0.0
  0
VERTEX
  5
959
  8
IMPORT_-_SIDEPANEL
 10
1825.532134171688
 20
991.3568203485147
 30
0.0
  0
VERTEX
  5
95A
  8
IMPORT_-_SIDEPANEL
 10
1817.780330414363
 20
991.3568203485147
 30
0.0
 42
-1.0
  0
VERTEX
  5
95B
  8
IMPORT_-_SIDEPANEL
 10
1813.537689727243
 20
995.5994610356338
 30
0.0
  0
VERTEX
  5
95C
  8
IMPORT_-_SIDEPANEL
 10
1813.537689727244
 20
1170.038764792959
 30
0.0
  0
SEQEND
  5
95D
  8
IMPORT_-_SIDEPANEL
  0
POLYLINE
  5
12F
  8
IMPORT_-_SIDEPANEL
 66
     1
 10
0.0
 20
0.0
 30
0.0
  0
VERTEX
  5
95E
  8
IMPORT_-_SIDEPANEL
 10
1637.53685639391
 20
824.6693203485147
 30
0.0
  0
VERTEX
  5
95F
  8
IMPORT_-_SIDEPANEL
 10
1479.527689727243
 20
824.6693203485147
 30
0.0
  0
SEQEND
  5
960
  8
IMPORT_-_SIDEPANEL
  0
POLYLINE
  5
130
  8
IMPORT_-_SIDEPANEL
 66
     1
 10
0.0
 20
0.0
 30
0.0
  0
VERTEX
  5
961
  8
IMPORT_-_SIDEPANEL
 10
1479.527689727243
 20
824.6693203485147
 30
0.0
  0
VERTEX
  5
962
  8
IMPORT_-_SIDEPANEL
 10
1478.363523060577
 20
824.5634870151814
 30
0.0
  0
VERTEX
  5
963
  8
IMPORT_-_SIDEPANEL
 10
1477.234634171688
 20
824.2107092374038
 30
0.0
  0
VERTEX
  5
964
  8
IMPORT_-_SIDEPANEL
 10
1476.211578616132
 20
823.6815425707371
 30
0.0
  0
VERTEX
  5
965
  8
IMPORT_-_SIDEPANEL
 10
1475.29435639391
 20
822.9407092374036
 30
0.0
  0
VERTEX
  5
966
  8
IMPORT_-_SIDEPANEL
 10
1474.553523060577
 20
822.0234870151814
 30
0.0
  0
VERTEX
  5
967
  8
IMPORT_-_SIDEPANEL
 10
1473.989078616132
 20
820.965153681848
 30
0.0
  0
VERTEX
  5
968
  8
IMPORT_-_SIDEPANEL
 10
1473.636300838355
 20
819.8715425707371
 30
0.0
  0
VERTEX
  5
969
  8
IMPORT_-_SIDEPANEL
 10
1473.530467505021
 20
818.6720981262924
 30
0.0
  0
SEQEND
  5
96A
  8
IMPORT_-_SIDEPANEL
  0
POLYLINE
  5
131
  8
IMPORT_-_SIDEPANEL
 66
     1
 10
0.0
 20
0.0
 30
0.0
  0
VERTEX
  5
96B
  8
IMPORT_-_SIDEPANEL
 10
1139.520467505021
 20
991.3568203485147
 30
0.0
  0
VERTEX
  5
96C
  8
IMPORT_-_SIDEPANEL
 10
1297.529634171688
 20
991.3568203485147
 30
0.0
  0
SEQEND
  5
96D
  8
IMPORT_-_SIDEPANEL
  0
POLYLINE
  5
132
  8
IMPORT_-_SIDEPANEL
 66
     1
 10
0.0
 20
0.0
 30
0.0
  0
VERTEX
  5
96E
  8
IMPORT_-_SIDEPANEL
 10
1297.529634171688
 20
991.3568203485147
 30
0.0
  0
VERTEX
  5
96F
  8
IMPORT_-_SIDEPANEL
 10
1298.693800838354
 20
991.4626536818478
 30
0.0
  0
VERTEX
  5
970
  8
IMPORT_-_SIDEPANEL
 10
1299.822689727243
 20
991.8154314596259
 30
0.0
  0
VERTEX
  5
971
  8
IMPORT_-_SIDEPANEL
 10
1300.845745282799
 20
992.3798759040701
 30
0.0
  0
VERTEX
  5
972
  8
IMPORT_-_SIDEPANEL
 10
1301.762967505021
 20
993.1207092374034
 30
0.0
  0
VERTEX
  5
973
  8
IMPORT_-_SIDEPANEL
 10
1302.503800838354
 20
994.0379314596257
 30
0.0
  0
VERTEX
  5
974
  8
IMPORT_-_SIDEPANEL
 10
1303.068245282799
 20
995.0609870151811
 30
0.0
  0
VERTEX
  5
975
  8
IMPORT_-_SIDEPANEL
 10
1303.421023060577
 20
996.1898759040705
 30
0.0
  0
VERTEX
  5
976
  8
IMPORT_-_SIDEPANEL
 10
1303.52685639391
 20
997.354042570737
 30
0.0
  0
SEQEND
  5
977
  8
IMPORT_-_SIDEPANEL
  0
POLYLINE
  5
133
  8
IMPORT_-_SIDEPANEL
 66
     1
 10
0.0
 20
0.0
 30
0.0
  0
VERTEX
  5
978
  8
IMPORT_-_SIDEPANEL
 10
1473.530467505021
 20
997.354042570737
 30
0.0
  0
VERTEX
  5
979
  8
IMPORT_-_SIDEPANEL
 10
1473.636300838355
 20
996.1898759040705
 30
0.0
  0
VERTEX
  5
97A
  8
IMPORT_-_SIDEPANEL
 10
1473.989078616132
 20
995.0609870151811
 30
0.0
  0
VERTEX
  5
97B
  8
IMPORT_-_SIDEPANEL
 10
1474.553523060577
 20
994.0379314596257
 30
0.0
  0
VERTEX
  5
97C
  8
IMPORT_-_SIDEPANEL
 10
1475.29435639391
 20
993.1207092374034
 30
0.0
  0
VERTEX
  5
97D
  8
IMPORT_-_SIDEPANEL
 10
1476.211578616132
 20
992.3798759040701
 30
0.0
  0
VERTEX
  5
97E
  8
IMPORT_-_SIDEPANEL
 10
1477.234634171688
 20
991.8154314596259
 30
0.0
  0
VERTEX
  5
97F
  8
IMPORT_-_SIDEPANEL
 10
1478.363523060577
 20
991.4626536818478
 30
0.0
  0
VERTEX
  5
980
  8
IMPORT_-_SIDEPANEL
 10
1479.527689727243
 20
991.3568203485147
 30
0.0
  0
SEQEND
  5
981
  8
IMPORT_-_SIDEPANEL
  0
POLYLINE
  5
134
  8
IMPORT_-_SIDEPANEL
 66
     1
 10
0.0
 20
0.0
 30
0.0
  0
VERTEX
  5
982
  8
IMPORT_-_SIDEPANEL
 10
1479.527689727243
 20
991.3568203485147
 30
0.0
  0
VERTEX
  5
983
  8
IMPORT_-_SIDEPANEL
 10
1637.53685639391
 20
991.3568203485147
 30
0.0
  0
SEQEND
  5
984
  8
IMPORT_-_SIDEPANEL
  0
POLYLINE
  5
135
  8
IMPORT_-_SIDEPANEL
 66
     1
 10
0.0
 20
0.0
 30
0.0
  0
VERTEX
  5
985
  8
IMPORT_-_SIDEPANEL
 10
1649.531300838355
 20
991.3568203485147
 30
0.0
  0
VERTEX
  5
986
  8
IMPORT_-_SIDEPANEL
 10
1813.537689727243
 20
991.3568203485147
 30
0.0
  0
SEQEND
  5
987
  8
IMPORT_-_SIDEPANEL
  0
POLYLINE
  5
136
  8
IMPORT_-_SIDEPANEL
 66
     1
 10
0.0
 20
0.0
 30
0.0
  0
VERTEX
  5
988
  8
IMPORT_-_SIDEPANEL
 10
1649.531300838355
 20
991.3568203485147
 30
0.0
  0
VERTEX
  5
989
  8
IMPORT_-_SIDEPANEL
 10
1648.367134171688
 20
991.2509870151816
 30
0.0
  0
VERTEX
  5
98A
  8
IMPORT_-_SIDEPANEL
 10
1647.238245282799
 20
990.8982092374035
 30
0.0
  0
VERTEX
  5
98B
  8
IMPORT_-_SIDEPANEL
 10
1646.179911949465
 20
990.3337647929593
 30
0.0
  0
VERTEX
  5
98C
  8
IMPORT_-_SIDEPANEL
 10
1645.297967505021
 20
989.592931459626
 30
0.0
  0
VERTEX
  5
98D
  8
IMPORT_-_SIDEPANEL
 10
1644.557134171688
 20
988.6757092374037
 30
0.0
  0
VERTEX
  5
98E
  8
IMPORT_-_SIDEPANEL
 10
1643.992689727243
 20
987.6526536818483
 30
0.0
  0
VERTEX
  5
98F
  8
IMPORT_-_SIDEPANEL
 10
1643.639911949465
 20
986.5237647929589
 30
0.0
  0
VERTEX
  5
990
  8
IMPORT_-_SIDEPANEL
 10
1643.534078616132
 20
985.3595981262924
 30
0.0
  0
SEQEND
  5
991
  8
IMPORT_-_SIDEPANEL
  0
POLYLINE
  5
137
  8
IMPORT_-_SIDEPANEL
 66
     1
 10
0.0
 20
0.0
 30
0.0
  0
VERTEX
  5
992
  8
IMPORT_-_SIDEPANEL
 10
1643.534078616132
 20
985.3595981262924
 30
0.0
  0
VERTEX
  5
993
  8
IMPORT_-_SIDEPANEL
 10
1643.534078616132
 20
830.7018203485147
 30
0.0
  0
SEQEND
  5
994
  8
IMPORT_-_SIDEPANEL
  0
POLYLINE
  5
138
  8
IMPORT_-_SIDEPANEL
 66
     1
 10
0.0
 20
0.0
 30
0.0
  0
VERTEX
  5
995
  8
IMPORT_-_SIDEPANEL
 10
1643.534078616132
 20
830.7018203485147
 30
0.0
  0
VERTEX
  5
996
  8
IMPORT_-_SIDEPANEL
 10
1643.639911949465
 20
829.5023759040703
 30
0.0
  0
VERTEX
  5
997
  8
IMPORT_-_SIDEPANEL
 10
1643.992689727243
 20
828.3734870151814
 30
0.0
  0
VERTEX
  5
998
  8
IMPORT_-_SIDEPANEL
 10
1644.557134171688
 20
827.350431459626
 30
0.0
  0
VERTEX
  5
999
  8
IMPORT_-_SIDEPANEL
 10
1645.297967505021
 20
826.4332092374036
 30
0.0
  0
VERTEX
  5
99A
  8
IMPORT_-_SIDEPANEL
 10
1646.179911949465
 20
825.6923759040703
 30
0.0
  0
VERTEX
  5
99B
  8
IMPORT_-_SIDEPANEL
 10
1647.238245282799
 20
825.1279314596259
 30
0.0
  0
VERTEX
  5
99C
  8
IMPORT_-_SIDEPANEL
 10
1648.367134171688
 20
824.810431459626
 30
0.0
  0
VERTEX
  5
99D
  8
IMPORT_-_SIDEPANEL
 10
1649.531300838355
 20
824.6693203485147
 30
0.0
  0
SEQEND
  5
99E
  8
IMPORT_-_SIDEPANEL
  0
POLYLINE
  5
139
  8
IMPORT_-_SIDEPANEL
 66
     1
 10
0.0
 20
0.0
 30
0.0
  0
VERTEX
  5
99F
  8
IMPORT_-_SIDEPANEL
 10
1649.531300838355
 20
824.6693203485147
 30
0.0
  0
VERTEX
  5
9A0
  8
IMPORT_-_SIDEPANEL
 10
1813.537689727243
 20
824.6693203485147
 30
0.0
  0
SEQEND
  5
9A1
  8
IMPORT_-_SIDEPANEL
  0
POLYLINE
  5
13A
  8
IMPORT_-_SIDEPANEL
 66
     1
 10
0.0
 20
0.0
 30
0.0
  0
VERTEX
  5
9A2
  8
IMPORT_-_SIDEPANEL
 10
1637.53685639391
 20
991.3568203485147
 30
0.0
  0
VERTEX
  5
9A3
  8
IMPORT_-_SIDEPANEL
 10
1638.701023060577
 20
991.4626536818478
 30
0.0
  0
VERTEX
  5
9A4
  8
IMPORT_-_SIDEPANEL
 10
1639.829911949465
 20
991.8154314596259
 30
0.0
  0
VERTEX
  5
9A5
  8
IMPORT_-_SIDEPANEL
 10
1640.852967505021
 20
992.3798759040701
 30
0.0
  0
VERTEX
  5
9A6
  8
IMPORT_-_SIDEPANEL
 10
1641.770189727243
 20
993.1207092374034
 30
0.0
  0
VERTEX
  5
9A7
  8
IMPORT_-_SIDEPANEL
 10
1642.511023060576
 20
994.0379314596257
 30
0.0
  0
VERTEX
  5
9A8
  8
IMPORT_-_SIDEPANEL
 10
1643.075467505021
 20
995.0609870151811
 30
0.0
  0
VERTEX
  5
9A9
  8
IMPORT_-_SIDEPANEL
 10
1643.428245282799
 20
996.1898759040705
 30
0.0
  0
VERTEX
  5
9AA
  8
IMPORT_-_SIDEPANEL
 10
1643.534078616132
 20
997.354042570737
 30
0.0
  0
SEQEND
  5
9AB
  8
IMPORT_-_SIDEPANEL
  0
POLYLINE
  5
13B
  8
IMPORT_-_SIDEPANEL
 66
     1
 10
0.0
 20
0.0
 30
0.0
  0
VERTEX
  5
9AC
  8
IMPORT_-_SIDEPANEL
 10
1643.534078616132
 20
818.6720981262924
 30
0.0
  0
VERTEX
  5
9AD
  8
IMPORT_-_SIDEPANEL
 10
1643.428245282799
 20
819.8715425707371
 30
0.0
  0
VERTEX
  5
9AE
  8
IMPORT_-_SIDEPANEL
 10
1643.075467505021
 20
820.965153681848
 30
0.0
  0
VERTEX
  5
9AF
  8
IMPORT_-_SIDEPANEL
 10
1642.511023060576
 20
822.0234870151814
 30
0.0
  0
VERTEX
  5
9B0
  8
IMPORT_-_SIDEPANEL
 10
1641.770189727243
 20
822.9407092374036
 30
0.0
  0
VERTEX
  5
9B1
  8
IMPORT_-_SIDEPANEL
 10
1640.852967505021
 20
823.6815425707371
 30
0.0
  0
VERTEX
  5
9B2
  8
IMPORT_-_SIDEPANEL
 10
1639.829911949465
 20
824.2107092374038
 30
0.0
  0
VERTEX
  5
9B3
  8
IMPORT_-_SIDEPANEL
 10
1638.701023060577
 20
824.5634870151814
 30
0.0
  0
VERTEX
  5
9B4
  8
IMPORT_-_SIDEPANEL
 10
1637.53685639391
 20
824.6693203485147
 30
0.0
  0
SEQEND
  5
9B5
  8
IMPORT_-_SIDEPANEL
  0
POLYLINE
  5
13C
  8
IMPORT_-_SIDEPANEL
 66
     1
 10
0.0
 20
0.0
 30
0.0
  0
VERTEX
  5
9B6
  8
IMPORT_-_SIDEPANEL
 10
1133.523245282799
 20
818.6720981262924
 30
0.0
  0
VERTEX
  5
9B7
  8
IMPORT_-_SIDEPANEL
 10
1133.523245282799
 20
646.0226536818482
 30
0.0
  0
SEQEND
  5
9B8
  8
IMPORT_-_SIDEPANEL
  0
POLYLINE
  5
13D
  8
IMPORT_-_SIDEPANEL
 66
     1
 10
0.0
 20
0.0
 30
0.0
  0
VERTEX
  5
9B9
  8
IMPORT_-_SIDEPANEL
 10
1473.530467505021
 20
818.6720981262924
 30
0.0
  0
VERTEX
  5
9BA
  8
IMPORT_-_SIDEPANEL
 10
1473.530467505021
 20
646.0226536818482
 30
0.0
  0
SEQEND
  5
9BB
  8
IMPORT_-_SIDEPANEL
  0
POLYLINE
  5
13E
  8
IMPORT_-_SIDEPANEL
 66
     1
 10
0.0
 20
0.0
 30
0.0
  0
VERTEX
  5
9BC
  8
IMPORT_-_SIDEPANEL
 10
1133.523245282799
 20
997.354042570737
 30
0.0
  0
VERTEX
  5
9BD
  8
IMPORT_-_SIDEPANEL
 10
1133.629078616132
 20
996.1898759040705
 30
0.0
  0
VERTEX
  5
9BE
  8
IMPORT_-_SIDEPANEL
 10
1133.98185639391
 20
995.0609870151811
 30
0.0
  0
VERTEX
  5
9BF
  8
IMPORT_-_SIDEPANEL
 10
1134.546300838354
 20
994.0379314596257
 30
0.0
  0
VERTEX
  5
9C0
  8
IMPORT_-_SIDEPANEL
 10
1135.287134171688
 20
993.1207092374034
 30
0.0
  0
VERTEX
  5
9C1
  8
IMPORT_-_SIDEPANEL
 10
1136.20435639391
 20
992.3798759040701
 30
0.0
  0
VERTEX
  5
9C2
  8
IMPORT_-_SIDEPANEL
 10
1137.227411949465
 20
991.8154314596259
 30
0.0
  0
VERTEX
  5
9C3
  8
IMPORT_-_SIDEPANEL
 10
1138.356300838354
 20
991.4626536818478
 30
0.0
  0
VERTEX
  5
9C4
  8
IMPORT_-_SIDEPANEL
 10
1139.520467505021
 20
991.3568203485147
 30
0.0
  0
SEQEND
  5
9C5
  8
IMPORT_-_SIDEPANEL
  0
POLYLINE
  5
13F
  8
IMPORT_-_SIDEPANEL
 66
     1
 10
0.0
 20
0.0
 30
0.0
  0
VERTEX
  5
9C6
  8
IMPORT_-_SIDEPANEL
 10
1643.534078616132
 20
1170.038764792959
 30
0.0
  0
VERTEX
  5
9C7
  8
IMPORT_-_SIDEPANEL
 10
1643.534078616132
 20
997.354042570737
 30
0.0
  0
SEQEND
  5
9C8
  8
IMPORT_-_SIDEPANEL
  0
POLYLINE
  5
140
  8
IMPORT_-_SIDEPANEL
 66
     1
 10
0.0
 20
0.0
 30
0.0
  0
VERTEX
  5
9C9
  8
IMPORT_-_SIDEPANEL
 10
1473.530467505021
 20
997.354042570737
 30
0.0
  0
VERTEX
  5
9CA
  8
IMPORT_-_SIDEPANEL
 10
1473.530467505021
 20
1170.038764792959
 30
0.0
  0
SEQEND
  5
9CB
  8
IMPORT_-_SIDEPANEL
  0
POLYLINE
  5
141
  8
IMPORT_-_SIDEPANEL
 66
     1
 10
0.0
 20
0.0
 30
0.0
  0
VERTEX
  5
9CC
  8
IMPORT_-_SIDEPANEL
 10
1303.52685639391
 20
1170.038764792959
 30
0.0
  0
VERTEX
  5
9CD
  8
IMPORT_-_SIDEPANEL
 10
1303.52685639391
 20
997.354042570737
 30
0.0
  0
SEQEND
  5
9CE
  8
IMPORT_-_SIDEPANEL
  0
POLYLINE
  5
142
  8
IMPORT_-_SIDEPANEL
 66
     1
 10
0.0
 20
0.0
 30
0.0
  0
VERTEX
  5
9CF
  8
IMPORT_-_SIDEPANEL
 10
1133.523245282799
 20
997.354042570737
 30
0.0
  0
VERTEX
  5
9D0
  8
IMPORT_-_SIDEPANEL
 10
1133.523245282799
 20
1170.038764792959
 30
0.0
  0
SEQEND
  5
9D1
  8
IMPORT_-_SIDEPANEL
  0
POLYLINE
  5
143
  8
IMPORT_-_SIDEPANEL
 66
     1
 10
0.0
 20
0.0
 30
0.0
  0
VERTEX
  5
9D2
  8
IMPORT_-_SIDEPANEL
 10
1303.52685639391
 20
646.0226536818482
 30
0.0
  0
VERTEX
  5
9D3
  8
IMPORT_-_SIDEPANEL
 10
1303.52685639391
 20
818.6720981262924
 30
0.0
  0
SEQEND
  5
9D4
  8
IMPORT_-_SIDEPANEL
  0
POLYLINE
  5
144
  8
IMPORT_-_SIDEPANEL
 66
     1
 10
0.0
 20
0.0
 30
0.0
  0
VERTEX
  5
9D5
  8
IMPORT_-_SIDEPANEL
 10
1643.534078616132
 20
646.0226536818482
 30
0.0
  0
VERTEX
  5
9D6
  8
IMPORT_-_SIDEPANEL
 10
1643.534078616132
 20
818.6720981262924
 30
0.0
  0
SEQEND
  5
9D7
  8
IMPORT_-_SIDEPANEL
  0
POLYLINE
  5
145
  8
IMPORT_-_SIDEPANEL
 66
     1
 10
0.0
 20
0.0
 30
0.0
 70
     1
  0
VERTEX
  5
9D8
  8
IMPORT_-_SIDEPANEL
 10
1473.530467505021
 20
830.7018203485147
 30
0.0
  0
VERTEX
  5
9D9
  8
IMPORT_-_SIDEPANEL
 10
1473.530467505021
 20
985.3595981262924
 30
0.0
  0
VERTEX
  5
9DA
  8
IMPORT_-_SIDEPANEL
 10
1473.424634171688
 20
986.5237647929589
 30
0.0
  0
VERTEX
  5
9DB
  8
IMPORT_-_SIDEPANEL
 10
1473.07185639391
 20
987.6526536818483
 30
0.0
  0
VERTEX
  5
9DC
  8
IMPORT_-_SIDEPANEL
 10
1472.507411949466
 20
988.6757092374037
 30
0.0
  0
VERTEX
  5
9DD
  8
IMPORT_-_SIDEPANEL
 10
1471.766578616132
 20
989.592931459626
 30
0.0
  0
VERTEX
  5
9DE
  8
IMPORT_-_SIDEPANEL
 10
1470.84935639391
 20
990.3337647929593
 30
0.0
  0
VERTEX
  5
9DF
  8
IMPORT_-_SIDEPANEL
 10
1469.826300838354
 20
990.8982092374035
 30
0.0
  0
VERTEX
  5
9E0
  8
IMPORT_-_SIDEPANEL
 10
1468.697411949466
 20
991.2509870151816
 30
0.0
  0
VERTEX
  5
9E1
  8
IMPORT_-_SIDEPANEL
 10
1467.533245282799
 20
991.3568203485147
 30
0.0
  0
VERTEX
  5
9E2
  8
IMPORT_-_SIDEPANEL
 10
1309.524078616132
 20
991.3568203485147
 30
0.0
  0
VERTEX
  5
9E3
  8
IMPORT_-_SIDEPANEL
 10
1308.359911949466
 20
991.2509870151816
 30
0.0
  0
VERTEX
  5
9E4
  8
IMPORT_-_SIDEPANEL
 10
1307.231023060577
 20
990.8982092374035
 30
0.0
  0
VERTEX
  5
9E5
  8
IMPORT_-_SIDEPANEL
 10
1306.207967505021
 20
990.3337647929593
 30
0.0
  0
VERTEX
  5
9E6
  8
IMPORT_-_SIDEPANEL
 10
1305.290745282799
 20
989.592931459626
 30
0.0
  0
VERTEX
  5
9E7
  8
IMPORT_-_SIDEPANEL
 10
1304.549911949466
 20
988.6757092374037
 30
0.0
  0
VERTEX
  5
9E8
  8
IMPORT_-_SIDEPANEL
 10
1303.985467505021
 20
987.6526536818483
 30
0.0
  0
VERTEX
  5
9E9
  8
IMPORT_-_SIDEPANEL
 10
1303.632689727243
 20
986.5237647929589
 30
0.0
  0
VERTEX
  5
9EA
  8
IMPORT_-_SIDEPANEL
 10
1303.52685639391
 20
985.3595981262924
 30
0.0
  0
VERTEX
  5
9EB
  8
IMPORT_-_SIDEPANEL
 10
1303.52685639391
 20
830.7018203485147
 30
0.0
  0
VERTEX
  5
9EC
  8
IMPORT_-_SIDEPANEL
 10
1303.632689727243
 20
829.5023759040703
 30
0.0
  0
VERTEX
  5
9ED
  8
IMPORT_-_SIDEPANEL
 10
1303.985467505021
 20
828.3734870151814
 30
0.0
  0
VERTEX
  5
9EE
  8
IMPORT_-_SIDEPANEL
 10
1304.549911949466
 20
827.350431459626
 30
0.0
  0
VERTEX
  5
9EF
  8
IMPORT_-_SIDEPANEL
 10
1305.290745282799
 20
826.4332092374036
 30
0.0
  0
VERTEX
  5
9F0
  8
IMPORT_-_SIDEPANEL
 10
1306.207967505021
 20
825.6923759040703
 30
0.0
  0
VERTEX
  5
9F1
  8
IMPORT_-_SIDEPANEL
 10
1307.231023060577
 20
825.1279314596259
 30
0.0
  0
VERTEX
  5
9F2
  8
IMPORT_-_SIDEPANEL
 10
1308.359911949466
 20
824.810431459626
 30
0.0
  0
VERTEX
  5
9F3
  8
IMPORT_-_SIDEPANEL
 10
1309.524078616132
 20
824.6693203485147
 30
0.0
  0
VERTEX
  5
9F4
  8
IMPORT_-_SIDEPANEL
 10
1467.533245282799
 20
824.6693203485147
 30
0.0
  0
VERTEX
  5
9F5
  8
IMPORT_-_SIDEPANEL
 10
1468.697411949466
 20
824.810431459626
 30
0.0
  0
VERTEX
  5
9F6
  8
IMPORT_-_SIDEPANEL
 10
1469.826300838354
 20
825.1279314596259
 30
0.0
  0
VERTEX
  5
9F7
  8
IMPORT_-_SIDEPANEL
 10
1470.84935639391
 20
825.6923759040703
 30
0.0
  0
VERTEX
  5
9F8
  8
IMPORT_-_SIDEPANEL
 10
1471.766578616132
 20
826.4332092374036
 30
0.0
  0
VERTEX
  5
9F9
  8
IMPORT_-_SIDEPANEL
 10
1472.507411949466
 20
827.350431459626
 30
0.0
  0
VERTEX
  5
9FA
  8
IMPORT_-_SIDEPANEL
 10
1473.07185639391
 20
828.3734870151814
 30
0.0
  0
VERTEX
  5
9FB
  8
IMPORT_-_SIDEPANEL
 10
1473.424634171688
 20
829.5023759040703
 30
0.0
  0
SEQEND
  5
9FC
  8
IMPORT_-_SIDEPANEL
  0
POLYLINE
  5
146
  8
IMPORT_-_SIDEPANEL
 66
     1
 10
0.0
 20
0.0
 30
0.0
 70
     1
  0
VERTEX
  5
9FD
  8
IMPORT_-_SIDEPANEL
 10
1643.543193941663
 20
830.7018203485147
 30
0.0
  0
VERTEX
  5
9FE
  8
IMPORT_-_SIDEPANEL
 10
1643.543193941663
 20
985.3595981262924
 30
0.0
  0
VERTEX
  5
9FF
  8
IMPORT_-_SIDEPANEL
 10
1643.649027274997
 20
986.5237647929589
 30
0.0
  0
VERTEX
  5
A00
  8
IMPORT_-_SIDEPANEL
 10
1644.001805052774
 20
987.6526536818483
 30
0.0
  0
VERTEX
  5
A01
  8
IMPORT_-_SIDEPANEL
 10
1644.566249497219
 20
988.6757092374037
 30
0.0
  0
VERTEX
  5
A02
  8
IMPORT_-_SIDEPANEL
 10
1645.307082830552
 20
989.592931459626
 30
0.0
  0
VERTEX
  5
A03
  8
IMPORT_-_SIDEPANEL
 10
1646.189027274997
 20
990.3337647929593
 30
0.0
  0
VERTEX
  5
A04
  8
IMPORT_-_SIDEPANEL
 10
1647.24736060833
 20
990.8982092374035
 30
0.0
  0
VERTEX
  5
A05
  8
IMPORT_-_SIDEPANEL
 10
1648.376249497219
 20
991.2509870151816
 30
0.0
  0
VERTEX
  5
A06
  8
IMPORT_-_SIDEPANEL
 10
1649.540416163885
 20
991.3568203485147
 30
0.0
  0
VERTEX
  5
A07
  8
IMPORT_-_SIDEPANEL
 10
1813.546805052774
 20
991.3568203485147
 30
0.0
  0
VERTEX
  5
A08
  8
IMPORT_-_SIDEPANEL
 10
1825.541249497219
 20
991.3568203485147
 30
0.0
  0
VERTEX
  5
A09
  8
IMPORT_-_SIDEPANEL
 10
1825.541249497219
 20
824.6693203485147
 30
0.0
  0
VERTEX
  5
A0A
  8
IMPORT_-_SIDEPANEL
 10
1813.546805052774
 20
824.6693203485147
 30
0.0
  0
VERTEX
  5
A0B
  8
IMPORT_-_SIDEPANEL
 10
1649.540416163885
 20
824.6693203485147
 30
0.0
  0
VERTEX
  5
A0C
  8
IMPORT_-_SIDEPANEL
 10
1648.376249497219
 20
824.810431459626
 30
0.0
  0
VERTEX
  5
A0D
  8
IMPORT_-_SIDEPANEL
 10
1647.24736060833
 20
825.1279314596259
 30
0.0
  0
VERTEX
  5
A0E
  8
IMPORT_-_SIDEPANEL
 10
1646.189027274997
 20
825.6923759040703
 30
0.0
  0
VERTEX
  5
A0F
  8
IMPORT_-_SIDEPANEL
 10
1645.307082830552
 20
826.4332092374036
 30
0.0
  0
VERTEX
  5
A10
  8
IMPORT_-_SIDEPANEL
 10
1644.566249497219
 20
827.350431459626
 30
0.0
  0
VERTEX
  5
A11
  8
IMPORT_-_SIDEPANEL
 10
1644.001805052774
 20
828.3734870151814
 30
0.0
  0
VERTEX
  5
A12
  8
IMPORT_-_SIDEPANEL
 10
1643.649027274997
 20
829.5023759040703
 30
0.0
  0
SEQEND
  5
A13
  8
IMPORT_-_SIDEPANEL
  0
POLYLINE
  5
147
  8
IMPORT_-_SIDEPANEL
 66
     1
 10
0.0
 20
0.0
 30
0.0
 70
     1
  0
VERTEX
  5
A14
  8
IMPORT_-_SIDEPANEL
 10
1643.533501926846
 20
646.0226536818482
 30
0.0
  0
VERTEX
  5
A15
  8
IMPORT_-_SIDEPANEL
 10
1643.533501926846
 20
818.6720981262924
 30
0.0
  0
VERTEX
  5
A16
  8
IMPORT_-_SIDEPANEL
 10
1643.427668593513
 20
819.8715425707371
 30
0.0
  0
VERTEX
  5
A17
  8
IMPORT_-_SIDEPANEL
 10
1643.074890815735
 20
820.965153681848
 30
0.0
  0
VERTEX
  5
A18
  8
IMPORT_-_SIDEPANEL
 10
1642.510446371291
 20
822.0234870151814
 30
0.0
  0
VERTEX
  5
A19
  8
IMPORT_-_SIDEPANEL
 10
1641.769613037957
 20
822.9407092374036
 30
0.0
  0
VERTEX
  5
A1A
  8
IMPORT_-_SIDEPANEL
 10
1640.852390815735
 20
823.6815425707371
 30
0.0
  0
VERTEX
  5
A1B
  8
IMPORT_-_SIDEPANEL
 10
1639.82933526018
 20
824.2107092374038
 30
0.0
  0
VERTEX
  5
A1C
  8
IMPORT_-_SIDEPANEL
 10
1638.700446371291
 20
824.5634870151814
 30
0.0
  0
VERTEX
  5
A1D
  8
IMPORT_-_SIDEPANEL
 10
1637.536279704624
 20
824.6693203485147
 30
0.0
  0
VERTEX
  5
A1E
  8
IMPORT_-_SIDEPANEL
 10
1479.527113037957
 20
824.6693203485147
 30
0.0
  0
VERTEX
  5
A1F
  8
IMPORT_-_SIDEPANEL
 10
1478.36294637129
 20
824.5634870151814
 30
0.0
  0
VERTEX
  5
A20
  8
IMPORT_-_SIDEPANEL
 10
1477.234057482402
 20
824.2107092374038
 30
0.0
  0
VERTEX
  5
A21
  8
IMPORT_-_SIDEPANEL
 10
1476.211001926846
 20
823.6815425707371
 30
0.0
  0
VERTEX
  5
A22
  8
IMPORT_-_SIDEPANEL
 10
1475.293779704624
 20
822.9407092374036
 30
0.0
  0
VERTEX
  5
A23
  8
IMPORT_-_SIDEPANEL
 10
1474.552946371291
 20
822.0234870151814
 30
0.0
  0
VERTEX
  5
A24
  8
IMPORT_-_SIDEPANEL
 10
1473.988501926846
 20
820.965153681848
 30
0.0
  0
VERTEX
  5
A25
  8
IMPORT_-_SIDEPANEL
 10
1473.635724149068
 20
819.8715425707371
 30
0.0
  0
VERTEX
  5
A26
  8
IMPORT_-_SIDEPANEL
 10
1473.529890815735
 20
818.6720981262924
 30
0.0
  0
VERTEX
  5
A27
  8
IMPORT_-_SIDEPANEL
 10
1473.529890815735
 20
646.0226536818482
 30
0.0
  0
SEQEND
  5
A28
  8
IMPORT_-_SIDEPANEL
  0
POLYLINE
  5
148
  8
IMPORT_-_SIDEPANEL
 66
     1
 10
0.0
 20
0.0
 30
0.0
 70
     1
  0
VERTEX
  5
A29
  8
IMPORT_-_SIDEPANEL
 10
1303.52685639391
 20
646.0226536818482
 30
0.0
  0
VERTEX
  5
A2A
  8
IMPORT_-_SIDEPANEL
 10
1303.52685639391
 20
818.6720981262924
 30
0.0
  0
VERTEX
  5
A2B
  8
IMPORT_-_SIDEPANEL
 10
1303.421023060577
 20
819.8715425707371
 30
0.0
  0
VERTEX
  5
A2C
  8
IMPORT_-_SIDEPANEL
 10
1303.068245282799
 20
820.965153681848
 30
0.0
  0
VERTEX
  5
A2D
  8
IMPORT_-_SIDEPANEL
 10
1302.503800838354
 20
822.0234870151814
 30
0.0
  0
VERTEX
  5
A2E
  8
IMPORT_-_SIDEPANEL
 10
1301.762967505021
 20
822.9407092374036
 30
0.0
  0
VERTEX
  5
A2F
  8
IMPORT_-_SIDEPANEL
 10
1300.845745282799
 20
823.6815425707371
 30
0.0
  0
VERTEX
  5
A30
  8
IMPORT_-_SIDEPANEL
 10
1299.822689727243
 20
824.2107092374038
 30
0.0
  0
VERTEX
  5
A31
  8
IMPORT_-_SIDEPANEL
 10
1298.693800838354
 20
824.5634870151814
 30
0.0
  0
VERTEX
  5
A32
  8
IMPORT_-_SIDEPANEL
 10
1297.529634171688
 20
824.6693203485147
 30
0.0
  0
VERTEX
  5
A33
  8
IMPORT_-_SIDEPANEL
 10
1139.520467505021
 20
824.6693203485147
 30
0.0
  0
VERTEX
  5
A34
  8
IMPORT_-_SIDEPANEL
 10
1138.356300838354
 20
824.5634870151814
 30
0.0
  0
VERTEX
  5
A35
  8
IMPORT_-_SIDEPANEL
 10
1137.227411949465
 20
824.2107092374038
 30
0.0
  0
VERTEX
  5
A36
  8
IMPORT_-_SIDEPANEL
 10
1136.20435639391
 20
823.6815425707371
 30
0.0
  0
VERTEX
  5
A37
  8
IMPORT_-_SIDEPANEL
 10
1135.287134171688
 20
822.9407092374036
 30
0.0
  0
VERTEX
  5
A38
  8
IMPORT_-_SIDEPANEL
 10
1134.546300838354
 20
822.0234870151814
 30
0.0
  0
VERTEX
  5
A39
  8
IMPORT_-_SIDEPANEL
 10
1133.98185639391
 20
820.965153681848
 30
0.0
  0
VERTEX
  5
A3A
  8
IMPORT_-_SIDEPANEL
 10
1133.629078616132
 20
819.8715425707371
 30
0.0
  0
VERTEX
  5
A3B
  8
IMPORT_-_SIDEPANEL
 10
1133.523245282799
 20
818.6720981262924
 30
0.0
  0
VERTEX
  5
A3C
  8
IMPORT_-_SIDEPANEL
 10
1133.523245282799
 20
646.0226536818482
 30
0.0
  0
SEQEND
  5
A3D
  8
IMPORT_-_SIDEPANEL
  0
POLYLINE
  5
149
  8
IMPORT_-_SIDEPANEL
 66
     1
 10
0.0
 20
0.0
 30
0.0
 70
     1
  0
VERTEX
  5
A3E
  8
IMPORT_-_SIDEPANEL
 10
1133.523245282799
 20
830.7018203485147
 30
0.0
  0
VERTEX
  5
A3F
  8
IMPORT_-_SIDEPANEL
 10
1133.523245282799
 20
985.3595981262924
 30
0.0
  0
VERTEX
  5
A40
  8
IMPORT_-_SIDEPANEL
 10
1133.417411949466
 20
986.5237647929589
 30
0.0
  0
VERTEX
  5
A41
  8
IMPORT_-_SIDEPANEL
 10
1133.064634171688
 20
987.6526536818483
 30
0.0
  0
VERTEX
  5
A42
  8
IMPORT_-_SIDEPANEL
 10
1132.500189727243
 20
988.6757092374037
 30
0.0
  0
VERTEX
  5
A43
  8
IMPORT_-_SIDEPANEL
 10
1131.75935639391
 20
989.592931459626
 30
0.0
  0
VERTEX
  5
A44
  8
IMPORT_-_SIDEPANEL
 10
1130.877411949466
 20
990.3337647929593
 30
0.0
  0
VERTEX
  5
A45
  8
IMPORT_-_SIDEPANEL
 10
1129.819078616132
 20
990.8982092374035
 30
0.0
  0
VERTEX
  5
A46
  8
IMPORT_-_SIDEPANEL
 10
1128.690189727243
 20
991.2509870151816
 30
0.0
  0
VERTEX
  5
A47
  8
IMPORT_-_SIDEPANEL
 10
1127.526023060577
 20
991.3568203485147
 30
0.0
  0
VERTEX
  5
A48
  8
IMPORT_-_SIDEPANEL
 10
963.5196341716878
 20
991.3568203485147
 30
0.0
  0
VERTEX
  5
A49
  8
IMPORT_-_SIDEPANEL
 10
951.5251897272435
 20
991.3568203485147
 30
0.0
  0
VERTEX
  5
A4A
  8
IMPORT_-_SIDEPANEL
 10
951.5251897272435
 20
824.6693203485147
 30
0.0
  0
VERTEX
  5
A4B
  8
IMPORT_-_SIDEPANEL
 10
963.5196341716878
 20
824.6693203485147
 30
0.0
  0
VERTEX
  5
A4C
  8
IMPORT_-_SIDEPANEL
 10
1127.526023060577
 20
824.6693203485147
 30
0.0
  0
VERTEX
  5
A4D
  8
IMPORT_-_SIDEPANEL
 10
1128.690189727243
 20
824.810431459626
 30
0.0
  0
VERTEX
  5
A4E
  8
IMPORT_-_SIDEPANEL
 10
1129.819078616132
 20
825.1279314596259
 30
0.0
  0
VERTEX
  5
A4F
  8
IMPORT_-_SIDEPANEL
 10
1130.877411949466
 20
825.6923759040703
 30
0.0
  0
VERTEX
  5
A50
  8
IMPORT_-_SIDEPANEL
 10
1131.75935639391
 20
826.4332092374036
 30
0.0
  0
VERTEX
  5
A51
  8
IMPORT_-_SIDEPANEL
 10
1132.500189727243
 20
827.350431459626
 30
0.0
  0
VERTEX
  5
A52
  8
IMPORT_-_SIDEPANEL
 10
1133.064634171688
 20
828.3734870151814
 30
0.0
  0
VERTEX
  5
A53
  8
IMPORT_-_SIDEPANEL
 10
1133.417411949466
 20
829.5023759040703
 30
0.0
  0
SEQEND
  5
A54
  8
IMPORT_-_SIDEPANEL
  0
POLYLINE
  5
14A
  8
IMPORT_-_SIDEPANEL
 66
     1
 10
0.0
 20
0.0
 30
0.0
 70
     1
  0
VERTEX
  5
A55
  8
IMPORT_-_SIDEPANEL
 10
1303.516274750725
 20
1170.004910930365
 30
0.0
  0
VERTEX
  5
A56
  8
IMPORT_-_SIDEPANEL
 10
1303.516274750725
 20
997.3554664859207
 30
0.0
  0
VERTEX
  5
A57
  8
IMPORT_-_SIDEPANEL
 10
1303.410441417391
 20
996.1560220414758
 30
0.0
  0
VERTEX
  5
A58
  8
IMPORT_-_SIDEPANEL
 10
1303.057663639614
 20
995.0624109303653
 30
0.0
  0
VERTEX
  5
A59
  8
IMPORT_-_SIDEPANEL
 10
1302.493219195169
 20
994.0040775970319
 30
0.0
  0
VERTEX
  5
A5A
  8
IMPORT_-_SIDEPANEL
 10
1301.752385861836
 20
993.0868553748096
 30
0.0
  0
VERTEX
  5
A5B
  8
IMPORT_-_SIDEPANEL
 10
1300.835163639613
 20
992.3460220414763
 30
0.0
  0
VERTEX
  5
A5C
  8
IMPORT_-_SIDEPANEL
 10
1299.812108084058
 20
991.8168553748092
 30
0.0
  0
VERTEX
  5
A5D
  8
IMPORT_-_SIDEPANEL
 10
1298.683219195169
 20
991.464077597032
 30
0.0
  0
VERTEX
  5
A5E
  8
IMPORT_-_SIDEPANEL
 10
1297.519052528502
 20
991.3582442636985
 30
0.0
  0
VERTEX
  5
A5F
  8
IMPORT_-_SIDEPANEL
 10
1139.509885861836
 20
991.3582442636985
 30
0.0
  0
VERTEX
  5
A60
  8
IMPORT_-_SIDEPANEL
 10
1138.345719195169
 20
991.464077597032
 30
0.0
  0
VERTEX
  5
A61
  8
IMPORT_-_SIDEPANEL
 10
1137.21683030628
 20
991.8168553748092
 30
0.0
  0
VERTEX
  5
A62
  8
IMPORT_-_SIDEPANEL
 10
1136.193774750725
 20
992.3460220414763
 30
0.0
  0
VERTEX
  5
A63
  8
IMPORT_-_SIDEPANEL
 10
1135.276552528502
 20
993.0868553748096
 30
0.0
  0
VERTEX
  5
A64
  8
IMPORT_-_SIDEPANEL
 10
1134.535719195169
 20
994.0040775970319
 30
0.0
  0
VERTEX
  5
A65
  8
IMPORT_-_SIDEPANEL
 10
1133.971274750725
 20
995.0624109303653
 30
0.0
  0
VERTEX
  5
A66
  8
IMPORT_-_SIDEPANEL
 10
1133.618496972947
 20
996.1560220414758
 30
0.0
  0
VERTEX
  5
A67
  8
IMPORT_-_SIDEPANEL
 10
1133.512663639613
 20
997.3554664859207
 30
0.0
  0
VERTEX
  5
A68
  8
IMPORT_-_SIDEPANEL
 10
1133.512663639613
 20
1170.004910930365
 30
0.0
  0
SEQEND
  5
A69
  8
IMPORT_-_SIDEPANEL
  0
POLYLINE
  5
14B
  8
IMPORT_-_SIDEPANEL
 66
     1
 10
0.0
 20
0.0
 30
0.0
 70
     1
  0
VERTEX
  5
A6A
  8
IMPORT_-_SIDEPANEL
 10
1643.533501926846
 20
1170.004910930365
 30
0.0
  0
VERTEX
  5
A6B
  8
IMPORT_-_SIDEPANEL
 10
1643.533501926846
 20
997.3554664859207
 30
0.0
  0
VERTEX
  5
A6C
  8
IMPORT_-_SIDEPANEL
 10
1643.427668593513
 20
996.1560220414758
 30
0.0
  0
VERTEX
  5
A6D
  8
IMPORT_-_SIDEPANEL
 10
1643.074890815735
 20
995.0624109303653
 30
0.0
  0
VERTEX
  5
A6E
  8
IMPORT_-_SIDEPANEL
 10
1642.510446371291
 20
994.0040775970319
 30
0.0
  0
VERTEX
  5
A6F
  8
IMPORT_-_SIDEPANEL
 10
1641.769613037957
 20
993.0868553748096
 30
0.0
  0
VERTEX
  5
A70
  8
IMPORT_-_SIDEPANEL
 10
1640.852390815735
 20
992.3460220414763
 30
0.0
  0
VERTEX
  5
A71
  8
IMPORT_-_SIDEPANEL
 10
1639.82933526018
 20
991.8168553748092
 30
0.0
  0
VERTEX
  5
A72
  8
IMPORT_-_SIDEPANEL
 10
1638.700446371291
 20
991.464077597032
 30
0.0
  0
VERTEX
  5
A73
  8
IMPORT_-_SIDEPANEL
 10
1637.536279704624
 20
991.3582442636985
 30
0.0
  0
VERTEX
  5
A74
  8
IMPORT_-_SIDEPANEL
 10
1479.527113037957
 20
991.3582442636985
 30
0.0
  0
VERTEX
  5
A75
  8
IMPORT_-_SIDEPANEL
 10
1478.36294637129
 20
991.464077597032
 30
0.0
  0
VERTEX
  5
A76
  8
IMPORT_-_SIDEPANEL
 10
1477.234057482402
 20
991.8168553748092
 30
0.0
  0
VERTEX
  5
A77
  8
IMPORT_-_SIDEPANEL
 10
1476.211001926846
 20
992.3460220414763
 30
0.0
  0
VERTEX
  5
A78
  8
IMPORT_-_SIDEPANEL
 10
1475.293779704624
 20
993.0868553748096
 30
0.0
  0
VERTEX
  5
A79
  8
IMPORT_-_SIDEPANEL
 10
1474.552946371291
 20
994.0040775970319
 30
0.0
  0
VERTEX
  5
A7A
  8
IMPORT_-_SIDEPANEL
 10
1473.988501926846
 20
995.0624109303653
 30
0.0
  0
VERTEX
  5
A7B
  8
IMPORT_-_SIDEPANEL
 10
1473.635724149068
 20
996.1560220414758
 30
0.0
  0
VERTEX
  5
A7C
  8
IMPORT_-_SIDEPANEL
 10
1473.529890815735
 20
997.3554664859207
 30
0.0
  0
VERTEX
  5
A7D
  8
IMPORT_-_SIDEPANEL
 10
1473.529890815735
 20
1170.004910930365
 30
0.0
  0
SEQEND
  5
A7E
  8
IMPORT_-_SIDEPANEL
  0
POLYLINE
  5
14C
  8
IMPORT_-_SIDEPANEL
 66
     1
 10
0.0
 20
0.0
 30
0.0
 70
     1
  0
VERTEX
  5
A7F
  8
IMPORT_-_SIDEPANEL
 10
757.1953747381874
 20
980.1418814051851
 30
0.0
  0
VERTEX
  5
A80
  8
IMPORT_-_SIDEPANEL
 10
757.1953747381874
 20
858.8680969516546
 30
0.0
  0
VERTEX
  5
A81
  8
IMPORT_-_SIDEPANEL
 10
878.4691591917178
 20
858.8680969516546
 30
0.0
  0
VERTEX
  5
A82
  8
IMPORT_-_SIDEPANEL
 10
878.4691591917178
 20
980.1418814051851
 30
0.0
  0
SEQEND
  5
A83
  8
IMPORT_-_SIDEPANEL
  0
POLYLINE
  5
14D
  8
IMPORT_-_SIDEPANEL
 66
     1
 10
0.0
 20
0.0
 30
0.0
 70
     1
  0
VERTEX
  5
A84
  8
IMPORT_-_SIDEPANEL
 10
831.6189239708418
 20
769.3650638727609
 30
0.0
  0
VERTEX
  5
A85
  8
IMPORT_-_SIDEPANEL
 10
831.6189239708418
 20
702.9676922618567
 30
0.0
  0
VERTEX
  5
A86
  8
IMPORT_-_SIDEPANEL
 10
880.0692210701746
 20
702.9676922618567
 30
0.0
  0
VERTEX
  5
A87
  8
IMPORT_-_SIDEPANEL
 10
880.0692210701746
 20
769.3650638727609
 30
0.0
  0
SEQEND
  5
A88
  8
IMPORT_-_SIDEPANEL
  0
POLYLINE
  5
14E
  8
IMPORT_-_SIDEPANEL
 66
     1
 10
0.0
 20
0.0
 30
0.0
 70
     1
  0
VERTEX
  5
A89
  8
IMPORT_-_SIDEPANEL
 10
2071.937038324003
 20
1282.591578199327
 30
0.0
 42
0.4142135623730952
  0
VERTEX
  5
A8A
  8
IMPORT_-_SIDEPANEL
 10
2077.937038324003
 20
1276.591578199327
 30
0.0
  0
VERTEX
  5
A8B
  8
IMPORT_-_SIDEPANEL
 10
2215.943704990669
 20
1276.591578199327
 30
0.0
 42
0.4142135623730952
  0
VERTEX
  5
A8C
  8
IMPORT_-_SIDEPANEL
 10
2221.943704990669
 20
1282.591578199327
 30
0.0
  0
VERTEX
  5
A8D
  8
IMPORT_-_SIDEPANEL
 10
2221.943704990669
 20
1420.598244865994
 30
0.0
 42
0.4142135623730952
  0
VERTEX
  5
A8E
  8
IMPORT_-_SIDEPANEL
 10
2215.943704990669
 20
1426.598244865994
 30
0.0
  0
VERTEX
  5
A8F
  8
IMPORT_-_SIDEPANEL
 10
2077.937038324003
 20
1426.598244865994
 30
0.0
 42
0.4142135623730952
  0
VERTEX
  5
A90
  8
IMPORT_-_SIDEPANEL
 10
2071.937038324003
 20
1420.598244865994
 30
0.0
  0
SEQEND
  5
A91
  8
IMPORT_-_SIDEPANEL
  0
POLYLINE
  5
14F
  8
IMPORT_-_SIDEPANEL
 66
     1
 10
0.0
 20
0.0
 30
0.0
 70
     1
  0
VERTEX
  5
A92
  8
IMPORT_-_SIDEPANEL
 10
2126.940371657336
 20
1316.59491153266
 30
0.0
 42
0.4142135623730951
  0
VERTEX
  5
A93
  8
IMPORT_-_SIDEPANEL
 10
2136.940371657336
 20
1306.59491153266
 30
0.0
  0
VERTEX
  5
A94
  8
IMPORT_-_SIDEPANEL
 10
2156.940371657336
 20
1306.59491153266
 30
0.0
 42
0.4142135623730951
  0
VERTEX
  5
A95
  8
IMPORT_-_SIDEPANEL
 10
2166.940371657336
 20
1316.59491153266
 30
0.0
  0
VERTEX
  5
A96
  8
IMPORT_-_SIDEPANEL
 10
2166.940371657336
 20
1386.59491153266
 30
0.0
 42
0.4142135623730951
  0
VERTEX
  5
A97
  8
IMPORT_-_SIDEPANEL
 10
2156.940371657336
 20
1396.59491153266
 30
0.0
  0
VERTEX
  5
A98
  8
IMPORT_-_SIDEPANEL
 10
2136.940371657336
 20
1396.59491153266
 30
0.0
 42
0.4142135623730951
  0
VERTEX
  5
A99
  8
IMPORT_-_SIDEPANEL
 10
2126.940371657336
 20
1386.59491153266
 30
0.0
  0
SEQEND
  5
A9A
  8
IMPORT_-_SIDEPANEL
  0
POLYLINE
  5
150
  8
IMPORT_-_SIDEPANEL
 66
     1
 10
0.0
 20
0.0
 30
0.0
 70
     1
  0
VERTEX
  5
A9B
  8
IMPORT_-_SIDEPANEL
 10
1643.534078616132
 20
580.5085634506772
 30
0.0
  0
VERTEX
  5
A9C
  8
IMPORT_-_SIDEPANEL
 10
1643.534078616132
 20
572.7214819155745
 30
0.0
 42
-1.0
  0
VERTEX
  5
A9D
  8
IMPORT_-_SIDEPANEL
 10
1639.291437929013
 20
568.4788412284552
 30
0.0
  0
VERTEX
  5
A9E
  8
IMPORT_-_SIDEPANEL
 10
1477.773108192141
 20
568.4788412284552
 30
0.0
 42
-1.0
  0
VERTEX
  5
A9F
  8
IMPORT_-_SIDEPANEL
 10
1473.530467505021
 20
572.7214819155745
 30
0.0
  0
VERTEX
  5
AA0
  8
IMPORT_-_SIDEPANEL
 10
1473.530467505021
 20
580.5085634506772
 30
0.0
  0
VERTEX
  5
AA1
  8
IMPORT_-_SIDEPANEL
 10
1303.52685639391
 20
580.5085634506772
 30
0.0
  0
VERTEX
  5
AA2
  8
IMPORT_-_SIDEPANEL
 10
1303.52685639391
 20
572.7214819155745
 30
0.0
 42
-1.0
  0
VERTEX
  5
AA3
  8
IMPORT_-_SIDEPANEL
 10
1299.284215706791
 20
568.4788412284552
 30
0.0
  0
VERTEX
  5
AA4
  8
IMPORT_-_SIDEPANEL
 10
1137.765885969918
 20
568.4788412284552
 30
0.0
 42
-1.0
  0
VERTEX
  5
AA5
  8
IMPORT_-_SIDEPANEL
 10
1133.523245282799
 20
572.7214819155745
 30
0.0
  0
VERTEX
  5
AA6
  8
IMPORT_-_SIDEPANEL
 10
1133.523245282799
 20
580.5085634506772
 30
0.0
  0
VERTEX
  5
AA7
  8
IMPORT_-_SIDEPANEL
 10
963.5196341716876
 20
580.5085634506772
 30
0.0
  0
VERTEX
  5
AA8
  8
IMPORT_-_SIDEPANEL
 10
963.5196341716876
 20
406.0692596933523
 30
0.0
 42
-1.0
  0
VERTEX
  5
AA9
  8
IMPORT_-_SIDEPANEL
 10
959.2769934845683
 20
401.8266190062329
 30
0.0
  0
VERTEX
  5
AAA
  8
IMPORT_-_SIDEPANEL
 10
951.5251897272433
 20
401.8266190062329
 30
0.0
  0
VERTEX
  5
AAB
  8
IMPORT_-_SIDEPANEL
 10
951.5251897272433
 20
235.1391190062329
 30
0.0
  0
VERTEX
  5
AAC
  8
IMPORT_-_SIDEPANEL
 10
959.2769934845683
 20
235.1391190062329
 30
0.0
 42
-1.0
  0
VERTEX
  5
AAD
  8
IMPORT_-_SIDEPANEL
 10
963.5196341716876
 20
230.8964783191136
 30
0.0
  0
VERTEX
  5
AAE
  8
IMPORT_-_SIDEPANEL
 10
963.5196341716876
 20
56.4924523395664
 30
0.0
  0
VERTEX
  5
AAF
  8
IMPORT_-_SIDEPANEL
 10
1133.523245282799
 20
56.4924523395664
 30
0.0
  0
VERTEX
  5
AB0
  8
IMPORT_-_SIDEPANEL
 10
1133.523245282799
 20
64.24425609689138
 30
0.0
 42
-1.0
  0
VERTEX
  5
AB1
  8
IMPORT_-_SIDEPANEL
 10
1137.765885969918
 20
68.4868967840107
 30
0.0
  0
VERTEX
  5
AB2
  8
IMPORT_-_SIDEPANEL
 10
1299.284215706791
 20
68.4868967840107
 30
0.0
 42
-1.0
  0
VERTEX
  5
AB3
  8
IMPORT_-_SIDEPANEL
 10
1303.52685639391
 20
64.24425609689138
 30
0.0
  0
VERTEX
  5
AB4
  8
IMPORT_-_SIDEPANEL
 10
1303.52685639391
 20
56.4924523395664
 30
0.0
  0
VERTEX
  5
AB5
  8
IMPORT_-_SIDEPANEL
 10
1473.530467505021
 20
56.4924523395664
 30
0.0
  0
VERTEX
  5
AB6
  8
IMPORT_-_SIDEPANEL
 10
1473.530467505021
 20
64.24425609689138
 30
0.0
 42
-1.0
  0
VERTEX
  5
AB7
  8
IMPORT_-_SIDEPANEL
 10
1477.773108192141
 20
68.4868967840107
 30
0.0
  0
VERTEX
  5
AB8
  8
IMPORT_-_SIDEPANEL
 10
1639.291437929013
 20
68.4868967840107
 30
0.0
 42
-1.0
  0
VERTEX
  5
AB9
  8
IMPORT_-_SIDEPANEL
 10
1643.534078616132
 20
64.24425609689138
 30
0.0
  0
VERTEX
  5
ABA
  8
IMPORT_-_SIDEPANEL
 10
1643.534078616132
 20
56.4924523395664
 30
0.0
  0
VERTEX
  5
ABB
  8
IMPORT_-_SIDEPANEL
 10
1813.537689727243
 20
56.4924523395664
 30
0.0
  0
VERTEX
  5
ABC
  8
IMPORT_-_SIDEPANEL
 10
1813.537689727243
 20
230.8964783191136
 30
0.0
 42
-1.0
  0
VERTEX
  5
ABD
  8
IMPORT_-_SIDEPANEL
 10
1817.780330414363
 20
235.1391190062329
 30
0.0
  0
VERTEX
  5
ABE
  8
IMPORT_-_SIDEPANEL
 10
1825.532134171688
 20
235.1391190062329
 30
0.0
  0
VERTEX
  5
ABF
  8
IMPORT_-_SIDEPANEL
 10
1825.532134171688
 20
401.8266190062329
 30
0.0
  0
VERTEX
  5
AC0
  8
IMPORT_-_SIDEPANEL
 10
1817.780330414363
 20
401.8266190062329
 30
0.0
 42
-1.0
  0
VERTEX
  5
AC1
  8
IMPORT_-_SIDEPANEL
 10
1813.537689727243
 20
406.0692596933523
 30
0.0
  0
VERTEX
  5
AC2
  8
IMPORT_-_SIDEPANEL
 10
1813.537689727243
 20
580.5085634506772
 30
0.0
  0
SEQEND
  5
AC3
  8
IMPORT_-_SIDEPANEL
  0
POLYLINE
  5
152
  8
IMPORT_-_TOP
 66
     1
 10
0.0
 20
0.0
 30
0.0
 70
     1
  0
VERTEX
  5
AC4
  8
IMPORT_-_TOP
 10
1868.340447427293
 20
646.8456375838925
 30
0.0
  0
VERTEX
  5
AC5
  8
IMPORT_-_TOP
 10
2047.022391871737
 20
646.8456375838925
 30
0.0
  0
VERTEX
  5
AC6
  8
IMPORT_-_TOP
 10
2047.022391871737
 20
650.3548006540984
 30
0.0
 42
-1.0
  0
VERTEX
  5
AC7
  8
IMPORT_-_TOP
 10
2055.507673245976
 20
658.840082028337
 30
0.0
  0
VERTEX
  5
AC8
  8
IMPORT_-_TOP
 10
2205.189332719721
 20
658.840082028337
 30
0.0
 42
-1.0
  0
VERTEX
  5
AC9
  8
IMPORT_-_TOP
 10
2213.674614093959
 20
650.3548006540984
 30
0.0
  0
VERTEX
  5
ACA
  8
IMPORT_-_TOP
 10
2213.674614093959
 20
646.8456375838925
 30
0.0
  0
VERTEX
  5
ACB
  8
IMPORT_-_TOP
 10
2392.356558538404
 20
646.8456375838925
 30
0.0
  0
VERTEX
  5
ACC
  8
IMPORT_-_TOP
 10
2392.356558538404
 20
825.527582028337
 30
0.0
  0
VERTEX
  5
ACD
  8
IMPORT_-_TOP
 10
2388.847395468198
 20
825.527582028337
 30
0.0
 42
-1.0
  0
VERTEX
  5
ACE
  8
IMPORT_-_TOP
 10
2380.362114093959
 20
834.0128634025755
 30
0.0
  0
VERTEX
  5
ACF
  8
IMPORT_-_TOP
 10
2380.362114093959
 20
983.6945228763207
 30
0.0
 42
-1.0
  0
VERTEX
  5
AD0
  8
IMPORT_-_TOP
 10
2388.847395468198
 20
992.1798042505592
 30
0.0
  0
VERTEX
  5
AD1
  8
IMPORT_-_TOP
 10
2392.356558538404
 20
992.1798042505592
 30
0.0
  0
VERTEX
  5
AD2
  8
IMPORT_-_TOP
 10
2392.356558538404
 20
1170.826470917226
 30
0.0
  0
VERTEX
  5
AD3
  8
IMPORT_-_TOP
 10
2213.674614093959
 20
1170.826470917226
 30
0.0
  0
VERTEX
  5
AD4
  8
IMPORT_-_TOP
 10
2213.674614093959
 20
1167.31730784702
 30
0.0
 42
-1.0
  0
VERTEX
  5
AD5
  8
IMPORT_-_TOP
 10
2205.189332719721
 20
1158.832026472781
 30
0.0
  0
VERTEX
  5
AD6
  8
IMPORT_-_TOP
 10
2055.507673245976
 20
1158.832026472781
 30
0.0
 42
-1.0
  0
VERTEX
  5
AD7
  8
IMPORT_-_TOP
 10
2047.022391871737
 20
1167.31730784702
 30
0.0
  0
VERTEX
  5
AD8
  8
IMPORT_-_TOP
 10
2047.022391871737
 20
1170.826470917226
 30
0.0
  0
VERTEX
  5
AD9
  8
IMPORT_-_TOP
 10
1868.340447427293
 20
1170.826470917226
 30
0.0
  0
VERTEX
  5
ADA
  8
IMPORT_-_TOP
 10
1868.340447427293
 20
992.1798042505592
 30
0.0
  0
VERTEX
  5
ADB
  8
IMPORT_-_TOP
 10
1871.849610497499
 20
992.1798042505592
 30
0.0
 42
-1.0
  0
VERTEX
  5
ADC
  8
IMPORT_-_TOP
 10
1880.334891871737
 20
983.6945228763207
 30
0.0
  0
VERTEX
  5
ADD
  8
IMPORT_-_TOP
 10
1880.334891871737
 20
834.0128634025755
 30
0.0
 42
-1.0
  0
VERTEX
  5
ADE
  8
IMPORT_-_TOP
 10
1871.849610497499
 20
825.527582028337
 30
0.0
  0
VERTEX
  5
ADF
  8
IMPORT_-_TOP
 10
1868.340447427293
 20
825.527582028337
 30
0.0
  0
SEQEND
  5
AE0
  8
IMPORT_-_TOP
  0
POLYLINE
  5
153
  8
IMPORT_-_TOP
 66
     1
 10
0.0
 20
0.0
 30
0.0
 70
     1
  0
VERTEX
  5
AE1
  8
IMPORT_-_TOP
 10
2387.778115280944
 20
992.1798042505592
 30
0.0
  0
VERTEX
  5
AE2
  8
IMPORT_-_TOP
 10
2400.306197906039
 20
992.1798042505592
 30
0.0
  0
VERTEX
  5
AE3
  8
IMPORT_-_TOP
 10
2400.306197906039
 20
1178.048035221476
 30
0.0
  0
VERTEX
  5
AE4
  8
IMPORT_-_TOP
 10
2213.674614093959
 20
1178.048035221476
 30
0.0
  0
VERTEX
  5
AE5
  8
IMPORT_-_TOP
 10
2213.674614093959
 20
1165.568730614424
 30
0.0
  0
VERTEX
  5
AE6
  8
IMPORT_-_TOP
 10
2213.674614093959
 20
998.4194565540853
 30
0.0
  0
VERTEX
  5
AE7
  8
IMPORT_-_TOP
 10
2213.822003301314
 20
997.2082299304594
 30
0.0
  0
VERTEX
  5
AE8
  8
IMPORT_-_TOP
 10
2214.153629017861
 20
996.0337071439134
 30
0.0
  0
VERTEX
  5
AE9
  8
IMPORT_-_TOP
 10
2214.743185847276
 20
994.9325920315265
 30
0.0
  0
VERTEX
  5
AEA
  8
IMPORT_-_TOP
 10
2215.516979185885
 20
994.0149961045373
 30
0.0
  0
VERTEX
  5
AEB
  8
IMPORT_-_TOP
 10
2216.475009033687
 20
993.2075116887867
 30
0.0
  0
VERTEX
  5
AEC
  8
IMPORT_-_TOP
 10
2217.543580787004
 20
992.6569541325933
 30
0.0
  0
VERTEX
  5
AED
  8
IMPORT_-_TOP
 10
2218.722694445836
 20
992.2899157617977
 30
0.0
  0
VERTEX
  5
AEE
  8
IMPORT_-_TOP
 10
2219.975502708346
 20
992.1798042505592
 30
0.0
  0
SEQEND
  5
AEF
  8
IMPORT_-_TOP
  0
POLYLINE
  5
154
  8
IMPORT_-_TOP
 66
     1
 10
0.0
 20
0.0
 30
0.0
 70
     1
  0
VERTEX
  5
AF0
  8
IMPORT_-_TOP
 10
1860.05380424161
 20
992.1798042505592
 30
0.0
  0
VERTEX
  5
AF1
  8
IMPORT_-_TOP
 10
1872.604509038105
 20
992.1798042505592
 30
0.0
  0
VERTEX
  5
AF2
  8
IMPORT_-_TOP
 10
2040.74703947349
 20
992.1798042505592
 30
0.0
  0
VERTEX
  5
AF3
  8
IMPORT_-_TOP
 10
2041.965196115503
 20
992.2899157617977
 30
0.0
  0
VERTEX
  5
AF4
  8
IMPORT_-_TOP
 10
2043.146438919879
 20
992.6569541325936
 30
0.0
  0
VERTEX
  5
AF5
  8
IMPORT_-_TOP
 10
2044.216940211344
 20
993.2075116887869
 30
0.0
  0
VERTEX
  5
AF6
  8
IMPORT_-_TOP
 10
2045.1766999899
 20
994.0149961045375
 30
0.0
  0
VERTEX
  5
AF7
  8
IMPORT_-_TOP
 10
2045.951890580272
 20
994.9325920315267
 30
0.0
  0
VERTEX
  5
AF8
  8
IMPORT_-_TOP
 10
2046.54251198246
 20
996.0337071439136
 30
0.0
  0
VERTEX
  5
AF9
  8
IMPORT_-_TOP
 10
2046.87473652119
 20
997.2082299304597
 30
0.0
  0
VERTEX
  5
AFA
  8
IMPORT_-_TOP
 10
2047.022391871737
 20
998.4194565540853
 30
0.0
  0
VERTEX
  5
AFB
  8
IMPORT_-_TOP
 10
2047.022391871737
 20
1165.568730614425
 30
0.0
  0
VERTEX
  5
AFC
  8
IMPORT_-_TOP
 10
2047.022391871737
 20
1178.048035221477
 30
0.0
  0
VERTEX
  5
AFD
  8
IMPORT_-_TOP
 10
1860.05380424161
 20
1178.048035221477
 30
0.0
  0
SEQEND
  5
AFE
  8
IMPORT_-_TOP
  0
POLYLINE
  5
155
  8
IMPORT_-_TOP
 66
     1
 10
0.0
 20
0.0
 30
0.0
 70
     1
  0
VERTEX
  5
AFF
  8
IMPORT_-_TOP
 10
2053.019614093959
 20
825.527582028337
 30
0.0
  0
VERTEX
  5
B00
  8
IMPORT_-_TOP
 10
2207.677391871737
 20
825.527582028337
 30
0.0
  0
VERTEX
  5
B01
  8
IMPORT_-_TOP
 10
2208.876836316182
 20
825.6334153616704
 30
0.0
  0
VERTEX
  5
B02
  8
IMPORT_-_TOP
 10
2209.970447427293
 20
825.9509153616702
 30
0.0
  0
VERTEX
  5
B03
  8
IMPORT_-_TOP
 10
2211.028780760626
 20
826.5153598061148
 30
0.0
  0
VERTEX
  5
B04
  8
IMPORT_-_TOP
 10
2211.946002982848
 20
827.2561931394481
 30
0.0
  0
VERTEX
  5
B05
  8
IMPORT_-_TOP
 10
2212.686836316182
 20
828.1734153616703
 30
0.0
  0
VERTEX
  5
B06
  8
IMPORT_-_TOP
 10
2213.251280760626
 20
829.2317486950036
 30
0.0
  0
VERTEX
  5
B07
  8
IMPORT_-_TOP
 10
2213.568780760626
 20
830.3253598061146
 30
0.0
  0
VERTEX
  5
B08
  8
IMPORT_-_TOP
 10
2213.674614093959
 20
831.5248042505592
 30
0.0
  0
VERTEX
  5
B09
  8
IMPORT_-_TOP
 10
2213.674614093959
 20
986.1825820283369
 30
0.0
  0
VERTEX
  5
B0A
  8
IMPORT_-_TOP
 10
2213.568780760626
 20
987.3467486950035
 30
0.0
  0
VERTEX
  5
B0B
  8
IMPORT_-_TOP
 10
2213.251280760626
 20
988.4756375838925
 30
0.0
  0
VERTEX
  5
B0C
  8
IMPORT_-_TOP
 10
2212.686836316182
 20
989.498693139448
 30
0.0
  0
VERTEX
  5
B0D
  8
IMPORT_-_TOP
 10
2211.946002982848
 20
990.4159153616703
 30
0.0
  0
VERTEX
  5
B0E
  8
IMPORT_-_TOP
 10
2211.028780760626
 20
991.1567486950036
 30
0.0
  0
VERTEX
  5
B0F
  8
IMPORT_-_TOP
 10
2209.970447427293
 20
991.721193139448
 30
0.0
  0
VERTEX
  5
B10
  8
IMPORT_-_TOP
 10
2208.876836316182
 20
992.038693139448
 30
0.0
  0
VERTEX
  5
B11
  8
IMPORT_-_TOP
 10
2207.677391871737
 20
992.1798042505592
 30
0.0
  0
VERTEX
  5
B12
  8
IMPORT_-_TOP
 10
2053.019614093959
 20
992.1798042505592
 30
0.0
  0
VERTEX
  5
B13
  8
IMPORT_-_TOP
 10
2051.855447427293
 20
992.038693139448
 30
0.0
  0
VERTEX
  5
B14
  8
IMPORT_-_TOP
 10
2050.726558538404
 20
991.721193139448
 30
0.0
  0
VERTEX
  5
B15
  8
IMPORT_-_TOP
 10
2049.66822520507
 20
991.1567486950036
 30
0.0
  0
VERTEX
  5
B16
  8
IMPORT_-_TOP
 10
2048.751002982848
 20
990.4159153616703
 30
0.0
  0
VERTEX
  5
B17
  8
IMPORT_-_TOP
 10
2048.010169649515
 20
989.498693139448
 30
0.0
  0
VERTEX
  5
B18
  8
IMPORT_-_TOP
 10
2047.481002982848
 20
988.4756375838925
 30
0.0
  0
VERTEX
  5
B19
  8
IMPORT_-_TOP
 10
2047.128225205071
 20
987.3467486950035
 30
0.0
  0
VERTEX
  5
B1A
  8
IMPORT_-_TOP
 10
2047.022391871737
 20
986.1825820283369
 30
0.0
  0
VERTEX
  5
B1B
  8
IMPORT_-_TOP
 10
2047.022391871737
 20
831.5248042505592
 30
0.0
  0
VERTEX
  5
B1C
  8
IMPORT_-_TOP
 10
2047.128225205071
 20
830.3253598061146
 30
0.0
  0
VERTEX
  5
B1D
  8
IMPORT_-_TOP
 10
2047.481002982848
 20
829.2317486950036
 30
0.0
  0
VERTEX
  5
B1E
  8
IMPORT_-_TOP
 10
2048.010169649515
 20
828.1734153616703
 30
0.0
  0
VERTEX
  5
B1F
  8
IMPORT_-_TOP
 10
2048.751002982848
 20
827.2561931394481
 30
0.0
  0
VERTEX
  5
B20
  8
IMPORT_-_TOP
 10
2049.66822520507
 20
826.5153598061148
 30
0.0
  0
VERTEX
  5
B21
  8
IMPORT_-_TOP
 10
2050.726558538404
 20
825.9509153616702
 30
0.0
  0
VERTEX
  5
B22
  8
IMPORT_-_TOP
 10
2051.855447427293
 20
825.6334153616704
 30
0.0
  0
SEQEND
  5
B23
  8
IMPORT_-_TOP
  0
POLYLINE
  5
156
  8
IMPORT_-_TOP
 66
     1
 10
0.0
 20
0.0
 30
0.0
 70
     1
  0
VERTEX
  5
B24
  8
IMPORT_-_TOP
 10
1861.220916832214
 20
638.6407920536917
 30
0.0
  0
VERTEX
  5
B25
  8
IMPORT_-_TOP
 10
2047.022391871737
 20
638.6407920536917
 30
0.0
  0
VERTEX
  5
B26
  8
IMPORT_-_TOP
 10
2047.022391871737
 20
651.1860059907854
 30
0.0
  0
VERTEX
  5
B27
  8
IMPORT_-_TOP
 10
2047.022391871737
 20
819.2180773717398
 30
0.0
  0
VERTEX
  5
B28
  8
IMPORT_-_TOP
 10
2046.87565822906
 20
820.4725987654493
 30
0.0
  0
VERTEX
  5
B29
  8
IMPORT_-_TOP
 10
2046.545507533038
 20
821.6533247830581
 30
0.0
  0
VERTEX
  5
B2A
  8
IMPORT_-_TOP
 10
2045.95857296233
 20
822.723357736516
 30
0.0
  0
VERTEX
  5
B2B
  8
IMPORT_-_TOP
 10
2045.188221338277
 20
823.6826976258232
 30
0.0
  0
VERTEX
  5
B2C
  8
IMPORT_-_TOP
 10
2044.234452660877
 20
824.4575490748789
 30
0.0
  0
VERTEX
  5
B2D
  8
IMPORT_-_TOP
 10
2043.170633751471
 20
825.0479120836833
 30
0.0
  0
VERTEX
  5
B2E
  8
IMPORT_-_TOP
 10
2041.996764610056
 20
825.3799912761358
 30
0.0
  0
VERTEX
  5
B2F
  8
IMPORT_-_TOP
 10
2040.786212057972
 20
825.527582028337
 30
0.0
  0
VERTEX
  5
B30
  8
IMPORT_-_TOP
 10
1873.693276459744
 20
825.527582028337
 30
0.0
  0
VERTEX
  5
B31
  8
IMPORT_-_TOP
 10
1861.220916832214
 20
825.527582028337
 30
0.0
  0
SEQEND
  5
B32
  8
IMPORT_-_TOP
  0
POLYLINE
  5
157
  8
IMPORT_-_TOP
 66
     1
 10
0.0
 20
0.0
 30
0.0
 70
     1
  0
VERTEX
  5
B33
  8
IMPORT_-_TOP
 10
2213.674614093959
 20
637.9968678657722
 30
0.0
  0
VERTEX
  5
B34
  8
IMPORT_-_TOP
 10
2399.541537932885
 20
637.9968678657722
 30
0.0
  0
VERTEX
  5
B35
  8
IMPORT_-_TOP
 10
2399.541537932885
 20
825.527582028337
 30
0.0
  0
VERTEX
  5
B36
  8
IMPORT_-_TOP
 10
2387.064784901249
 20
825.527582028337
 30
0.0
  0
VERTEX
  5
B37
  8
IMPORT_-_TOP
 10
2219.949686942223
 20
825.527582028337
 30
0.0
  0
VERTEX
  5
B38
  8
IMPORT_-_TOP
 10
2218.702011639059
 20
825.3794827476557
 30
0.0
  0
VERTEX
  5
B39
  8
IMPORT_-_TOP
 10
2217.527729000788
 20
825.046259366123
 30
0.0
  0
VERTEX
  5
B3A
  8
IMPORT_-_TOP
 10
2216.463535359855
 20
824.4538622433982
 30
0.0
  0
VERTEX
  5
B3B
  8
IMPORT_-_TOP
 10
2215.509430716259
 20
823.676341019822
 30
0.0
  0
VERTEX
  5
B3C
  8
IMPORT_-_TOP
 10
2214.738807734893
 20
822.7136956953942
 30
0.0
  0
VERTEX
  5
B3D
  8
IMPORT_-_TOP
 10
2214.151666415758
 20
821.6399759104555
 30
0.0
  0
VERTEX
  5
B3E
  8
IMPORT_-_TOP
 10
2213.821399423744
 20
820.4551816650061
 30
0.0
  0
VERTEX
  5
B3F
  8
IMPORT_-_TOP
 10
2213.674614093959
 20
819.1963377792158
 30
0.0
  0
VERTEX
  5
B40
  8
IMPORT_-_TOP
 10
2213.674614093959
 20
650.5853067236739
 30
0.0
  0
SEQEND
  5
B41
  8
IMPORT_-_TOP
  0
POLYLINE
  5
158
  8
IMPORT_-_TOP
 66
     1
 10
0.0
 20
0.0
 30
0.0
 70
     1
  0
VERTEX
  5
B42
  8
IMPORT_-_TOP
 10
1868.340447427293
 20
56.25522184936619
 30
0.0
  0
VERTEX
  5
B43
  8
IMPORT_-_TOP
 10
2047.022391871737
 20
56.25522184936619
 30
0.0
  0
VERTEX
  5
B44
  8
IMPORT_-_TOP
 10
2047.022391871737
 20
59.76438491957208
 30
0.0
 42
-1.0
  0
VERTEX
  5
B45
  8
IMPORT_-_TOP
 10
2055.507673245976
 20
68.2496662938106
 30
0.0
  0
VERTEX
  5
B46
  8
IMPORT_-_TOP
 10
2205.189332719721
 20
68.2496662938106
 30
0.0
 42
-1.0
  0
VERTEX
  5
B47
  8
IMPORT_-_TOP
 10
2213.674614093959
 20
59.76438491957208
 30
0.0
  0
VERTEX
  5
B48
  8
IMPORT_-_TOP
 10
2213.674614093959
 20
56.25522184936619
 30
0.0
  0
VERTEX
  5
B49
  8
IMPORT_-_TOP
 10
2392.356558538404
 20
56.25522184936619
 30
0.0
  0
VERTEX
  5
B4A
  8
IMPORT_-_TOP
 10
2392.356558538404
 20
234.9371662938106
 30
0.0
  0
VERTEX
  5
B4B
  8
IMPORT_-_TOP
 10
2388.847395468198
 20
234.9371662938106
 30
0.0
 42
-1.0
  0
VERTEX
  5
B4C
  8
IMPORT_-_TOP
 10
2380.362114093959
 20
243.4224476680491
 30
0.0
  0
VERTEX
  5
B4D
  8
IMPORT_-_TOP
 10
2380.362114093959
 20
393.1041071417943
 30
0.0
 42
-1.0
  0
VERTEX
  5
B4E
  8
IMPORT_-_TOP
 10
2388.847395468198
 20
401.5893885160328
 30
0.0
  0
VERTEX
  5
B4F
  8
IMPORT_-_TOP
 10
2392.356558538404
 20
401.5893885160328
 30
0.0
  0
VERTEX
  5
B50
  8
IMPORT_-_TOP
 10
2392.356558538404
 20
580.2360551826995
 30
0.0
  0
VERTEX
  5
B51
  8
IMPORT_-_TOP
 10
2213.674614093959
 20
580.2360551826995
 30
0.0
  0
VERTEX
  5
B52
  8
IMPORT_-_TOP
 10
2213.674614093959
 20
576.7268921124936
 30
0.0
 42
-1.0
  0
VERTEX
  5
B53
  8
IMPORT_-_TOP
 10
2205.189332719721
 20
568.241610738255
 30
0.0
  0
VERTEX
  5
B54
  8
IMPORT_-_TOP
 10
2055.507673245976
 20
568.241610738255
 30
0.0
 42
-1.0
  0
VERTEX
  5
B55
  8
IMPORT_-_TOP
 10
2047.022391871737
 20
576.7268921124936
 30
0.0
  0
VERTEX
  5
B56
  8
IMPORT_-_TOP
 10
2047.022391871737
 20
580.2360551826995
 30
0.0
  0
VERTEX
  5
B57
  8
IMPORT_-_TOP
 10
1868.340447427293
 20
580.2360551826995
 30
0.0
  0
VERTEX
  5
B58
  8
IMPORT_-_TOP
 10
1868.340447427293
 20
401.5893885160328
 30
0.0
  0
VERTEX
  5
B59
  8
IMPORT_-_TOP
 10
1871.849610497499
 20
401.5893885160328
 30
0.0
 42
-1.0
  0
VERTEX
  5
B5A
  8
IMPORT_-_TOP
 10
1880.334891871737
 20
393.1041071417943
 30
0.0
  0
VERTEX
  5
B5B
  8
IMPORT_-_TOP
 10
1880.334891871737
 20
243.4224476680491
 30
0.0
 42
-1.0
  0
VERTEX
  5
B5C
  8
IMPORT_-_TOP
 10
1871.849610497499
 20
234.9371662938106
 30
0.0
  0
VERTEX
  5
B5D
  8
IMPORT_-_TOP
 10
1868.340447427293
 20
234.9371662938106
 30
0.0
  0
SEQEND
  5
B5E
  8
IMPORT_-_TOP
  0
POLYLINE
  5
159
  8
IMPORT_-_TOP
 66
     1
 10
0.0
 20
0.0
 30
0.0
 70
     1
  0
VERTEX
  5
B5F
  8
IMPORT_-_TOP
 10
59.47514086288325
 20
652.08
 30
0.0
  0
VERTEX
  5
B60
  8
IMPORT_-_TOP
 10
59.47514086288325
 20
646.08
 30
0.0
  0
VERTEX
  5
B61
  8
IMPORT_-_TOP
 10
79.47514086288325
 20
646.08
 30
0.0
  0
VERTEX
  5
B62
  8
IMPORT_-_TOP
 10
79.47514086288261
 20
652.08
 30
0.0
  0
VERTEX
  5
B63
  8
IMPORT_-_TOP
 10
99.47514086288325
 20
652.08
 30
0.0
  0
VERTEX
  5
B64
  8
IMPORT_-_TOP
 10
99.47514086288325
 20
632.0799999999997
 30
0.0
  0
VERTEX
  5
B65
  8
IMPORT_-_TOP
 10
93.47514086288325
 20
632.08
 30
0.0
  0
VERTEX
  5
B66
  8
IMPORT_-_TOP
 10
93.47514086288325
 20
612.08
 30
0.0
  0
VERTEX
  5
B67
  8
IMPORT_-_TOP
 10
99.47514086288325
 20
612.0799999999997
 30
0.0
  0
VERTEX
  5
B68
  8
IMPORT_-_TOP
 10
99.47514086288325
 20
592.08
 30
0.0
  0
VERTEX
  5
B69
  8
IMPORT_-_TOP
 10
79.47514086288322
 20
592.08
 30
0.0
  0
VERTEX
  5
B6A
  8
IMPORT_-_TOP
 10
79.47514086288325
 20
598.08
 30
0.0
  0
VERTEX
  5
B6B
  8
IMPORT_-_TOP
 10
59.47514086288325
 20
598.08
 30
0.0
  0
VERTEX
  5
B6C
  8
IMPORT_-_TOP
 10
59.47514086288322
 20
592.08
 30
0.0
  0
VERTEX
  5
B6D
  8
IMPORT_-_TOP
 10
39.47514086288325
 20
592.08
 30
0.0
  0
VERTEX
  5
B6E
  8
IMPORT_-_TOP
 10
39.47514086288325
 20
612.08
 30
0.0
  0
VERTEX
  5
B6F
  8
IMPORT_-_TOP
 10
45.47514086288325
 20
612.08
 30
0.0
  0
VERTEX
  5
B70
  8
IMPORT_-_TOP
 10
45.47514086288325
 20
632.08
 30
0.0
  0
VERTEX
  5
B71
  8
IMPORT_-_TOP
 10
39.47514086288325
 20
632.08
 30
0.0
  0
VERTEX
  5
B72
  8
IMPORT_-_TOP
 10
39.47514086288325
 20
652.08
 30
0.0
  0
SEQEND
  5
B73
  8
IMPORT_-_TOP
  0
POLYLINE
  5
15A
  8
IMPORT_-_TOP
 66
     1
 10
0.0
 20
0.0
 30
0.0
 70
     1
  0
VERTEX
  5
B74
  8
IMPORT_-_TOP
 10
50.47514086288325
 20
606.08
 30
0.0
 42
0.4142135623730951
  0
VERTEX
  5
B75
  8
IMPORT_-_TOP
 10
53.47514086288325
 20
603.08
 30
0.0
  0
VERTEX
  5
B76
  8
IMPORT_-_TOP
 10
85.47514086288325
 20
603.08
 30
0.0
 42
0.4142135623730951
  0
VERTEX
  5
B77
  8
IMPORT_-_TOP
 10
88.47514086288325
 20
606.08
 30
0.0
  0
VERTEX
  5
B78
  8
IMPORT_-_TOP
 10
88.47514086288325
 20
638.08
 30
0.0
 42
0.4142135623730951
  0
VERTEX
  5
B79
  8
IMPORT_-_TOP
 10
85.47514086288325
 20
641.08
 30
0.0
  0
VERTEX
  5
B7A
  8
IMPORT_-_TOP
 10
53.47514086288325
 20
641.08
 30
0.0
 42
0.4142135623730951
  0
VERTEX
  5
B7B
  8
IMPORT_-_TOP
 10
50.47514086288325
 20
638.08
 30
0.0
  0
SEQEND
  5
B7C
  8
IMPORT_-_TOP
  0
POLYLINE
  5
15B
  8
IMPORT_-_TOP
 66
     1
 10
0.0
 20
0.0
 30
0.0
 70
     1
  0
VERTEX
  5
B7D
  8
IMPORT_-_TOP
 10
113.7754642321182
 20
606.08
 30
0.0
 42
0.4142135623730951
  0
VERTEX
  5
B7E
  8
IMPORT_-_TOP
 10
116.7754642321182
 20
603.08
 30
0.0
  0
VERTEX
  5
B7F
  8
IMPORT_-_TOP
 10
148.7754642321183
 20
603.08
 30
0.0
 42
0.4142135623730951
  0
VERTEX
  5
B80
  8
IMPORT_-_TOP
 10
151.7754642321183
 20
606.08
 30
0.0
  0
VERTEX
  5
B81
  8
IMPORT_-_TOP
 10
151.7754642321183
 20
638.08
 30
0.0
 42
0.4142135623730951
  0
VERTEX
  5
B82
  8
IMPORT_-_TOP
 10
148.7754642321183
 20
641.08
 30
0.0
  0
VERTEX
  5
B83
  8
IMPORT_-_TOP
 10
116.7754642321182
 20
641.08
 30
0.0
 42
0.4142135623730951
  0
VERTEX
  5
B84
  8
IMPORT_-_TOP
 10
113.7754642321182
 20
638.08
 30
0.0
  0
SEQEND
  5
B85
  8
IMPORT_-_TOP
  0
POLYLINE
  5
15C
  8
IMPORT_-_TOP
 66
     1
 10
0.0
 20
0.0
 30
0.0
 70
     1
  0
VERTEX
  5
B86
  8
IMPORT_-_TOP
 10
122.9346322472722
 20
635.0716191283875
 30
0.0
 42
0.4142135623730951
  0
VERTEX
  5
B87
  8
IMPORT_-_TOP
 10
120.9346322472722
 20
633.0716191283875
 30
0.0
 42
0.4142135623730951
  0
VERTEX
  5
B88
  8
IMPORT_-_TOP
 10
122.9346322472722
 20
631.0716191283875
 30
0.0
 42
0.4142135623730951
  0
VERTEX
  5
B89
  8
IMPORT_-_TOP
 10
124.9346322472722
 20
633.0716191283875
 30
0.0
 42
0.4142135623730951
  0
SEQEND
  5
B8A
  8
IMPORT_-_TOP
  0
POLYLINE
  5
15D
  8
IMPORT_-_TOP
 66
     1
 10
0.0
 20
0.0
 30
0.0
 70
     1
  0
VERTEX
  5
B8B
  8
IMPORT_-_TOP
 10
142.6162962169643
 20
635.0716191283875
 30
0.0
 42
0.4142135623730951
  0
VERTEX
  5
B8C
  8
IMPORT_-_TOP
 10
140.6162962169643
 20
633.0716191283875
 30
0.0
 42
0.4142135623730951
  0
VERTEX
  5
B8D
  8
IMPORT_-_TOP
 10
142.6162962169643
 20
631.0716191283875
 30
0.0
 42
0.4142135623730951
  0
VERTEX
  5
B8E
  8
IMPORT_-_TOP
 10
144.6162962169643
 20
633.0716191283875
 30
0.0
 42
0.4142135623730951
  0
SEQEND
  5
B8F
  8
IMPORT_-_TOP
  0
POLYLINE
  5
15E
  8
IMPORT_-_TOP
 66
     1
 10
0.0
 20
0.0
 30
0.0
 70
     1
  0
VERTEX
  5
B90
  8
IMPORT_-_TOP
 10
122.9346322472722
 20
613.0883808716126
 30
0.0
 42
0.4142135623730951
  0
VERTEX
  5
B91
  8
IMPORT_-_TOP
 10
120.9346322472722
 20
611.0883808716126
 30
0.0
 42
0.4142135623730951
  0
VERTEX
  5
B92
  8
IMPORT_-_TOP
 10
122.9346322472722
 20
609.0883808716126
 30
0.0
 42
0.4142135623730951
  0
VERTEX
  5
B93
  8
IMPORT_-_TOP
 10
124.9346322472722
 20
611.0883808716126
 30
0.0
 42
0.4142135623730951
  0
SEQEND
  5
B94
  8
IMPORT_-_TOP
  0
POLYLINE
  5
15F
  8
IMPORT_-_TOP
 66
     1
 10
0.0
 20
0.0
 30
0.0
 70
     1
  0
VERTEX
  5
B95
  8
IMPORT_-_TOP
 10
142.6162962169643
 20
613.0883808716126
 30
0.0
 42
0.4142135623730951
  0
VERTEX
  5
B96
  8
IMPORT_-_TOP
 10
140.6162962169643
 20
611.0883808716126
 30
0.0
 42
0.4142135623730951
  0
VERTEX
  5
B97
  8
IMPORT_-_TOP
 10
142.6162962169643
 20
609.0883808716126
 30
0.0
 42
0.4142135623730951
  0
VERTEX
  5
B98
  8
IMPORT_-_TOP
 10
144.6162962169643
 20
611.0883808716126
 30
0.0
 42
0.4142135623730951
  0
SEQEND
  5
B99
  8
IMPORT_-_TOP
  0
POLYLINE
  5
160
  8
IMPORT_-_TOP
 66
     1
 10
0.0
 20
0.0
 30
0.0
 70
     1
  0
VERTEX
  5
B9A
  8
IMPORT_-_TOP
 10
200.718
 20
597.12
 30
0.0
  0
VERTEX
  5
B9B
  8
IMPORT_-_TOP
 10
414.218
 20
597.12
 30
0.0
  0
VERTEX
  5
B9C
  8
IMPORT_-_TOP
 10
414.218
 20
637.12
 30
0.0
  0
VERTEX
  5
B9D
  8
IMPORT_-_TOP
 10
200.718
 20
637.12
 30
0.0
  0
SEQEND
  5
B9E
  8
IMPORT_-_TOP
  0
POLYLINE
  5
161
  8
IMPORT_-_TOP
 66
     1
 10
0.0
 20
0.0
 30
0.0
 70
     1
  0
VERTEX
  5
B9F
  8
IMPORT_-_TOP
 10
433.5609863516775
 20
597.12
 30
0.0
  0
VERTEX
  5
BA0
  8
IMPORT_-_TOP
 10
647.0609863516775
 20
597.12
 30
0.0
  0
VERTEX
  5
BA1
  8
IMPORT_-_TOP
 10
647.0609863516775
 20
637.12
 30
0.0
  0
VERTEX
  5
BA2
  8
IMPORT_-_TOP
 10
433.5609863516775
 20
637.12
 30
0.0
  0
SEQEND
  5
BA3
  8
IMPORT_-_TOP
  0
POLYLINE
  5
162
  8
IMPORT_-_TOP
 66
     1
 10
0.0
 20
0.0
 30
0.0
 70
     1
  0
VERTEX
  5
BA4
  8
IMPORT_-_TOP
 10
678.8961019489923
 20
597.12
 30
0.0
  0
VERTEX
  5
BA5
  8
IMPORT_-_TOP
 10
892.3961019489923
 20
597.12
 30
0.0
  0
VERTEX
  5
BA6
  8
IMPORT_-_TOP
 10
892.3961019489923
 20
637.12
 30
0.0
  0
VERTEX
  5
BA7
  8
IMPORT_-_TOP
 10
678.8961019489923
 20
637.12
 30
0.0
  0
SEQEND
  5
BA8
  8
IMPORT_-_TOP
  0
POLYLINE
  5
163
  8
IMPORT_-_TOP
 66
     1
 10
0.0
 20
0.0
 30
0.0
 70
     1
  0
VERTEX
  5
BA9
  8
IMPORT_-_TOP
 10
929.3826110496631
 20
593.5720228417204
 30
0.0
  0
VERTEX
  5
BAA
  8
IMPORT_-_TOP
 10
1142.882611049663
 20
593.5720228417204
 30
0.0
  0
VERTEX
  5
BAB
  8
IMPORT_-_TOP
 10
1142.882611049663
 20
633.5720228417204
 30
0.0
  0
VERTEX
  5
BAC
  8
IMPORT_-_TOP
 10
929.3826110496631
 20
633.5720228417204
 30
0.0
  0
SEQEND
  5
BAD
  8
IMPORT_-_TOP
  0
POLYLINE
  5
164
  8
IMPORT_-_TOP
 66
     1
 10
0.0
 20
0.0
 30
0.0
 70
     1
  0
VERTEX
  5
BAE
  8
IMPORT_-_TOP
 10
232.6918555066177
 20
619.12
 30
0.0
 42
0.4142135623730951
  0
VERTEX
  5
BAF
  8
IMPORT_-_TOP
 10
230.6918555066177
 20
617.12
 30
0.0
 42
0.4142135623730951
  0
VERTEX
  5
BB0
  8
IMPORT_-_TOP
 10
232.6918555066177
 20
615.12
 30
0.0
 42
0.4142135623730951
  0
VERTEX
  5
BB1
  8
IMPORT_-_TOP
 10
234.6918555066177
 20
617.12
 30
0.0
 42
0.4142135623730951
  0
SEQEND
  5
BB2
  8
IMPORT_-_TOP
  0
POLYLINE
  5
165
  8
IMPORT_-_TOP
 66
     1
 10
0.0
 20
0.0
 30
0.0
 70
     1
  0
VERTEX
  5
BB3
  8
IMPORT_-_TOP
 10
382.2441444933822
 20
619.12
 30
0.0
 42
0.4142135623730951
  0
VERTEX
  5
BB4
  8
IMPORT_-_TOP
 10
380.2441444933822
 20
617.12
 30
0.0
 42
0.4142135623730951
  0
VERTEX
  5
BB5
  8
IMPORT_-_TOP
 10
382.2441444933822
 20
615.12
 30
0.0
 42
0.4142135623730951
  0
VERTEX
  5
BB6
  8
IMPORT_-_TOP
 10
384.2441444933822
 20
617.12
 30
0.0
 42
0.4142135623730951
  0
SEQEND
  5
BB7
  8
IMPORT_-_TOP
  0
POLYLINE
  5
166
  8
IMPORT_-_TOP
 66
     1
 10
0.0
 20
0.0
 30
0.0
 70
     1
  0
VERTEX
  5
BB8
  8
IMPORT_-_TOP
 10
465.5348418582952
 20
619.12
 30
0.0
 42
0.4142135623730951
  0
VERTEX
  5
BB9
  8
IMPORT_-_TOP
 10
463.5348418582952
 20
617.12
 30
0.0
 42
0.4142135623730951
  0
VERTEX
  5
BBA
  8
IMPORT_-_TOP
 10
465.5348418582952
 20
615.12
 30
0.0
 42
0.4142135623730951
  0
VERTEX
  5
BBB
  8
IMPORT_-_TOP
 10
467.5348418582952
 20
617.12
 30
0.0
 42
0.4142135623730951
  0
SEQEND
  5
BBC
  8
IMPORT_-_TOP
  0
POLYLINE
  5
167
  8
IMPORT_-_TOP
 66
     1
 10
0.0
 20
0.0
 30
0.0
 70
     1
  0
VERTEX
  5
BBD
  8
IMPORT_-_TOP
 10
615.0871308450597
 20
619.12
 30
0.0
 42
0.4142135623730951
  0
VERTEX
  5
BBE
  8
IMPORT_-_TOP
 10
613.0871308450597
 20
617.12
 30
0.0
 42
0.4142135623730951
  0
VERTEX
  5
BBF
  8
IMPORT_-_TOP
 10
615.0871308450597
 20
615.12
 30
0.0
 42
0.4142135623730951
  0
VERTEX
  5
BC0
  8
IMPORT_-_TOP
 10
617.0871308450597
 20
617.12
 30
0.0
 42
0.4142135623730951
  0
SEQEND
  5
BC1
  8
IMPORT_-_TOP
  0
POLYLINE
  5
168
  8
IMPORT_-_TOP
 66
     1
 10
0.0
 20
0.0
 30
0.0
 70
     1
  0
VERTEX
  5
BC2
  8
IMPORT_-_TOP
 10
710.86995745561
 20
619.12
 30
0.0
 42
0.4142135623730951
  0
VERTEX
  5
BC3
  8
IMPORT_-_TOP
 10
708.86995745561
 20
617.12
 30
0.0
 42
0.4142135623730951
  0
VERTEX
  5
BC4
  8
IMPORT_-_TOP
 10
710.86995745561
 20
615.12
 30
0.0
 42
0.4142135623730951
  0
VERTEX
  5
BC5
  8
IMPORT_-_TOP
 10
712.86995745561
 20
617.12
 30
0.0
 42
0.4142135623730951
  0
SEQEND
  5
BC6
  8
IMPORT_-_TOP
  0
POLYLINE
  5
169
  8
IMPORT_-_TOP
 66
     1
 10
0.0
 20
0.0
 30
0.0
 70
     1
  0
VERTEX
  5
BC7
  8
IMPORT_-_TOP
 10
860.4222464423746
 20
619.12
 30
0.0
 42
0.4142135623730951
  0
VERTEX
  5
BC8
  8
IMPORT_-_TOP
 10
858.4222464423746
 20
617.12
 30
0.0
 42
0.4142135623730951
  0
VERTEX
  5
BC9
  8
IMPORT_-_TOP
 10
860.4222464423746
 20
615.12
 30
0.0
 42
0.4142135623730951
  0
VERTEX
  5
BCA
  8
IMPORT_-_TOP
 10
862.4222464423746
 20
617.12
 30
0.0
 42
0.4142135623730951
  0
SEQEND
  5
BCB
  8
IMPORT_-_TOP
  0
POLYLINE
  5
16A
  8
IMPORT_-_TOP
 66
     1
 10
0.0
 20
0.0
 30
0.0
 70
     1
  0
VERTEX
  5
BCC
  8
IMPORT_-_TOP
 10
961.3564665562808
 20
615.5720228417204
 30
0.0
 42
0.4142135623730951
  0
VERTEX
  5
BCD
  8
IMPORT_-_TOP
 10
959.3564665562808
 20
613.5720228417204
 30
0.0
 42
0.4142135623730951
  0
VERTEX
  5
BCE
  8
IMPORT_-_TOP
 10
961.3564665562808
 20
611.5720228417204
 30
0.0
 42
0.4142135623730951
  0
VERTEX
  5
BCF
  8
IMPORT_-_TOP
 10
963.3564665562808
 20
613.5720228417204
 30
0.0
 42
0.4142135623730951
  0
SEQEND
  5
BD0
  8
IMPORT_-_TOP
  0
POLYLINE
  5
16B
  8
IMPORT_-_TOP
 66
     1
 10
0.0
 20
0.0
 30
0.0
 70
     1
  0
VERTEX
  5
BD1
  8
IMPORT_-_TOP
 10
1110.908755543045
 20
615.5720228417204
 30
0.0
 42
0.4142135623730951
  0
VERTEX
  5
BD2
  8
IMPORT_-_TOP
 10
1108.908755543045
 20
613.5720228417204
 30
0.0
 42
0.4142135623730951
  0
VERTEX
  5
BD3
  8
IMPORT_-_TOP
 10
1110.908755543045
 20
611.5720228417204
 30
0.0
 42
0.4142135623730951
  0
VERTEX
  5
BD4
  8
IMPORT_-_TOP
 10
1112.908755543045
 20
613.5720228417204
 30
0.0
 42
0.4142135623730951
  0
SEQEND
  5
BD5
  8
IMPORT_-_TOP
  0
POLYLINE
  5
16C
  8
IMPORT_-_TOP
 66
     1
 10
0.0
 20
0.0
 30
0.0
 70
     1
  0
VERTEX
  5
BD6
  8
IMPORT_-_TOP
 10
1177.293423398657
 20
593.5720228417204
 30
0.0
  0
VERTEX
  5
BD7
  8
IMPORT_-_TOP
 10
1390.793423398656
 20
593.5720228417204
 30
0.0
  0
VERTEX
  5
BD8
  8
IMPORT_-_TOP
 10
1390.793423398656
 20
633.5720228417204
 30
0.0
  0
VERTEX
  5
BD9
  8
IMPORT_-_TOP
 10
1177.293423398657
 20
633.5720228417204
 30
0.0
  0
SEQEND
  5
BDA
  8
IMPORT_-_TOP
  0
POLYLINE
  5
16D
  8
IMPORT_-_TOP
 66
     1
 10
0.0
 20
0.0
 30
0.0
 70
     1
  0
VERTEX
  5
BDB
  8
IMPORT_-_TOP
 10
1209.267278905274
 20
615.5720228417204
 30
0.0
 42
0.4142135623730951
  0
VERTEX
  5
BDC
  8
IMPORT_-_TOP
 10
1207.267278905274
 20
613.5720228417204
 30
0.0
 42
0.4142135623730951
  0
VERTEX
  5
BDD
  8
IMPORT_-_TOP
 10
1209.267278905274
 20
611.5720228417204
 30
0.0
 42
0.4142135623730951
  0
VERTEX
  5
BDE
  8
IMPORT_-_TOP
 10
1211.267278905274
 20
613.5720228417204
 30
0.0
 42
0.4142135623730951
  0
SEQEND
  5
BDF
  8
IMPORT_-_TOP
  0
POLYLINE
  5
16E
  8
IMPORT_-_TOP
 66
     1
 10
0.0
 20
0.0
 30
0.0
 70
     1
  0
VERTEX
  5
BE0
  8
IMPORT_-_TOP
 10
1358.819567892039
 20
615.5720228417204
 30
0.0
 42
0.4142135623730951
  0
VERTEX
  5
BE1
  8
IMPORT_-_TOP
 10
1356.819567892039
 20
613.5720228417204
 30
0.0
 42
0.4142135623730951
  0
VERTEX
  5
BE2
  8
IMPORT_-_TOP
 10
1358.819567892039
 20
611.5720228417204
 30
0.0
 42
0.4142135623730951
  0
VERTEX
  5
BE3
  8
IMPORT_-_TOP
 10
1360.819567892039
 20
613.5720228417204
 30
0.0
 42
0.4142135623730951
  0
SEQEND
  5
BE4
  8
IMPORT_-_TOP
  0
ENDSEC
  0
EOF
