  0
SECTION
  2
HEADER
  9
$ACADVER
  1
AC1018
  9
$ACADMAINTVER
 70
     0
  9
$DWGCODEPAGE
  3
ASCII
  9
$INSBASE
 10
0.0
 20
0.0
 30
0.0
  9
$EXTMIN
 10
1.000000000000000E+20
 20
1.000000000000000E+20
 30
1.000000000000000E+20
  9
$EXTMAX
 10
-1.000000000000000E+20
 20
-1.000000000000000E+20
 30
-1.000000000000000E+20
  9
$LIMMIN
 10
0.0
 20
0.0
  9
$LIMMAX
 10
12.0
 20
9.0
  9
$ORTHOMODE
 70
     0
  9
$REGENMODE
 70
     1
  9
$FILLMODE
 70
     1
  9
$QTEXTMODE
 70
     0
  9
$MIRRTEXT
 70
     1
  9
$LTSCALE
 40
1.0
  9
$ATTMODE
 70
     1
  9
$TEXTSIZE
 40
0.2
  9
$TRACEWID
 40
0.05
  9
$TEXTSTYLE
  7
Standard
  9
$CLAYER
  8
0
  9
$CELTYPE
  6
ByLayer
  9
$CECOLOR
 62
   256
  9
$CELTSCALE
 40
1.0
  9
$DISPSILH
 70
     0
  9
$DIMSCALE
 40
1.0
  9
$DIMASZ
 40
0.18
  9
$DIMEXO
 40
0.0625
  9
$DIMDLI
 40
0.38
  9
$DIMRND
 40
0.0
  9
$DIMDLE
 40
0.0
  9
$DIMEXE
 40
0.18
  9
$DIMTP
 40
0.0
  9
$DIMTM
 40
0.0
  9
$DIMTXT
 40
0.18
  9
$DIMCEN
 40
0.09
  9
$DIMTSZ
 40
0.0
  9
$DIMTOL
 70
     0
  9
$DIMLIM
 70
     0
  9
$DIMTIH
 70
     1
  9
$DIMTOH
 70
     1
  9
$DIMSE1
 70
     0
  9
$DIMSE2
 70
     0
  9
$DIMTAD
 70
     0
  9
$DIMZIN
 70
     0
  9
$DIMBLK
  1

  9
$DIMASO
 70
     1
  9
$DIMSHO
 70
     1
  9
$DIMPOST
  1

  9
$DIMAPOST
  1

  9
$DIMALT
 70
     0
  9
$DIMALTD
 70
     2
  9
$DIMALTF
 40
25.4
  9
$DIMLFAC
 40
1.0
  9
$DIMTOFL
 70
     0
  9
$DIMTVP
 40
0.0
  9
$DIMTIX
 70
     0
  9
$DIMSOXD
 70
     0
  9
$DIMSAH
 70
     0
  9
$DIMBLK1
  1

  9
$DIMBLK2
  1

  9
$DIMSTYLE
  2
Standard
  9
$DIMCLRD
 70
     0
  9
$DIMCLRE
 70
     0
  9
$DIMCLRT
 70
     0
  9
$DIMTFAC
 40
1.0
  9
$DIMGAP
 40
0.09
  9
$DIMJUST
 70
     0
  9
$DIMSD1
 70
     0
  9
$DIMSD2
 70
     0
  9
$DIMTOLJ
 70
     1
  9
$DIMTZIN
 70
     0
  9
$DIMALTZ
 70
     0
  9
$DIMALTTZ
 70
     0
  9
$DIMUPT
 70
     0
  9
$DIMDEC
 70
     4
  9
$DIMTDEC
 70
     4
  9
$DIMALTU
 70
     2
  9
$DIMALTTD
 70
     2
  9
$DIMTXSTY
  7
Standard
  9
$DIMAUNIT
 70
     0
  9
$DIMADEC
 70
     0
  9
$DIMALTRND
 40
0.0
  9
$DIMAZIN
 70
     0
  9
$DIMDSEP
 70
    46
  9
$DIMATFIT
 70
     3
  9
$DIMFRAC
 70
     0
  9
$DIMLDRBLK
  1

  9
$DIMLUNIT
 70
     2
  9
$DIMLWD
 70
    -2
  9
$DIMLWE
 70
    -2
  9
$DIMTMOVE
 70
     0
  9
$LUNITS
 70
     2
  9
$LUPREC
 70
     4
  9
$SKETCHINC
 40
0.1
  9
$FILLETRAD
 40
0.5
  9
$AUNITS
 70
     0
  9
$AUPREC
 70
     0
  9
$MENU
  1
.
  9
$ELEVATION
 40
0.0
  9
$PELEVATION
 40
0.0
  9
$THICKNESS
 40
0.0
  9
$LIMCHECK
 70
     0
  9
$CHAMFERA
 40
0.5
  9
$CHAMFERB
 40
0.5
  9
$CHAMFERC
 40
1.0
  9
$CHAMFERD
 40
0.0
  9
$SKPOLY
 70
     0
  9
$TDCREATE
 40
2456373.840984745
  9
$TDUCREATE
 40
2456374.049318079
  9
$TDUPDATE
 40
2456373.840984757
  9
$TDUUPDATE
 40
2456374.04931809
  9
$TDINDWG
 40
0.0000000116
  9
$TDUSRTIMER
 40
0.0000000116
  9
$USRTIMER
 70
     1
  9
$ANGBASE
 50
0.0
  9
$ANGDIR
 70
     0
  9
$PDMODE
 70
     0
  9
$PDSIZE
 40
0.0
  9
$PLINEWID
 40
0.0
  9
$SPLFRAME
 70
     0
  9
$SPLINETYPE
 70
     6
  9
$SPLINESEGS
 70
     8
  9
$HANDSEED
  5
4E
  9
$SURFTAB1
 70
     6
  9
$SURFTAB2
 70
     6
  9
$SURFTYPE
 70
     6
  9
$SURFU
 70
     6
  9
$SURFV
 70
     6
  9
$UCSBASE
  2

  9
$UCSNAME
  2

  9
$UCSORG
 10
0.0
 20
0.0
 30
0.0
  9
$UCSXDIR
 10
1.0
 20
0.0
 30
0.0
  9
$UCSYDIR
 10
0.0
 20
1.0
 30
0.0
  9
$UCSORTHOREF
  2

  9
$UCSORTHOVIEW
 70
     0
  9
$UCSORGTOP
 10
0.0
 20
0.0
 30
0.0
  9
$UCSORGBOTTOM
 10
0.0
 20
0.0
 30
0.0
  9
$UCSORGLEFT
 10
0.0
 20
0.0
 30
0.0
  9
$UCSORGRIGHT
 10
0.0
 20
0.0
 30
0.0
  9
$UCSORGFRONT
 10
0.0
 20
0.0
 30
0.0
  9
$UCSORGBACK
 10
0.0
 20
0.0
 30
0.0
  9
$PUCSBASE
  2

  9
$PUCSNAME
  2

  9
$PUCSORG
 10
0.0
 20
0.0
 30
0.0
  9
$PUCSXDIR
 10
1.0
 20
0.0
 30
0.0
  9
$PUCSYDIR
 10
0.0
 20
1.0
 30
0.0
  9
$PUCSORTHOREF
  2

  9
$PUCSORTHOVIEW
 70
     0
  9
$PUCSORGTOP
 10
0.0
 20
0.0
 30
0.0
  9
$PUCSORGBOTTOM
 10
0.0
 20
0.0
 30
0.0
  9
$PUCSORGLEFT
 10
0.0
 20
0.0
 30
0.0
  9
$PUCSORGRIGHT
 10
0.0
 20
0.0
 30
0.0
  9
$PUCSORGFRONT
 10
0.0
 20
0.0
 30
0.0
  9
$PUCSORGBACK
 10
0.0
 20
0.0
 30
0.0
  9
$USERI1
 70
     0
  9
$USERI2
 70
     0
  9
$USERI3
 70
     0
  9
$USERI4
 70
     0
  9
$USERI5
 70
     0
  9
$USERR1
 40
0.0
  9
$USERR2
 40
0.0
  9
$USERR3
 40
0.0
  9
$USERR4
 40
0.0
  9
$USERR5
 40
0.0
  9
$WORLDVIEW
 70
     1
  9
$SHADEDGE
 70
     3
  9
$SHADEDIF
 70
    70
  9
$TILEMODE
 70
     1
  9
$MAXACTVP
 70
    64
  9
$PINSBASE
 10
0.0
 20
0.0
 30
0.0
  9
$PLIMCHECK
 70
     0
  9
$PEXTMIN
 10
1.000000000000000E+20
 20
1.000000000000000E+20
 30
1.000000000000000E+20
  9
$PEXTMAX
 10
-1.000000000000000E+20
 20
-1.000000000000000E+20
 30
-1.000000000000000E+20
  9
$PLIMMIN
 10
0.0
 20
0.0
  9
$PLIMMAX
 10
12.0
 20
9.0
  9
$UNITMODE
 70
     0
  9
$VISRETAIN
 70
     1
  9
$PLINEGEN
 70
     0
  9
$PSLTSCALE
 70
     1
  9
$TREEDEPTH
 70
  3020
  9
$CMLSTYLE
  2
Standard
  9
$CMLJUST
 70
     0
  9
$CMLSCALE
 40
1.0
  9
$PROXYGRAPHICS
 70
     1
  9
$MEASUREMENT
 70
     0
  9
$CELWEIGHT
370
    -1
  9
$ENDCAPS
280
     0
  9
$JOINSTYLE
280
     0
  9
$LWDISPLAY
290
     1
  9
$INSUNITS
 70
     1
  9
$HYPERLINKBASE
  1

  9
$STYLESHEET
  1

  9
$XEDIT
290
     1
  9
$CEPSNTYPE
380
     0
  9
$PSTYLEMODE
290
     1
  9
$FINGERPRINTGUID
  2
{919DC523-9B91-44FB-826A-B0EAF6CC9207}
  9
$VERSIONGUID
  2
{FAEB1C32-E019-11D5-929B-00C0DF256EC4}
  9
$EXTNAMES
290
     1
  9
$PSVPSCALE
 40
0.0
  9
$OLESTARTUP
290
     0
  9
$SORTENTS
280
   127
  9
$INDEXCTL
280
     0
  9
$HIDETEXT
280
     1
  9
$XCLIPFRAME
290
     0
  9
$HALOGAP
280
     0
  9
$OBSCOLOR
 70
   257
  9
$OBSLTYPE
280
     0
  9
$INTERSECTIONDISPLAY
280
     0
  9
$INTERSECTIONCOLOR
 70
   257
  9
$DIMASSOC
280
     2
  9
$PROJECTNAME
  1

  0
ENDSEC
  0
SECTION
  2
CLASSES
  0
CLASS
  1
ACDBDICTIONARYWDFLT
  2
AcDbDictionaryWithDefault
  3
ObjectDBX Classes
 90
        0
 91
        3
280
     0
281
     0
  0
CLASS
  1
VISUALSTYLE
  2
AcDbVisualStyle
  3
ObjectDBX Classes
 90
     4095
 91
        3
280
     0
281
     0
  0
ENDSEC
  0
SECTION
  2
TABLES
  0
TABLE
  2
VPORT
  5
8
330
0
100
AcDbSymbolTable
 70
     1
  0
VPORT
  5
29
330
8
100
AcDbSymbolTableRecord
100
AcDbViewportTableRecord
  2
*Active
 70
     0
 10
0.0
 20
0.0
 11
1.0
 21
1.0
 12
0.0
 22
0.0
 13
0.0
 23
0.0
 14
0.5
 24
0.5
 15
0.5
 25
0.5
 16
0.0
 26
0.0
 36
1.0
 17
27.36848050458965
 27
48.08150007730381
 37
0.0
 40
95.9547011348675
 41
0.428765884731554
 42
50.0
 43
0.0
 44
0.0
 50
0.0
 51
0.0
 71
     0
 72
   100
 73
     1
 74
     3
 75
     0
 76
     0
 77
     0
 78
     0
281
     0
 65
     1
110
0.0
120
0.0
130
0.0
111
1.0
121
0.0
131
0.0
112
0.0
122
1.0
132
0.0
 79
     0
146
0.0
  0
ENDTAB
  0
TABLE
  2
LTYPE
  5
5
330
0
100
AcDbSymbolTable
 70
     1
  0
LTYPE
  5
14
330
5
100
AcDbSymbolTableRecord
100
AcDbLinetypeTableRecord
  2
ByBlock
 70
     0
  3

 72
    65
 73
     0
 40
0.0
  0
LTYPE
  5
15
330
5
100
AcDbSymbolTableRecord
100
AcDbLinetypeTableRecord
  2
ByLayer
 70
     0
  3

 72
    65
 73
     0
 40
0.0
  0
LTYPE
  5
16
330
5
100
AcDbSymbolTableRecord
100
AcDbLinetypeTableRecord
  2
Continuous
 70
     0
  3
Solid line
 72
    65
 73
     0
 40
0.0
  0
ENDTAB
  0
TABLE
  2
LAYER
  5
2
330
0
100
AcDbSymbolTable
 70
     2
  0
LAYER
  5
10
330
2
100
AcDbSymbolTableRecord
100
AcDbLayerTableRecord
  2
0
 70
     0
 62
     7
  6
Continuous
370
    -3
390
F
  0
LAYER
  5
3B
330
2
100
AcDbSymbolTableRecord
100
AcDbLayerTableRecord
  2
Layer 1
 70
     0
 62
     7
  6
Continuous
370
    -3
390
F
  0
ENDTAB
  0
TABLE
  2
STYLE
  5
3
330
0
100
AcDbSymbolTable
 70
     1
  0
STYLE
  5
11
330
3
100
AcDbSymbolTableRecord
100
AcDbTextStyleTableRecord
  2
Standard
 70
     0
 40
0.0
 41
1.0
 50
0.0
 71
     0
 42
0.2
  3
txt
  4

  0
ENDTAB
  0
TABLE
  2
VIEW
  5
6
330
0
100
AcDbSymbolTable
 70
     0
  0
ENDTAB
  0
TABLE
  2
UCS
  5
7
330
0
100
AcDbSymbolTable
 70
     0
  0
ENDTAB
  0
TABLE
  2
APPID
  5
9
330
0
100
AcDbSymbolTable
 70
     1
  0
APPID
  5
12
330
9
100
AcDbSymbolTableRecord
100
AcDbRegAppTableRecord
  2
ACAD
 70
     0
  0
ENDTAB
  0
TABLE
  2
DIMSTYLE
  5
A
330
0
100
AcDbSymbolTable
 70
     1
100
AcDbDimStyleTable
  0
DIMSTYLE
105
27
330
A
100
AcDbSymbolTableRecord
100
AcDbDimStyleTableRecord
  2
Standard
 70
     0
340
11
  0
ENDTAB
  0
TABLE
  2
BLOCK_RECORD
  5
1
330
0
100
AcDbSymbolTable
 70
     1
  0
BLOCK_RECORD
  5
1F
330
1
100
AcDbSymbolTableRecord
100
AcDbBlockTableRecord
  2
*Model_Space
340
22
  0
BLOCK_RECORD
  5
1B
330
1
100
AcDbSymbolTableRecord
100
AcDbBlockTableRecord
  2
*Paper_Space
340
1E
  0
BLOCK_RECORD
  5
23
330
1
100
AcDbSymbolTableRecord
100
AcDbBlockTableRecord
  2
*Paper_Space0
340
26
  0
ENDTAB
  0
ENDSEC
  0
SECTION
  2
BLOCKS
  0
BLOCK
  5
20
330
1F
100
AcDbEntity
  8
0
100
AcDbBlockBegin
  2
*Model_Space
 70
     0
 71
     0
 10
0.0
 20
0.0
 30
0.0
  3
*Model_Space
  1

  0
ENDBLK
  5
21
330
1F
100
AcDbEntity
  8
0
100
AcDbBlockEnd
  0
BLOCK
  5
1C
330
1B
100
AcDbEntity
 67
     1
  8
0
100
AcDbBlockBegin
  2
*Paper_Space
 70
     0
 71
     0
 10
0.0
 20
0.0
 30
0.0
  3
*Paper_Space
  1

  0
ENDBLK
  5
1D
330
1B
100
AcDbEntity
 67
     1
  8
0
100
AcDbBlockEnd
  0
BLOCK
  5
24
330
23
100
AcDbEntity
  8
0
100
AcDbBlockBegin
  2
*Paper_Space0
 70
     0
 71
     0
 10
0.0
 20
0.0
 30
0.0
  3
*Paper_Space0
  1

  0
ENDBLK
  5
25
330
23
100
AcDbEntity
  8
0
100
AcDbBlockEnd
  0
ENDSEC
  0
SECTION
  2
ENTITIES
  0
SPLINE
  5
3C
330
1F
100
AcDbEntity
  8
Layer 1
 62
   217
420
  9447054
370
    35
100
AcDbSpline
210
0.0
220
0.0
230
1.0
 70
    11
 71
     3
 72
    74
 73
    70
 74
     0
 42
0.0000000001
 43
0.0000000001
 40
0.0
 40
0.0
 40
0.0
 40
0.0
 40
1.0
 40
1.0
 40
1.0
 40
2.0
 40
2.0
 40
2.0
 40
3.0
 40
3.0
 40
3.0
 40
4.0
 40
4.0
 40
4.0
 40
5.0
 40
5.0
 40
5.0
 40
6.0
 40
6.0
 40
6.0
 40
7.0
 40
7.0
 40
7.0
 40
8.0
 40
8.0
 40
8.0
 40
9.0
 40
9.0
 40
9.0
 40
10.0
 40
10.0
 40
10.0
 40
11.0
 40
11.0
 40
11.0
 40
12.0
 40
12.0
 40
12.0
 40
13.0
 40
13.0
 40
13.0
 40
14.0
 40
14.0
 40
14.0
 40
15.0
 40
15.0
 40
15.0
 40
16.0
 40
16.0
 40
16.0
 40
17.0
 40
17.0
 40
17.0
 40
18.0
 40
18.0
 40
18.0
 40
19.0
 40
19.0
 40
19.0
 40
20.0
 40
20.0
 40
20.0
 40
21.0
 40
21.0
 40
21.0
 40
22.0
 40
22.0
 40
22.0
 40
23.0
 40
23.0
 40
23.0
 40
23.0
 10
7.381949312429908
 20
48.22919847114366
 30
0.0
 10
13.06234585347474
 20
48.22919847114366
 30
0.0
 10
18.74331883804206
 20
48.22919847114366
 30
0.0
 10
24.4236272171364
 20
48.22919847114366
 30
0.0
 10
24.34864886908123
 20
47.00787062581524
 30
0.0
 10
23.99270516647419
 20
46.0675488251697
 30
0.0
 10
22.88195953382554
 20
45.88197470105776
 30
0.0
 10
22.88195953382554
 20
46.26161362328354
 30
0.0
 10
22.88195953382554
 20
46.64123898213232
 30
0.0
 10
22.88195953382554
 20
47.0208643409811
 30
0.0
 10
22.75687807113293
 20
47.05319943174874
 30
0.0
 10
22.57183291872399
 20
47.02555726942305
 30
0.0
 10
22.42362589824664
 20
47.03475323902894
 30
0.0
 10
22.42362589824664
 20
46.64586409368927
 30
0.0
 10
22.42362589824664
 20
46.25697494834959
 30
0.0
 10
22.42362589824664
 20
45.86808580300992
 30
0.0
 10
21.45139625320895
 20
45.86808580300992
 30
0.0
 10
20.47919373492526
 20
45.86808580300992
 30
0.0
 10
19.50695730819907
 20
45.86808580300992
 30
0.0
 10
19.50695730819907
 20
46.25233627341564
 30
0.0
 10
19.50695730819907
 20
46.63661387057537
 30
0.0
 10
19.50695730819907
 20
47.0208643409811
 30
0.0
 10
19.38187584550646
 20
47.05319943174874
 30
0.0
 10
19.19683069309752
 20
47.02555726942305
 30
0.0
 10
19.04862367262017
 20
47.03475323902894
 30
0.0
 10
19.04862367262017
 20
46.64586409368927
 30
0.0
 10
19.04862367262017
 20
46.25697494834959
 30
0.0
 10
19.04862367262017
 20
45.86808580300992
 30
0.0
 10
18.07639402758248
 20
45.86808580300992
 30
0.0
 10
17.10419150929879
 20
45.86808580300992
 30
0.0
 10
16.1319550825726
 20
45.86808580300992
 30
0.0
 10
16.1319550825726
 20
46.25233627341564
 30
0.0
 10
16.1319550825726
 20
46.63661387057537
 30
0.0
 10
16.1319550825726
 20
47.0208643409811
 30
0.0
 10
16.00687361987999
 20
47.05319943174874
 30
0.0
 10
15.82182846747105
 20
47.02555726942305
 30
0.0
 10
15.6736214469937
 20
47.03475323902894
 30
0.0
 10
15.6736214469937
 20
46.64586409368927
 30
0.0
 10
15.6736214469937
 20
46.25697494834959
 30
0.0
 10
15.6736214469937
 20
45.86808580300992
 30
0.0
 10
14.70139180195601
 20
45.86808580300992
 30
0.0
 10
13.72918928367232
 20
45.86808580300992
 30
0.0
 10
12.75695285694614
 20
45.86808580300992
 30
0.0
 10
12.75695285694614
 20
46.25233627341564
 30
0.0
 10
12.75695285694614
 20
46.63661387057537
 30
0.0
 10
12.75695285694614
 20
47.0208643409811
 30
0.0
 10
12.63187139425353
 20
47.05319943174874
 30
0.0
 10
12.44682624184458
 20
47.02555726942305
 30
0.0
 10
12.29861922136723
 20
47.03475323902894
 30
0.0
 10
12.29861922136723
 20
46.64586409368927
 30
0.0
 10
12.29861922136723
 20
46.25697494834959
 30
0.0
 10
12.29861922136723
 20
45.86808580300992
 30
0.0
 10
11.32638957632954
 20
45.86808580300992
 30
0.0
 10
10.35418705804586
 20
45.86808580300992
 30
0.0
 10
9.381950631319667
 20
45.86808580300992
 30
0.0
 10
9.381950631319667
 20
46.25233627341564
 30
0.0
 10
9.381950631319667
 20
46.63661387057537
 30
0.0
 10
9.381950631319667
 20
47.0208643409811
 30
0.0
 10
9.256869168627057
 20
47.05319943174874
 30
0.0
 10
9.071824016218116
 20
47.02555726942305
 30
0.0
 10
8.923616995740764
 20
47.03475323902894
 30
0.0
 10
8.923616995740764
 20
46.65050276862322
 30
0.0
 10
8.923616995740764
 20
46.26622517146349
 30
0.0
 10
8.923616995740764
 20
45.88197470105776
 30
0.0
 10
7.808178434650168
 20
46.05357854685985
 30
0.0
 10
7.469934939027929
 20
47.00236389475331
 30
0.0
 10
7.368060414382063
 20
48.18753177700012
 30
0.0
 10
7.366866837206076
 20
48.20723936378091
 30
0.0
 10
7.365768203669088
 20
48.22686557029969
 30
0.0
 10
7.381949312429908
 20
48.22919847114366
 30
0.0
  0
SPLINE
  5
3D
330
1F
100
AcDbEntity
  8
Layer 1
 62
   217
420
  9447054
370
    35
100
AcDbSpline
210
0.0
220
0.0
230
1.0
 70
    11
 71
     3
 72
    74
 73
    70
 74
     0
 42
0.0000000001
 43
0.0000000001
 40
0.0
 40
0.0
 40
0.0
 40
0.0
 40
1.0
 40
1.0
 40
1.0
 40
2.0
 40
2.0
 40
2.0
 40
3.0
 40
3.0
 40
3.0
 40
4.0
 40
4.0
 40
4.0
 40
5.0
 40
5.0
 40
5.0
 40
6.0
 40
6.0
 40
6.0
 40
7.0
 40
7.0
 40
7.0
 40
8.0
 40
8.0
 40
8.0
 40
9.0
 40
9.0
 40
9.0
 40
10.0
 40
10.0
 40
10.0
 40
11.0
 40
11.0
 40
11.0
 40
12.0
 40
12.0
 40
12.0
 40
13.0
 40
13.0
 40
13.0
 40
14.0
 40
14.0
 40
14.0
 40
15.0
 40
15.0
 40
15.0
 40
16.0
 40
16.0
 40
16.0
 40
17.0
 40
17.0
 40
17.0
 40
18.0
 40
18.0
 40
18.0
 40
19.0
 40
19.0
 40
19.0
 40
20.0
 40
20.0
 40
20.0
 40
21.0
 40
21.0
 40
21.0
 40
22.0
 40
22.0
 40
22.0
 40
23.0
 40
23.0
 40
23.0
 40
23.0
 10
46.68753078783281
 20
48.85419888329671
 30
0.0
 10
46.76594067026893
 20
48.80353288851378
 30
0.0
 10
46.72919748197634
 20
48.68363941752361
 30
0.0
 10
46.72919748197634
 20
48.61808761648334
 30
0.0
 10
46.72898046794435
 20
43.04881582319827
 30
0.0
 10
46.72936024250034
 20
37.38092471574731
 30
0.0
 10
46.72919748197634
 20
31.79863208054238
 30
0.0
 10
45.50709652415893
 20
31.87283731610855
 30
0.0
 10
44.57753048147427
 20
32.23955034005348
 30
0.0
 10
44.38197371189045
 20
33.34029976385324
 30
0.0
 10
44.76622418229617
 20
33.34029976385324
 30
0.0
 10
45.1505017794559
 20
33.34029976385324
 30
0.0
 10
45.53475224986163
 20
33.34029976385324
 30
0.0
 10
45.56708734062926
 20
33.46538122654584
 30
0.0
 10
45.53944517830357
 20
33.65042637895479
 30
0.0
 10
45.54864114790947
 20
33.79863339943214
 30
0.0
 10
45.15512689101285
 20
33.79863339943214
 30
0.0
 10
44.76159907073922
 20
33.79863339943214
 30
0.0
 10
44.3680848138426
 20
33.79863339943214
 30
0.0
 10
44.3680848138426
 20
34.77085626278133
 30
0.0
 10
44.3680848138426
 20
35.74306556275351
 30
0.0
 10
44.3680848138426
 20
36.71530198947971
 30
0.0
 10
44.75697395918228
 20
36.71530198947971
 30
0.0
 10
45.14586310452195
 20
36.71530198947971
 30
0.0
 10
45.53475224986163
 20
36.71530198947971
 30
0.0
 10
45.56708734062926
 20
36.84038345217231
 30
0.0
 10
45.53944517830357
 20
37.02542860458126
 30
0.0
 10
45.54864114790947
 20
37.17363562505861
 30
0.0
 10
45.15512689101285
 20
37.17363562505861
 30
0.0
 10
44.76159907073922
 20
37.17363562505861
 30
0.0
 10
44.3680848138426
 20
37.17363562505861
 30
0.0
 10
44.3680848138426
 20
38.1458584884078
 30
0.0
 10
44.3680848138426
 20
39.11806778837998
 30
0.0
 10
44.3680848138426
 20
40.09030421510617
 30
0.0
 10
44.75697395918228
 20
40.09030421510617
 30
0.0
 10
45.14586310452195
 20
40.09030421510617
 30
0.0
 10
45.53475224986163
 20
40.09030421510617
 30
0.0
 10
45.56708734062926
 20
40.21538567779878
 30
0.0
 10
45.53944517830357
 20
40.40043083020772
 30
0.0
 10
45.54864114790947
 20
40.54863785068508
 30
0.0
 10
45.15512689101285
 20
40.54863785068508
 30
0.0
 10
44.76159907073922
 20
40.54863785068508
 30
0.0
 10
44.3680848138426
 20
40.54863785068508
 30
0.0
 10
44.3680848138426
 20
41.52086071403426
 30
0.0
 10
44.3680848138426
 20
42.49307001400645
 30
0.0
 10
44.3680848138426
 20
43.46530644073264
 30
0.0
 10
44.75697395918228
 20
43.46530644073264
 30
0.0
 10
45.14586310452195
 20
43.46530644073264
 30
0.0
 10
45.53475224986163
 20
43.46530644073264
 30
0.0
 10
45.56708734062926
 20
43.59038790342525
 30
0.0
 10
45.53944517830357
 20
43.77543305583419
 30
0.0
 10
45.54864114790947
 20
43.92364007631154
 30
0.0
 10
45.15512689101285
 20
43.92364007631154
 30
0.0
 10
44.76159907073922
 20
43.92364007631154
 30
0.0
 10
44.3680848138426
 20
43.92364007631154
 30
0.0
 10
44.3680848138426
 20
44.89586293966073
 30
0.0
 10
44.3680848138426
 20
45.86807223963292
 30
0.0
 10
44.3680848138426
 20
46.84030866635911
 30
0.0
 10
44.75697395918228
 20
46.84030866635911
 30
0.0
 10
45.14586310452195
 20
46.84030866635911
 30
0.0
 10
45.53475224986163
 20
46.84030866635911
 30
0.0
 10
45.56708734062926
 20
46.96539012905172
 30
0.0
 10
45.53944517830357
 20
47.15043528146066
 30
0.0
 10
45.54864114790947
 20
47.29864230193801
 30
0.0
 10
45.1597520025698
 20
47.29864230193801
 30
0.0
 10
44.77086285723012
 20
47.29864230193801
 30
0.0
 10
44.38197371189045
 20
47.29864230193801
 30
0.0
 10
44.56406204811342
 20
48.40359637260772
 30
0.0
 10
45.50150841283499
 20
48.75317206971334
 30
0.0
 10
46.68753078783281
 20
48.85419888329671
 30
0.0
  0
SPLINE
  5
3E
330
1F
100
AcDbEntity
  8
Layer 1
 62
   217
420
  9447054
370
    35
100
AcDbSpline
210
0.0
220
0.0
230
1.0
 70
    11
 71
     3
 72
   275
 73
   271
 74
     0
 42
0.0000000001
 43
0.0000000001
 40
0.0
 40
0.0
 40
0.0
 40
0.0
 40
1.0
 40
1.0
 40
1.0
 40
2.0
 40
2.0
 40
2.0
 40
3.0
 40
3.0
 40
3.0
 40
4.0
 40
4.0
 40
4.0
 40
5.0
 40
5.0
 40
5.0
 40
6.0
 40
6.0
 40
6.0
 40
7.0
 40
7.0
 40
7.0
 40
8.0
 40
8.0
 40
8.0
 40
9.0
 40
9.0
 40
9.0
 40
10.0
 40
10.0
 40
10.0
 40
11.0
 40
11.0
 40
11.0
 40
12.0
 40
12.0
 40
12.0
 40
13.0
 40
13.0
 40
13.0
 40
14.0
 40
14.0
 40
14.0
 40
15.0
 40
15.0
 40
15.0
 40
16.0
 40
16.0
 40
16.0
 40
17.0
 40
17.0
 40
17.0
 40
18.0
 40
18.0
 40
18.0
 40
19.0
 40
19.0
 40
19.0
 40
20.0
 40
20.0
 40
20.0
 40
21.0
 40
21.0
 40
21.0
 40
22.0
 40
22.0
 40
22.0
 40
23.0
 40
23.0
 40
23.0
 40
24.0
 40
24.0
 40
24.0
 40
25.0
 40
25.0
 40
25.0
 40
26.0
 40
26.0
 40
26.0
 40
27.0
 40
27.0
 40
27.0
 40
28.0
 40
28.0
 40
28.0
 40
29.0
 40
29.0
 40
29.0
 40
30.0
 40
30.0
 40
30.0
 40
31.0
 40
31.0
 40
31.0
 40
32.0
 40
32.0
 40
32.0
 40
33.0
 40
33.0
 40
33.0
 40
34.0
 40
34.0
 40
34.0
 40
35.0
 40
35.0
 40
35.0
 40
36.0
 40
36.0
 40
36.0
 40
37.0
 40
37.0
 40
37.0
 40
38.0
 40
38.0
 40
38.0
 40
39.0
 40
39.0
 40
39.0
 40
40.0
 40
40.0
 40
40.0
 40
41.0
 40
41.0
 40
41.0
 40
42.0
 40
42.0
 40
42.0
 40
43.0
 40
43.0
 40
43.0
 40
44.0
 40
44.0
 40
44.0
 40
45.0
 40
45.0
 40
45.0
 40
46.0
 40
46.0
 40
46.0
 40
47.0
 40
47.0
 40
47.0
 40
48.0
 40
48.0
 40
48.0
 40
49.0
 40
49.0
 40
49.0
 40
50.0
 40
50.0
 40
50.0
 40
51.0
 40
51.0
 40
51.0
 40
52.0
 40
52.0
 40
52.0
 40
53.0
 40
53.0
 40
53.0
 40
54.0
 40
54.0
 40
54.0
 40
55.0
 40
55.0
 40
55.0
 40
56.0
 40
56.0
 40
56.0
 40
57.0
 40
57.0
 40
57.0
 40
58.0
 40
58.0
 40
58.0
 40
59.0
 40
59.0
 40
59.0
 40
60.0
 40
60.0
 40
60.0
 40
61.0
 40
61.0
 40
61.0
 40
62.0
 40
62.0
 40
62.0
 40
63.0
 40
63.0
 40
63.0
 40
64.0
 40
64.0
 40
64.0
 40
65.0
 40
65.0
 40
65.0
 40
66.0
 40
66.0
 40
66.0
 40
67.0
 40
67.0
 40
67.0
 40
68.0
 40
68.0
 40
68.0
 40
69.0
 40
69.0
 40
69.0
 40
70.0
 40
70.0
 40
70.0
 40
71.0
 40
71.0
 40
71.0
 40
72.0
 40
72.0
 40
72.0
 40
73.0
 40
73.0
 40
73.0
 40
74.0
 40
74.0
 40
74.0
 40
75.0
 40
75.0
 40
75.0
 40
76.0
 40
76.0
 40
76.0
 40
77.0
 40
77.0
 40
77.0
 40
78.0
 40
78.0
 40
78.0
 40
79.0
 40
79.0
 40
79.0
 40
80.0
 40
80.0
 40
80.0
 40
81.0
 40
81.0
 40
81.0
 40
82.0
 40
82.0
 40
82.0
 40
83.0
 40
83.0
 40
83.0
 40
84.0
 40
84.0
 40
84.0
 40
85.0
 40
85.0
 40
85.0
 40
86.0
 40
86.0
 40
86.0
 40
87.0
 40
87.0
 40
87.0
 40
88.0
 40
88.0
 40
88.0
 40
89.0
 40
89.0
 40
89.0
 40
90.0
 40
90.0
 40
90.0
 40
90.0
 10
32.51391033000642
 20
46.50697511321081
 30
0.0
 10
36.27964632024455
 20
47.46815738768213
 30
0.0
 10
40.08421425883324
 20
48.51062498051353
 30
0.0
 10
43.87502893314409
 20
49.49308819349761
 30
0.0
 10
43.87502893314409
 20
49.08105314530769
 30
0.0
 10
43.87502893314409
 20
48.66901131542927
 30
0.0
 10
43.87502893314409
 20
48.25697626723935
 30
0.0
 10
40.0068758831801
 20
47.04165699792187
 30
0.0
 10
36.15343909726095
 20
45.81217756301654
 30
0.0
 10
32.27779906319305
 20
44.60419608065597
 30
0.0
 10
32.01369298625199
 20
43.32318937652822
 30
0.0
 10
31.91036718026714
 20
41.89016434298615
 30
0.0
 10
31.73613203932707
 20
40.54863785068508
 30
0.0
 10
31.56045918042503
 20
39.19609789626011
 30
0.0
 10
31.19515674768809
 20
37.99649858088546
 30
0.0
 10
30.63890909354728
 20
37.048635542628
 30
0.0
 10
35.01088734554766
 20
34.87439908279818
 30
0.0
 10
39.40139317052984
 20
32.71829685801715
 30
0.0
 10
43.79169554485701
 20
30.56252015428413
 30
0.0
 10
43.79169554485701
 20
30.12271409168702
 30
0.0
 10
43.79169554485701
 20
29.68288090233591
 30
0.0
 10
43.79169554485701
 20
29.2430748397388
 30
0.0
 10
39.19900045893808
 20
31.31311743745578
 30
0.0
 10
34.60918080894312
 20
33.29749374604171
 30
0.0
 10
30.00001978334638
 20
35.39585667493438
 30
0.0
 10
29.87748823552974
 20
35.45164284453476
 30
0.0
 10
29.62405653628756
 20
35.59464152824417
 30
0.0
 10
29.55557504581532
 20
35.59030124760422
 30
0.0
 10
29.50273212902391
 20
35.58695109348525
 30
0.0
 10
29.34431188566568
 20
35.42697106177203
 30
0.0
 10
29.25001928876272
 20
35.340301082743
 30
0.0
 10
28.60013007981495
 20
34.74291570616164
 30
0.0
 10
27.68393752685214
 20
34.33761487465215
 30
0.0
 10
26.80557323234191
 20
33.99307797210198
 30
0.0
 10
25.76008100643953
 20
33.58297570513454
 30
0.0
 10
24.57810051778768
 20
33.28745684706183
 30
0.0
 10
23.43057100671544
 20
33.03474400680064
 30
0.0
 10
22.82780775115364
 20
32.90201279948011
 30
0.0
 10
22.2016341068901
 20
32.81821825637504
 30
0.0
 10
21.59723646439983
 20
32.6875215556045
 30
0.0
 10
20.99861682051148
 20
32.55807268551793
 30
0.0
 10
20.4035100912661
 20
32.43137718096234
 30
0.0
 10
19.86112420841913
 20
32.25696571612129
 30
0.0
 10
19.30082788624386
 20
32.07678981605529
 30
0.0
 10
18.75075156863798
 20
31.90903796932115
 30
0.0
 10
18.16667864658197
 20
31.78474318249453
 30
0.0
 10
17.56150110991421
 20
31.65595891788097
 30
0.0
 10
16.92807105895575
 20
31.63964217535015
 30
0.0
 10
16.27778851207498
 20
31.50696522153762
 30
0.0
 10
15.25607288605334
 20
31.29852324380394
 30
0.0
 10
14.38883734237149
 20
30.93185090999002
 30
0.0
 10
13.25000873764465
 20
30.85418701328888
 30
0.0
 10
12.99275894777701
 20
30.83663600345108
 30
0.0
 10
12.71243107194413
 20
30.8616875607698
 30
0.0
 10
12.43056375282177
 20
30.84029811524104
 30
0.0
 10
11.89254527736875
 20
30.79947235047149
 30
0.0
 10
11.38356599207241
 20
30.61954059119149
 30
0.0
 10
10.9166738656066
 20
30.81252031914535
 30
0.0
 10
10.52553998137345
 20
30.97418220960655
 30
0.0
 10
10.21251080359393
 20
31.32596195547464
 30
0.0
 10
10.20834006516648
 20
31.86807657078161
 30
0.0
 10
10.20366748179003
 20
32.47510550840986
 30
0.0
 10
10.55914324789058
 20
32.77381176007754
 30
0.0
 10
11.01389615194152
 20
32.97918841460925
 30
0.0
 10
11.05881805656502
 20
32.93152670783178
 30
0.0
 10
11.08685355682371
 20
32.8669650333125
 30
0.0
 10
11.16667403046782
 20
32.85418833217864
 30
0.0
 10
11.20054178283644
 20
32.51768094881238
 30
0.0
 10
11.27119341362866
 20
32.21795744386971
 30
0.0
 10
11.30556301094628
 20
31.88196546882945
 30
0.0
 10
11.43579177521033
 20
31.8689581902866
 30
0.0
 10
11.60839931091041
 20
31.92988487976992
 30
0.0
 10
11.76389664652518
 20
31.93752106102083
 30
0.0
 10
11.71401732760823
 20
32.26263520770722
 30
0.0
 10
11.66643021940426
 20
32.59005512848358
 30
0.0
 10
11.61111876799888
 20
32.90974392437003
 30
0.0
 10
11.66551469145677
 20
32.97143016296534
 30
0.0
 10
11.71066039180077
 20
33.04251582182155
 30
0.0
 10
11.68056325823811
 20
33.11807739508771
 30
0.0
 10
12.48299298661468
 20
33.26008595227613
 30
0.0
 10
13.5246264317606
 20
33.16290435607221
 30
0.0
 10
14.22223160099384
 20
33.40974425409247
 30
0.0
 10
14.25091136166002
 20
33.33656983517827
 30
0.0
 10
14.29586039303752
 20
33.27967146866391
 30
0.0
 10
14.37500947952014
 20
33.25696637556617
 30
0.0
 10
14.45523007278575
 20
32.93440214375575
 30
0.0
 10
14.53849564418782
 20
32.6149032351473
 30
0.0
 10
14.62500964438136
 20
32.29863241026482
 30
0.0
 10
14.77114824986624
 20
32.33768137264739
 30
0.0
 10
14.91369934213465
 20
32.38031106655791
 30
0.0
 10
15.06945438191242
 20
32.40974359464759
 30
0.0
 10
14.97960379097692
 20
32.72267782878811
 30
0.0
 10
14.89643316321384
 20
33.04228524441255
 30
0.0
 10
14.8194542170512
 20
33.36807755994893
 30
0.0
 10
14.8463029218224
 20
33.4153459287934
 30
0.0
 10
14.90502556254325
 20
33.50859414566737
 30
0.0
 10
14.86112091119474
 20
33.57641103066661
 30
0.0
 10
15.6648662871403
 20
33.83747891115971
 30
0.0
 10
16.62341048478514
 20
33.94376153333052
 30
0.0
 10
17.55556713247677
 20
34.07641136038905
 30
0.0
 10
17.5708462766671
 20
34.03100117419356
 30
0.0
 10
17.59579610865832
 20
33.92621052349272
 30
0.0
 10
17.69445611295523
 20
33.92363348186275
 30
0.0
 10
17.759838371783
 20
33.5954947021054
 30
0.0
 10
17.82923539020273
 20
33.27137068194001
 30
0.0
 10
17.90278958367291
 20
32.95141061851356
 30
0.0
 10
18.05035234374277
 20
32.97514652826329
 30
0.0
 10
18.17993006591083
 20
33.01686747591484
 30
0.0
 10
18.33334542315612
 20
33.03474400680064
 30
0.0
 10
18.30246839541596
 20
33.33751927156827
 30
0.0
 10
18.19969190619961
 20
33.68788842622837
 30
0.0
 10
18.13890085048628
 20
34.00696687014982
 30
0.0
 10
18.1734128632624
 20
34.06615744737717
 30
0.0
 10
18.24955766173955
 20
34.13191269907243
 30
0.0
 10
18.18056754462982
 20
34.21530034086751
 30
0.0
 10
19.03735928802179
 20
34.46500211143473
 30
0.0
 10
19.84157260047385
 20
34.76724840449937
 30
0.0
 10
20.77779147957694
 20
34.93752303935548
 30
0.0
 10
20.80892621148009
 20
34.86217848012132
 30
0.0
 10
20.85564526355607
 20
34.80240467768298
 30
0.0
 10
20.93056935810324
 20
34.77085626278133
 30
0.0
 10
20.98747450630611
 20
34.44350415888997
 30
0.0
 10
21.0692616696152
 20
34.14102728841633
 30
0.0
 10
21.12501393077308
 20
33.81252229747999
 30
0.0
 10
21.2758115562574
 20
33.84228034661766
 30
0.0
 10
21.42694148447822
 20
33.87171287470733
 30
0.0
 10
21.56945866830414
 20
33.90974458381491
 30
0.0
 10
21.51396411130925
 20
34.23850727891425
 30
0.0
 10
21.43454375728664
 20
34.54334417698585
 30
0.0
 10
21.3750140956343
 20
34.86807854911625
 30
0.0
 10
21.37154865281084
 20
34.91574025589372
 30
0.0
 10
21.49837300944792
 20
34.98271621151897
 30
0.0
 10
21.41668078977784
 20
35.07641201983393
 30
0.0
 10
22.28968755037312
 20
35.23580882633615
 30
0.0
 10
23.200007161095
 20
35.3579063460888
 30
0.0
 10
23.98612692862926
 20
35.60419014565206
 30
0.0
 10
24.01638682271592
 20
35.55164562315464
 30
0.0
 10
24.02392806032784
 20
35.45320263288974
 30
0.0
 10
24.13890480715556
 20
35.45141226712576
 30
0.0
 10
24.21967471718966
 20
35.12477902221539
 30
0.0
 10
24.31796851030757
 20
34.81565609701183
 30
0.0
 10
24.40279387006463
 20
34.49307830182442
 30
0.0
 10
24.55039053857698
 20
34.52603730793405
 30
0.0
 10
24.67856445122556
 20
34.57841906990747
 30
0.0
 10
24.83334970954784
 20
34.60418948620718
 30
0.0
 10
24.76357969826061
 20
34.94182262986443
 30
0.0
 10
24.66468911655472
 20
35.25034876647999
 30
0.0
 10
24.56946064663877
 20
35.56252345150853
 30
0.0
 10
24.63445634922205
 20
35.61257231263797
 30
0.0
 10
24.6482909937619
 20
35.72478213055772
 30
0.0
 10
24.61112734078231
 20
35.77085692222621
 30
0.0
 10
25.41664273742635
 20
36.00238376761363
 30
0.0
 10
26.1859710442348
 20
36.27008413945966
 30
0.0
 10
26.88890662062898
 20
36.60419080509694
 30
0.0
 10
26.8600708811273
 20
36.47778013145835
 30
0.0
 10
26.98420290742992
 20
36.47924497617433
 30
0.0
 10
27.04168449915528
 20
36.47919072266633
 30
0.0
 10
27.20774092376443
 20
36.19153862325353
 30
0.0
 10
27.38421402190947
 20
35.91430319737661
 30
0.0
 10
27.54168482887772
 20
35.61807904369991
 30
0.0
 10
27.67319533226826
 20
35.6902633360931
 30
0.0
 10
27.79667631647488
 20
35.77047714767021
 30
0.0
 10
27.9305739742174
 20
35.84030141246544
 30
0.0
 10
27.78525595304101
 20
36.13942812882011
 30
0.0
 10
27.60598879923401
 20
36.40460571254416
 30
0.0
 10
27.4444625425428
 20
36.68752419338401
 30
0.0
 10
27.42933937718797
 20
36.7338431258385
 30
0.0
 10
27.53175643691383
 20
36.88171106189085
 30
0.0
 10
27.40279584839926
 20
36.8958576641017
 30
0.0
 10
27.48660395488133
 20
36.96020232458898
 30
0.0
 10
27.58207656558327
 20
37.0128824808564
 30
0.0
 10
27.65279601326048
 20
37.09030223677154
 30
0.0
 10
27.71507904044379
 20
37.0848497592176
 30
0.0
 10
27.77890829260508
 20
37.05327421756195
 30
0.0
 10
27.84724058593032
 20
37.11808003286723
 30
0.0
 10
30.48679582049397
 20
35.88736633065491
 30
0.0
 10
33.12518460463563
 20
34.65513353021861
 30
0.0
 10
35.75002357515444
 20
33.40974425409247
 30
0.0
 10
35.82204510702364
 20
33.53680596982705
 30
0.0
 10
35.879825093043
 20
33.67809566803448
 30
0.0
 10
35.94446814782427
 20
33.81252229747999
 30
0.0
 10
33.3430531293842
 20
35.06298427660408
 30
0.0
 10
30.71006256928849
 20
36.28174864367953
 30
0.0
 10
28.0833518527437
 20
37.5069691782069
 30
0.0
 10
28.3079749392382
 20
37.78234642143484
 30
0.0
 10
28.50438620157301
 20
38.08593548882246
 30
0.0
 10
28.68057446880105
 20
38.40974755131686
 30
0.0
 10
28.72940262600051
 20
38.37178365909428
 30
0.0
 10
28.82727595443142
 20
38.3613805489354
 30
0.0
 10
28.90279683756658
 20
38.42363644936471
 30
0.0
 10
29.1801136437055
 20
38.27039741602041
 30
0.0
 10
29.49873093280896
 20
38.15845886564065
 30
0.0
 10
29.77779741458085
 20
38.00696950792934
 30
0.0
 10
29.86887549113484
 20
38.11959979053609
 30
0.0
 10
29.90102069462448
 20
38.29114938283018
 30
0.0
 10
29.98613088529854
 20
38.40974755131686
 30
0.0
 10
29.69633577231976
 20
38.5597585009352
 30
0.0
 10
29.38867769183218
 20
38.69192004642172
 30
0.0
 10
29.08335251218858
 20
38.82641449275223
 30
0.0
 10
29.0538928573449
 20
38.86729451102978
 30
0.0
 10
29.07738462630864
 20
39.00469152003824
 30
0.0
 10
28.94446353171012
 20
38.97919237127853
 30
0.0
 10
29.20488037010723
 20
39.64470659053013
 30
0.0
 10
29.35649179821154
 20
40.41901265669752
 30
0.0
 10
29.43057496338471
 20
41.27086054917304
 30
0.0
 10
29.51518330910977
 20
41.2566054399462
 30
0.0
 10
29.59029729093494
 20
41.29538313478877
 30
0.0
 10
29.6389084341024
 20
41.35419393746012
 30
0.0
 10
29.94945551389094
 20
41.29899099307073
 30
0.0
 10
30.28749555885819
 20
41.27129457723704
 30
0.0
 10
30.61113129745159
 20
41.22919385502951
 30
0.0
 10
30.63938381174227
 20
41.36760811731297
 30
0.0
 10
30.65103475258514
 20
41.52262395304425
 30
0.0
 10
30.66668688964297
 20
41.67363859256056
 30
0.0
 10
30.35543451425043
 20
41.72812267796896
 30
0.0
 10
30.02041910235415
 20
41.75884372687361
 30
0.0
 10
29.69446402629378
 20
41.79863867499117
 30
0.0
 10
29.65856176737518
 20
41.85824971690551
 30
0.0
 10
29.59428492377289
 20
41.93790743002562
 30
0.0
 10
29.51390835167179
 20
41.90974985937394
 30
0.0
 10
29.62765083119252
 20
42.75898002008849
 30
0.0
 10
29.68979822460583
 20
43.65979170353348
 30
0.0
 10
29.84724190482008
 20
44.46530710017752
 30
0.0
 10
29.92338670329723
 20
44.50027348608313
 30
0.0
 10
29.99009139138249
 20
44.54467998238064
 30
0.0
 10
30.01390868139423
 20
44.63197387675167
 30
0.0
 10
30.33183423827069
 20
44.74947341170136
 30
0.0
 10
30.69393571403566
 20
44.57055890569635
 30
0.0
 10
31.0416871369348
 20
44.54864048846459
 30
0.0
 10
31.10045724947515
 20
44.65191204094145
 30
0.0
 10
31.09611696883519
 20
44.81828042322159
 30
0.0
 10
31.12502052522187
 20
44.95141853185211
 30
0.0
 10
33.06777082979526
 20
45.50868343926792
 30
0.0
 10
35.00028078473377
 20
46.0761208794336
 30
0.0
 10
36.94446880726915
 20
46.63197519564142
 30
0.0
 10
36.92029886945542
 20
46.78836093244968
 30
0.0
 10
36.85817860279612
 20
46.90679634041237
 30
0.0
 10
36.83335762288639
 20
47.06253103512464
 30
0.0
 10
34.63491053511184
 20
46.46463025021728
 30
0.0
 10
32.40879415825759
 20
45.77420010741697
 30
0.0
 10
30.18057545796837
 20
45.1597520025698
 30
0.0
 10
30.11026291160115
 20
45.19443355755841
 30
0.0
 10
30.1064109125332
 20
45.32715120150193
 30
0.0
 10
29.98613088529854
 20
45.27086318695256
 30
0.0
 10
30.13577562373787
 20
46.05177461771888
 30
0.0
 10
30.16828703840651
 20
46.94981937225589
 30
0.0
 10
30.20835325406406
 20
47.84030932580399
 30
0.0
 10
30.24942315961961
 20
47.84470385995194
 30
0.0
 10
30.35928651331839
 20
47.85107864714187
 30
0.0
 10
30.4027978267339
 20
47.92364271409106
 30
0.0
 10
30.73824726669417
 20
47.91650837778914
 30
0.0
 10
31.0505575854927
 20
47.88622135694848
 30
0.0
 10
31.37502069008309
 20
47.86808712189968
 30
0.0
 10
31.41280825840467
 20
47.9923412185953
 30
0.0
 10
31.40051983884281
 20
48.16666452148586
 30
0.0
 10
31.41668738422663
 20
48.31253185943073
 30
0.0
 10
31.10877159957605
 20
48.35647041922175
 30
0.0
 10
30.76437033079588
 20
48.36392349488317
 30
0.0
 10
30.43057562282959
 20
48.38197634966996
 30
0.0
 10
30.39566349043198
 20
48.44829448151073
 30
0.0
 10
30.32722269009074
 20
48.50959416386154
 30
0.0
 10
30.2500199482076
 20
48.49308753405273
 30
0.0
 10
30.37374507320023
 20
49.17380629892116
 30
0.0
 10
30.74204501225413
 20
49.73346514237743
 30
0.0
 10
31.59724305884862
 20
49.64586607202391
 30
0.0
 10
32.20397360218287
 20
49.5837186786106
 30
0.0
 10
32.57236848487577
 20
49.0893742770971
 30
0.0
 10
32.61113261634134
 20
48.46530973795704
 30
0.0
 10
32.64779442437194
 20
47.8750858244316
 30
0.0
 10
32.48767875888872
 20
47.15329715400762
 30
0.0
 10
32.51391033000642
 20
46.50697511321081
 30
0.0
  0
SPLINE
  5
3F
330
1F
100
AcDbEntity
  8
Layer 1
 62
   217
420
  9447054
370
    35
100
AcDbSpline
210
0.0
220
0.0
230
1.0
 70
    11
 71
     3
 72
   272
 73
   268
 74
     0
 42
0.0000000001
 43
0.0000000001
 40
0.0
 40
0.0
 40
0.0
 40
0.0
 40
1.0
 40
1.0
 40
1.0
 40
2.0
 40
2.0
 40
2.0
 40
3.0
 40
3.0
 40
3.0
 40
4.0
 40
4.0
 40
4.0
 40
5.0
 40
5.0
 40
5.0
 40
6.0
 40
6.0
 40
6.0
 40
7.0
 40
7.0
 40
7.0
 40
8.0
 40
8.0
 40
8.0
 40
9.0
 40
9.0
 40
9.0
 40
10.0
 40
10.0
 40
10.0
 40
11.0
 40
11.0
 40
11.0
 40
12.0
 40
12.0
 40
12.0
 40
13.0
 40
13.0
 40
13.0
 40
14.0
 40
14.0
 40
14.0
 40
15.0
 40
15.0
 40
15.0
 40
16.0
 40
16.0
 40
16.0
 40
17.0
 40
17.0
 40
17.0
 40
18.0
 40
18.0
 40
18.0
 40
19.0
 40
19.0
 40
19.0
 40
20.0
 40
20.0
 40
20.0
 40
21.0
 40
21.0
 40
21.0
 40
22.0
 40
22.0
 40
22.0
 40
23.0
 40
23.0
 40
23.0
 40
24.0
 40
24.0
 40
24.0
 40
25.0
 40
25.0
 40
25.0
 40
26.0
 40
26.0
 40
26.0
 40
27.0
 40
27.0
 40
27.0
 40
28.0
 40
28.0
 40
28.0
 40
29.0
 40
29.0
 40
29.0
 40
30.0
 40
30.0
 40
30.0
 40
31.0
 40
31.0
 40
31.0
 40
32.0
 40
32.0
 40
32.0
 40
33.0
 40
33.0
 40
33.0
 40
34.0
 40
34.0
 40
34.0
 40
35.0
 40
35.0
 40
35.0
 40
36.0
 40
36.0
 40
36.0
 40
37.0
 40
37.0
 40
37.0
 40
38.0
 40
38.0
 40
38.0
 40
39.0
 40
39.0
 40
39.0
 40
40.0
 40
40.0
 40
40.0
 40
41.0
 40
41.0
 40
41.0
 40
42.0
 40
42.0
 40
42.0
 40
43.0
 40
43.0
 40
43.0
 40
44.0
 40
44.0
 40
44.0
 40
45.0
 40
45.0
 40
45.0
 40
46.0
 40
46.0
 40
46.0
 40
47.0
 40
47.0
 40
47.0
 40
48.0
 40
48.0
 40
48.0
 40
49.0
 40
49.0
 40
49.0
 40
50.0
 40
50.0
 40
50.0
 40
51.0
 40
51.0
 40
51.0
 40
52.0
 40
52.0
 40
52.0
 40
53.0
 40
53.0
 40
53.0
 40
54.0
 40
54.0
 40
54.0
 40
55.0
 40
55.0
 40
55.0
 40
56.0
 40
56.0
 40
56.0
 40
57.0
 40
57.0
 40
57.0
 40
58.0
 40
58.0
 40
58.0
 40
59.0
 40
59.0
 40
59.0
 40
60.0
 40
60.0
 40
60.0
 40
61.0
 40
61.0
 40
61.0
 40
62.0
 40
62.0
 40
62.0
 40
63.0
 40
63.0
 40
63.0
 40
64.0
 40
64.0
 40
64.0
 40
65.0
 40
65.0
 40
65.0
 40
66.0
 40
66.0
 40
66.0
 40
67.0
 40
67.0
 40
67.0
 40
68.0
 40
68.0
 40
68.0
 40
69.0
 40
69.0
 40
69.0
 40
70.0
 40
70.0
 40
70.0
 40
71.0
 40
71.0
 40
71.0
 40
72.0
 40
72.0
 40
72.0
 40
73.0
 40
73.0
 40
73.0
 40
74.0
 40
74.0
 40
74.0
 40
75.0
 40
75.0
 40
75.0
 40
76.0
 40
76.0
 40
76.0
 40
77.0
 40
77.0
 40
77.0
 40
78.0
 40
78.0
 40
78.0
 40
79.0
 40
79.0
 40
79.0
 40
80.0
 40
80.0
 40
80.0
 40
81.0
 40
81.0
 40
81.0
 40
82.0
 40
82.0
 40
82.0
 40
83.0
 40
83.0
 40
83.0
 40
84.0
 40
84.0
 40
84.0
 40
85.0
 40
85.0
 40
85.0
 40
86.0
 40
86.0
 40
86.0
 40
87.0
 40
87.0
 40
87.0
 40
88.0
 40
88.0
 40
88.0
 40
89.0
 40
89.0
 40
89.0
 40
89.0
 10
13.67363369148094
 20
29.71529737336555
 30
0.0
 10
18.43162565289703
 20
27.61195668511394
 30
0.0
 10
23.16718378875537
 20
25.48691459366257
 30
0.0
 10
27.90975419052263
 20
23.36807096550013
 30
0.0
 10
28.13996538834107
 20
23.50034101800266
 30
0.0
 10
28.29390971728936
 20
23.71390995224229
 30
0.0
 10
28.50697680657998
 20
23.86807129522257
 30
0.0
 10
29.12303895329013
 20
24.31381811694562
 30
0.0
 10
29.87624040484576
 20
24.66148815958275
 30
0.0
 10
30.65975600399604
 20
24.96529424100237
 30
0.0
 10
31.6983987245135
 20
25.36801803088189
 30
0.0
 10
32.8670328501975
 20
25.67509288615848
 30
0.0
 10
34.03475822962251
 20
25.92362820630371
 30
0.0
 10
35.26407490400384
 20
26.1852657486308
 30
0.0
 10
36.46237213518652
 20
26.34460830162503
 30
0.0
 10
37.59031612987097
 20
26.70140649698306
 30
0.0
 10
38.15925910488365
 20
26.88137894639406
 30
0.0
 10
38.70734160607055
 20
27.0490494128662
 30
0.0
 10
39.28476169170813
 20
27.17362903060981
 30
0.0
 10
39.88503606759046
 20
27.30314571758137
 30
0.0
 10
40.51831013971341
 20
27.32712576811711
 30
0.0
 10
41.17365182621513
 20
27.45140699156672
 30
0.0
 10
41.77765613077241
 20
27.56594971033045
 30
0.0
 10
42.36202066543391
 20
27.76481594390224
 30
0.0
 10
42.97920857243505
 20
27.90974062714563
 30
0.0
 10
43.29686286177152
 20
27.9843392006448
 30
0.0
 10
43.60160481620412
 20
28.0382671875962
 30
0.0
 10
43.93754253773639
 20
28.07640740371977
 30
0.0
 10
44.2782003144646
 20
28.11509015492334
 30
0.0
 10
44.63564955191863
 20
28.09048618904562
 30
0.0
 10
45.02087658546834
 20
28.11807409786331
 30
0.0
 10
45.38242196277632
 20
28.14398014793302
 30
0.0
 10
45.6721763856241
 20
28.25606789545978
 30
0.0
 10
46.02087724491322
 20
28.25696307834177
 30
0.0
 10
46.69193888535776
 20
28.25868562722075
 30
0.0
 10
47.20466166270606
 20
27.82955394232252
 30
0.0
 10
47.25698917117148
 20
27.2014068267055
 30
0.0
 10
47.31466065017483
 20
26.5091863181412
 30
0.0
 10
46.92502551910017
 20
26.19706588662067
 30
0.0
 10
46.45143308439643
 20
25.9791837984951
 30
0.0
 10
46.41291309371686
 20
26.02862230765955
 30
0.0
 10
46.38540656516117
 20
26.08908784232487
 30
0.0
 10
46.31254410391798
 20
26.10418388092571
 30
0.0
 10
46.26219684849454
 20
26.43346198435104
 30
0.0
 10
46.20820104465814
 20
26.75910510274042
 30
0.0
 10
46.15976622539168
 20
27.09029564232274
 30
0.0
 10
46.01051482488533
 20
27.06825515469799
 30
0.0
 10
45.86457288836696
 20
27.04289163970827
 30
0.0
 10
45.71532148786062
 20
27.02085115208351
 30
0.0
 10
45.74623242404328
 20
26.68138695253129
 30
0.0
 10
45.81838958968248
 20
26.3831825458126
 30
0.0
 10
45.85421046833908
 20
26.04862828873432
 30
0.0
 10
45.84026731678323
 20
26.01070508664274
 30
0.0
 10
45.75053201455223
 20
25.90942735058487
 30
0.0
 10
45.79865487614769
 20
25.84029481801664
 30
0.0
 10
44.98642560788873
 20
25.70345390746516
 30
0.0
 10
43.9451787189873
 20
25.79561705417914
 30
0.0
 10
43.24309763534411
 20
25.54862795901188
 30
0.0
 10
43.23227406049823
 20
25.59030821653242
 30
0.0
 10
43.18406981864076
 20
25.71741062239801
 30
0.0
 10
43.10420865486566
 20
25.68751693949034
 30
0.0
 10
43.02107871723358
 20
26.01179015680273
 30
0.0
 10
42.93086869680759
 20
26.3289832913212
 30
0.0
 10
42.85420849000444
 20
26.65973980283953
 30
0.0
 10
42.70316672373411
 20
26.62560078293091
 30
0.0
 10
42.5608055187437
 20
26.58276763836538
 30
0.0
 10
42.40976375247338
 20
26.54862861845676
 30
0.0
 10
42.49248678879546
 20
26.23319872294827
 30
0.0
 10
42.56895710832061
 20
25.91152967401985
 30
0.0
 10
42.6597639173346
 20
25.60418355120327
 30
0.0
 10
42.60087173440125
 20
25.53545791994503
 30
0.0
 10
42.58180162633946
 20
25.44332189998505
 30
0.0
 10
42.61809722319106
 20
25.38196118243774
 30
0.0
 10
41.80852637682406
 20
25.12672555405458
 30
0.0
 10
40.85262025600569
 20
25.01778450999179
 30
0.0
 10
39.92365100190902
 20
24.8819608527153
 30
0.0
 10
39.90148844389127
 20
24.9450848092726
 30
0.0
 10
39.86625079044566
 20
25.02387446626472
 30
0.0
 10
39.77087312338272
 20
25.04862762928945
 30
0.0
 10
39.72003758638729
 20
25.38204256269974
 30
0.0
 10
39.63410002971624
 20
25.68038260318842
 30
0.0
 10
39.57642855071288
 20
26.00696159459079
 30
0.0
 10
39.41733013850465
 20
25.99012944373397
 30
0.0
 10
39.29108222539006
 20
25.94046035716053
 30
0.0
 10
39.13198381318183
 20
25.92362820630371
 30
0.0
 10
39.19187968601317
 20
25.58999625886142
 30
0.0
 10
39.26135130300639
 20
25.26596718233503
 30
0.0
 10
39.34031728389951
 20
24.95140534295453
 30
0.0
 10
39.26733275226332
 20
24.89310994860917
 30
0.0
 10
39.2517619954675
 20
24.8096544899291
 30
0.0
 10
39.28476169170813
 20
24.74307187223684
 30
0.0
 10
38.42893972977165
 20
24.49242066527963
 30
0.0
 10
37.62305812194861
 20
24.19181554083197
 30
0.0
 10
36.68753775676101
 20
24.02084917374887
 30
0.0
 10
36.66380184701128
 20
24.06745293712035
 30
0.0
 10
36.65114721627042
 20
24.16870354642423
 30
0.0
 10
36.54864877628255
 20
24.17362705227518
 30
0.0
 10
36.47944842682933
 20
24.49795452309557
 30
0.0
 10
36.41407294969005
 20
24.82609330285292
 30
0.0
 10
36.34031530556487
 20
25.14584991562436
 30
0.0
 10
36.19065700374854
 20
25.1242163293096
 30
0.0
 10
36.06347321762095
 20
25.0800946639291
 30
0.0
 10
35.90975946608166
 20
25.06251652733729
 30
0.0
 10
35.9422301906193
 20
24.76596685261259
 30
0.0
 10
36.03391861913828
 20
24.40914153050056
 30
0.0
 10
36.1042040387515
 20
24.10418256203595
 30
0.0
 10
36.06629440003692
 20
24.02156803272987
 30
0.0
 10
35.98439872971183
 20
23.97701233928536
 30
0.0
 10
36.06253734460796
 20
23.88196019327042
 30
0.0
 10
35.17912747385379
 20
23.72834138537013
 30
0.0
 10
34.2702862712249
 20
23.60014034596755
 30
0.0
 10
33.47920230770869
 20
23.35418206745229
 30
0.0
 10
33.47979909629669
 20
23.4612513654891
 30
0.0
 10
33.40126714346756
 20
23.48920548548579
 30
0.0
 10
33.32642442918239
 20
23.52084884402644
 30
0.0
 10
33.25714269946716
 20
23.84970648276478
 30
0.0
 10
33.1457059940364
 20
24.13643627254159
 30
0.0
 10
33.07642426432117
 20
24.46529391127993
 30
0.0
 10
32.91816678148693
 20
24.43835704455823
 30
0.0
 10
32.79238002319033
 20
24.37896301667589
 30
0.0
 10
32.63197952679011
 20
24.35418272689717
 30
0.0
 10
32.71274943682422
 20
24.03217459354375
 30
0.0
 10
32.8039088936402
 20
23.72055600697221
 30
0.0
 10
32.89586858969918
 20
23.40973765964367
 30
0.0
 10
32.84527719348974
 20
23.32903556649457
 30
0.0
 10
32.81960172082903
 20
23.25569838705638
 30
0.0
 10
32.85420189555564
 20
23.18751529087814
 30
0.0
 10
32.0484559215026
 20
22.95623258627671
 30
0.0
 10
31.28067383967214
 20
22.68695886269871
 30
0.0
 10
30.57642261570897
 20
22.35418140800741
 30
0.0
 10
30.6095986358506
 20
22.48493236228595
 30
0.0
 10
30.48297094818001
 20
22.480971856202
 30
0.0
 10
30.42364473718267
 20
22.47918149043802
 30
0.0
 10
30.26550932474143
 20
22.77475460201873
 30
0.0
 10
30.09065026845937
 20
23.05360406975863
 30
0.0
 10
29.92364440746023
 20
23.34029316940444
 30
0.0
 10
29.79264931239569
 20
23.26757990530825
 30
0.0
 10
29.67249135555402
 20
23.18404306636618
 30
0.0
 10
29.53475526212056
 20
23.11807080063891
 30
0.0
 10
29.69724451857875
 20
22.8314766446321
 30
0.0
 10
29.85920480333395
 20
22.54436708029929
 30
0.0
 10
30.03475559184299
 20
22.27084801972034
 30
0.0
 10
30.00566214817832
 20
22.19024087021023
 30
0.0
 10
29.99424178474445
 20
22.11493700110707
 30
0.0
 10
30.04864448989084
 20
22.03473675290696
 30
0.0
 10
29.95098817549193
 20
21.99350408682742
 30
0.0
 10
29.87473486999878
 20
21.93086841184212
 30
0.0
 10
29.81253322307747
 20
21.85418107828497
 30
0.0
 10
29.73617141056832
 20
21.91936666814624
 30
0.0
 10
29.68585128189888
 20
21.87049782081579
 30
0.0
 10
29.60419975235978
 20
21.84029218023712
 30
0.0
 10
26.99019792006385
 20
23.08751251225825
 30
0.0
 10
24.34066004002832
 20
24.29881702198378
 30
0.0
 10
21.72919455923136
 20
25.54862795901188
 30
0.0
 10
21.63828602488987
 20
25.43583491588114
 30
0.0
 10
21.60212606180827
 20
25.268286519802
 30
0.0
 10
21.52086108851368
 20
25.14584991562436
 30
0.0
 10
24.12823042945668
 20
23.9013422590032
 30
0.0
 10
26.7614786937154
 20
22.68283559609075
 30
0.0
 10
29.38197738359425
 20
21.45140303489745
 30
0.0
 10
29.16884247741863
 20
21.17378783446453
 30
0.0
 10
28.96912175109584
 20
20.88278558093277
 30
0.0
 10
28.79864366558474
 20
20.56251355983533
 30
0.0
 10
28.73638776515543
 20
20.57078721980524
 30
0.0
 10
28.64227149215348
 20
20.60995825258081
 30
0.0
 10
28.57642129681921
 20
20.53473576373964
 30
0.0
 10
28.29287890063737
 20
20.68637431859796
 30
0.0
 10
27.97796441345487
 20
20.80665434583262
 30
0.0
 10
27.6875318217571
 20
20.95140270517501
 30
0.0
 10
27.60872860138797
 20
20.83113624131735
 30
0.0
 10
27.56323703493048
 20
20.67755812354805
 30
0.0
 10
27.49308724908726
 20
20.54862466178749
 30
0.0
 10
27.78099705266306
 20
20.39671483938918
 30
0.0
 10
28.09030986514462
 20
20.26622158927363
 30
0.0
 10
28.39586562219722
 20
20.13195772035212
 30
0.0
 10
28.39218994703026
 20
20.02643464729329
 30
0.0
 10
28.45616839633855
 20
19.98856569870971
 30
0.0
 10
28.52086570462783
 20
19.95140204573013
 30
0.0
 10
28.2536129242228
 20
19.3065991031573
 30
0.0
 10
28.1281516869742
 20
18.52004530755904
 30
0.0
 10
28.03475427295324
 20
17.70140056197915
 30
0.0
 10
27.99449817001769
 20
17.69583957740921
 30
0.0
 10
27.85886440001919
 20
17.67771890573741
 30
0.0
 10
27.85419859833124
 20
17.61806717369208
 30
0.0
 10
27.51166907557705
 20
17.64127411173882
 30
0.0
 10
27.20392961482748
 20
17.69928467516717
 30
0.0
 10
26.86808683693421
 20
17.72917835807484
 30
0.0
 10
26.82069639769674
 20
17.60526334580422
 30
0.0
 10
26.8330119440126
 20
17.42166947473426
 30
0.0
 10
26.79864234669498
 20
17.28473362054378
 30
0.0
 10
27.1213150855214
 20
17.23704478701231
 30
0.0
 10
27.45424173735969
 20
17.19958273973873
 30
0.0
 10
27.78475410809202
 20
17.15973353811317
 30
0.0
 10
27.81485124165468
 20
17.09834569381186
 30
0.0
 10
27.87807014185098
 20
17.02374712031268
 30
0.0
 10
27.95142088466616
 20
17.04862235373041
 30
0.0
 10
27.85646368229022
 20
16.18525915418201
 30
0.0
 10
27.77007853417818
 20
15.31329677361571
 30
0.0
 10
27.63197622956572
 20
14.49306511292683
 30
0.0
 10
27.56638373839445
 20
14.45681020620623
 30
0.0
 10
27.47569899977345
 20
14.44563398355836
 30
0.0
 10
27.47919835103941
 20
14.34028723440053
 30
0.0
 10
27.16488065244491
 20
14.19625773403913
 30
0.0
 10
26.78730336352311
 20
14.39452717902292
 30
0.0
 10
26.42364209940315
 20
14.40973172463976
 30
0.0
 10
26.37595326587168
 20
14.29537889315403
 30
0.0
 10
26.37785213865166
 20
14.13145191873385
 30
0.0
 10
26.34030871111608
 20
14.00695368125223
 30
0.0
 10
24.39755840654269
 20
13.44968877383643
 30
0.0
 10
22.46505523329267
 20
12.88223777029374
 30
0.0
 10
20.5208604290688
 20
12.32639701746292
 30
0.0
 10
20.56049261666235
 20
12.17620974394359
 30
0.0
 10
20.61235897030978
 20
12.03825663647813
 30
0.0
 10
20.64586051149941
 20
11.88195227993187
 30
0.0
 10
22.86065146855877
 20
12.52368989930273
 30
0.0
 10
25.0616349078323
 20
13.17907227593544
 30
0.0
 10
27.29864267641742
 20
13.79862021053455
 30
0.0
 10
27.35918959134475
 20
13.75731972757001
 30
0.0
 10
27.36818211029565
 20
13.66445128525204
 30
0.0
 10
27.47919835103941
 20
13.67362012810394
 30
0.0
 10
27.33558931536501
 20
12.89592321768659
 30
0.0
 10
27.31166351833728
 20
11.99857019537657
 30
0.0
 10
27.25697598227389
 20
11.13195178534821
 30
0.0
 10
27.21316627456437
 20
11.10798529818947
 30
0.0
 10
27.10159393536361
 20
11.11362766302141
 30
0.0
 10
27.07642030765189
 20
11.03472949901329
 30
0.0
 10
26.73831244579965
 20
11.04384408835719
 30
0.0
 10
26.42429314149915
 20
11.07704723525282
 30
0.0
 10
26.09030854625486
 20
11.09028509120467
 30
0.0
 10
26.05838035679722
 20
10.95554650408817
 30
0.0
 10
26.07939002776998
 20
10.76787005654126
 30
0.0
 10
26.04864185211132
 20
10.63195145562577
 30
0.0
 10
26.38674971396356
 20
10.62283686628187
 30
0.0
 10
26.70076901826407
 20
10.58963371938624
 30
0.0
 10
27.03475361350836
 20
10.57639586343438
 30
0.0
 10
27.08843745967376
 20
10.52884266367291
 30
0.0
 10
27.13395615288525
 20
10.44461409250385
 30
0.0
 10
27.21530928813035
 20
10.46528467905162
 30
0.0
 10
27.13803872936221
 20
9.862826599472319
 30
0.0
 10
26.79129099636107
 20
9.3700419863138
 30
0.0
 10
26.17364193454193
 20
9.312506141080439
 30
0.0
 10
25.45144636280796
 20
9.245231791161187
 30
0.0
 10
24.91920588595688
 20
9.746045923503619
 30
0.0
 10
24.86808551804445
 20
10.40972908686024
 30
0.0
 10
24.81990840294099
 20
11.03505502006128
 30
0.0
 10
24.97735208315524
 20
11.79463125880684
 30
0.0
 10
24.96530780437937
 20
12.46528599794138
 30
0.0
 10
21.17220770104405
 20
11.47117184411443
 30
0.0
 10
17.39360006603307
 20
10.46316879223964
 30
0.0
 10
13.60418920124171
 20
9.46528401960674
 30
0.0
 10
13.60418920124171
 20
9.877325849485159
 30
0.0
 10
13.60418920124171
 20
10.28935411598658
 30
0.0
 10
13.60418920124171
 20
10.70139594586499
 30
0.0
 10
17.46109142998432
 20
11.92329345302741
 30
0.0
 10
21.31802078548093
 20
13.14490612927282
 30
0.0
 10
25.1875301731449
 20
14.35417613244837
 30
0.0
 10
25.4659591761978
 20
15.62777723273421
 30
0.0
 10
25.55444664774482
 20
17.06478989911423
 30
0.0
 10
25.74308609505872
 20
18.40973436241927
 30
0.0
 10
25.93233589433762
 20
19.75907335987227
 30
0.0
 10
26.25551047811302
 20
20.97456895309075
 30
0.0
 10
26.84030904083852
 20
21.90973667047635
 30
0.0
 10
22.46387521949369
 20
24.08869318550212
 30
0.0
 10
18.05764265888019
 20
26.23837993296221
 30
0.0
 10
13.67363369148094
 20
28.40974095686807
 30
0.0
 10
13.67363369148094
 20
28.84493547128523
 30
0.0
 10
13.67363369148094
 20
29.28010285894839
 30
0.0
 10
13.67363369148094
 20
29.71529737336555
 30
0.0
  0
SPLINE
  5
40
330
1F
100
AcDbEntity
  8
Layer 1
 62
   217
420
  9447054
370
    35
100
AcDbSpline
210
0.0
220
0.0
230
1.0
 70
    11
 71
     3
 72
   272
 73
   268
 74
     0
 42
0.0000000001
 43
0.0000000001
 40
0.0
 40
0.0
 40
0.0
 40
0.0
 40
1.0
 40
1.0
 40
1.0
 40
2.0
 40
2.0
 40
2.0
 40
3.0
 40
3.0
 40
3.0
 40
4.0
 40
4.0
 40
4.0
 40
5.0
 40
5.0
 40
5.0
 40
6.0
 40
6.0
 40
6.0
 40
7.0
 40
7.0
 40
7.0
 40
8.0
 40
8.0
 40
8.0
 40
9.0
 40
9.0
 40
9.0
 40
10.0
 40
10.0
 40
10.0
 40
11.0
 40
11.0
 40
11.0
 40
12.0
 40
12.0
 40
12.0
 40
13.0
 40
13.0
 40
13.0
 40
14.0
 40
14.0
 40
14.0
 40
15.0
 40
15.0
 40
15.0
 40
16.0
 40
16.0
 40
16.0
 40
17.0
 40
17.0
 40
17.0
 40
18.0
 40
18.0
 40
18.0
 40
19.0
 40
19.0
 40
19.0
 40
20.0
 40
20.0
 40
20.0
 40
21.0
 40
21.0
 40
21.0
 40
22.0
 40
22.0
 40
22.0
 40
23.0
 40
23.0
 40
23.0
 40
24.0
 40
24.0
 40
24.0
 40
25.0
 40
25.0
 40
25.0
 40
26.0
 40
26.0
 40
26.0
 40
27.0
 40
27.0
 40
27.0
 40
28.0
 40
28.0
 40
28.0
 40
29.0
 40
29.0
 40
29.0
 40
30.0
 40
30.0
 40
30.0
 40
31.0
 40
31.0
 40
31.0
 40
32.0
 40
32.0
 40
32.0
 40
33.0
 40
33.0
 40
33.0
 40
34.0
 40
34.0
 40
34.0
 40
35.0
 40
35.0
 40
35.0
 40
36.0
 40
36.0
 40
36.0
 40
37.0
 40
37.0
 40
37.0
 40
38.0
 40
38.0
 40
38.0
 40
39.0
 40
39.0
 40
39.0
 40
40.0
 40
40.0
 40
40.0
 40
41.0
 40
41.0
 40
41.0
 40
42.0
 40
42.0
 40
42.0
 40
43.0
 40
43.0
 40
43.0
 40
44.0
 40
44.0
 40
44.0
 40
45.0
 40
45.0
 40
45.0
 40
46.0
 40
46.0
 40
46.0
 40
47.0
 40
47.0
 40
47.0
 40
48.0
 40
48.0
 40
48.0
 40
49.0
 40
49.0
 40
49.0
 40
50.0
 40
50.0
 40
50.0
 40
51.0
 40
51.0
 40
51.0
 40
52.0
 40
52.0
 40
52.0
 40
53.0
 40
53.0
 40
53.0
 40
54.0
 40
54.0
 40
54.0
 40
55.0
 40
55.0
 40
55.0
 40
56.0
 40
56.0
 40
56.0
 40
57.0
 40
57.0
 40
57.0
 40
58.0
 40
58.0
 40
58.0
 40
59.0
 40
59.0
 40
59.0
 40
60.0
 40
60.0
 40
60.0
 40
61.0
 40
61.0
 40
61.0
 40
62.0
 40
62.0
 40
62.0
 40
63.0
 40
63.0
 40
63.0
 40
64.0
 40
64.0
 40
64.0
 40
65.0
 40
65.0
 40
65.0
 40
66.0
 40
66.0
 40
66.0
 40
67.0
 40
67.0
 40
67.0
 40
68.0
 40
68.0
 40
68.0
 40
69.0
 40
69.0
 40
69.0
 40
70.0
 40
70.0
 40
70.0
 40
71.0
 40
71.0
 40
71.0
 40
72.0
 40
72.0
 40
72.0
 40
73.0
 40
73.0
 40
73.0
 40
74.0
 40
74.0
 40
74.0
 40
75.0
 40
75.0
 40
75.0
 40
76.0
 40
76.0
 40
76.0
 40
77.0
 40
77.0
 40
77.0
 40
78.0
 40
78.0
 40
78.0
 40
79.0
 40
79.0
 40
79.0
 40
80.0
 40
80.0
 40
80.0
 40
81.0
 40
81.0
 40
81.0
 40
82.0
 40
82.0
 40
82.0
 40
83.0
 40
83.0
 40
83.0
 40
84.0
 40
84.0
 40
84.0
 40
85.0
 40
85.0
 40
85.0
 40
86.0
 40
86.0
 40
86.0
 40
87.0
 40
87.0
 40
87.0
 40
88.0
 40
88.0
 40
88.0
 40
89.0
 40
89.0
 40
89.0
 40
89.0
 10
35.15280095909708
 20
18.31945652510828
 30
0.0
 10
38.92086985017918
 20
19.27830589873561
 30
0.0
 10
42.72528859162087
 20
20.32092268871402
 30
0.0
 10
46.51391956223474
 20
21.30556960539507
 30
0.0
 10
46.51391956223474
 20
20.89352777551665
 30
0.0
 10
46.51391956223474
 20
20.48148594563823
 30
0.0
 10
46.51391956223474
 20
20.06945767913681
 30
0.0
 10
42.64824861026172
 20
18.85165631182836
 30
0.0
 10
38.79468975394958
 20
17.62231251069303
 30
0.0
 10
34.9166896922837
 20
16.41667749255344
 30
0.0
 10
34.66068095141155
 20
15.13149326830973
 30
0.0
 10
34.56268555258765
 20
13.69943123453465
 30
0.0
 10
34.37502266841773
 20
12.36111926258254
 30
0.0
 10
34.18588137615483
 20
11.01220072981654
 30
0.0
 10
33.86033320140445
 20
9.800055290717017
 30
0.0
 10
33.27779972263793
 20
8.861116954525459
 30
0.0
 10
37.6596792398482
 20
6.691898944185582
 30
0.0
 10
42.04376958750944
 20
4.525434299376674
 30
0.0
 10
46.44447507199551
 20
2.375001566181588
 30
0.0
 10
46.44447507199551
 20
1.935195503584479
 30
0.0
 10
46.44447507199551
 20
1.49537587761037
 30
0.0
 10
46.44447507199551
 20
1.055556251636262
 30
0.0
 10
41.68633391343242
 20
3.167468994151776
 30
0.0
 10
36.93287211993429
 20
5.285091918384227
 30
0.0
 10
32.19446567490598
 20
7.416671557549522
 30
0.0
 10
31.29795358196995
 20
6.548425542281177
 30
0.0
 10
30.09580435171932
 20
5.993262958300352
 30
0.0
 10
28.77779675513597
 20
5.569448117186065
 30
0.0
 10
28.11801984435531
 20
5.357289774154424
 30
0.0
 10
27.43099410918195
 20
5.155439597642668
 30
0.0
 10
26.72223984405483
 20
4.986114399176551
 30
0.0
 10
25.28899779648077
 20
4.643693383438359
 30
0.0
 10
23.74733689485841
 20
4.486670167911106
 30
0.0
 10
22.40279255117487
 20
4.041669331923054
 30
0.0
 10
21.72455588429741
 20
3.81719544257555
 30
0.0
 10
21.04823165357693
 20
3.618030814709766
 30
0.0
 10
20.30556894595019
 20
3.513891206104923
 30
0.0
 10
19.91007443601159
 20
3.45843055755254
 30
0.0
 10
19.53059827430981
 20
3.404665331125138
 30
0.0
 10
19.15279040797901
 20
3.347224429530777
 30
0.0
 10
18.07914739311345
 20
3.183975623960592
 30
0.0
 10
17.0585846541368
 20
2.739313872397537
 30
0.0
 10
15.88889936673531
 20
2.666668425186345
 30
0.0
 10
15.64553847491551
 20
2.651558823208513
 30
0.0
 10
15.33673428907145
 20
2.673056775753274
 30
0.0
 10
15.06945438191242
 20
2.652779527138499
 30
0.0
 10
14.64621598432062
 20
2.620661450402856
 30
0.0
 10
14.29098435900608
 20
2.482423512020394
 30
0.0
 10
13.90278694589339
 20
2.527779444707889
 30
0.0
 10
13.30350947822056
 20
2.597793596781111
 30
0.0
 10
12.80723229548458
 20
3.081463620595732
 30
0.0
 10
12.86111959230498
 20
3.791669167061834
 30
0.0
 10
12.90037878703104
 20
4.30912556298308
 30
0.0
 10
13.24263026055673
 20
4.629207696802521
 30
0.0
 10
13.66667567908002
 20
4.791669826506713
 30
0.0
 10
13.70769811281606
 20
4.744726978710236
 30
0.0
 10
13.73384830367177
 20
4.682918669721923
 30
0.0
 10
13.80556465955847
 20
4.666669744076104
 30
0.0
 10
13.85591191498191
 20
4.337391640650766
 30
0.0
 10
13.90990771881831
 20
4.011748522261387
 30
0.0
 10
13.95834253808477
 20
3.68055798267907
 30
0.0
 10
14.10437941824215
 20
3.705812990652789
 30
0.0
 10
14.25037560826853
 20
3.731122252134508
 30
0.0
 10
14.40278727561583
 20
3.750002472918298
 30
0.0
 10
14.36303301762927
 20
4.089873573780518
 30
0.0
 10
14.31077332604886
 20
4.417252804425877
 30
0.0
 10
14.25000939708953
 20
4.736114234315331
 30
0.0
 10
14.32724604741517
 20
4.767120114136987
 30
0.0
 10
14.34234886770451
 20
4.87292801811281
 30
0.0
 10
14.31945388732876
 20
4.930558806985169
 30
0.0
 10
15.12868564927076
 20
5.070397223853615
 30
0.0
 10
16.16946460166569
 20
4.978695231957634
 30
0.0
 10
16.87501112813234
 20
5.222225665989925
 30
0.0
 10
16.88580757622422
 20
5.175147184423449
 30
0.0
 10
16.93496803616017
 20
5.062286324407705
 30
0.0
 10
17.01390010861079
 20
5.08333668551147
 30
0.0
 10
17.09703004624287
 20
4.759063468199076
 30
0.0
 10
17.18724684835737
 20
4.441870333680604
 30
0.0
 10
17.26390027347201
 20
4.111113822162282
 30
0.0
 10
17.41589147613233
 20
4.144303405680913
 30
0.0
 10
17.55151846444232
 20
4.193877548615362
 30
0.0
 10
17.70834501100307
 20
4.222225006545046
 30
0.0
 10
17.62687658705348
 20
4.538902732737525
 30
0.0
 10
17.54859555669885
 20
4.858767852524967
 30
0.0
 10
17.45834484614185
 20
5.166670073798543
 30
0.0
 10
17.50349054648585
 20
5.238379647996746
 30
0.0
 10
17.54820221876586
 20
5.332306033720702
 30
0.0
 10
17.50001154028539
 20
5.388892442564073
 30
0.0
 10
18.30633395786092
 20
5.647383281427198
 30
0.0
 10
19.26251134621929
 20
5.756039494572989
 30
0.0
 10
20.19445776156742
 20
5.888892772286512
 30
0.0
 10
20.21662710127368
 20
5.825782379106214
 30
0.0
 10
20.25185797303079
 20
5.74697915873709
 30
0.0
 10
20.34723564009373
 20
5.722225995712366
 30
0.0
 10
20.39807117708916
 20
5.388811062302073
 30
0.0
 10
20.4840019520717
 20
5.090471021813391
 30
0.0
 10
20.54168021276356
 20
4.763892030411022
 30
0.0
 10
20.69904251271581
 20
4.782460293523816
 30
0.0
 10
20.82322879252643
 20
4.834204576778241
 30
0.0
 10
20.98612495029462
 20
4.847225418698096
 30
0.0
 10
20.92623585915179
 20
5.180857366140386
 30
0.0
 10
20.85675746047006
 20
5.504886442666782
 30
0.0
 10
20.77779147957694
 20
5.819448282047285
 30
0.0
 10
20.84940611013614
 20
5.874054437848677
 30
0.0
 10
20.86847621819793
 20
5.966502415479649
 30
0.0
 10
20.83334707176832
 20
6.027781752764968
 30
0.0
 10
21.68628003440384
 20
6.281335522400147
 30
0.0
 10
22.49208026196488
 20
6.582008463732804
 30
0.0
 10
23.43057100671544
 20
6.750004451252936
 30
0.0
 10
23.44947835425323
 20
6.7082292500934
 30
0.0
 10
23.470053997162
 20
6.599057628621614
 30
0.0
 10
23.56945998719389
 20
6.597226572726635
 30
0.0
 10
23.63134967644421
 20
6.27485222819422
 30
0.0
 10
23.7126553398698
 20
5.971900639525589
 30
0.0
 10
23.76390455986373
 20
5.638892607425293
 30
0.0
 10
23.89758520357424
 20
5.631554820468374
 30
0.0
 10
24.07683879400425
 20
5.695343382498664
 30
0.0
 10
24.22223819544264
 20
5.722225995712366
 30
0.0
 10
24.14956562147744
 20
6.038442567086849
 30
0.0
 10
24.08943917123711
 20
6.367205262186193
 30
0.0
 10
24.01390472472495
 20
6.680559961013708
 30
0.0
 10
24.06830742987135
 20
6.734406567703109
 30
0.0
 10
24.09628867662203
 20
6.827329263529076
 30
0.0
 10
24.06946031691633
 20
6.888893431731391
 30
0.0
 10
24.94117855669664
 20
7.049592322425604
 30
0.0
 10
25.84959929463854
 20
7.173575151581225
 30
0.0
 10
26.63890645576776
 20
7.416671557549522
 30
0.0
 10
26.63830966717977
 20
7.309602259512713
 30
0.0
 10
26.71684162000889
 20
7.281648139516023
 30
0.0
 10
26.79168433429406
 20
7.250004780975376
 30
0.0
 10
26.86222745807028
 20
6.922394972921019
 30
0.0
 10
26.97183310760606
 20
6.633861254003228
 30
0.0
 10
27.04168449915528
 20
6.305559713721879
 30
0.0
 10
27.19329592725959
 20
6.343754183353454
 30
0.0
 10
27.34469034133191
 20
6.382179230394026
 30
0.0
 10
27.48612923668634
 20
6.430559796152489
 30
0.0
 10
27.39924224362531
 20
6.741825734922027
 30
0.0
 10
27.31523068648824
 20
7.055967109615533
 30
0.0
 10
27.22224017377727
 20
7.36111596535814
 30
0.0
 10
27.26851841610076
 20
7.446117649016195
 30
0.0
 10
27.30131466168639
 20
7.512347618906459
 30
0.0
 10
27.26390686792081
 20
7.583338334123669
 30
0.0
 10
28.05408208517802
 20
7.820941572407026
 30
0.0
 10
28.83259279821537
 20
8.070209314910255
 30
0.0
 10
29.51390835167179
 20
8.416672216994401
 30
0.0
 10
29.53201545996659
 20
8.357942794585055
 30
0.0
 10
29.59092120627693
 20
8.264965845251089
 30
0.0
 10
29.69446402629378
 20
8.291672134563791
 30
0.0
 10
29.85325048083102
 20
7.996750065079071
 30
0.0
 10
30.02873345245506
 20
7.718538076058166
 30
0.0
 10
30.19446435601622
 20
7.430560455597368
 30
0.0
 10
30.3224212546328
 20
7.506298352764525
 30
0.0
 10
30.44335232396345
 20
7.589075642594605
 30
0.0
 10
30.58335350135589
 20
7.652782824362896
 30
0.0
 10
30.42190862492669
 20
7.940421360398698
 30
0.0
 10
30.25973132613949
 20
8.227313910699507
 30
0.0
 10
30.08335317163345
 20
8.500005605281475
 30
0.0
 10
30.11244661529813
 20
8.580626318168578
 30
0.0
 10
30.123866978732
 20
8.655916623894742
 30
0.0
 10
30.06946427358561
 20
8.736116872094849
 30
0.0
 10
30.16259042006658
 20
8.78187970609234
 30
0.0
 10
30.24312975269168
 20
8.840229353945691
 30
0.0
 10
30.30557554039898
 20
8.91667254671684
 30
0.0
 10
30.35928651331839
 20
8.856803800639508
 30
0.0
 10
30.48082793461403
 20
8.9114642099489
 30
0.0
 10
30.48613121502098
 20
8.930561444764686
 30
0.0
 10
33.13843602396448
 20
7.712597316932231
 30
0.0
 10
35.74930471617345
 20
6.45284442456324
 30
0.0
 10
38.40280310229294
 20
5.236114564037771
 30
0.0
 10
38.47633016900912
 20
5.357032069991426
 30
0.0
 10
38.52019413022663
 20
5.507612681443752
 30
0.0
 10
38.59724767496277
 20
5.625003709377447
 30
0.0
 10
35.99223836161774
 20
6.871871393596581
 30
0.0
 10
33.35889515372003
 20
8.090283112870031
 30
0.0
 10
30.7361313798822
 20
9.319450590104362
 30
0.0
 10
30.95356587656678
 20
9.597391311585271
 30
0.0
 10
31.14242233791268
 20
9.903896505027863
 30
0.0
 10
31.33335399593955
 20
10.20834006516648
 30
0.0
 10
31.34233295151346
 20
10.27412244361575
 30
0.0
 10
31.38088006894703
 20
10.16307907611798
 30
0.0
 10
31.43057628227447
 20
10.18056226907079
 30
0.0
 10
31.49441909781276
 20
10.17228860910088
 30
0.0
 10
31.47913317193393
 20
10.24311656379409
 30
0.0
 10
31.54168746665724
 20
10.23611786126217
 30
0.0
 10
31.82712873561906
 20
10.08637817918383
 30
0.0
 10
32.14367082804154
 20
9.967725757189154
 30
0.0
 10
32.43057694171935
 20
9.819450919826801
 30
0.0
 10
32.50510769833352
 20
9.943989847439417
 30
0.0
 10
32.55522437634797
 20
10.09295641702876
 30
0.0
 10
32.62502151438919
 20
10.22222896321432
 30
0.0
 10
32.34070600571835
 20
10.37771951714059
 30
0.0
 10
32.02971133448881
 20
10.50654447188516
 30
0.0
 10
31.72224314127923
 20
10.63889590464969
 30
0.0
 10
31.72591881644619
 20
10.74441897770852
 30
0.0
 10
31.6619403671379
 20
10.78228792629209
 30
0.0
 10
31.59724305884862
 20
10.81945157927168
 30
0.0
 10
31.86094223447969
 20
11.46780812661847
 30
0.0
 10
31.99025547079625
 20
12.25049635977177
 30
0.0
 10
32.08335449052321
 20
13.06945306302266
 30
0.0
 10
32.13145022536468
 20
13.09169700130241
 30
0.0
 10
32.24988563332736
 20
13.08716683338446
 30
0.0
 10
32.27779906319305
 20
13.16667534935758
 30
0.0
 10
32.59288987427655
 20
13.11602969964014
 30
0.0
 10
32.92455513205386
 20
13.08194493323952
 30
0.0
 10
33.25002192654224
 20
13.04167526692697
 30
0.0
 10
33.29252955005977
 20
13.17045953154054
 30
0.0
 10
33.28698212886683
 20
13.34731240424157
 30
0.0
 10
33.31946641678147
 20
13.48612000445803
 30
0.0
 10
33.001852817576
 20
13.53888154098744
 30
0.0
 10
32.66493853289975
 20
13.57232882866907
 30
0.0
 10
32.33335465538443
 20
13.61112008688864
 30
0.0
 10
32.30283705713477
 20
13.67210102987996
 30
0.0
 10
32.24351084613743
 20
13.75057872920109
 30
0.0
 10
32.16668787881029
 20
13.7222312712714
 30
0.0
 10
32.26072277155024
 20
14.58653034383279
 30
0.0
 10
32.34721642667828
 20
15.45837065400609
 30
0.0
 10
32.48613253391073
 20
16.27778851207498
 30
0.0
 10
32.55172502508201
 20
16.31404341879558
 30
0.0
 10
32.642409763703
 20
16.32521964144345
 30
0.0
 10
32.63891041243703
 20
16.43056639060128
 30
0.0
 10
32.95081382992556
 20
16.57846145340764
 30
0.0
 10
33.33723444065127
 20
16.37870003695386
 30
0.0
 10
33.6944666640733
 20
16.36112190036205
 30
0.0
 10
33.73487196415585
 20
16.4734944788058
 30
0.0
 10
33.74990018587168
 20
16.61124413561627
 30
0.0
 10
33.76391115431252
 20
16.75001104570173
 30
0.0
 10
35.69313877201707
 20
17.33003529972328
 30
0.0
 10
37.64817749615233
 20
17.88427557406812
 30
0.0
 10
39.59724833440765
 20
18.44445660753889
 30
0.0
 10
39.55860627333509
 20
18.59563400757921
 30
0.0
 10
39.50645508877066
 20
18.73328872075068
 30
0.0
 10
39.47224825197704
 20
18.88890134506994
 30
0.0
 10
37.25460898574771
 20
18.24999847149205
 30
0.0
 10
35.05363910985118
 20
17.59460253148234
 30
0.0
 10
32.81946608705903
 20
16.97223341446726
 30
0.0
 10
32.74762087909082
 20
16.95595736206744
 30
0.0
 10
32.79453660013331
 20
17.0584151119243
 30
0.0
 10
32.7500215968198
 20
17.06945570080218
 30
0.0
 10
32.71700833720217
 20
17.1125058593997
 30
0.0
 10
32.67014686966769
 20
17.06945570080218
 30
0.0
 10
32.63891041243703
 20
17.09723349689787
 30
0.0
 10
32.78192265952345
 20
17.88013874408316
 30
0.0
 10
32.80757100543016
 20
18.78042145582515
 30
0.0
 10
32.86113278120256
 20
19.65279073770145
 30
0.0
 10
32.89037542201424
 20
19.65828390538639
 30
0.0
 10
33.01138787160689
 20
19.65816183499339
 30
0.0
 10
33.04168845582456
 20
19.73612412598852
 30
0.0
 10
33.38080000757478
 20
19.72801322654261
 30
0.0
 10
33.69945798680924
 20
19.69944875458093
 30
0.0
 10
34.02780021722159
 20
19.68056853379714
 30
0.0
 10
34.04950162042135
 20
19.81627012068063
 30
0.0
 10
34.0539504080773
 20
19.96923788648493
 30
0.0
 10
34.05557801331728
 20
20.1250132713282
 30
0.0
 10
33.74915420013669
 20
20.17045058427769
 30
0.0
 10
33.40450879057052
 20
20.17763917408761
 30
0.0
 10
33.06946625192025
 20
20.19445776156742
 30
0.0
 10
33.03633092190962
 20
20.25889736569371
 30
0.0
 10
32.98068038607924
 20
20.32591401144996
 30
0.0
 10
32.9027994753461
 20
20.30556894595019
 30
0.0
 10
33.00973313961291
 20
20.99754531372849
 30
0.0
 10
33.39440407470563
 20
21.53978199942846
 30
0.0
 10
34.23613368793927
 20
21.45834748392137
 30
0.0
 10
34.81260433718686
 20
21.40257487769799
 30
0.0
 10
35.2054404252335
 20
20.93953475030014
 30
0.0
 10
35.250023245432
 20
20.36112453814157
 30
0.0
 10
35.29714241712947
 20
19.74979601000437
 30
0.0
 10
35.14310314454219
 20
18.99072161620781
 30
0.0
 10
35.15280095909708
 20
18.31945652510828
 30
0.0
  0
SPLINE
  5
41
330
1F
100
AcDbEntity
  8
Layer 1
 62
   217
420
  9447054
370
    35
100
AcDbSpline
210
0.0
220
0.0
230
1.0
 70
    11
 71
     3
 72
    74
 73
    70
 74
     0
 42
0.0000000001
 43
0.0000000001
 40
0.0
 40
0.0
 40
0.0
 40
0.0
 40
1.0
 40
1.0
 40
1.0
 40
2.0
 40
2.0
 40
2.0
 40
3.0
 40
3.0
 40
3.0
 40
4.0
 40
4.0
 40
4.0
 40
5.0
 40
5.0
 40
5.0
 40
6.0
 40
6.0
 40
6.0
 40
7.0
 40
7.0
 40
7.0
 40
8.0
 40
8.0
 40
8.0
 40
9.0
 40
9.0
 40
9.0
 40
10.0
 40
10.0
 40
10.0
 40
11.0
 40
11.0
 40
11.0
 40
12.0
 40
12.0
 40
12.0
 40
13.0
 40
13.0
 40
13.0
 40
14.0
 40
14.0
 40
14.0
 40
15.0
 40
15.0
 40
15.0
 40
16.0
 40
16.0
 40
16.0
 40
17.0
 40
17.0
 40
17.0
 40
18.0
 40
18.0
 40
18.0
 40
19.0
 40
19.0
 40
19.0
 40
20.0
 40
20.0
 40
20.0
 40
21.0
 40
21.0
 40
21.0
 40
22.0
 40
22.0
 40
22.0
 40
23.0
 40
23.0
 40
23.0
 40
23.0
 10
20.06945767913681
 20
30.50696456209274
 30
0.0
 10
25.74985422018165
 20
30.50696456209274
 30
0.0
 10
31.43082042306047
 20
30.50696456209274
 30
0.0
 10
37.1111355838433
 20
30.50696456209274
 30
0.0
 10
37.0215087886283
 20
29.29567361574421
 30
0.0
 10
36.6703258313482
 20
28.34591170470678
 30
0.0
 10
35.5555790024846
 20
28.15974079200685
 30
0.0
 10
35.5555790024846
 20
28.54399126241258
 30
0.0
 10
35.5555790024846
 20
28.9282688595723
 30
0.0
 10
35.5555790024846
 20
29.31251932997803
 30
0.0
 10
35.43049753979199
 20
29.34485442074567
 30
0.0
 10
35.24545238738305
 20
29.31721225841997
 30
0.0
 10
35.0972453669057
 20
29.32640822802587
 30
0.0
 10
35.0972453669057
 20
28.93288040775225
 30
0.0
 10
35.0972453669057
 20
28.53937971423262
 30
0.0
 10
35.0972453669057
 20
28.145851893959
 30
0.0
 10
34.12502250355651
 20
28.145851893959
 30
0.0
 10
33.15281320358432
 20
28.145851893959
 30
0.0
 10
32.18057677685813
 20
28.145851893959
 30
0.0
 10
32.18057677685813
 20
28.53474103929868
 30
0.0
 10
32.18057677685813
 20
28.92363018463835
 30
0.0
 10
32.18057677685813
 20
29.31251932997803
 30
0.0
 10
32.05549531416553
 20
29.34485442074567
 30
0.0
 10
31.87045016175658
 20
29.31721225841997
 30
0.0
 10
31.72224314127923
 20
29.32640822802587
 30
0.0
 10
31.72224314127923
 20
28.93288040775225
 30
0.0
 10
31.72224314127923
 20
28.53937971423262
 30
0.0
 10
31.72224314127923
 20
28.145851893959
 30
0.0
 10
30.75002027793004
 20
28.145851893959
 30
0.0
 10
29.77781097795785
 20
28.145851893959
 30
0.0
 10
28.80557455123166
 20
28.145851893959
 30
0.0
 10
28.80557455123166
 20
28.53474103929868
 30
0.0
 10
28.80557455123166
 20
28.92363018463835
 30
0.0
 10
28.80557455123166
 20
29.31251932997803
 30
0.0
 10
28.68049308853906
 20
29.34485442074567
 30
0.0
 10
28.49544793613011
 20
29.31721225841997
 30
0.0
 10
28.34724091565276
 20
29.32640822802587
 30
0.0
 10
28.34724091565276
 20
28.93288040775225
 30
0.0
 10
28.34724091565276
 20
28.53937971423262
 30
0.0
 10
28.34724091565276
 20
28.145851893959
 30
0.0
 10
27.37501805230357
 20
28.145851893959
 30
0.0
 10
26.40280875233139
 20
28.145851893959
 30
0.0
 10
25.4305723256052
 20
28.145851893959
 30
0.0
 10
25.4305723256052
 20
28.53474103929868
 30
0.0
 10
25.4305723256052
 20
28.92363018463835
 30
0.0
 10
25.4305723256052
 20
29.31251932997803
 30
0.0
 10
25.30549086291259
 20
29.34485442074567
 30
0.0
 10
25.12044571050365
 20
29.31721225841997
 30
0.0
 10
24.97223869002629
 20
29.32640822802587
 30
0.0
 10
24.97223869002629
 20
28.93288040775225
 30
0.0
 10
24.97223869002629
 20
28.53937971423262
 30
0.0
 10
24.97223869002629
 20
28.145851893959
 30
0.0
 10
24.00000904498861
 20
28.145851893959
 30
0.0
 10
23.02780652670492
 20
28.145851893959
 30
0.0
 10
22.05557009997873
 20
28.145851893959
 30
0.0
 10
22.05557009997873
 20
28.53474103929868
 30
0.0
 10
22.05557009997873
 20
28.92363018463835
 30
0.0
 10
22.05557009997873
 20
29.31251932997803
 30
0.0
 10
21.93048863728612
 20
29.34485442074567
 30
0.0
 10
21.74544348487718
 20
29.31721225841997
 30
0.0
 10
21.59723646439983
 20
29.32640822802587
 30
0.0
 10
21.59723646439983
 20
28.9375190826862
 30
0.0
 10
21.59723646439983
 20
28.54862993734652
 30
0.0
 10
21.59723646439983
 20
28.15974079200685
 30
0.0
 10
20.50550668630497
 20
28.35044187262472
 30
0.0
 10
20.14172335179201
 20
29.26903514331651
 30
0.0
 10
20.05556878108897
 20
30.46529786794921
 30
0.0
 10
20.05437520391298
 20
30.48500545472999
 30
0.0
 10
20.053276570376
 20
30.50463166124877
 30
0.0
 10
20.06945767913681
 20
30.50696456209274
 30
0.0
  0
SPLINE
  5
42
330
1F
100
AcDbEntity
  8
Layer 1
 62
   217
420
  9447054
370
    35
100
AcDbSpline
210
0.0
220
0.0
230
1.0
 70
    11
 71
     3
 72
    71
 73
    67
 74
     0
 42
0.0000000001
 43
0.0000000001
 40
0.0
 40
0.0
 40
0.0
 40
0.0
 40
1.0
 40
1.0
 40
1.0
 40
2.0
 40
2.0
 40
2.0
 40
3.0
 40
3.0
 40
3.0
 40
4.0
 40
4.0
 40
4.0
 40
5.0
 40
5.0
 40
5.0
 40
6.0
 40
6.0
 40
6.0
 40
7.0
 40
7.0
 40
7.0
 40
8.0
 40
8.0
 40
8.0
 40
9.0
 40
9.0
 40
9.0
 40
10.0
 40
10.0
 40
10.0
 40
11.0
 40
11.0
 40
11.0
 40
12.0
 40
12.0
 40
12.0
 40
13.0
 40
13.0
 40
13.0
 40
14.0
 40
14.0
 40
14.0
 40
15.0
 40
15.0
 40
15.0
 40
16.0
 40
16.0
 40
16.0
 40
17.0
 40
17.0
 40
17.0
 40
18.0
 40
18.0
 40
18.0
 40
19.0
 40
19.0
 40
19.0
 40
20.0
 40
20.0
 40
20.0
 40
21.0
 40
21.0
 40
21.0
 40
22.0
 40
22.0
 40
22.0
 40
22.0
 10
11.65973669285484
 20
94.38895113315834
 30
0.0
 10
11.65973669285484
 20
88.70394304393356
 30
0.0
 10
11.65973669285484
 20
83.01817540559679
 30
0.0
 10
11.65973669285484
 20
77.333384330404
 30
0.0
 10
10.44963254199379
 20
77.424191139418
 30
0.0
 10
9.489135218060975
 20
77.76464546549121
 30
0.0
 10
9.312512922768938
 20
78.8889409117627
 30
0.0
 10
9.692138281617718
 20
78.8889409117627
 30
0.0
 10
10.0717772038435
 20
78.8889409117627
 30
0.0
 10
10.45140256269227
 20
78.8889409117627
 30
0.0
 10
10.48373087177142
 20
79.01402237445532
 30
0.0
 10
10.45609549113422
 20
79.19906752686425
 30
0.0
 10
10.46529146074012
 20
79.34727454734161
 30
0.0
 10
10.07640231540045
 20
79.34727454734161
 30
0.0
 10
9.68751317006077
 20
79.34727454734161
 30
0.0
 10
9.298624024721093
 20
79.34727454734161
 30
0.0
 10
9.298624024721093
 20
80.3194974106908
 30
0.0
 10
9.298624024721093
 20
81.29171349235149
 30
0.0
 10
9.298624024721093
 20
82.26394313738918
 30
0.0
 10
9.682881276815321
 20
82.26394313738918
 30
0.0
 10
10.06714531059805
 20
82.26394313738918
 30
0.0
 10
10.45140256269227
 20
82.26394313738918
 30
0.0
 10
10.48373087177142
 20
82.38902460008178
 30
0.0
 10
10.45609549113422
 20
82.57406975249073
 30
0.0
 10
10.46529146074012
 20
82.72227677296807
 30
0.0
 10
10.07640231540045
 20
82.72227677296807
 30
0.0
 10
9.68751317006077
 20
82.72227677296807
 30
0.0
 10
9.298624024721093
 20
82.72227677296807
 30
0.0
 10
9.298624024721093
 20
83.69449963631726
 30
0.0
 10
9.298624024721093
 20
84.66671571797795
 30
0.0
 10
9.298624024721093
 20
85.63894536301565
 30
0.0
 10
9.682881276815321
 20
85.63894536301565
 30
0.0
 10
10.06714531059805
 20
85.63894536301565
 30
0.0
 10
10.45140256269227
 20
85.63894536301565
 30
0.0
 10
10.48373087177142
 20
85.76402682570826
 30
0.0
 10
10.45609549113422
 20
85.94907197811719
 30
0.0
 10
10.46529146074012
 20
86.09727899859455
 30
0.0
 10
10.07640231540045
 20
86.09727899859455
 30
0.0
 10
9.68751317006077
 20
86.09727899859455
 30
0.0
 10
9.298624024721093
 20
86.09727899859455
 30
0.0
 10
9.298624024721093
 20
87.06950186194373
 30
0.0
 10
9.298624024721093
 20
88.04171794360443
 30
0.0
 10
9.298624024721093
 20
89.01394758864211
 30
0.0
 10
9.68751317006077
 20
89.01394758864211
 30
0.0
 10
10.07640231540045
 20
89.01394758864211
 30
0.0
 10
10.46529146074012
 20
89.01394758864211
 30
0.0
 10
10.46529146074012
 20
89.16672546716842
 30
0.0
 10
10.46529146074012
 20
89.31950334569471
 30
0.0
 10
10.46529146074012
 20
89.47228122422102
 30
0.0
 10
10.07640231540045
 20
89.47228122422102
 30
0.0
 10
9.68751317006077
 20
89.47228122422102
 30
0.0
 10
9.298624024721093
 20
89.47228122422102
 30
0.0
 10
9.298624024721093
 20
90.44450408757021
 30
0.0
 10
9.298624024721093
 20
91.41672016923089
 30
0.0
 10
9.298624024721093
 20
92.38894981426859
 30
0.0
 10
9.682881276815321
 20
92.38894981426859
 30
0.0
 10
10.06714531059805
 20
92.38894981426859
 30
0.0
 10
10.45140256269227
 20
92.38894981426859
 30
0.0
 10
10.48373087177142
 20
92.51403127696119
 30
0.0
 10
10.45609549113422
 20
92.69907642937014
 30
0.0
 10
10.46529146074012
 20
92.84728344984748
 30
0.0
 10
10.08102742695739
 20
92.84728344984748
 30
0.0
 10
9.696770174863167
 20
92.84728344984748
 30
0.0
 10
9.312512922768938
 20
92.84728344984748
 30
0.0
 10
9.49777508920988
 20
93.95832747679013
 30
0.0
 10
10.43847666441142
 20
94.31390496821817
 30
0.0
 10
11.65973669285484
 20
94.38895113315834
 30
0.0
  0
SPLINE
  5
43
330
1F
100
AcDbEntity
  8
Layer 1
 62
   217
420
  9447054
370
    35
100
AcDbSpline
210
0.0
220
0.0
230
1.0
 70
    11
 71
     3
 72
   263
 73
   259
 74
     0
 42
0.0000000001
 43
0.0000000001
 40
0.0
 40
0.0
 40
0.0
 40
0.0
 40
1.0
 40
1.0
 40
1.0
 40
2.0
 40
2.0
 40
2.0
 40
3.0
 40
3.0
 40
3.0
 40
4.0
 40
4.0
 40
4.0
 40
5.0
 40
5.0
 40
5.0
 40
6.0
 40
6.0
 40
6.0
 40
7.0
 40
7.0
 40
7.0
 40
8.0
 40
8.0
 40
8.0
 40
9.0
 40
9.0
 40
9.0
 40
10.0
 40
10.0
 40
10.0
 40
11.0
 40
11.0
 40
11.0
 40
12.0
 40
12.0
 40
12.0
 40
13.0
 40
13.0
 40
13.0
 40
14.0
 40
14.0
 40
14.0
 40
15.0
 40
15.0
 40
15.0
 40
16.0
 40
16.0
 40
16.0
 40
17.0
 40
17.0
 40
17.0
 40
18.0
 40
18.0
 40
18.0
 40
19.0
 40
19.0
 40
19.0
 40
20.0
 40
20.0
 40
20.0
 40
21.0
 40
21.0
 40
21.0
 40
22.0
 40
22.0
 40
22.0
 40
23.0
 40
23.0
 40
23.0
 40
24.0
 40
24.0
 40
24.0
 40
25.0
 40
25.0
 40
25.0
 40
26.0
 40
26.0
 40
26.0
 40
27.0
 40
27.0
 40
27.0
 40
28.0
 40
28.0
 40
28.0
 40
29.0
 40
29.0
 40
29.0
 40
30.0
 40
30.0
 40
30.0
 40
31.0
 40
31.0
 40
31.0
 40
32.0
 40
32.0
 40
32.0
 40
33.0
 40
33.0
 40
33.0
 40
34.0
 40
34.0
 40
34.0
 40
35.0
 40
35.0
 40
35.0
 40
36.0
 40
36.0
 40
36.0
 40
37.0
 40
37.0
 40
37.0
 40
38.0
 40
38.0
 40
38.0
 40
39.0
 40
39.0
 40
39.0
 40
40.0
 40
40.0
 40
40.0
 40
41.0
 40
41.0
 40
41.0
 40
42.0
 40
42.0
 40
42.0
 40
43.0
 40
43.0
 40
43.0
 40
44.0
 40
44.0
 40
44.0
 40
45.0
 40
45.0
 40
45.0
 40
46.0
 40
46.0
 40
46.0
 40
47.0
 40
47.0
 40
47.0
 40
48.0
 40
48.0
 40
48.0
 40
49.0
 40
49.0
 40
49.0
 40
50.0
 40
50.0
 40
50.0
 40
51.0
 40
51.0
 40
51.0
 40
52.0
 40
52.0
 40
52.0
 40
53.0
 40
53.0
 40
53.0
 40
54.0
 40
54.0
 40
54.0
 40
55.0
 40
55.0
 40
55.0
 40
56.0
 40
56.0
 40
56.0
 40
57.0
 40
57.0
 40
57.0
 40
58.0
 40
58.0
 40
58.0
 40
59.0
 40
59.0
 40
59.0
 40
60.0
 40
60.0
 40
60.0
 40
61.0
 40
61.0
 40
61.0
 40
62.0
 40
62.0
 40
62.0
 40
63.0
 40
63.0
 40
63.0
 40
64.0
 40
64.0
 40
64.0
 40
65.0
 40
65.0
 40
65.0
 40
66.0
 40
66.0
 40
66.0
 40
67.0
 40
67.0
 40
67.0
 40
68.0
 40
68.0
 40
68.0
 40
69.0
 40
69.0
 40
69.0
 40
70.0
 40
70.0
 40
70.0
 40
71.0
 40
71.0
 40
71.0
 40
72.0
 40
72.0
 40
72.0
 40
73.0
 40
73.0
 40
73.0
 40
74.0
 40
74.0
 40
74.0
 40
75.0
 40
75.0
 40
75.0
 40
76.0
 40
76.0
 40
76.0
 40
77.0
 40
77.0
 40
77.0
 40
78.0
 40
78.0
 40
78.0
 40
79.0
 40
79.0
 40
79.0
 40
80.0
 40
80.0
 40
80.0
 40
81.0
 40
81.0
 40
81.0
 40
82.0
 40
82.0
 40
82.0
 40
83.0
 40
83.0
 40
83.0
 40
84.0
 40
84.0
 40
84.0
 40
85.0
 40
85.0
 40
85.0
 40
86.0
 40
86.0
 40
86.0
 40
86.0
 10
35.58335679858029
 20
77.2708842891887
 30
0.0
 10
39.3770875989461
 20
78.25950527533071
 30
0.0
 10
43.15810951506305
 20
79.26096399780307
 30
0.0
 10
46.93058650367011
 20
80.27088626752334
 30
0.0
 10
46.96297584794574
 20
79.88199034049516
 30
0.0
 10
46.93522517860405
 20
79.43293405478416
 30
0.0
 10
46.94447540171795
 20
79.02088544321724
 30
0.0
 10
43.07030021236604
 20
77.81158153159919
 30
0.0
 10
39.21693124333189
 20
76.58204784318586
 30
0.0
 10
35.34724553176692
 20
75.36810525663387
 30
0.0
 10
35.09354256498474
 20
74.08336184214265
 30
0.0
 10
34.98822294258091
 20
72.65241878697006
 30
0.0
 10
34.80557850790094
 20
71.31254702666297
 30
0.0
 10
34.62224234099398
 20
69.96767716193142
 30
0.0
 10
34.28931568915569
 20
68.75890900370486
 30
0.0
 10
33.70835556212114
 20
67.82643361665373
 30
0.0
 10
38.07943863123953
 20
65.64212634940152
 30
0.0
 10
42.48551521301754
 20
63.49228362310593
 30
0.0
 10
46.87503091147872
 20
61.32642933026202
 30
0.0
 10
46.87503091147872
 20
60.89124159753335
 30
0.0
 10
46.87503091147872
 20
60.45606064649319
 30
0.0
 10
46.87503091147872
 20
60.02087291376453
 30
0.0
 10
42.11162716263969
 20
62.1188018145932
 30
0.0
 10
37.37591982963436
 20
64.24370827227457
 30
0.0
 10
32.63891041243703
 20
66.36809932162994
 30
0.0
 10
32.13033802845069
 20
65.91767313484196
 30
0.0
 10
31.57898675340682
 20
65.51373542272094
 30
0.0
 10
30.93057595255203
 20
65.21532078365877
 30
0.0
 10
29.63163846403048
 20
64.61751494239041
 30
0.0
 10
28.17143242298072
 20
64.16843152992541
 30
0.0
 10
26.59723976162422
 20
63.82643097887421
 30
0.0
 10
25.82266242791684
 20
63.65815016043708
 30
0.0
 10
25.01180306073485
 20
63.53922647090241
 30
0.0
 10
24.19446039934694
 20
63.36809734329531
 30
0.0
 10
23.42236516363053
 20
63.20643545283411
 30
0.0
 10
22.71332606758642
 20
62.94719184654749
 30
0.0
 10
21.97223671169166
 20
62.72920803309442
 30
0.0
 10
21.21470854287308
 20
62.50638887574089
 30
0.0
 10
20.39919015569165
 20
62.43021016882124
 30
0.0
 10
19.54167955331868
 20
62.2986521936112
 30
0.0
 10
18.37389992038567
 20
62.11949354682019
 30
0.0
 10
17.34541616924111
 20
61.61802837238177
 30
0.0
 10
15.93056606087884
 20
61.61809618926677
 30
0.0
 10
15.48397830978181
 20
61.61811653433227
 30
0.0
 10
15.06291683419849
 20
61.5076563920455
 30
0.0
 10
14.63889854242921
 20
61.47920720878832
 30
0.0
 10
13.89904345384143
 20
61.42957203065737
 30
0.0
 10
13.35612859929147
 20
61.88266342102582
 30
0.0
 10
13.29167543178819
 20
62.50698566432889
 30
0.0
 10
13.218460322743
 20
63.216119704012
 30
0.0
 10
13.63802982685634
 20
63.54370238531236
 30
0.0
 10
14.09723151856323
 20
63.75698648863499
 30
0.0
 10
14.13923051544326
 20
63.71102020398249
 30
0.0
 10
14.15338389934261
 20
63.63720830634932
 30
0.0
 10
14.23612049904169
 20
63.63198640620438
 30
0.0
 10
14.28599303627013
 20
63.30222680289554
 30
0.0
 10
14.33860537565255
 20
62.97521378342918
 30
0.0
 10
14.38889837756799
 20
62.64587464480734
 30
0.0
 10
14.54258500235328
 20
62.66347990815314
 30
0.0
 10
14.6937284939511
 20
62.68363508637492
 30
0.0
 10
14.83334311509904
 20
62.71531913504657
 30
0.0
 10
14.8017133199354
 20
63.0540644756178
 30
0.0
 10
14.72852533764421
 20
63.3512380656845
 30
0.0
 10
14.69445413462059
 20
63.68754199839576
 30
0.0
 10
14.70997063790842
 20
63.71034203513251
 30
0.0
 10
14.8016861931814
 20
63.82800433060619
 30
0.0
 10
14.75000972681197
 20
63.8819865710656
 30
0.0
 10
15.54064609888718
 20
64.04505905273479
 30
0.0
 10
16.6179919156737
 20
63.92140174462715
 30
0.0
 10
17.30556696761555
 20
64.1875423281182
 30
0.0
 10
17.31260636027847
 20
64.12714461033787
 30
0.0
 10
17.36742953011186
 20
64.03878599087236
 30
0.0
 10
17.45834484614185
 20
64.02087555154405
 30
0.0
 10
17.52464263291711
 20
63.69365908142269
 30
0.0
 10
17.62251596134803
 20
63.39800458957998
 30
0.0
 10
17.69445611295523
 20
63.07643048429055
 30
0.0
 10
17.85472097558544
 20
63.10134640783927
 30
0.0
 10
17.99137199885892
 20
63.14988973412174
 30
0.0
 10
18.13890085048628
 20
63.18754166867332
 30
0.0
 10
18.05467227931722
 20
63.50146602933483
 30
0.0
 10
17.97793069225207
 20
63.82286381072325
 30
0.0
 10
17.88890068562506
 20
64.13198673592682
 30
0.0
 10
17.95308258558835
 20
64.19908476194507
 30
0.0
 10
17.96135624555826
 20
64.28984409913956
 30
0.0
 10
17.9305673797686
 20
64.35420910469234
 30
0.0
 10
18.75128732202947
 20
64.60294109380408
 30
0.0
 10
19.71012313227981
 20
64.71353008817235
 30
0.0
 10
20.63890249909848
 20
64.85420943441478
 30
0.0
 10
20.63861766818149
 20
64.75670231716286
 30
0.0
 10
20.7006023010708
 20
64.72146466371726
 30
0.0
 10
20.76390258152909
 20
64.68754265784064
 30
0.0
 10
20.84018301377624
 20
64.37030883319116
 30
0.0
 10
20.90962750401547
 20
64.04623228484527
 30
0.0
 10
20.97223605224677
 20
63.71531979449145
 30
0.0
 10
21.11564163726618
 20
63.75246988409403
 30
0.0
 10
21.26784307226999
 20
63.78082412371222
 30
0.0
 10
21.41668078977784
 20
63.81254208082637
 30
0.0
 10
21.35537432573852
 20
64.14475665537218
 30
0.0
 10
21.28597730731879
 20
64.46887389384906
 30
0.0
 10
21.20834731906015
 20
64.78476494417555
 30
0.0
 10
21.28175231538333
 20
64.82640451156509
 30
0.0
 10
21.3030807257156
 20
64.93111378200393
 30
0.0
 10
21.26390291125153
 20
64.97920951684539
 30
0.0
 10
22.10561217941967
 20
65.2486053108164
 30
0.0
 10
22.93513475335345
 20
65.53020814408727
 30
0.0
 10
23.86112684619865
 20
65.71532111338121
 30
0.0
 10
23.88760255810235
 20
65.6714435887867
 30
0.0
 10
23.8924514653798
 20
65.5624008193964
 30
0.0
 10
24.00001582667711
 20
65.5625432348549
 30
0.0
 10
24.06775133141435
 20
65.23676448269553
 30
0.0
 10
24.13368290701062
 20
64.90916823801817
 30
0.0
 10
24.20834929739479
 20
64.59032037150571
 30
0.0
 10
24.36827507560001
 20
64.60631837467704
 30
0.0
 10
24.49689657968958
 20
64.65362065196402
 30
0.0
 10
24.65279403492585
 20
64.67365375979278
 30
0.0
 10
24.58240010829663
 20
64.99214219681475
 30
0.0
 10
24.52334516483928
 20
65.32198318038559
 30
0.0
 10
24.44446056420816
 20
65.63198772509413
 30
0.0
 10
24.49613703057759
 20
65.70082864505687
 30
0.0
 10
24.54305275162007
 20
65.78037106947248
 30
0.0
 10
24.50001615639955
 20
65.84032119581181
 30
0.0
 10
25.35502431571604
 20
66.0130982737244
 30
0.0
 10
26.26781246105189
 20
66.12808180224062
 30
0.0
 10
27.05557339720313
 20
66.36809932162994
 30
0.0
 10
27.09112300831973
 20
66.30241188681968
 30
0.0
 10
27.13270832220127
 20
66.21425671800915
 30
0.0
 10
27.20835127572943
 20
66.22921034115149
 30
0.0
 10
27.29583505737845
 20
65.90929096785605
 30
0.0
 10
27.39444080816736
 20
65.60048000032349
 30
0.0
 10
27.47224033863849
 20
65.27087637585015
 30
0.0
 10
27.63885286170464
 20
65.28945142065145
 30
0.0
 10
27.76078762093328
 20
65.35270422929024
 30
0.0
 10
27.91668507616955
 20
65.38198756023291
 30
0.0
 10
27.83402985673247
 20
65.70211038418336
 30
0.0
 10
27.74338580824248
 20
66.01424437908088
 30
0.0
 10
27.65279601326048
 20
66.32643262748641
 30
0.0
 10
27.70795826751887
 20
66.40256386258656
 30
0.0
 10
27.72674354466366
 20
66.48280480091768
 30
0.0
 10
27.69446270740402
 20
66.54865499625194
 30
0.0
 10
28.49597690783311
 20
66.77029413980648
 30
0.0
 10
29.25247425999969
 20
67.03694334993502
 30
0.0
 10
29.944464191155
 20
67.36809998107482
 30
0.0
 10
29.97603973281065
 20
67.3249480971498
 30
0.0
 10
30.00075220570437
 20
67.20744856220011
 30
0.0
 10
30.12501986577699
 20
67.25698879669206
 30
0.0
 10
30.27317263274634
 20
66.95607849626191
 30
0.0
 10
30.46297853048223
 20
66.69679419984429
 30
0.0
 10
30.61113129745159
 20
66.39587711772563
 30
0.0
 10
30.7623629509999
 20
66.452978934895
 30
0.0
 10
30.87466771255865
 20
66.54900086236543
 30
0.0
 10
31.01390934083911
 20
66.61809948649116
 30
0.0
 10
30.84297010051001
 20
66.90550066342946
 30
0.0
 10
30.68429215298877
 20
67.20514956979864
 30
0.0
 10
30.50002011306882
 20
67.47921116545758
 30
0.0
 10
30.57818585471895
 20
67.53745908798345
 30
0.0
 10
30.55302579038423
 20
67.63619369085384
 30
0.0
 10
30.48613121502098
 20
67.68754463617528
 30
0.0
 10
30.59339040033578
 20
67.72381310627287
 30
0.0
 10
30.65827759590306
 20
67.802440002741
 30
0.0
 10
30.7361313798822
 20
67.86810031079726
 30
0.0
 10
30.81148950249336
 20
67.79875076419704
 30
0.0
 10
30.88964168076649
 20
67.88978815062002
 30
0.0
 10
30.93057595255203
 20
67.88198920884511
 30
0.0
 10
33.57147396143866
 20
66.66165827172618
 30
0.0
 10
36.19323404537851
 20
65.42258274759347
 30
0.0
 10
38.8194700437283
 20
64.1875423281182
 30
0.0
 10
38.91118559900129
 20
64.29953513200596
 30
0.0
 10
38.95019387125285
 20
64.46422843722662
 30
0.0
 10
39.02780351444598
 20
64.59032037150571
 30
0.0
 10
36.41487318893304
 20
65.82928060693393
 30
0.0
 10
33.78170630493633
 20
67.04786865010838
 30
0.0
 10
31.16668721936541
 20
68.28476725223263
 30
0.0
 10
31.3918121508089
 20
68.55964265051158
 30
0.0
 10
31.58271668208178
 20
68.86873844896114
 30
0.0
 10
31.76390983542277
 20
69.1875456253426
 30
0.0
 10
31.84329628100288
 20
69.08851940986669
 30
0.0
 10
31.91038074364414
 20
69.19109923011655
 30
0.0
 10
31.98613220418829
 20
69.1875456253426
 30
0.0
 10
32.27071898039913
 20
69.04621523700416
 30
0.0
 10
32.56716014810783
 20
68.9167188950981
 30
0.0
 10
32.86113278120256
 20
68.78476758195507
 30
0.0
 10
32.94034290288168
 20
68.90463392619124
 30
0.0
 10
32.99033751050312
 20
69.05371578448508
 30
0.0
 10
33.0555773538724
 20
69.1875456253426
 30
0.0
 10
32.7673827193796
 20
69.33455228695546
 30
0.0
 10
32.45488251330308
 20
69.4572126868536
 30
0.0
 10
32.16668787881029
 20
69.60421256677796
 30
0.0
 10
32.12507543817475
 20
69.65982241247734
 30
0.0
 10
32.13006676091069
 20
69.7620292398597
 30
0.0
 10
32.02779889833183
 20
69.75699044530425
 30
0.0
 10
32.28382120258099
 20
70.42226052376986
 30
0.0
 10
32.42509733741142
 20
71.20228355334268
 30
0.0
 10
32.51391033000642
 20
72.03476972515094
 30
0.0
 10
32.55430206671198
 20
72.04895701749277
 30
0.0
 10
32.67113699618868
 20
72.03334557056594
 30
0.0
 10
32.70835490267626
 20
72.11810311343801
 30
0.0
 10
33.0381484144276
 20
72.07752148945445
 30
0.0
 10
33.37230933357288
 20
72.04132083624185
 30
0.0
 10
33.6944666640733
 20
71.9931030310074
 30
0.0
 10
33.70765026651715
 20
72.14657942344918
 30
0.0
 10
33.72628634651495
 20
72.29462368340253
 30
0.0
 10
33.75002225626468
 20
72.43754776853845
 30
0.0
 10
33.44612123120606
 20
72.50865377246016
 30
0.0
 10
33.08136133354912
 20
72.51888734040655
 30
0.0
 10
32.76391049486764
 20
72.5764367490169
 30
0.0
 10
32.73051746069402
 20
72.64062543066869
 30
0.0
 10
32.6692923769167
 20
72.70206752847801
 30
0.0
 10
32.5972437182935
 20
72.68754793339967
 30
0.0
 10
32.70142401702934
 20
73.54633349321062
 30
0.0
 10
32.76429026942364
 20
74.44642631767461
 30
0.0
 10
32.93057727144179
 20
75.24310517420325
 30
0.0
 10
32.99058165128913
 20
75.28032308069083
 30
0.0
 10
33.07304698344821
 20
75.29508003486667
 30
0.0
 10
33.06946625192025
 20
75.39588305272956
 30
0.0
 10
33.39921907354058
 20
75.52080175489816
 30
0.0
 10
33.78382219174831
 20
75.3470006420221
 30
0.0
 10
34.12502250355651
 20
75.31254966444249
 30
0.0
 10
34.16738092992704
 20
75.43685801464609
 30
0.0
 10
34.17621068835394
 20
75.59469503279334
 30
0.0
 10
34.20835589184358
 20
75.72921660587785
 30
0.0
 10
36.15725040619791
 20
76.28033052182421
 30
0.0
 10
38.08976036113642
 20
76.84778152536691
 30
0.0
 10
40.02780417389086
 20
77.40977326966716
 30
0.0
 10
39.98304502979136
 20
77.5502016934351
 30
0.0
 10
39.94498619392979
 20
77.69731686206396
 30
0.0
 10
39.90280409146025
 20
77.84032910915037
 30
0.0
 10
37.67099109626608
 20
77.21098841635737
 30
0.0
 10
35.47267964226153
 20
76.54828181614474
 30
0.0
 10
33.23613302849439
 20
75.92366117854769
 30
0.0
 10
33.21280402005466
 20
75.99585225262938
 30
0.0
 10
33.14658761354139
 20
76.07354327608452
 30
0.0
 10
33.06946625192025
 20
76.04866126097829
 30
0.0
 10
33.21090514727467
 20
76.83314664158407
 30
0.0
 10
33.23904915454936
 20
77.73093369195809
 30
0.0
 10
33.29168862068578
 20
78.60421850178187
 30
0.0
 10
33.33987929916624
 20
78.6199655824787
 30
0.0
 10
33.43280199499221
 20
78.61433678102377
 30
0.0
 10
33.47224429530777
 20
78.7014407881168
 30
0.0
 10
33.80050514545812
 20
78.68248596875951
 30
0.0
 10
34.11840357558059
 20
78.65315516599733
 30
0.0
 10
34.4583560567048
 20
78.64588519592542
 30
0.0
 10
34.48065424849256
 20
78.7809899942209
 30
0.0
 10
34.48594396552249
 20
78.93311683065122
 30
0.0
 10
34.48613385280049
 20
79.09032993345647
 30
0.0
 10
34.20992924357557
 20
79.17292411769705
 30
0.0
 10
33.77765085521337
 20
79.06702805177073
 30
0.0
 10
33.52779988749915
 20
79.1597744236957
 30
0.0
 10
33.44381545711609
 20
79.19094984572985
 30
0.0
 10
33.42121887103433
 20
79.29888041820615
 30
0.0
 10
33.33335531482931
 20
79.25699671003062
 30
0.0
 10
33.42345682823931
 20
79.90346116628592
 30
0.0
 10
33.75822809934959
 20
80.36694888512477
 30
0.0
 10
34.40280046451342
 20
80.42366414604965
 30
0.0
 10
35.12334130425341
 20
80.48707293352393
 30
0.0
 10
35.62262277499485
 20
79.99103989157395
 30
0.0
 10
35.68057908491521
 20
79.32644120026984
 30
0.0
 10
35.7358362828126
 20
78.69286873385289
 30
0.0
 10
35.56689085890248
 20
77.93547619880431
 30
0.0
 10
35.58335679858029
 20
77.2708842891887
 30
0.0
  0
SPLINE
  5
44
330
1F
100
AcDbEntity
  8
Layer 1
 62
   217
420
  9447054
370
    35
100
AcDbSpline
210
0.0
220
0.0
230
1.0
 70
    11
 71
     3
 72
   275
 73
   271
 74
     0
 42
0.0000000001
 43
0.0000000001
 40
0.0
 40
0.0
 40
0.0
 40
0.0
 40
1.0
 40
1.0
 40
1.0
 40
2.0
 40
2.0
 40
2.0
 40
3.0
 40
3.0
 40
3.0
 40
4.0
 40
4.0
 40
4.0
 40
5.0
 40
5.0
 40
5.0
 40
6.0
 40
6.0
 40
6.0
 40
7.0
 40
7.0
 40
7.0
 40
8.0
 40
8.0
 40
8.0
 40
9.0
 40
9.0
 40
9.0
 40
10.0
 40
10.0
 40
10.0
 40
11.0
 40
11.0
 40
11.0
 40
12.0
 40
12.0
 40
12.0
 40
13.0
 40
13.0
 40
13.0
 40
14.0
 40
14.0
 40
14.0
 40
15.0
 40
15.0
 40
15.0
 40
16.0
 40
16.0
 40
16.0
 40
17.0
 40
17.0
 40
17.0
 40
18.0
 40
18.0
 40
18.0
 40
19.0
 40
19.0
 40
19.0
 40
20.0
 40
20.0
 40
20.0
 40
21.0
 40
21.0
 40
21.0
 40
22.0
 40
22.0
 40
22.0
 40
23.0
 40
23.0
 40
23.0
 40
24.0
 40
24.0
 40
24.0
 40
25.0
 40
25.0
 40
25.0
 40
26.0
 40
26.0
 40
26.0
 40
27.0
 40
27.0
 40
27.0
 40
28.0
 40
28.0
 40
28.0
 40
29.0
 40
29.0
 40
29.0
 40
30.0
 40
30.0
 40
30.0
 40
31.0
 40
31.0
 40
31.0
 40
32.0
 40
32.0
 40
32.0
 40
33.0
 40
33.0
 40
33.0
 40
34.0
 40
34.0
 40
34.0
 40
35.0
 40
35.0
 40
35.0
 40
36.0
 40
36.0
 40
36.0
 40
37.0
 40
37.0
 40
37.0
 40
38.0
 40
38.0
 40
38.0
 40
39.0
 40
39.0
 40
39.0
 40
40.0
 40
40.0
 40
40.0
 40
41.0
 40
41.0
 40
41.0
 40
42.0
 40
42.0
 40
42.0
 40
43.0
 40
43.0
 40
43.0
 40
44.0
 40
44.0
 40
44.0
 40
45.0
 40
45.0
 40
45.0
 40
46.0
 40
46.0
 40
46.0
 40
47.0
 40
47.0
 40
47.0
 40
48.0
 40
48.0
 40
48.0
 40
49.0
 40
49.0
 40
49.0
 40
50.0
 40
50.0
 40
50.0
 40
51.0
 40
51.0
 40
51.0
 40
52.0
 40
52.0
 40
52.0
 40
53.0
 40
53.0
 40
53.0
 40
54.0
 40
54.0
 40
54.0
 40
55.0
 40
55.0
 40
55.0
 40
56.0
 40
56.0
 40
56.0
 40
57.0
 40
57.0
 40
57.0
 40
58.0
 40
58.0
 40
58.0
 40
59.0
 40
59.0
 40
59.0
 40
60.0
 40
60.0
 40
60.0
 40
61.0
 40
61.0
 40
61.0
 40
62.0
 40
62.0
 40
62.0
 40
63.0
 40
63.0
 40
63.0
 40
64.0
 40
64.0
 40
64.0
 40
65.0
 40
65.0
 40
65.0
 40
66.0
 40
66.0
 40
66.0
 40
67.0
 40
67.0
 40
67.0
 40
68.0
 40
68.0
 40
68.0
 40
69.0
 40
69.0
 40
69.0
 40
70.0
 40
70.0
 40
70.0
 40
71.0
 40
71.0
 40
71.0
 40
72.0
 40
72.0
 40
72.0
 40
73.0
 40
73.0
 40
73.0
 40
74.0
 40
74.0
 40
74.0
 40
75.0
 40
75.0
 40
75.0
 40
76.0
 40
76.0
 40
76.0
 40
77.0
 40
77.0
 40
77.0
 40
78.0
 40
78.0
 40
78.0
 40
79.0
 40
79.0
 40
79.0
 40
80.0
 40
80.0
 40
80.0
 40
81.0
 40
81.0
 40
81.0
 40
82.0
 40
82.0
 40
82.0
 40
83.0
 40
83.0
 40
83.0
 40
84.0
 40
84.0
 40
84.0
 40
85.0
 40
85.0
 40
85.0
 40
86.0
 40
86.0
 40
86.0
 40
87.0
 40
87.0
 40
87.0
 40
88.0
 40
88.0
 40
88.0
 40
89.0
 40
89.0
 40
89.0
 40
90.0
 40
90.0
 40
90.0
 40
90.0
 10
13.4791755554341
 20
57.72226028684609
 30
0.0
 10
18.22222067539636
 20
55.5995917863697
 30
0.0
 10
22.98063310149944
 20
53.49212783151014
 30
0.0
 10
27.71529605447579
 20
51.36114498093283
 30
0.0
 10
28.60204251597193
 20
52.23574543832561
 30
0.0
 10
29.82294989661335
 20
52.75206929226736
 30
0.0
 10
31.15974277034148
 20
53.19447952324845
 30
0.0
 10
31.81360604875021
 20
53.41088320328104
 30
0.0
 10
32.49462320791264
 20
53.63251556514707
 30
0.0
 10
33.20141078337478
 20
53.79170213930581
 30
0.0
 10
34.64231613895376
 20
54.1162330607812
 30
0.0
 10
36.1851638360636
 20
54.31781875144145
 30
0.0
 10
37.53474697430259
 20
54.7361472065593
 30
0.0
 10
38.20026119355419
 20
54.94243260735001
 30
0.0
 10
38.85294445816393
 20
55.15272598604417
 30
0.0
 10
39.64585947757512
 20
55.26392533237743
 30
0.0
 10
40.42510261297045
 20
55.37320546086521
 30
0.0
 10
41.15220812717836
 20
55.48540171540797
 30
0.0
 10
41.8680831652304
 20
55.6805922738128
 30
0.0
 10
42.58390394977445
 20
55.87576926884063
 30
0.0
 10
43.29219706008357
 20
56.06242846311255
 30
0.0
 10
44.07641795483784
 20
56.11114811329601
 30
0.0
 10
44.3140754466292
 20
56.12591863084884
 30
0.0
 10
44.62483954044975
 20
56.10761485358755
 30
0.0
 10
44.86808514356504
 20
56.12503701134386
 30
0.0
 10
45.22982040815102
 20
56.15094306141357
 30
0.0
 10
45.56906759367124
 20
56.28010710058313
 30
0.0
 10
45.96530808934484
 20
56.25003709377447
 30
0.0
 10
46.59443176810584
 20
56.20229400673499
 30
0.0
 10
47.05261620653775
 20
55.73903686530515
 30
0.0
 10
47.06253103512464
 20
55.09725855580329
 30
0.0
 10
47.07207965253253
 20
54.47951455034516
 30
0.0
 10
46.68625583039482
 20
54.17152416712108
 30
0.0
 10
46.24308605030175
 20
53.9722578139278
 30
0.0
 10
46.21891611248802
 20
54.03605993933509
 30
0.0
 10
46.18579434585438
 20
54.09088310916848
 30
0.0
 10
46.10419706982329
 20
54.09725789635841
 30
0.0
 10
46.07317762662464
 20
54.44123870045158
 30
0.0
 10
45.99727696893348
 20
54.74033829005226
 30
0.0
 10
45.96530808934484
 20
55.08336965775544
 30
0.0
 10
45.79671531323671
 20
55.08067054573247
 30
0.0
 10
45.67556722987406
 20
55.03051317758703
 30
0.0
 10
45.50697445376593
 20
55.02781406556406
 30
0.0
 10
45.5548803013294
 20
54.7007196658357
 30
0.0
 10
45.60433237387085
 20
54.37517149108532
 30
0.0
 10
45.65975233229224
 20
54.05559120221487
 30
0.0
 10
45.61328420269075
 20
53.98598395145164
 30
0.0
 10
45.56053622953834
 20
53.92249378371535
 30
0.0
 10
45.59030784205301
 20
53.84725773149719
 30
0.0
 10
44.78765431795593
 20
53.69159085366991
 30
0.0
 10
43.71967401298781
 20
53.8012236299597
 30
0.0
 10
43.02086170320158
 20
53.54170197444459
 30
0.0
 10
43.04763580939928
 20
53.66105969204326
 30
0.0
 10
42.96731349080618
 20
53.67334811160512
 30
0.0
 10
42.89586162077097
 20
53.69447985297089
 30
0.0
 10
42.81887589291983
 20
54.02027895019576
 30
0.0
 10
42.73570526515675
 20
54.33987958413171
 30
0.0
 10
42.64586145590975
 20
54.65281381827223
 30
0.0
 10
42.48603062134353
 20
54.63671408977341
 30
0.0
 10
42.37421414135677
 20
54.57260000669512
 30
0.0
 10
42.21530561642654
 20
54.55559153193731
 30
0.0
 10
42.28407193781577
 20
54.21694791669358
 30
0.0
 10
42.37424126811077
 20
53.8997073103556
 30
0.0
 10
42.46530578128776
 20
53.58336866858812
 30
0.0
 10
42.37673692947875
 20
53.52722985118574
 30
0.0
 10
42.39466771387254
 20
53.44926756019061
 30
0.0
 10
42.40975018909638
 20
53.37503519787044
 30
0.0
 10
41.5894507115225
 20
53.13515331225111
 30
0.0
 10
40.65832488048286
 20
53.00609778009754
 30
0.0
 10
39.71530396781434
 20
52.88892376619584
 30
0.0
 10
39.70450751972246
 20
52.93600224776232
 30
0.0
 10
39.65535384147501
 20
53.04886988946657
 30
0.0
 10
39.57641498733589
 20
53.0278127466743
 30
0.0
 10
39.51464736847857
 20
53.36419805964756
 30
0.0
 10
39.43942487963741
 20
53.68711493925997
 30
0.0
 10
39.3680815166182
 20
54.01392450807133
 30
0.0
 10
39.22360442481581
 20
53.97783914356324
 30
0.0
 10
39.07090792655151
 20
53.94998674889404
 30
0.0
 10
38.92363677908715
 20
53.91670222173641
 30
0.0
 10
38.99527853640035
 20
53.59945483370994
 30
0.0
 10
39.05894502803764
 20
53.27423218000756
 30
0.0
 10
39.13197024980483
 20
52.95836825643507
 30
0.0
 10
39.08185357179039
 20
52.90023562261372
 30
0.0
 10
39.04804007292977
 20
52.81314517889768
 30
0.0
 10
39.07641465761345
 20
52.75003478571739
 30
0.0
 10
38.23681449456878
 20
52.47852988662291
 30
0.0
 10
37.40354842858305
 20
52.20067054540399
 30
0.0
 10
36.47919072266633
 20
52.01392318918158
 30
0.0
 10
36.47924497617433
 20
52.11582484058144
 30
0.0
 10
36.41381524552705
 20
52.15225607120303
 30
0.0
 10
36.34030174218788
 20
52.18058996575572
 30
0.0
 10
36.28699767057847
 20
52.51617503948599
 30
0.0
 10
36.19979871984643
 20
52.81786523409363
 30
0.0
 10
36.14585716951804
 20
53.15281282910491
 30
0.0
 10
36.00369941518262
 20
53.11441490881833
 30
0.0
 10
35.84849369217334
 20
53.08905817551712
 30
0.0
 10
35.70141243198698
 20
53.05559054276999
 30
0.0
 10
35.7534686729124
 20
52.71875763835573
 30
0.0
 10
35.84091176443043
 20
52.41731158453409
 30
0.0
 10
35.89585700465682
 20
52.0833676794208
 30
0.0
 10
35.92922291207645
 20
52.04305732297725
 30
0.0
 10
35.83248890731352
 20
52.04388468897424
 30
0.0
 10
35.82641251441759
 20
52.00003429113373
 30
0.0
 10
35.79976047861288
 20
51.9398807141394
 30
0.0
 10
35.87780414987002
 20
51.91401535420069
 30
0.0
 10
35.84030141246544
 20
51.88892310675097
 30
0.0
 10
34.98309598607496
 20
51.71834329591236
 30
0.0
 10
34.07239660079709
 20
51.60127100733816
 30
0.0
 10
33.28474417166186
 20
51.36114498093283
 30
0.0
 10
33.25719695297516
 20
51.41641574220722
 30
0.0
 10
33.24206022424333
 20
51.50724967797521
 30
0.0
 10
33.13196629313556
 20
51.51392285945914
 30
0.0
 10
33.04887704563448
 20
51.83823676690253
 30
0.0
 10
32.95077313979457
 20
52.14754957938409
 30
0.0
 10
32.86807723022649
 20
52.47225682476048
 30
0.0
 10
32.7230033498361
 20
52.42751124403797
 30
0.0
 10
32.57600346991173
 20
52.38469166284945
 30
0.0
 10
32.42363249269543
 20
52.34725674232987
 30
0.0
 10
32.5247610316063
 20
52.04098212629627
 30
0.0
 10
32.59458529640153
 20
51.70338967277003
 30
0.0
 10
32.70141045365234
 20
51.40281167507637
 30
0.0
 10
32.63655038483906
 20
51.34006749307507
 30
0.0
 10
32.6244789793092
 20
51.24091920720617
 30
0.0
 10
32.65974375950881
 20
51.18058930631084
 30
0.0
 10
31.85213960280679
 20
50.96505368240624
 30
0.0
 10
31.09645605326019
 20
50.69758388796922
 30
0.0
 10
30.40974227575783
 20
50.36114432148796
 30
0.0
 10
30.36940479256027
 20
50.44093766837807
 30
0.0
 10
30.31593796042687
 20
50.50149814668239
 30
0.0
 10
30.21529770308799
 20
50.48614440391857
 30
0.0
 10
30.06542238723965
 20
50.78071382560129
 30
0.0
 10
29.88762007814863
 20
51.04735625404133
 30
0.0
 10
29.72918627141339
 20
51.33336718483714
 30
0.0
 10
29.58651310875198
 20
51.27234555171482
 30
0.0
 10
29.4673724051853
 20
51.18777789612076
 30
0.0
 10
29.34029712607372
 20
51.11114481607162
 30
0.0
 10
29.49944979178995
 20
50.82122763269984
 30
0.0
 10
29.66178985110114
 20
50.53449784292302
 30
0.0
 10
29.84029745579616
 20
50.26392203515304
 30
0.0
 10
29.81043089964249
 20
50.20313097943971
 30
0.0
 10
29.75902570081306
 20
50.08461419121503
 30
0.0
 10
29.86807525189185
 20
50.0694774624832
 30
0.0
 10
29.79557900182765
 20
49.98919583402109
 30
0.0
 10
29.67565162239499
 20
49.95634533492746
 30
0.0
 10
29.61807508703063
 20
49.86114399176552
 30
0.0
 10
29.53630148709854
 20
49.92407806104482
 30
0.0
 10
29.45669802748642
 20
49.84592588277168
 30
0.0
 10
29.40974161631295
 20
49.84725509371767
 30
0.0
 10
26.77485218343725
 20
51.07358782515903
 30
0.0
 10
24.1531734797594
 20
52.31276507461925
 30
0.0
 10
21.52084752513668
 20
53.54170197444459
 30
0.0
 10
21.44318362843554
 20
53.42029618691893
 30
0.0
 10
21.38753987429366
 20
53.27686347514553
 30
0.0
 10
21.32640295246684
 20
53.13892393105706
 30
0.0
 10
23.93505403253633
 20
51.90486007472579
 30
0.0
 10
26.55182957542873
 20
50.67935470928141
 30
0.0
 10
29.17363034949957
 20
49.458365948378
 30
0.0
 10
28.99833726515352
 20
49.18901084453799
 30
0.0
 10
28.74706214285431
 20
48.87581212454597
 30
0.0
 10
28.59029663149006
 20
48.54169867722019
 30
0.0
 10
28.51313457973792
 20
48.6124452516514
 30
0.0
 10
28.45361848146258
 20
48.58775312382318
 30
0.0
 10
28.36807426272453
 20
48.54169867722019
 30
0.0
 10
28.07749247387976
 20
48.68167272785863
 30
0.0
 10
27.78410306599602
 20
48.81883915945811
 30
0.0
 10
27.47918478766242
 20
48.94447672060771
 30
0.0
 10
27.41353804298315
 20
48.81567889261714
 30
0.0
 10
27.34831176299087
 20
48.68646059993958
 30
0.0
 10
27.29862911304042
 20
48.54169867722019
 30
0.0
 10
27.58514188878524
 20
48.39303050192484
 30
0.0
 10
27.89891705229975
 20
48.27162471439919
 30
0.0
 10
28.18751858810254
 20
48.12503173578482
 30
0.0
 10
28.22289187531814
 20
48.09263560982068
 30
0.0
 10
28.18910550321152
 20
47.95289891827974
 30
0.0
 10
28.32640756858099
 20
47.98614275530637
 30
0.0
 10
28.05758143644398
 20
47.32441271823772
 30
0.0
 10
27.93174042463938
 20
46.51969756083668
 30
0.0
 10
27.82640723885855
 20
45.69447457741185
 30
0.0
 10
27.78533733330301
 20
45.6900800432639
 30
0.0
 10
27.67547397960423
 20
45.68370525607397
 30
0.0
 10
27.63196266618872
 20
45.61114118912478
 30
0.0
 10
27.31360308124826
 20
45.65851806498525
 30
0.0
 10
26.976837993719
 20
45.68750300163393
 30
0.0
 10
26.65973980283953
 20
45.73614127155539
 30
0.0
 10
26.63600389308979
 20
45.59321040473097
 30
0.0
 10
26.617367813092
 20
45.44517970815463
 30
0.0
 10
26.60418421064815
 20
45.29169653402433
 30
0.0
 10
26.90732568659477
 20
45.22908798579302
 30
0.0
 10
27.24509446402202
 20
45.20112030241933
 30
0.0
 10
27.57640707399733
 20
45.16669645159372
 30
0.0
 10
27.60894561541997
 20
45.08835438604259
 30
0.0
 10
27.67422614892025
 20
45.03206637149322
 30
0.0
 10
27.75696274861933
 20
45.04169636916311
 30
0.0
 10
27.6421623256926
 20
44.19352415185454
 30
0.0
 10
27.5790248057583
 20
43.29371615830755
 30
0.0
 10
27.42362919547103
 20
42.48613912835953
 30
0.0
 10
27.37108467297362
 20
42.45587923427286
 30
0.0
 10
27.27264168270871
 20
42.44833799666095
 30
0.0
 10
27.27085131694473
 20
42.33336124983322
 30
0.0
 10
26.94709350795833
 20
42.21069406824659
 30
0.0
 10
26.56896012057954
 20
42.38487495567865
 30
0.0
 10
26.22918396335632
 20
42.4166946381203
 30
0.0
 10
26.17577138473091
 20
42.30807911510551
 30
0.0
 10
26.17164811812296
 20
42.15016071669626
 30
0.0
 10
26.14585057506924
 20
42.01391659473278
 30
0.0
 10
24.20954287457078
 20
41.45019551986505
 30
0.0
 10
22.27651751130627
 20
40.88327348802535
 30
0.0
 10
20.32640229302196
 20
40.33335993094347
 30
0.0
 10
20.34864623130171
 20
40.17040951966728
 30
0.0
 10
20.41526953912497
 20
40.0518656046886
 30
0.0
 10
20.43751347740472
 20
39.88891519341241
 30
0.0
 10
22.44006471117045
 20
40.47497515019889
 30
0.0
 10
24.60060216023043
 20
41.07320145615424
 30
0.0
 10
26.67362870088737
 20
41.68058304158448
 30
0.0
 10
26.79757083991199
 20
41.71690576519008
 30
0.0
 10
27.00915952110964
 20
41.81960765583294
 30
0.0
 10
27.07640674427489
 20
41.80558312401509
 30
0.0
 10
27.16025554088796
 20
41.78809993106229
 30
0.0
 10
27.16722711666588
 20
41.63627148892598
 30
0.0
 10
27.28474021499258
 20
41.68058304158448
 30
0.0
 10
27.13341361780526
 20
40.9059785811231
 30
0.0
 10
27.10392683620759
 20
40.00954786844907
 30
0.0
 10
27.06251784622705
 20
39.1250258007809
 30
0.0
 10
27.01027171802363
 20
39.11315784590604
 30
0.0
 10
26.90963146068475
 20
39.11509740881701
 30
0.0
 10
26.86807327355721
 20
39.02780351444598
 30
0.0
 10
26.54922540704476
 20
39.06080321068662
 30
0.0
 10
26.19859854822166
 20
39.06203747799361
 30
0.0
 10
25.88196151216018
 20
39.09724800468521
 30
0.0
 10
25.87249427501428
 20
38.94931225174786
 30
0.0
 10
25.86511579792636
 20
38.79927417537553
 30
0.0
 10
25.85418371606449
 20
38.65280326715416
 30
0.0
 10
26.14330066019327
 20
38.59005908515286
 30
0.0
 10
26.5182466539771
 20
38.6131710795606
 30
0.0
 10
26.82640657941367
 20
38.56946987886708
 30
0.0
 10
26.88999169078897
 20
38.58213807298495
 30
0.0
 10
26.86606589376123
 20
38.50728179532278
 30
0.0
 10
26.8958510696529
 20
38.48613649058001
 30
0.0
 10
26.93281127197749
 20
38.45390990682837
 30
0.0
 10
27.00254059313372
 20
38.4957936150039
 30
0.0
 10
27.02085115208351
 20
38.47224759253216
 30
0.0
 10
26.96157919459417
 20
38.12605595798802
 30
0.0
 10
26.86670337248023
 20
37.84035698486319
 30
0.0
 10
26.64585090479168
 20
37.62502481161359
 30
0.0
 10
26.21895717709843
 20
37.20880546161921
 30
0.0
 10
25.41005093620442
 20
37.2193306421711
 30
0.0
 10
24.99307203709806
 20
37.65280260770928
 30
0.0
 10
24.43097856747031
 20
38.23712645223978
 30
0.0
 10
24.77540696300448
 20
39.45070960930128
 30
0.0
 10
24.75696077028469
 20
40.45836001337408
 30
0.0
 10
20.99757244048249
 20
39.49083007846684
 30
0.0
 10
17.1930045018938
 20
38.44836248563543
 30
0.0
 10
13.39584216714703
 20
37.47224693308728
 30
0.0
 10
13.39584216714703
 20
37.8842887629657
 30
0.0
 10
13.39584216714703
 20
38.29631702946712
 30
0.0
 10
13.39584216714703
 20
38.70835885934554
 30
0.0
 10
17.26992241285995
 20
39.91776449629109
 30
0.0
 10
21.12386782541659
 20
41.14670139611643
 30
0.0
 10
24.99307203709806
 20
42.36113904592892
 30
0.0
 10
25.25601166361714
 20
43.64264759500567
 30
0.0
 10
25.36472213027093
 20
45.07275650249277
 30
0.0
 10
25.53473906096404
 20
46.41669727589982
 30
0.0
 10
25.70569186467014
 20
47.76804365314879
 30
0.0
 10
26.08307926631394
 20
48.96637479277396
 30
0.0
 10
26.63196200674384
 20
49.9166995839569
 30
0.0
 10
22.25453127718952
 20
52.08548356623278
 30
0.0
 10
17.86407970571534
 20
54.2416536078988
 30
0.0
 10
13.4791755554341
 20
56.40281497230077
 30
0.0
 10
13.4791755554341
 20
56.84262781658638
 30
0.0
 10
13.4791755554341
 20
57.28244744256048
 30
0.0
 10
13.4791755554341
 20
57.72226028684609
 30
0.0
  0
SPLINE
  5
45
330
1F
100
AcDbEntity
  8
Layer 1
 62
   217
420
  9447054
370
    35
100
AcDbSpline
210
0.0
220
0.0
230
1.0
 70
    11
 71
     3
 72
    74
 73
    70
 74
     0
 42
0.0000000001
 43
0.0000000001
 40
0.0
 40
0.0
 40
0.0
 40
0.0
 40
1.0
 40
1.0
 40
1.0
 40
2.0
 40
2.0
 40
2.0
 40
3.0
 40
3.0
 40
3.0
 40
4.0
 40
4.0
 40
4.0
 40
5.0
 40
5.0
 40
5.0
 40
6.0
 40
6.0
 40
6.0
 40
7.0
 40
7.0
 40
7.0
 40
8.0
 40
8.0
 40
8.0
 40
9.0
 40
9.0
 40
9.0
 40
10.0
 40
10.0
 40
10.0
 40
11.0
 40
11.0
 40
11.0
 40
12.0
 40
12.0
 40
12.0
 40
13.0
 40
13.0
 40
13.0
 40
14.0
 40
14.0
 40
14.0
 40
15.0
 40
15.0
 40
15.0
 40
16.0
 40
16.0
 40
16.0
 40
17.0
 40
17.0
 40
17.0
 40
18.0
 40
18.0
 40
18.0
 40
19.0
 40
19.0
 40
19.0
 40
20.0
 40
20.0
 40
20.0
 40
21.0
 40
21.0
 40
21.0
 40
22.0
 40
22.0
 40
22.0
 40
23.0
 40
23.0
 40
23.0
 40
23.0
 10
7.222226984879685
 20
44.75697395918228
 30
0.0
 10
12.90262352592451
 20
44.75697395918228
 30
0.0
 10
18.58358972880334
 20
44.75697395918228
 30
0.0
 10
24.26390488958617
 20
44.75697395918228
 30
0.0
 10
24.17598707987315
 20
43.54397402733176
 30
0.0
 10
23.82476343246205
 20
42.59423924304833
 30
0.0
 10
22.70834830822747
 20
42.40975018909638
 30
0.0
 10
22.70834830822747
 20
42.78937554794516
 30
0.0
 10
22.70834830822747
 20
43.16901447017094
 30
0.0
 10
22.70834830822747
 20
43.54863982901971
 30
0.0
 10
22.58326684553486
 20
43.58097491978735
 30
0.0
 10
22.39822169312592
 20
43.55333275746166
 30
0.0
 10
22.25001467264857
 20
43.56252872706756
 30
0.0
 10
22.25001467264857
 20
43.17363958172788
 30
0.0
 10
22.25001467264857
 20
42.78475043638821
 30
0.0
 10
22.25001467264857
 20
42.39586129104853
 30
0.0
 10
21.27778502761088
 20
42.39586129104853
 30
0.0
 10
20.30558250932719
 20
42.39586129104853
 30
0.0
 10
19.333346082601
 20
42.39586129104853
 30
0.0
 10
19.333346082601
 20
42.78012532483126
 30
0.0
 10
19.333346082601
 20
43.16438935861399
 30
0.0
 10
19.333346082601
 20
43.54863982901971
 30
0.0
 10
19.21288973146534
 20
43.58096135641036
 30
0.0
 10
19.03248325399035
 20
43.55333275746166
 30
0.0
 10
18.88890134506994
 20
43.56252872706756
 30
0.0
 10
18.85650521910581
 20
43.20140381444657
 30
0.0
 10
18.884262670136
 20
42.78013888820826
 30
0.0
 10
18.8750124470221
 20
42.39586129104853
 30
0.0
 10
17.90278280198441
 20
42.39586129104853
 30
0.0
 10
16.93058028370072
 20
42.39586129104853
 30
0.0
 10
15.95834385697453
 20
42.39586129104853
 30
0.0
 10
15.95834385697453
 20
42.78012532483126
 30
0.0
 10
15.95834385697453
 20
43.16438935861399
 30
0.0
 10
15.95834385697453
 20
43.54863982901971
 30
0.0
 10
15.83326239428192
 20
43.58097491978735
 30
0.0
 10
15.64821724187298
 20
43.55333275746166
 30
0.0
 10
15.50001022139563
 20
43.56252872706756
 30
0.0
 10
15.50001022139563
 20
43.17363958172788
 30
0.0
 10
15.50001022139563
 20
42.78475043638821
 30
0.0
 10
15.50001022139563
 20
42.39586129104853
 30
0.0
 10
14.52778057635794
 20
42.39586129104853
 30
0.0
 10
13.55557805807425
 20
42.39586129104853
 30
0.0
 10
12.58334163134807
 20
42.39586129104853
 30
0.0
 10
12.58334163134807
 20
42.78012532483126
 30
0.0
 10
12.58334163134807
 20
43.16438935861399
 30
0.0
 10
12.58334163134807
 20
43.54863982901971
 30
0.0
 10
12.45826016865546
 20
43.58097491978735
 30
0.0
 10
12.27321501624651
 20
43.55333275746166
 30
0.0
 10
12.12500799576916
 20
43.56252872706756
 30
0.0
 10
12.12500799576916
 20
43.17363958172788
 30
0.0
 10
12.12500799576916
 20
42.78475043638821
 30
0.0
 10
12.12500799576916
 20
42.39586129104853
 30
0.0
 10
11.15277835073147
 20
42.39586129104853
 30
0.0
 10
10.18057583244779
 20
42.39586129104853
 30
0.0
 10
9.208339405721597
 20
42.39586129104853
 30
0.0
 10
9.208339405721597
 20
42.78012532483126
 30
0.0
 10
9.208339405721597
 20
43.16438935861399
 30
0.0
 10
9.208339405721597
 20
43.54863982901971
 30
0.0
 10
9.083257943028988
 20
43.58097491978735
 30
0.0
 10
8.898212790620047
 20
43.55333275746166
 30
0.0
 10
8.750005770142694
 20
43.56252872706756
 30
0.0
 10
8.750005770142694
 20
43.17827825666183
 30
0.0
 10
8.750005770142694
 20
42.7940006595021
 30
0.0
 10
8.750005770142694
 20
42.40975018909638
 30
0.0
 10
7.654925837928872
 20
42.59710111559529
 30
0.0
 10
7.296432220445859
 20
43.52097053994002
 30
0.0
 10
7.208338086831839
 20
44.71530726503874
 30
0.0
 10
7.207144509655852
 20
44.73501485181952
 30
0.0
 10
7.206045876118864
 20
44.7546410583383
 30
0.0
 10
7.222226984879685
 20
44.75697395918228
 30
0.0
  0
SPLINE
  5
46
330
1F
100
AcDbEntity
  8
Layer 1
 62
   217
420
  9447054
370
    35
100
AcDbSpline
210
0.0
220
0.0
230
1.0
 70
    11
 71
     3
 72
    74
 73
    70
 74
     0
 42
0.0000000001
 43
0.0000000001
 40
0.0
 40
0.0
 40
0.0
 40
0.0
 40
1.0
 40
1.0
 40
1.0
 40
2.0
 40
2.0
 40
2.0
 40
3.0
 40
3.0
 40
3.0
 40
4.0
 40
4.0
 40
4.0
 40
5.0
 40
5.0
 40
5.0
 40
6.0
 40
6.0
 40
6.0
 40
7.0
 40
7.0
 40
7.0
 40
8.0
 40
8.0
 40
8.0
 40
9.0
 40
9.0
 40
9.0
 40
10.0
 40
10.0
 40
10.0
 40
11.0
 40
11.0
 40
11.0
 40
12.0
 40
12.0
 40
12.0
 40
13.0
 40
13.0
 40
13.0
 40
14.0
 40
14.0
 40
14.0
 40
15.0
 40
15.0
 40
15.0
 40
16.0
 40
16.0
 40
16.0
 40
17.0
 40
17.0
 40
17.0
 40
18.0
 40
18.0
 40
18.0
 40
19.0
 40
19.0
 40
19.0
 40
20.0
 40
20.0
 40
20.0
 40
21.0
 40
21.0
 40
21.0
 40
22.0
 40
22.0
 40
22.0
 40
23.0
 40
23.0
 40
23.0
 40
23.0
 10
12.60417497841983
 20
91.61811597261315
 30
0.0
 10
18.28457151946466
 20
91.61811597261315
 30
0.0
 10
23.96553772234349
 20
91.61811597261315
 30
0.0
 10
29.64585288312632
 20
91.61811597261315
 30
0.0
 10
29.55622608791132
 20
90.40683180795313
 30
0.0
 10
29.20504313063122
 20
89.45705633353869
 30
0.0
 10
28.09029630176762
 20
89.27089220252725
 30
0.0
 10
28.09029630176762
 20
89.65514945462148
 30
0.0
 10
28.09029630176762
 20
90.03941348840421
 30
0.0
 10
28.09029630176762
 20
90.42367074049844
 30
0.0
 10
27.96521483907501
 20
90.45599904957757
 30
0.0
 10
27.78016968666607
 20
90.42835688725188
 30
0.0
 10
27.63196266618872
 20
90.43755963854628
 30
0.0
 10
27.63196266618872
 20
90.04403859996116
 30
0.0
 10
27.63196266618872
 20
89.65052434306453
 30
0.0
 10
27.63196266618872
 20
89.25700330447941
 30
0.0
 10
26.65973980283953
 20
89.25700330447941
 30
0.0
 10
25.68753050286734
 20
89.25700330447941
 30
0.0
 10
24.71529407614115
 20
89.25700330447941
 30
0.0
 10
24.71529407614115
 20
89.64589244981909
 30
0.0
 10
24.71529407614115
 20
90.03478159515876
 30
0.0
 10
24.71529407614115
 20
90.42367074049844
 30
0.0
 10
24.59021261344854
 20
90.45599904957757
 30
0.0
 10
24.4051674610396
 20
90.42835688725188
 30
0.0
 10
24.25696044056225
 20
90.43755963854628
 30
0.0
 10
24.25696044056225
 20
90.04403859996116
 30
0.0
 10
24.25696044056225
 20
89.65052434306453
 30
0.0
 10
24.25696044056225
 20
89.25700330447941
 30
0.0
 10
23.28473757721306
 20
89.25700330447941
 30
0.0
 10
22.31252827724087
 20
89.25700330447941
 30
0.0
 10
21.34029185051469
 20
89.25700330447941
 30
0.0
 10
21.34029185051469
 20
89.64589244981909
 30
0.0
 10
21.34029185051469
 20
90.03478159515876
 30
0.0
 10
21.34029185051469
 20
90.42367074049844
 30
0.0
 10
21.21521038782208
 20
90.45599904957757
 30
0.0
 10
21.03016523541313
 20
90.42835688725188
 30
0.0
 10
20.88195821493578
 20
90.43755963854628
 30
0.0
 10
20.88195821493578
 20
90.04403859996116
 30
0.0
 10
20.88195821493578
 20
89.65052434306453
 30
0.0
 10
20.88195821493578
 20
89.25700330447941
 30
0.0
 10
19.90973535158659
 20
89.25700330447941
 30
0.0
 10
18.9375260516144
 20
89.25700330447941
 30
0.0
 10
17.96528962488821
 20
89.25700330447941
 30
0.0
 10
17.96528962488821
 20
89.64589244981909
 30
0.0
 10
17.96528962488821
 20
90.03478159515876
 30
0.0
 10
17.96528962488821
 20
90.42367074049844
 30
0.0
 10
17.84020816219561
 20
90.45599904957757
 30
0.0
 10
17.65516300978667
 20
90.42835688725188
 30
0.0
 10
17.50695598930931
 20
90.43755963854628
 30
0.0
 10
17.50695598930931
 20
90.04403859996116
 30
0.0
 10
17.50695598930931
 20
89.65052434306453
 30
0.0
 10
17.50695598930931
 20
89.25700330447941
 30
0.0
 10
16.53473312596012
 20
89.25700330447941
 30
0.0
 10
15.56252382598793
 20
89.25700330447941
 30
0.0
 10
14.59028739926175
 20
89.25700330447941
 30
0.0
 10
14.59028739926175
 20
89.64589244981909
 30
0.0
 10
14.59028739926175
 20
90.03478159515876
 30
0.0
 10
14.59028739926175
 20
90.42367074049844
 30
0.0
 10
14.46520593656914
 20
90.45599904957757
 30
0.0
 10
14.2801607841602
 20
90.42835688725188
 30
0.0
 10
14.13195376368284
 20
90.43755963854628
 30
0.0
 10
14.13195376368284
 20
90.0486704932066
 30
0.0
 10
14.13195376368284
 20
89.65978134786693
 30
0.0
 10
14.13195376368284
 20
89.27089220252725
 30
0.0
 10
13.04022398558799
 20
89.46158650145664
 30
0.0
 10
12.67644065107503
 20
90.38017977214842
 30
0.0
 10
12.59028608037199
 20
91.57644927846961
 30
0.0
 10
12.589092503196
 20
91.59615686525039
 30
0.0
 10
12.58799386965901
 20
91.61578985345768
 30
0.0
 10
12.60417497841983
 20
91.61811597261315
 30
0.0
  0
SPLINE
  5
47
330
1F
100
AcDbEntity
  8
Layer 1
 62
   217
420
  9447054
370
    35
100
AcDbSpline
210
0.0
220
0.0
230
1.0
 70
    11
 71
     3
 72
    74
 73
    70
 74
     0
 42
0.0000000001
 43
0.0000000001
 40
0.0
 40
0.0
 40
0.0
 40
0.0
 40
1.0
 40
1.0
 40
1.0
 40
2.0
 40
2.0
 40
2.0
 40
3.0
 40
3.0
 40
3.0
 40
4.0
 40
4.0
 40
4.0
 40
5.0
 40
5.0
 40
5.0
 40
6.0
 40
6.0
 40
6.0
 40
7.0
 40
7.0
 40
7.0
 40
8.0
 40
8.0
 40
8.0
 40
9.0
 40
9.0
 40
9.0
 40
10.0
 40
10.0
 40
10.0
 40
11.0
 40
11.0
 40
11.0
 40
12.0
 40
12.0
 40
12.0
 40
13.0
 40
13.0
 40
13.0
 40
14.0
 40
14.0
 40
14.0
 40
15.0
 40
15.0
 40
15.0
 40
16.0
 40
16.0
 40
16.0
 40
17.0
 40
17.0
 40
17.0
 40
18.0
 40
18.0
 40
18.0
 40
19.0
 40
19.0
 40
19.0
 40
20.0
 40
20.0
 40
20.0
 40
21.0
 40
21.0
 40
21.0
 40
22.0
 40
22.0
 40
22.0
 40
23.0
 40
23.0
 40
23.0
 40
23.0
 10
12.76389730597006
 20
94.91672925897647
 30
0.0
 10
18.44429384701489
 20
94.91672925897647
 30
0.0
 10
24.12526004989371
 20
94.91672925897647
 30
0.0
 10
29.80557521067654
 20
94.91672925897647
 30
0.0
 10
29.72772142669741
 20
93.69827684957203
 30
0.0
 10
29.36277164176247
 20
92.76695434956588
 30
0.0
 10
28.26390752736569
 20
92.56950548889057
 30
0.0
 10
28.26390752736569
 20
92.95839463423025
 30
0.0
 10
28.26390752736569
 20
93.34728377956992
 30
0.0
 10
28.26390752736569
 20
93.7361729249096
 30
0.0
 10
28.10650453728244
 20
93.7361729249096
 30
0.0
 10
27.94908798382219
 20
93.7361729249096
 30
0.0
 10
27.79168499373894
 20
93.7361729249096
 30
0.0
 10
27.79168499373894
 20
93.34265188632448
 30
0.0
 10
27.79168499373894
 20
92.94913762942785
 30
0.0
 10
27.79168499373894
 20
92.55561659084273
 30
0.0
 10
26.8240872419467
 20
92.55561659084273
 30
0.0
 10
25.85651661690846
 20
92.55561659084273
 30
0.0
 10
24.88890530173922
 20
92.55561659084273
 30
0.0
 10
24.88890530173922
 20
92.9445057361824
 30
0.0
 10
24.88890530173922
 20
93.33339488152208
 30
0.0
 10
24.88890530173922
 20
93.72228402686176
 30
0.0
 10
24.76382383904661
 20
93.75461233594089
 30
0.0
 10
24.57877868663767
 20
93.7269701736152
 30
0.0
 10
24.43057166616032
 20
93.7361729249096
 30
0.0
 10
24.43057166616032
 20
93.34265188632448
 30
0.0
 10
24.43057166616032
 20
92.94913762942785
 30
0.0
 10
24.43057166616032
 20
92.55561659084273
 30
0.0
 10
23.45834880281113
 20
92.55561659084273
 30
0.0
 10
22.48613950283894
 20
92.55561659084273
 30
0.0
 10
21.51390307611275
 20
92.55561659084273
 30
0.0
 10
21.51390307611275
 20
92.94913762942785
 30
0.0
 10
21.51390307611275
 20
93.34265188632448
 30
0.0
 10
21.51390307611275
 20
93.7361729249096
 30
0.0
 10
21.36112519758645
 20
93.7361729249096
 30
0.0
 10
21.20834731906015
 20
93.7361729249096
 30
0.0
 10
21.05556944053385
 20
93.7361729249096
 30
0.0
 10
21.05556944053385
 20
93.34265188632448
 30
0.0
 10
21.05556944053385
 20
92.94913762942785
 30
0.0
 10
21.05556944053385
 20
92.55561659084273
 30
0.0
 10
20.08334657718466
 20
92.55561659084273
 30
0.0
 10
19.11113727721247
 20
92.55561659084273
 30
0.0
 10
18.13890085048628
 20
92.55561659084273
 30
0.0
 10
18.13890085048628
 20
92.9445057361824
 30
0.0
 10
18.13890085048628
 20
93.33339488152208
 30
0.0
 10
18.13890085048628
 20
93.72228402686176
 30
0.0
 10
18.01381938779367
 20
93.75461233594089
 30
0.0
 10
17.82877423538473
 20
93.7269701736152
 30
0.0
 10
17.68056721490738
 20
93.7361729249096
 30
0.0
 10
17.68056721490738
 20
93.34265188632448
 30
0.0
 10
17.68056721490738
 20
92.94913762942785
 30
0.0
 10
17.68056721490738
 20
92.55561659084273
 30
0.0
 10
16.70834435155819
 20
92.55561659084273
 30
0.0
 10
15.73613505158601
 20
92.55561659084273
 30
0.0
 10
14.76389862485982
 20
92.55561659084273
 30
0.0
 10
14.76389862485982
 20
92.9445057361824
 30
0.0
 10
14.76389862485982
 20
93.33339488152208
 30
0.0
 10
14.76389862485982
 20
93.72228402686176
 30
0.0
 10
14.63881716216721
 20
93.75461233594089
 30
0.0
 10
14.45377200975827
 20
93.7269701736152
 30
0.0
 10
14.30556498928091
 20
93.7361729249096
 30
0.0
 10
14.30556498928091
 20
93.34728377956992
 30
0.0
 10
14.30556498928091
 20
92.95839463423025
 30
0.0
 10
14.30556498928091
 20
92.56950548889057
 30
0.0
 10
13.2008821861512
 20
92.75187187434204
 30
0.0
 10
12.84629482124414
 20
93.68430657126217
 30
0.0
 10
12.75000840792221
 20
94.87506256483293
 30
0.0
 10
12.74881483074623
 20
94.89477015161371
 30
0.0
 10
12.74771619720924
 20
94.91440313982099
 30
0.0
 10
12.76389730597006
 20
94.91672925897647
 30
0.0
  0
SPLINE
  5
48
330
1F
100
AcDbEntity
  8
Layer 1
 62
   217
420
  9447054
370
    35
100
AcDbSpline
210
0.0
220
0.0
230
1.0
 70
    11
 71
     3
 72
    74
 73
    70
 74
     0
 42
0.0000000001
 43
0.0000000001
 40
0.0
 40
0.0
 40
0.0
 40
0.0
 40
1.0
 40
1.0
 40
1.0
 40
2.0
 40
2.0
 40
2.0
 40
3.0
 40
3.0
 40
3.0
 40
4.0
 40
4.0
 40
4.0
 40
5.0
 40
5.0
 40
5.0
 40
6.0
 40
6.0
 40
6.0
 40
7.0
 40
7.0
 40
7.0
 40
8.0
 40
8.0
 40
8.0
 40
9.0
 40
9.0
 40
9.0
 40
10.0
 40
10.0
 40
10.0
 40
11.0
 40
11.0
 40
11.0
 40
12.0
 40
12.0
 40
12.0
 40
13.0
 40
13.0
 40
13.0
 40
14.0
 40
14.0
 40
14.0
 40
15.0
 40
15.0
 40
15.0
 40
16.0
 40
16.0
 40
16.0
 40
17.0
 40
17.0
 40
17.0
 40
18.0
 40
18.0
 40
18.0
 40
19.0
 40
19.0
 40
19.0
 40
20.0
 40
20.0
 40
20.0
 40
21.0
 40
21.0
 40
21.0
 40
22.0
 40
22.0
 40
22.0
 40
23.0
 40
23.0
 40
23.0
 40
23.0
 10
22.56251487872509
 20
61.61115174024285
 30
0.0
 10
28.24291141976992
 20
61.61115174024285
 30
0.0
 10
33.92387762264875
 20
61.61115174024285
 30
0.0
 10
39.60419278343158
 20
61.61115174024285
 30
0.0
 10
39.51456598821657
 20
60.39986757558282
 30
0.0
 10
39.16571593178045
 20
59.4477659820129
 30
0.0
 10
38.04863620207288
 20
59.26392797015695
 30
0.0
 10
38.04863620207288
 20
59.64818522225118
 30
0.0
 10
38.04863620207288
 20
60.03244925603391
 30
0.0
 10
38.04863620207288
 20
60.41670650812813
 30
0.0
 10
37.89585832354658
 20
60.41670650812813
 30
0.0
 10
37.74308044502028
 20
60.41670650812813
 30
0.0
 10
37.59030256649397
 20
60.41670650812813
 30
0.0
 10
37.59030256649397
 20
60.02781736278845
 30
0.0
 10
37.59030256649397
 20
59.63892821744878
 30
0.0
 10
37.59030256649397
 20
59.2500390721091
 30
0.0
 10
36.61807970314479
 20
59.2500390721091
 30
0.0
 10
35.64587040317259
 20
59.2500390721091
 30
0.0
 10
34.67363397644641
 20
59.2500390721091
 30
0.0
 10
34.67363397644641
 20
59.63429632420333
 30
0.0
 10
34.67363397644641
 20
60.01856035798606
 30
0.0
 10
34.67363397644641
 20
60.40281761008028
 30
0.0
 10
34.5485525137538
 20
60.43514591915942
 30
0.0
 10
34.36350736134486
 20
60.40751053852223
 30
0.0
 10
34.21530034086751
 20
60.41670650812813
 30
0.0
 10
34.21530034086751
 20
60.02781736278845
 30
0.0
 10
34.21530034086751
 20
59.63892821744878
 30
0.0
 10
34.21530034086751
 20
59.2500390721091
 30
0.0
 10
33.24307747751832
 20
59.2500390721091
 30
0.0
 10
32.27086817754613
 20
59.2500390721091
 30
0.0
 10
31.29863175081994
 20
59.2500390721091
 30
0.0
 10
31.29863175081994
 20
59.63429632420333
 30
0.0
 10
31.29863175081994
 20
60.01856035798606
 30
0.0
 10
31.29863175081994
 20
60.40281761008028
 30
0.0
 10
31.17355028812733
 20
60.43514591915942
 30
0.0
 10
30.98850513571839
 20
60.40751053852223
 30
0.0
 10
30.84029811524104
 20
60.41670650812813
 30
0.0
 10
30.84029811524104
 20
60.02781736278845
 30
0.0
 10
30.84029811524104
 20
59.63892821744878
 30
0.0
 10
30.84029811524104
 20
59.2500390721091
 30
0.0
 10
29.86807525189185
 20
59.2500390721091
 30
0.0
 10
28.89586595191966
 20
59.2500390721091
 30
0.0
 10
27.92362952519347
 20
59.2500390721091
 30
0.0
 10
27.92362952519347
 20
59.63429632420333
 30
0.0
 10
27.92362952519347
 20
60.01856035798606
 30
0.0
 10
27.92362952519347
 20
60.40281761008028
 30
0.0
 10
27.79854806250086
 20
60.43514591915942
 30
0.0
 10
27.61350291009192
 20
60.40751053852223
 30
0.0
 10
27.46529588961457
 20
60.41670650812813
 30
0.0
 10
27.46529588961457
 20
60.02781736278845
 30
0.0
 10
27.46529588961457
 20
59.63892821744878
 30
0.0
 10
27.46529588961457
 20
59.2500390721091
 30
0.0
 10
26.49307302626538
 20
59.2500390721091
 30
0.0
 10
25.52086372629319
 20
59.2500390721091
 30
0.0
 10
24.54862729956701
 20
59.2500390721091
 30
0.0
 10
24.54862729956701
 20
59.63429632420333
 30
0.0
 10
24.54862729956701
 20
60.01856035798606
 30
0.0
 10
24.54862729956701
 20
60.40281761008028
 30
0.0
 10
24.4235458368744
 20
60.43514591915942
 30
0.0
 10
24.23850068446545
 20
60.40751053852223
 30
0.0
 10
24.0902936639881
 20
60.41670650812813
 30
0.0
 10
24.0902936639881
 20
60.03244925603391
 30
0.0
 10
24.0902936639881
 20
59.64818522225118
 30
0.0
 10
24.0902936639881
 20
59.26392797015695
 30
0.0
 10
22.99426429538429
 20
59.45032267857738
 30
0.0
 10
22.63551297373828
 20
60.37394118044761
 30
0.0
 10
22.54862598067725
 20
61.56948504609931
 30
0.0
 10
22.54743240350126
 20
61.58919263288009
 30
0.0
 10
22.54633376996427
 20
61.60881883939887
 30
0.0
 10
22.56251487872509
 20
61.61115174024285
 30
0.0
  0
SPLINE
  5
49
330
1F
100
AcDbEntity
  8
Layer 1
 62
   217
420
  9447054
370
    35
100
AcDbSpline
210
0.0
220
0.0
230
1.0
 70
    11
 71
     3
 72
    74
 73
    70
 74
     0
 42
0.0000000001
 43
0.0000000001
 40
0.0
 40
0.0
 40
0.0
 40
0.0
 40
1.0
 40
1.0
 40
1.0
 40
2.0
 40
2.0
 40
2.0
 40
3.0
 40
3.0
 40
3.0
 40
4.0
 40
4.0
 40
4.0
 40
5.0
 40
5.0
 40
5.0
 40
6.0
 40
6.0
 40
6.0
 40
7.0
 40
7.0
 40
7.0
 40
8.0
 40
8.0
 40
8.0
 40
9.0
 40
9.0
 40
9.0
 40
10.0
 40
10.0
 40
10.0
 40
11.0
 40
11.0
 40
11.0
 40
12.0
 40
12.0
 40
12.0
 40
13.0
 40
13.0
 40
13.0
 40
14.0
 40
14.0
 40
14.0
 40
15.0
 40
15.0
 40
15.0
 40
16.0
 40
16.0
 40
16.0
 40
17.0
 40
17.0
 40
17.0
 40
18.0
 40
18.0
 40
18.0
 40
19.0
 40
19.0
 40
19.0
 40
20.0
 40
20.0
 40
20.0
 40
21.0
 40
21.0
 40
21.0
 40
22.0
 40
22.0
 40
22.0
 40
23.0
 40
23.0
 40
23.0
 40
23.0
 10
12.59028608037199
 20
88.45839166672829
 30
0.0
 10
18.27068262141682
 20
88.45839166672829
 30
0.0
 10
23.95164882429564
 20
88.45839166672829
 30
0.0
 10
29.63196398507847
 20
88.45839166672829
 30
0.0
 10
29.55290306054635
 20
87.24114639787683
 30
0.0
 10
29.19512830204433
 20
86.30264208974927
 30
0.0
 10
28.09029630176762
 20
86.1111678966424
 30
0.0
 10
28.09029630176762
 20
86.49080003717967
 30
0.0
 10
28.09029630176762
 20
86.87043895940545
 30
0.0
 10
28.09029630176762
 20
87.25005753656573
 30
0.0
 10
27.96058972751806
 20
87.28239262733337
 30
0.0
 10
27.77090590017517
 20
87.25474368331918
 30
0.0
 10
27.61807376814087
 20
87.26394643461357
 30
0.0
 10
27.61807376814087
 20
86.8750572892739
 30
0.0
 10
27.61807376814087
 20
86.48616814393422
 30
0.0
 10
27.61807376814087
 20
86.09727899859455
 30
0.0
 10
26.65047601634863
 20
86.09727899859455
 30
0.0
 10
25.68290539131039
 20
86.09727899859455
 30
0.0
 10
24.71529407614115
 20
86.09727899859455
 30
0.0
 10
24.71529407614115
 20
86.48153625068878
 30
0.0
 10
24.71529407614115
 20
86.8658002844715
 30
0.0
 10
24.71529407614115
 20
87.25005753656573
 30
0.0
 10
24.59021261344854
 20
87.28238584564487
 30
0.0
 10
24.4051674610396
 20
87.25475046500767
 30
0.0
 10
24.25696044056225
 20
87.26394643461357
 30
0.0
 10
24.25696044056225
 20
86.8750572892739
 30
0.0
 10
24.25696044056225
 20
86.48616814393422
 30
0.0
 10
24.25696044056225
 20
86.09727899859455
 30
0.0
 10
23.28473757721306
 20
86.09727899859455
 30
0.0
 10
22.31252827724087
 20
86.09727899859455
 30
0.0
 10
21.34029185051469
 20
86.09727899859455
 30
0.0
 10
21.34029185051469
 20
86.48153625068878
 30
0.0
 10
21.34029185051469
 20
86.8658002844715
 30
0.0
 10
21.34029185051469
 20
87.25005753656573
 30
0.0
 10
21.21521038782208
 20
87.28238584564487
 30
0.0
 10
21.03016523541313
 20
87.25475046500767
 30
0.0
 10
20.88195821493578
 20
87.26394643461357
 30
0.0
 10
20.88195821493578
 20
86.8750572892739
 30
0.0
 10
20.88195821493578
 20
86.48616814393422
 30
0.0
 10
20.88195821493578
 20
86.09727899859455
 30
0.0
 10
19.90973535158659
 20
86.09727899859455
 30
0.0
 10
18.9375260516144
 20
86.09727899859455
 30
0.0
 10
17.96528962488821
 20
86.09727899859455
 30
0.0
 10
17.96528962488821
 20
86.48153625068878
 30
0.0
 10
17.96528962488821
 20
86.8658002844715
 30
0.0
 10
17.96528962488821
 20
87.25005753656573
 30
0.0
 10
17.84020816219561
 20
87.28238584564487
 30
0.0
 10
17.65516300978667
 20
87.25475046500767
 30
0.0
 10
17.50695598930931
 20
87.26394643461357
 30
0.0
 10
17.50695598930931
 20
86.8750572892739
 30
0.0
 10
17.50695598930931
 20
86.48616814393422
 30
0.0
 10
17.50695598930931
 20
86.09727899859455
 30
0.0
 10
16.53473312596012
 20
86.09727899859455
 30
0.0
 10
15.56252382598793
 20
86.09727899859455
 30
0.0
 10
14.59028739926175
 20
86.09727899859455
 30
0.0
 10
14.59028739926175
 20
86.48153625068878
 30
0.0
 10
14.59028739926175
 20
86.8658002844715
 30
0.0
 10
14.59028739926175
 20
87.25005753656573
 30
0.0
 10
14.46520593656914
 20
87.28238584564487
 30
0.0
 10
14.2801607841602
 20
87.25475046500767
 30
0.0
 10
14.13195376368284
 20
87.26394643461357
 30
0.0
 10
14.13195376368284
 20
86.87968918251934
 30
0.0
 10
14.13195376368284
 20
86.49542514873662
 30
0.0
 10
14.13195376368284
 20
86.1111678966424
 30
0.0
 10
13.02244239834118
 20
86.28869893819342
 30
0.0
 10
12.67367372216706
 20
87.22695232384649
 30
0.0
 10
12.57639718232414
 20
88.41672497258476
 30
0.0
 10
12.57520360514816
 20
88.43643255936553
 30
0.0
 10
12.57410497161117
 20
88.45606554757282
 30
0.0
 10
12.59028608037199
 20
88.45839166672829
 30
0.0
  0
SPLINE
  5
4A
330
1F
100
AcDbEntity
  8
Layer 1
 62
   217
420
  9447054
370
    35
100
AcDbSpline
210
0.0
220
0.0
230
1.0
 70
    11
 71
     3
 72
   152
 73
   148
 74
     0
 42
0.0000000001
 43
0.0000000001
 40
0.0
 40
0.0
 40
0.0
 40
0.0
 40
1.0
 40
1.0
 40
1.0
 40
2.0
 40
2.0
 40
2.0
 40
3.0
 40
3.0
 40
3.0
 40
4.0
 40
4.0
 40
4.0
 40
5.0
 40
5.0
 40
5.0
 40
6.0
 40
6.0
 40
6.0
 40
7.0
 40
7.0
 40
7.0
 40
8.0
 40
8.0
 40
8.0
 40
9.0
 40
9.0
 40
9.0
 40
10.0
 40
10.0
 40
10.0
 40
11.0
 40
11.0
 40
11.0
 40
12.0
 40
12.0
 40
12.0
 40
13.0
 40
13.0
 40
13.0
 40
14.0
 40
14.0
 40
14.0
 40
15.0
 40
15.0
 40
15.0
 40
16.0
 40
16.0
 40
16.0
 40
17.0
 40
17.0
 40
17.0
 40
18.0
 40
18.0
 40
18.0
 40
19.0
 40
19.0
 40
19.0
 40
20.0
 40
20.0
 40
20.0
 40
21.0
 40
21.0
 40
21.0
 40
22.0
 40
22.0
 40
22.0
 40
23.0
 40
23.0
 40
23.0
 40
24.0
 40
24.0
 40
24.0
 40
25.0
 40
25.0
 40
25.0
 40
26.0
 40
26.0
 40
26.0
 40
27.0
 40
27.0
 40
27.0
 40
28.0
 40
28.0
 40
28.0
 40
29.0
 40
29.0
 40
29.0
 40
30.0
 40
30.0
 40
30.0
 40
31.0
 40
31.0
 40
31.0
 40
32.0
 40
32.0
 40
32.0
 40
33.0
 40
33.0
 40
33.0
 40
34.0
 40
34.0
 40
34.0
 40
35.0
 40
35.0
 40
35.0
 40
36.0
 40
36.0
 40
36.0
 40
37.0
 40
37.0
 40
37.0
 40
38.0
 40
38.0
 40
38.0
 40
39.0
 40
39.0
 40
39.0
 40
40.0
 40
40.0
 40
40.0
 40
41.0
 40
41.0
 40
41.0
 40
42.0
 40
42.0
 40
42.0
 40
43.0
 40
43.0
 40
43.0
 40
44.0
 40
44.0
 40
44.0
 40
45.0
 40
45.0
 40
45.0
 40
46.0
 40
46.0
 40
46.0
 40
47.0
 40
47.0
 40
47.0
 40
48.0
 40
48.0
 40
48.0
 40
49.0
 40
49.0
 40
49.0
 40
49.0
 10
30.15279766187268
 20
85.54866752570464
 30
0.0
 10
30.21752209691596
 20
79.92118850002473
 30
0.0
 10
30.16211570187158
 20
74.17409405258314
 30
0.0
 10
30.18057545796837
 20
68.49310072295032
 30
0.0
 10
29.40666272973398
 20
68.61426915137847
 30
0.0
 10
28.54698876872954
 20
68.72248455477177
 30
0.0
 10
28.00001846445662
 20
69.06254554291198
 30
0.0
 10
27.87040683384607
 20
69.14312556566809
 30
0.0
 10
27.7594041564793
 20
69.23043302341611
 30
0.0
 10
27.70835160545187
 20
69.38199019801243
 30
0.0
 10
22.69102787579866
 20
69.46179032659104
 30
0.0
 10
17.66271781077558
 20
69.53101102110978
 30
0.0
 10
12.65278612158729
 20
69.6181014648258
 30
0.0
 10
12.65278612158729
 20
69.75699044530425
 30
0.0
 10
12.65278612158729
 20
69.89587942578271
 30
0.0
 10
12.65278612158729
 20
70.03476840626116
 30
0.0
 10
15.56487029020891
 20
70.03476840626116
 30
0.0
 10
18.47679169830653
 20
70.03476840626116
 30
0.0
 10
21.38890299368214
 20
70.03476840626116
 30
0.0
 10
21.42123808444978
 20
70.15984986895378
 30
0.0
 10
21.39359592212409
 20
70.34489502136272
 30
0.0
 10
21.40279189172999
 20
70.49310204184007
 30
0.0
 10
18.48605548479743
 20
70.49310204184007
 30
0.0
 10
15.56957678202786
 20
70.49310204184007
 30
0.0
 10
12.65278612158729
 20
70.49310204184007
 30
0.0
 10
12.65278612158729
 20
70.63662291556398
 30
0.0
 10
12.65278612158729
 20
70.78015057097639
 30
0.0
 10
12.65278612158729
 20
70.92365788132328
 30
0.0
 10
17.67742051144342
 20
71.00572987554938
 30
0.0
 10
22.71331250420942
 20
71.07578471775359
 30
0.0
 10
27.73612940154756
 20
71.15976914813666
 30
0.0
 10
27.73612940154756
 20
71.69217916720024
 30
0.0
 10
27.73612940154756
 20
72.22458240457532
 30
0.0
 10
27.73612940154756
 20
72.7569924236389
 30
0.0
 10
22.70826692796547
 20
72.83581598907352
 30
0.0
 10
17.67164251284148
 20
72.90515197229675
 30
0.0
 10
12.65278612158729
 20
72.99310369045227
 30
0.0
 10
12.65278612158729
 20
73.13199267093073
 30
0.0
 10
12.65278612158729
 20
73.27088165140918
 30
0.0
 10
12.65278612158729
 20
73.40977063188764
 30
0.0
 10
15.56487029020891
 20
73.40977063188764
 30
0.0
 10
18.47679169830653
 20
73.40977063188764
 30
0.0
 10
21.38890299368214
 20
73.40977063188764
 30
0.0
 10
21.42123808444978
 20
73.53485209458024
 30
0.0
 10
21.39359592212409
 20
73.71989724698919
 30
0.0
 10
21.40279189172999
 20
73.86810426746655
 30
0.0
 10
18.48605548479743
 20
73.86810426746655
 30
0.0
 10
15.56957678202786
 20
73.86810426746655
 30
0.0
 10
12.65278612158729
 20
73.86810426746655
 30
0.0
 10
12.65278612158729
 20
74.01162514119045
 30
0.0
 10
12.65278612158729
 20
74.15515279660285
 30
0.0
 10
12.65278612158729
 20
74.29866010694975
 30
0.0
 10
17.67813937042441
 20
74.38000646050635
 30
0.0
 10
22.71393641955141
 20
74.45016302803808
 30
0.0
 10
27.73612940154756
 20
74.53477137376314
 30
0.0
 10
27.73612940154756
 20
75.06254949958127
 30
0.0
 10
27.73612940154756
 20
75.5903276253994
 30
0.0
 10
27.73612940154756
 20
76.11810575121753
 30
0.0
 10
22.73495965390117
 20
76.2282064640138
 30
0.0
 10
17.66643417607354
 20
76.27026649609033
 30
0.0
 10
12.65278612158729
 20
76.36810591607875
 30
0.0
 10
12.65278612158729
 20
76.5069948965572
 30
0.0
 10
12.65278612158729
 20
76.64588387703566
 30
0.0
 10
12.65278612158729
 20
76.78477285751411
 30
0.0
 10
15.56487029020891
 20
76.78477285751411
 30
0.0
 10
18.47679169830653
 20
76.78477285751411
 30
0.0
 10
21.38890299368214
 20
76.78477285751411
 30
0.0
 10
21.42123808444978
 20
76.90985432020672
 30
0.0
 10
21.39359592212409
 20
77.09489947261567
 30
0.0
 10
21.40279189172999
 20
77.24310649309301
 30
0.0
 10
18.48605548479743
 20
77.24310649309301
 30
0.0
 10
15.56957678202786
 20
77.24310649309301
 30
0.0
 10
12.65278612158729
 20
77.24310649309301
 30
0.0
 10
12.65278612158729
 20
77.38662736681691
 30
0.0
 10
12.65278612158729
 20
77.53015502222932
 30
0.0
 10
12.65278612158729
 20
77.67366233257623
 30
0.0
 10
17.6788311026514
 20
77.75430339052883
 30
0.0
 10
22.7145738982704
 20
77.82452777494555
 30
0.0
 10
27.73612940154756
 20
77.9097735993896
 30
0.0
 10
27.73612940154756
 20
78.44218361845317
 30
0.0
 10
27.73612940154756
 20
78.97458685582825
 30
0.0
 10
27.73612940154756
 20
79.50699687489184
 30
0.0
 10
22.70682921000349
 20
79.58440306742997
 30
0.0
 10
17.6702590483875
 20
79.6537661774072
 30
0.0
 10
12.65278612158729
 20
79.7431081417052
 30
0.0
 10
12.65278612158729
 20
79.88199712218366
 30
0.0
 10
12.65278612158729
 20
80.02088610266212
 30
0.0
 10
12.65278612158729
 20
80.15977508314057
 30
0.0
 10
15.56487029020891
 20
80.15977508314057
 30
0.0
 10
18.47679169830653
 20
80.15977508314057
 30
0.0
 10
21.38890299368214
 20
80.15977508314057
 30
0.0
 10
21.42123808444978
 20
80.28485654583318
 30
0.0
 10
21.39359592212409
 20
80.46990169824213
 30
0.0
 10
21.40279189172999
 20
80.61810871871948
 30
0.0
 10
18.48605548479743
 20
80.61810871871948
 30
0.0
 10
15.56957678202786
 20
80.61810871871948
 30
0.0
 10
12.65278612158729
 20
80.61810871871948
 30
0.0
 10
12.65278612158729
 20
80.76162959244338
 30
0.0
 10
12.65278612158729
 20
80.90515724785578
 30
0.0
 10
12.65278612158729
 20
81.04866455820269
 30
0.0
 10
17.6795092715014
 20
81.1286342289938
 30
0.0
 10
22.71523850374339
 20
81.19886539509902
 30
0.0
 10
27.73612940154756
 20
81.28477582501607
 30
0.0
 10
27.73612940154756
 20
81.81718584407965
 30
0.0
 10
27.73612940154756
 20
82.34958908145472
 30
0.0
 10
27.73612940154756
 20
82.8819991005183
 30
0.0
 10
22.7060967876455
 20
82.95865930732145
 30
0.0
 10
17.6696080062915
 20
83.02813092431468
 30
0.0
 10
12.65278612158729
 20
83.11811036733168
 30
0.0
 10
12.65278612158729
 20
83.25699934781014
 30
0.0
 10
12.65278612158729
 20
83.39588832828859
 30
0.0
 10
12.65278612158729
 20
83.53477730876705
 30
0.0
 10
15.56487029020891
 20
83.53477730876705
 30
0.0
 10
18.47679169830653
 20
83.53477730876705
 30
0.0
 10
21.38890299368214
 20
83.53477730876705
 30
0.0
 10
21.42123808444978
 20
83.65985877145965
 30
0.0
 10
21.39359592212409
 20
83.8449039238686
 30
0.0
 10
21.40279189172999
 20
83.99311094434594
 30
0.0
 10
18.49540065155032
 20
83.99311094434594
 30
0.0
 10
15.58794159448565
 20
83.99311094434594
 30
0.0
 10
12.68056391768298
 20
83.99311094434594
 30
0.0
 10
12.61685673591469
 20
84.08218164110396
 30
0.0
 10
12.6704863285721
 20
84.28858911228767
 30
0.0
 10
12.65278612158729
 20
84.42366678382916
 30
0.0
 10
15.05977013073453
 20
84.48153493179902
 30
0.0
 10
17.61356413252813
 20
84.4732951802716
 30
0.0
 10
20.18056886351958
 20
84.53477796821193
 30
0.0
 10
20.79762113675072
 20
84.54956204914176
 30
0.0
 10
21.43527617964463
 20
84.53582912992941
 30
0.0
 10
22.06945899802658
 20
84.56255576430762
 30
0.0
 10
23.62974919795822
 20
84.62831779769138
 30
0.0
 10
25.15538496965526
 20
84.5902725252068
 30
0.0
 10
26.76390653819837
 20
84.64588915259469
 30
0.0
 10
26.89476599949291
 20
84.65041253882414
 30
0.0
 10
27.0762304203739
 20
84.64588915259469
 30
0.0
 10
27.23612907182512
 20
84.64588915259469
 30
0.0
 10
27.40709543890822
 20
84.64588915259469
 30
0.0
 10
27.62292945710682
 20
84.6270631853189
 30
0.0
 10
27.69446270740402
 20
84.65977805064253
 30
0.0
 10
27.74432168125547
 20
84.68257808737928
 30
0.0
 10
27.7768330959241
 20
84.77228626285628
 30
0.0
 10
27.80557389178679
 20
84.81255592916884
 30
0.0
 10
27.86169914581216
 20
84.89118960732546
 30
0.0
 10
27.9122362885136
 20
84.94003132790192
 30
0.0
 10
28.00001846445662
 20
84.99311160379082
 30
0.0
 10
28.55671371003843
 20
85.32971393079609
 30
0.0
 10
29.4317956673147
 20
85.40481434924425
 30
0.0
 10
30.15279766187268
 20
85.54866752570464
 30
0.0
  0
SPLINE
  5
4B
330
1F
100
AcDbEntity
  8
Layer 1
 62
   217
420
  9447054
370
    35
100
AcDbSpline
210
0.0
220
0.0
230
1.0
 70
    11
 71
     3
 72
    74
 73
    70
 74
     0
 42
0.0000000001
 43
0.0000000001
 40
0.0
 40
0.0
 40
0.0
 40
0.0
 40
1.0
 40
1.0
 40
1.0
 40
2.0
 40
2.0
 40
2.0
 40
3.0
 40
3.0
 40
3.0
 40
4.0
 40
4.0
 40
4.0
 40
5.0
 40
5.0
 40
5.0
 40
6.0
 40
6.0
 40
6.0
 40
7.0
 40
7.0
 40
7.0
 40
8.0
 40
8.0
 40
8.0
 40
9.0
 40
9.0
 40
9.0
 40
10.0
 40
10.0
 40
10.0
 40
11.0
 40
11.0
 40
11.0
 40
12.0
 40
12.0
 40
12.0
 40
13.0
 40
13.0
 40
13.0
 40
14.0
 40
14.0
 40
14.0
 40
15.0
 40
15.0
 40
15.0
 40
16.0
 40
16.0
 40
16.0
 40
17.0
 40
17.0
 40
17.0
 40
18.0
 40
18.0
 40
18.0
 40
19.0
 40
19.0
 40
19.0
 40
20.0
 40
20.0
 40
20.0
 40
21.0
 40
21.0
 40
21.0
 40
22.0
 40
22.0
 40
22.0
 40
23.0
 40
23.0
 40
23.0
 40
23.0
 10
23.43057100671544
 20
58.31253845387953
 30
0.0
 10
29.11096754776027
 20
58.31253845387953
 30
0.0
 10
34.7919337506391
 20
58.31253845387953
 30
0.0
 10
40.47224891142192
 20
58.31253845387953
 30
0.0
 10
40.38132003201493
 20
57.10255637341149
 30
0.0
 10
40.03896683316174
 20
56.14395114057015
 30
0.0
 10
38.91669233006322
 20
55.96531468379363
 30
0.0
 10
38.91669233006322
 20
56.34494004264241
 30
0.0
 10
38.91669233006322
 20
56.72457896486819
 30
0.0
 10
38.91669233006322
 20
57.10420432371697
 30
0.0
 10
38.79161086737061
 20
57.1365326327961
 30
0.0
 10
38.60656571496168
 20
57.10889725215892
 30
0.0
 10
38.45835869448432
 20
57.11809322176482
 30
0.0
 10
38.45835869448432
 20
56.72920407642513
 30
0.0
 10
38.45835869448432
 20
56.34031493108546
 30
0.0
 10
38.45835869448432
 20
55.95142578574578
 30
0.0
 10
37.48613583113513
 20
55.95142578574578
 30
0.0
 10
36.51392653116294
 20
55.95142578574578
 30
0.0
 10
35.54169010443675
 20
55.95142578574578
 30
0.0
 10
35.54169010443675
 20
56.34031493108546
 30
0.0
 10
35.54169010443675
 20
56.72920407642513
 30
0.0
 10
35.54169010443675
 20
57.11809322176482
 30
0.0
 10
35.38891222591045
 20
57.11809322176482
 30
0.0
 10
35.23613434738415
 20
57.11809322176482
 30
0.0
 10
35.08335646885785
 20
57.11809322176482
 30
0.0
 10
35.08335646885785
 20
56.72920407642513
 30
0.0
 10
35.08335646885785
 20
56.34031493108546
 30
0.0
 10
35.08335646885785
 20
55.95142578574578
 30
0.0
 10
34.11113360550866
 20
55.95142578574578
 30
0.0
 10
33.13892430553648
 20
55.95142578574578
 30
0.0
 10
32.16668787881029
 20
55.95142578574578
 30
0.0
 10
32.16668787881029
 20
56.33568303784001
 30
0.0
 10
32.16668787881029
 20
56.71994707162274
 30
0.0
 10
32.16668787881029
 20
57.10420432371697
 30
0.0
 10
32.04160641611768
 20
57.1365326327961
 30
0.0
 10
31.85656126370874
 20
57.10889725215892
 30
0.0
 10
31.70835424323138
 20
57.11809322176482
 30
0.0
 10
31.70835424323138
 20
56.72920407642513
 30
0.0
 10
31.70835424323138
 20
56.34031493108546
 30
0.0
 10
31.70835424323138
 20
55.95142578574578
 30
0.0
 10
30.7361313798822
 20
55.95142578574578
 30
0.0
 10
29.76392207991001
 20
55.95142578574578
 30
0.0
 10
28.79168565318382
 20
55.95142578574578
 30
0.0
 10
28.79168565318382
 20
56.33568303784001
 30
0.0
 10
28.79168565318382
 20
56.71994707162274
 30
0.0
 10
28.79168565318382
 20
57.10420432371697
 30
0.0
 10
28.66660419049121
 20
57.1365326327961
 30
0.0
 10
28.48155903808227
 20
57.10889725215892
 30
0.0
 10
28.33335201760492
 20
57.11809322176482
 30
0.0
 10
28.33335201760492
 20
56.72920407642513
 30
0.0
 10
28.33335201760492
 20
56.34031493108546
 30
0.0
 10
28.33335201760492
 20
55.95142578574578
 30
0.0
 10
27.36112915425573
 20
55.95142578574578
 30
0.0
 10
26.38891985428354
 20
55.95142578574578
 30
0.0
 10
25.41668342755735
 20
55.95142578574578
 30
0.0
 10
25.41668342755735
 20
56.33568303784001
 30
0.0
 10
25.41668342755735
 20
56.71994707162274
 30
0.0
 10
25.41668342755735
 20
57.10420432371697
 30
0.0
 10
25.29160196486474
 20
57.1365326327961
 30
0.0
 10
25.1065568124558
 20
57.10889725215892
 30
0.0
 10
24.95834979197845
 20
57.11809322176482
 30
0.0
 10
24.95834979197845
 20
56.73383596967059
 30
0.0
 10
24.95834979197845
 20
56.34957193588786
 30
0.0
 10
24.95834979197845
 20
55.96531468379363
 30
0.0
 10
23.85867187496168
 20
56.1480540621126
 30
0.0
 10
23.50290449625563
 20
57.0746700702998
 30
0.0
 10
23.41668210866759
 20
58.270871759736
 30
0.0
 10
23.4154885314916
 20
58.29057934651677
 30
0.0
 10
23.41438989795462
 20
58.31020555303556
 30
0.0
 10
23.43057100671544
 20
58.31253845387953
 30
0.0
  0
SPLINE
  5
4C
330
1F
100
AcDbEntity
  8
Layer 1
 62
   217
420
  9447054
370
    35
100
AcDbSpline
210
0.0
220
0.0
230
1.0
 70
    11
 71
     3
 72
   152
 73
   148
 74
     0
 42
0.0000000001
 43
0.0000000001
 40
0.0
 40
0.0
 40
0.0
 40
0.0
 40
1.0
 40
1.0
 40
1.0
 40
2.0
 40
2.0
 40
2.0
 40
3.0
 40
3.0
 40
3.0
 40
4.0
 40
4.0
 40
4.0
 40
5.0
 40
5.0
 40
5.0
 40
6.0
 40
6.0
 40
6.0
 40
7.0
 40
7.0
 40
7.0
 40
8.0
 40
8.0
 40
8.0
 40
9.0
 40
9.0
 40
9.0
 40
10.0
 40
10.0
 40
10.0
 40
11.0
 40
11.0
 40
11.0
 40
12.0
 40
12.0
 40
12.0
 40
13.0
 40
13.0
 40
13.0
 40
14.0
 40
14.0
 40
14.0
 40
15.0
 40
15.0
 40
15.0
 40
16.0
 40
16.0
 40
16.0
 40
17.0
 40
17.0
 40
17.0
 40
18.0
 40
18.0
 40
18.0
 40
19.0
 40
19.0
 40
19.0
 40
20.0
 40
20.0
 40
20.0
 40
21.0
 40
21.0
 40
21.0
 40
22.0
 40
22.0
 40
22.0
 40
23.0
 40
23.0
 40
23.0
 40
24.0
 40
24.0
 40
24.0
 40
25.0
 40
25.0
 40
25.0
 40
26.0
 40
26.0
 40
26.0
 40
27.0
 40
27.0
 40
27.0
 40
28.0
 40
28.0
 40
28.0
 40
29.0
 40
29.0
 40
29.0
 40
30.0
 40
30.0
 40
30.0
 40
31.0
 40
31.0
 40
31.0
 40
32.0
 40
32.0
 40
32.0
 40
33.0
 40
33.0
 40
33.0
 40
34.0
 40
34.0
 40
34.0
 40
35.0
 40
35.0
 40
35.0
 40
36.0
 40
36.0
 40
36.0
 40
37.0
 40
37.0
 40
37.0
 40
38.0
 40
38.0
 40
38.0
 40
39.0
 40
39.0
 40
39.0
 40
40.0
 40
40.0
 40
40.0
 40
41.0
 40
41.0
 40
41.0
 40
42.0
 40
42.0
 40
42.0
 40
43.0
 40
43.0
 40
43.0
 40
44.0
 40
44.0
 40
44.0
 40
45.0
 40
45.0
 40
45.0
 40
46.0
 40
46.0
 40
46.0
 40
47.0
 40
47.0
 40
47.0
 40
48.0
 40
48.0
 40
48.0
 40
49.0
 40
49.0
 40
49.0
 40
49.0
 10
30.48613121502098
 20
95.11117383164631
 30
0.0
 10
36.1665277560658
 20
95.11117383164631
 30
0.0
 10
41.84749395894463
 20
95.11117383164631
 30
0.0
 10
47.52780911972746
 20
95.11117383164631
 30
0.0
 10
47.36848013011024
 20
94.26512428283822
 30
0.0
 10
47.30560031433893
 20
93.2408926503831
 30
0.0
 10
46.88891980952657
 20
92.6667277752255
 30
0.0
 10
46.84977590350501
 20
92.61278622489709
 30
0.0
 10
46.81261225052542
 20
92.58974882906284
 30
0.0
 10
46.76391972709596
 20
92.55561659084273
 30
0.0
 10
46.72443673664939
 20
92.52793373838604
 30
0.0
 10
46.6610143857981
 20
92.51782902252114
 30
0.0
 10
46.63891964466535
 20
92.4583943045078
 30
0.0
 10
46.53250138872453
 20
88.51387944203468
 30
0.0
 10
46.46194470157131
 20
84.53355726428194
 30
0.0
 10
46.36114168370844
 20
80.58338647359986
 30
0.0
 10
46.23150292634388
 20
80.58338647359986
 30
0.0
 10
46.10189129573332
 20
80.58338647359986
 30
0.0
 10
45.97225253836876
 20
80.58338647359986
 30
0.0
 10
45.97225253836876
 20
82.99543640405655
 30
0.0
 10
45.97225253836876
 20
85.40745242607072
 30
0.0
 10
45.97225253836876
 20
87.8195023565274
 30
0.0
 10
45.84717107567615
 20
87.85183744729504
 30
0.0
 10
45.66212592326721
 20
87.82419528496935
 30
0.0
 10
45.51391890278986
 20
87.83339125457525
 30
0.0
 10
45.51391890278986
 20
85.41674333931562
 30
0.0
 10
45.51391890278986
 20
83.00005473392498
 30
0.0
 10
45.51391890278986
 20
80.58338647359986
 30
0.0
 10
45.3842801454253
 20
80.58338647359986
 30
0.0
 10
45.25466851481474
 20
80.58338647359986
 30
0.0
 10
45.12502975745019
 20
80.58338647359986
 30
0.0
 10
45.04160142552411
 20
84.55550280826769
 30
0.0
 10
44.94243957627821
 20
88.51198056925469
 30
0.0
 10
44.86114069454112
 20
92.4861721006035
 30
0.0
 10
44.36114036481868
 20
92.51858178994463
 30
0.0
 10
43.8009593313479
 20
92.49081755722595
 30
0.0
 10
43.27780631708673
 20
92.50006099865135
 30
0.0
 10
43.14206404007223
 20
88.56630189413909
 30
0.0
 10
43.09646396659874
 20
84.54254978323284
 30
0.0
 10
42.98613945808197
 20
80.58338647359986
 30
0.0
 10
42.85650070071741
 20
80.58338647359986
 30
0.0
 10
42.72688907010685
 20
80.58338647359986
 30
0.0
 10
42.59725031274229
 20
80.58338647359986
 30
0.0
 10
42.59725031274229
 20
82.99543640405655
 30
0.0
 10
42.59725031274229
 20
85.40745242607072
 30
0.0
 10
42.59725031274229
 20
87.8195023565274
 30
0.0
 10
42.47216885004968
 20
87.85183744729504
 30
0.0
 10
42.28712369764074
 20
87.82419528496935
 30
0.0
 10
42.13891667716339
 20
87.83339125457525
 30
0.0
 10
42.13891667716339
 20
85.41674333931562
 30
0.0
 10
42.13891667716339
 20
83.00005473392498
 30
0.0
 10
42.13891667716339
 20
80.58338647359986
 30
0.0
 10
42.00927791979883
 20
80.58338647359986
 30
0.0
 10
41.87966628918827
 20
80.58338647359986
 30
0.0
 10
41.75002753182371
 20
80.58338647359986
 30
0.0
 10
41.66737231238663
 20
84.56083999711713
 30
0.0
 10
41.56746447740574
 20
88.52140711626959
 30
0.0
 10
41.48613846891465
 20
92.50006099865135
 30
0.0
 10
40.95836034309652
 20
92.50006099865135
 30
0.0
 10
40.43058221727838
 20
92.50006099865135
 30
0.0
 10
39.90280409146025
 20
92.50006099865135
 30
0.0
 10
39.76782136355776
 20
88.5655423450271
 30
0.0
 10
39.72205852956026
 20
84.54196655802184
 30
0.0
 10
39.6111372324555
 20
80.58338647359986
 30
0.0
 10
39.48149847509094
 20
80.58338647359986
 30
0.0
 10
39.35188684448038
 20
80.58338647359986
 30
0.0
 10
39.22224808711582
 20
80.58338647359986
 30
0.0
 10
39.22224808711582
 20
82.99543640405655
 30
0.0
 10
39.22224808711582
 20
85.40745242607072
 30
0.0
 10
39.22224808711582
 20
87.8195023565274
 30
0.0
 10
39.09716662442322
 20
87.85183744729504
 30
0.0
 10
38.91212147201428
 20
87.82419528496935
 30
0.0
 10
38.76391445153692
 20
87.83339125457525
 30
0.0
 10
38.76391445153692
 20
85.41674333931562
 30
0.0
 10
38.76391445153692
 20
83.00005473392498
 30
0.0
 10
38.76391445153692
 20
80.58338647359986
 30
0.0
 10
38.63427569417237
 20
80.58338647359986
 30
0.0
 10
38.5046640635618
 20
80.58338647359986
 30
0.0
 10
38.37502530619724
 20
80.58338647359986
 30
0.0
 10
38.29307538236416
 20
84.56155207440962
 30
0.0
 10
38.19308616712127
 20
88.52203781330009
 30
0.0
 10
38.11113624328818
 20
92.50006099865135
 30
0.0
 10
37.58335811747005
 20
92.50006099865135
 30
0.0
 10
37.05557999165192
 20
92.50006099865135
 30
0.0
 10
36.52780186583379
 20
92.50006099865135
 30
0.0
 10
36.39357868704328
 20
88.56478279591511
 30
0.0
 10
36.34746320524379
 20
84.54154609333484
 30
0.0
 10
36.23613500682903
 20
80.58338647359986
 30
0.0
 10
36.10649624946448
 20
80.58338647359986
 30
0.0
 10
35.97688461885392
 20
80.58338647359986
 30
0.0
 10
35.84724586148936
 20
80.58338647359986
 30
0.0
 10
35.84724586148936
 20
82.99543640405655
 30
0.0
 10
35.84724586148936
 20
85.40745242607072
 30
0.0
 10
35.84724586148936
 20
87.8195023565274
 30
0.0
 10
35.72216439879675
 20
87.85183744729504
 30
0.0
 10
35.5371192463878
 20
87.82419528496935
 30
0.0
 10
35.38891222591045
 20
87.83339125457525
 30
0.0
 10
35.38891222591045
 20
85.41674333931562
 30
0.0
 10
35.38891222591045
 20
83.00005473392498
 30
0.0
 10
35.38891222591045
 20
80.58338647359986
 30
0.0
 10
35.2592734685459
 20
80.58338647359986
 30
0.0
 10
35.12966183793534
 20
80.58338647359986
 30
0.0
 10
35.00002308057078
 20
80.58338647359986
 30
0.0
 10
34.91880557909568
 20
84.56227093339062
 30
0.0
 10
34.81873498359079
 20
88.52269563708458
 30
0.0
 10
34.73613401766171
 20
92.50006099865135
 30
0.0
 10
34.20835589184358
 20
92.50006099865135
 30
0.0
 10
33.68057776602545
 20
92.50006099865135
 30
0.0
 10
33.15279964020732
 20
92.50006099865135
 30
0.0
 10
33.0192003767588
 20
88.56415888057312
 30
0.0
 10
32.97311202171332
 20
84.54090861461586
 30
0.0
 10
32.86113278120256
 20
80.58338647359986
 30
0.0
 10
32.731494023838
 20
80.58338647359986
 30
0.0
 10
32.60188239322745
 20
80.58338647359986
 30
0.0
 10
32.47224363586289
 20
80.58338647359986
 30
0.0
 10
32.47224363586289
 20
82.99543640405655
 30
0.0
 10
32.47224363586289
 20
85.40745242607072
 30
0.0
 10
32.47224363586289
 20
87.8195023565274
 30
0.0
 10
32.34716217317028
 20
87.85183744729504
 30
0.0
 10
32.16211702076134
 20
87.82419528496935
 30
0.0
 10
32.01391000028399
 20
87.83339125457525
 30
0.0
 10
32.01391000028399
 20
85.41674333931562
 30
0.0
 10
32.01391000028399
 20
83.00005473392498
 30
0.0
 10
32.01391000028399
 20
80.58338647359986
 30
0.0
 10
31.88428480629643
 20
80.58338647359986
 30
0.0
 10
31.75464604893187
 20
80.58338647359986
 30
0.0
 10
31.62502085494431
 20
80.58338647359986
 30
0.0
 10
31.52204769676145
 20
83.95735788257434
 30
0.0
 10
31.5178430498915
 20
87.52916470846863
 30
0.0
 10
31.38890958813094
 20
90.97228221338834
 30
0.0
 10
31.37610576024308
 20
91.31413356729253
 30
0.0
 10
31.39350757293388
 20
91.70612872596517
 30
0.0
 10
31.37502069008309
 20
92.09728295526382
 30
0.0
 10
31.36887648030216
 20
92.22730148718438
 30
0.0
 10
31.38254836431801
 20
92.4044934443104
 30
0.0
 10
31.36113179203524
 20
92.4583943045078
 30
0.0
 10
31.33692116409052
 20
92.51932099399113
 30
0.0
 10
31.14748147753362
 20
92.60143367834822
 30
0.0
 10
31.09724272912618
 20
92.6667277752255
 30
0.0
 10
30.88619658300853
 20
92.94103351167044
 30
0.0
 10
30.78695335350063
 20
93.37795735665509
 30
0.0
 10
30.69446468573866
 20
93.77783961905314
 30
0.0
 10
30.59683549809375
 20
94.19994547466544
 30
0.0
 10
30.52749951487052
 20
94.6448513670145
 30
0.0
 10
30.47224231697313
 20
95.06950713750277
 30
0.0
 10
30.47104873979714
 20
95.08922828766055
 30
0.0
 10
30.46995010626016
 20
95.10884771249083
 30
0.0
 10
30.48613121502098
 20
95.11117383164631
 30
0.0
  0
ENDSEC
  0
SECTION
  2
OBJECTS
  0
DICTIONARY
  5
C
330
0
100
AcDbDictionary
281
     1
  3
ACAD_GROUP
350
D
  3
ACAD_LAYOUT
350
1A
  3
ACAD_MLINESTYLE
350
17
  3
ACAD_PLOTSETTINGS
350
19
  3
ACAD_PLOTSTYLENAME
350
E
  3
ACAD_TABLESTYLE
350
4D
  3
ACAD_VISUALSTYLE
350
2A
  0
DICTIONARY
  5
D
102
{ACAD_REACTORS
330
C
102
}
330
C
100
AcDbDictionary
281
     1
  0
DICTIONARY
  5
1A
102
{ACAD_REACTORS
330
C
102
}
330
C
100
AcDbDictionary
281
     1
  3
Layout1
350
1E
  3
Layout2
350
26
  3
Model
350
22
  0
DICTIONARY
  5
17
102
{ACAD_REACTORS
330
C
102
}
330
C
100
AcDbDictionary
281
     1
  3
Standard
350
18
  0
DICTIONARY
  5
19
102
{ACAD_REACTORS
330
C
102
}
330
C
100
AcDbDictionary
281
     1
  0
ACDBDICTIONARYWDFLT
  5
E
102
{ACAD_REACTORS
330
C
102
}
330
C
100
AcDbDictionary
281
     1
  3
Normal
350
F
100
AcDbDictionaryWithDefault
340
F
  0
DICTIONARY
  5
4D
102
{ACAD_REACTORS
330
C
102
}
330
C
100
AcDbDictionary
281
     1
  0
DICTIONARY
  5
2A
102
{ACAD_REACTORS
330
C
102
}
330
C
100
AcDbDictionary
281
     1
  3
2dWireframe
350
2F
  3
3D Hidden
350
31
  3
3dWireframe
350
30
  3
Basic
350
32
  3
Brighten
350
36
  3
ColorChange
350
3A
  3
Conceptual
350
34
  3
Dim
350
35
  3
Facepattern
350
39
  3
Flat
350
2B
  3
FlatWithEdges
350
2C
  3
Gouraud
350
2D
  3
GouraudWithEdges
350
2E
  3
Linepattern
350
38
  3
Realistic
350
33
  3
Thicken
350
37
  0
LAYOUT
  5
1E
102
{ACAD_REACTORS
330
1A
102
}
330
1A
100
AcDbPlotSettings
  1

  2
none_device
  4

  6

 40
0.0
 41
0.0
 42
0.0
 43
0.0
 44
0.0
 45
0.0
 46
0.0
 47
0.0
 48
0.0
 49
0.0
140
0.0
141
0.0
142
1.0
143
1.0
 70
   688
 72
     0
 73
     0
 74
     5
  7

 75
    16
 76
     0
 77
     2
 78
   300
147
1.0
148
0.0
149
0.0
100
AcDbLayout
  1
Layout1
 70
     1
 71
     1
 10
0.0
 20
0.0
 11
12.0
 21
9.0
 12
0.0
 22
0.0
 32
0.0
 14
1.000000000000000E+20
 24
1.000000000000000E+20
 34
1.000000000000000E+20
 15
-1.000000000000000E+20
 25
-1.000000000000000E+20
 35
-1.000000000000000E+20
146
0.0
 13
0.0
 23
0.0
 33
0.0
 16
1.0
 26
0.0
 36
0.0
 17
0.0
 27
1.0
 37
0.0
 76
     0
330
1B
  0
LAYOUT
  5
26
102
{ACAD_REACTORS
330
1A
102
}
330
1A
100
AcDbPlotSettings
  1

  2
none_device
  4

  6

 40
0.0
 41
0.0
 42
0.0
 43
0.0
 44
0.0
 45
0.0
 46
0.0
 47
0.0
 48
0.0
 49
0.0
140
0.0
141
0.0
142
1.0
143
1.0
 70
   688
 72
     0
 73
     0
 74
     5
  7

 75
    16
 76
     0
 77
     2
 78
   300
147
1.0
148
0.0
149
0.0
100
AcDbLayout
  1
Layout2
 70
     1
 71
     2
 10
0.0
 20
0.0
 11
0.0
 21
0.0
 12
0.0
 22
0.0
 32
0.0
 14
0.0
 24
0.0
 34
0.0
 15
0.0
 25
0.0
 35
0.0
146
0.0
 13
0.0
 23
0.0
 33
0.0
 16
1.0
 26
0.0
 36
0.0
 17
0.0
 27
1.0
 37
0.0
 76
     0
330
23
  0
LAYOUT
  5
22
102
{ACAD_REACTORS
330
1A
102
}
330
1A
100
AcDbPlotSettings
  1

  2
none_device
  4

  6

 40
0.0
 41
0.0
 42
0.0
 43
0.0
 44
0.0
 45
0.0
 46
0.0
 47
0.0
 48
0.0
 49
0.0
140
0.0
141
0.0
142
1.0
143
1.0
 70
  1712
 72
     0
 73
     0
 74
     0
  7

 75
     0
 76
     0
 77
     2
 78
   300
147
1.0
148
0.0
149
0.0
100
AcDbLayout
  1
Model
 70
     1
 71
     0
 10
0.0
 20
0.0
 11
12.0
 21
9.0
 12
0.0
 22
0.0
 32
0.0
 14
1.000000000000000E+20
 24
1.000000000000000E+20
 34
1.000000000000000E+20
 15
-1.000000000000000E+20
 25
-1.000000000000000E+20
 35
-1.000000000000000E+20
146
0.0
 13
0.0
 23
0.0
 33
0.0
 16
1.0
 26
0.0
 36
0.0
 17
0.0
 27
1.0
 37
0.0
 76
     0
330
1F
331
29
  0
MLINESTYLE
  5
18
102
{ACAD_REACTORS
330
17
102
}
330
17
100
AcDbMlineStyle
  2
Standard
 70
     0
  3

 62
   256
 51
90.0
 52
90.0
 71
     2
 49
0.5
 62
   256
  6
BYLAYER
 49
-0.5
 62
   256
  6
BYLAYER
  0
ACDBPLACEHOLDER
  5
F
102
{ACAD_REACTORS
330
E
102
}
330
E
  0
VISUALSTYLE
  5
2F
102
{ACAD_REACTORS
330
2A
102
}
330
2A
100
AcDbVisualStyle
  2
2dWireframe
 70
     4
 71
     0
 72
     2
 73
     0
 90
        0
 40
-0.6
 41
-30.0
 62
     5
 63
     7
421
 16777215
 74
     1
 91
        4
 64
     7
 65
   257
 75
     1
175
     1
 42
1.0
 92
        0
 66
   257
 43
1.0
 76
     1
 77
     6
 78
     2
 67
     7
 79
     5
170
     0
171
     0
290
     0
174
     0
 93
        1
 44
0.0
173
     0
291
     0
 45
0.0
1001
ACAD
1000
AcDbSavedByObjectVersion
1070
     0
  0
VISUALSTYLE
  5
31
102
{ACAD_REACTORS
330
2A
102
}
330
2A
100
AcDbVisualStyle
  2
3D Hidden
 70
     6
 71
     1
 72
     2
 73
     2
 90
        0
 40
-0.6
 41
-30.0
 62
     5
 63
     7
421
 16777215
 74
     2
 91
        2
 64
     7
 65
   257
 75
     2
175
     1
 42
40.0
 92
        0
 66
   257
 43
1.0
 76
     1
 77
     6
 78
     2
 67
     7
 79
     3
170
     0
171
     0
290
     0
174
     0
 93
        1
 44
0.0
173
     0
291
     0
 45
0.0
1001
ACAD
1000
AcDbSavedByObjectVersion
1070
     0
  0
VISUALSTYLE
  5
30
102
{ACAD_REACTORS
330
2A
102
}
330
2A
100
AcDbVisualStyle
  2
3dWireframe
 70
     5
 71
     0
 72
     2
 73
     0
 90
        0
 40
-0.6
 41
-30.0
 62
     5
 63
     7
421
 16777215
 74
     1
 91
        4
 64
     7
 65
   257
 75
     1
175
     1
 42
1.0
 92
        0
 66
   257
 43
1.0
 76
     1
 77
     6
 78
     2
 67
     7
 79
     5
170
     0
171
     0
290
     0
174
     0
 93
        1
 44
0.0
173
     0
291
     0
 45
0.0
1001
ACAD
1000
AcDbSavedByObjectVersion
1070
     0
  0
VISUALSTYLE
  5
32
102
{ACAD_REACTORS
330
2A
102
}
330
2A
100
AcDbVisualStyle
  2
Basic
 70
     7
 71
     1
 72
     0
 73
     1
 90
        0
 40
-0.6
 41
-30.0
 62
     5
 63
     7
421
 16777215
 74
     0
 91
        4
 64
     7
 65
   257
 75
     1
175
     1
 42
1.0
 92
        8
 66
     7
 43
1.0
 76
     1
 77
     6
 78
     2
 67
     7
 79
     5
170
     0
171
     0
290
     0
174
     0
 93
        1
 44
0.0
173
     0
291
     1
 45
0.0
1001
ACAD
1000
AcDbSavedByObjectVersion
1070
     0
  0
VISUALSTYLE
  5
36
102
{ACAD_REACTORS
330
2A
102
}
330
2A
100
AcDbVisualStyle
  2
Brighten
 70
    12
 71
     2
 72
     2
 73
     0
 90
        0
 40
-0.6
 41
-30.0
 62
     5
 63
     7
421
 16777215
 74
     1
 91
        4
 64
     7
 65
   257
 75
     1
175
     1
 42
1.0
 92
        8
 66
     7
 43
1.0
 76
     1
 77
     6
 78
     2
 67
     7
 79
     5
170
     0
171
     0
290
     0
174
     0
 93
        1
 44
50.0
173
     0
291
     1
 45
0.0
1001
ACAD
1000
AcDbSavedByObjectVersion
1070
     0
  0
VISUALSTYLE
  5
3A
102
{ACAD_REACTORS
330
2A
102
}
330
2A
100
AcDbVisualStyle
  2
ColorChange
 70
    16
 71
     2
 72
     2
 73
     3
 90
        0
 40
-0.6
 41
-30.0
 62
     5
 63
     8
421
  8421504
 74
     1
 91
        4
 64
     7
 65
   257
 75
     1
175
     1
 42
1.0
 92
        8
 66
     8
424
  8421504
 43
1.0
 76
     1
 77
     6
 78
     2
 67
     7
 79
     5
170
     0
171
     0
290
     0
174
     0
 93
        1
 44
0.0
173
     0
291
     1
 45
0.0
1001
ACAD
1000
AcDbSavedByObjectVersion
1070
     0
  0
VISUALSTYLE
  5
34
102
{ACAD_REACTORS
330
2A
102
}
330
2A
100
AcDbVisualStyle
  2
Conceptual
 70
     9
 71
     3
 72
     2
 73
     0
 90
        0
 40
-0.6
 41
-30.0
 62
     5
 63
     7
421
 16777215
 74
     2
 91
        2
 64
     7
 65
   257
 75
     1
175
     1
 42
40.0
 92
        8
 66
     7
 43
1.0
 76
     1
 77
     6
 78
     2
 67
     7
 79
     3
170
     0
171
     0
290
     0
174
     0
 93
        1
 44
0.0
173
     0
291
     0
 45
0.0
1001
ACAD
1000
AcDbSavedByObjectVersion
1070
     0
  0
VISUALSTYLE
  5
35
102
{ACAD_REACTORS
330
2A
102
}
330
2A
100
AcDbVisualStyle
  2
Dim
 70
    11
 71
     2
 72
     2
 73
     0
 90
        0
 40
-0.6
 41
-30.0
 62
     5
 63
     7
421
 16777215
 74
     1
 91
        4
 64
     7
 65
   257
 75
     1
175
     1
 42
1.0
 92
        8
 66
     7
 43
1.0
 76
     1
 77
     6
 78
     2
 67
     7
 79
     5
170
     0
171
     0
290
     0
174
     0
 93
        1
 44
-50.0
173
     0
291
     1
 45
0.0
1001
ACAD
1000
AcDbSavedByObjectVersion
1070
     0
  0
VISUALSTYLE
  5
39
102
{ACAD_REACTORS
330
2A
102
}
330
2A
100
AcDbVisualStyle
  2
Facepattern
 70
    15
 71
     2
 72
     2
 73
     0
 90
        0
 40
-0.6
 41
-30.0
 62
     5
 63
     7
421
 16777215
 74
     1
 91
        4
 64
     7
 65
   257
 75
     1
175
     1
 42
1.0
 92
        8
 66
     7
 43
1.0
 76
     1
 77
     6
 78
     2
 67
     7
 79
     5
170
     0
171
     0
290
     0
174
     0
 93
        1
 44
0.0
173
     0
291
     1
 45
0.0
1001
ACAD
1000
AcDbSavedByObjectVersion
1070
     0
  0
VISUALSTYLE
  5
2B
102
{ACAD_REACTORS
330
2A
102
}
330
2A
100
AcDbVisualStyle
  2
Flat
 70
     0
 71
     2
 72
     1
 73
     1
 90
        2
 40
-0.6
 41
30.0
 62
     5
 63
     7
421
 16777215
 74
     0
 91
        4
 64
     7
 65
   257
 75
     1
175
     1
 42
1.0
 92
        8
 66
     7
 43
1.0
 76
     1
 77
     6
 78
     2
 67
     7
 79
     5
170
     0
171
     0
290
     0
174
     0
 93
       13
 44
0.0
173
     0
291
     1
 45
0.0
1001
ACAD
1000
AcDbSavedByObjectVersion
1070
     0
  0
VISUALSTYLE
  5
2C
102
{ACAD_REACTORS
330
2A
102
}
330
2A
100
AcDbVisualStyle
  2
FlatWithEdges
 70
     1
 71
     2
 72
     1
 73
     1
 90
        2
 40
-0.6
 41
30.0
 62
     5
 63
     7
421
 16777215
 74
     1
 91
        4
 64
     7
 65
   257
 75
     1
175
     1
 42
1.0
 92
        0
 66
   257
 43
1.0
 76
     1
 77
     6
 78
     2
 67
     7
 79
     5
170
     0
171
     0
290
     0
174
     0
 93
       13
 44
0.0
173
     0
291
     1
 45
0.0
1001
ACAD
1000
AcDbSavedByObjectVersion
1070
     0
  0
VISUALSTYLE
  5
2D
102
{ACAD_REACTORS
330
2A
102
}
330
2A
100
AcDbVisualStyle
  2
Gouraud
 70
     2
 71
     2
 72
     2
 73
     1
 90
        2
 40
-0.6
 41
30.0
 62
     5
 63
     7
421
 16777215
 74
     0
 91
        4
 64
     7
 65
   257
 75
     1
175
     1
 42
1.0
 92
        0
 66
     7
 43
1.0
 76
     1
 77
     6
 78
     2
 67
     7
 79
     5
170
     0
171
     0
290
     0
174
     0
 93
       13
 44
0.0
173
     0
291
     1
 45
0.0
1001
ACAD
1000
AcDbSavedByObjectVersion
1070
     0
  0
VISUALSTYLE
  5
2E
102
{ACAD_REACTORS
330
2A
102
}
330
2A
100
AcDbVisualStyle
  2
GouraudWithEdges
 70
     3
 71
     2
 72
     2
 73
     1
 90
        2
 40
-0.6
 41
30.0
 62
     5
 63
     7
421
 16777215
 74
     1
 91
        4
 64
     7
 65
   257
 75
     1
175
     1
 42
1.0
 92
        0
 66
   257
 43
1.0
 76
     1
 77
     6
 78
     2
 67
     7
 79
     5
170
     0
171
     0
290
     0
174
     0
 93
       13
 44
0.0
173
     0
291
     1
 45
0.0
1001
ACAD
1000
AcDbSavedByObjectVersion
1070
     0
  0
VISUALSTYLE
  5
38
102
{ACAD_REACTORS
330
2A
102
}
330
2A
100
AcDbVisualStyle
  2
Linepattern
 70
    14
 71
     2
 72
     2
 73
     0
 90
        0
 40
-0.6
 41
-30.0
 62
     5
 63
     7
421
 16777215
 74
     1
 91
        4
 64
     7
 65
   257
 75
     7
175
     7
 42
1.0
 92
        8
 66
     7
 43
1.0
 76
     1
 77
     6
 78
     2
 67
     7
 79
     5
170
     0
171
     0
290
     0
174
     0
 93
        1
 44
0.0
173
     0
291
     1
 45
0.0
1001
ACAD
1000
AcDbSavedByObjectVersion
1070
     0
  0
VISUALSTYLE
  5
33
102
{ACAD_REACTORS
330
2A
102
}
330
2A
100
AcDbVisualStyle
  2
Realistic
 70
     8
 71
     2
 72
     2
 73
     0
 90
        0
 40
-0.6
 41
-30.0
 62
     5
 63
     7
421
 16777215
 74
     1
 91
        0
 64
     7
 65
   257
 75
     1
175
     1
 42
1.0
 92
        8
 66
     8
424
  7895160
 43
1.0
 76
     1
 77
     6
 78
     2
 67
     7
 79
     5
170
     0
171
     0
290
     0
174
     0
 93
       13
 44
0.0
173
     0
291
     0
 45
0.0
1001
ACAD
1000
AcDbSavedByObjectVersion
1070
     0
  0
VISUALSTYLE
  5
37
102
{ACAD_REACTORS
330
2A
102
}
330
2A
100
AcDbVisualStyle
  2
Thicken
 70
    13
 71
     2
 72
     2
 73
     0
 90
        0
 40
-0.6
 41
-30.0
 62
     5
 63
     7
421
 16777215
 74
     1
 91
        4
 64
     7
 65
   257
 75
     1
175
     1
 42
1.0
 92
       12
 66
     7
 43
1.0
 76
     1
 77
     6
 78
     2
 67
     7
 79
     5
170
     0
171
     0
290
     0
174
     0
 93
        1
 44
0.0
173
     0
291
     1
 45
0.0
1001
ACAD
1000
AcDbSavedByObjectVersion
1070
     0
  0
ENDSEC
  0
EOF
